999
DXF file: C:\Users\sesa63760\Dev\_Creo\CAD\MCADID0002664_3D-CAD\drw0001_1.dxf
999
Pro/ENGINEER 2019471 by Parametric Technology Corporation
  0
SECTION
  2
HEADER
  9
$ACADVER
  1
AC1024
  9
$DWGCODEPAGE
  3
ANSI_1252
  9
$EXTMAX
 10
62.042843198
 20
87.7463068086
 30
0.0
  9
$EXTMIN
 10
0.0
 20
0.0
 30
0.0
  9
$LIMMIN
 10
0.0
 20
0.0
  9
$LIMMAX
 10
62.042843198
 20
87.7463068086
  9
$VIEWCTR
 10
31.021421599
 20
43.8731534043
  9
$VIEWSIZE
 40
87.7463068086
  9
$CLAYER
  8
0
  9
$LTSCALE
 40
5.7197592586
  9
$CELTYPE
  6
BYLAYER
  9
$DIMSCALE
 40
1.0
  9
$DIMASZ
 40
0.7386052762
  9
$DIMEXO
 40
1.0
  9
$DIMDLI
 40
3.9518336696
  9
$DIMEXE
 40
1.0
  9
$DIMCEN
 40
0.935960606
  9
$DIMLFAC
 40
1.0
  9
$DIMBLK
  1
_FILLED
  9
$DIMALT
 70
0
  9
$DIMALTF
 40
0.0393700787
  9
$DIMTXT
 40
1.0340473866
  9
$DIMTOL
 70
1
  9
$DIMLIM
 70
0
  9
$DIMTFAC
 40
1.0
  9
$DIMTP
 40
0.01
  9
$DIMTM
 40
0.01
  9
$DIMGAP
 40
0.625
  9
$DIMDSEP
 70
46
  9
$AUNITS
 70
0
  9
$PDMODE
 70
3
  9
$PDSIZE
 40
0.3125
  9
$HANDSEED
  5
24A
  9
$TILEMODE
 70
1
  9
$MEASUREMENT
 70
1
  9
$INSUNITS
 70
4
  0
ENDSEC
  0
SECTION
  2
CLASSES
  0
CLASS
  1
ACDBDICTIONARYWDFLT
  2
AcDbDictionaryWithDefault
  3
AutoCAD 2000
 90
0
 91
1
280
0
281
0
  0
CLASS
  1
ACDBPLACEHOLDER
  2
AcDbPlaceHolder
  3
AutoCAD 2000
 90
0
 91
1
280
0
281
0
  0
CLASS
  1
LAYOUT
  2
AcDbLayout
  3
AutoCAD 2000
 90
0
 91
0
280
0
281
0
  0
ENDSEC
  0
SECTION
  2
TABLES
  0
TABLE
  2
VPORT
  5
8
100
AcDbSymbolTable
 70
2
  0
VPORT
  5
1F4
100
AcDbSymbolTableRecord
100
AcDbViewportTableRecord
  2
*ACTIVE
 70
0
 10
0.0
 20
0.0
 11
1.0
 21
1.0
 12
31.021421599
 22
43.8731534043
 13
0.0
 23
0.0
 14
1.0
 24
1.0
 15
0.0
 25
0.0
 16
0.0
 26
0.0
 36
1.0
 17
0.0
 27
0.0
 37
0.0
 40
87.7463068086
 41
0.7070707071
 42
50.0
 43
0.0
 44
0.0
 50
0.0
 51
0.0
 71
0
 72
100
 73
1
 74
1
 75
0
 76
0
 77
0
 78
0
  0
ENDTAB
  0
TABLE
  2
LTYPE
  5
5
100
AcDbSymbolTable
 70
6
  0
LTYPE
  5
14
100
AcDbSymbolTableRecord
100
AcDbLinetypeTableRecord
  2
BYBLOCK
 70
0
  3

 72
65
 73
0
 40
0.0
  0
LTYPE
  5
15
100
AcDbSymbolTableRecord
100
AcDbLinetypeTableRecord
  2
BYLAYER
 70
0
  3

 72
65
 73
0
 40
0.0
  0
LTYPE
  5
16
100
AcDbSymbolTableRecord
100
AcDbLinetypeTableRecord
  2
CONTINUOUS
 70
64
  3
Solid line
 72
65
 73
0
 40
0.0
  0
LTYPE
  5
1F5
100
AcDbSymbolTableRecord
100
AcDbLinetypeTableRecord
  2
CENTER
 70
64
  3
____ _ ____ _ ____ _ ____ _ ____ _ ____ _ ____
 72
65
 73
4
 40
0.6
 49
0.375
 74
0
 49
-0.075
 74
0
 49
0.075
 74
0
 49
-0.075
 74
0
  0
LTYPE
  5
1F6
100
AcDbSymbolTableRecord
100
AcDbLinetypeTableRecord
  2
HIDDEN
 70
64
  3
- - - - - - - - - - - - - - - - - - - -
 72
65
 73
2
 40
0.2
 49
0.1
 74
0
 49
-0.1
 74
0
  0
LTYPE
  5
1F7
100
AcDbSymbolTableRecord
100
AcDbLinetypeTableRecord
  2
PHANTOM
 70
64
  3
_____ _ _ _____ _ _ _____ _ _ _____
 72
65
 73
6
 40
0.8
 49
0.45
 74
0
 49
-0.05
 74
0
 49
0.1
 74
0
 49
-0.05
 74
0
 49
0.1
 74
0
 49
-0.05
 74
0
  0
LTYPE
  5
1F8
100
AcDbSymbolTableRecord
100
AcDbLinetypeTableRecord
  2
DOT
 70
64
  3
. . . . . . . . . . . . . . . . . . . .
 72
65
 73
2
 40
0.2
 49
0.1
 74
0
 49
-0.1
 74
0
  0
LTYPE
  5
1F9
100
AcDbSymbolTableRecord
100
AcDbLinetypeTableRecord
  2
DASHED
 70
64
  3
- - - - - - - - - - - - - - - - - - - -
 72
65
 73
2
 40
0.2
 49
0.1
 74
0
 49
-0.1
 74
0
  0
ENDTAB
  0
TABLE
  2
LAYER
  5
2
100
AcDbSymbolTable
 70
36
  0
LAYER
  5
10
100
AcDbSymbolTableRecord
100
AcDbLayerTableRecord
  2
0
 70
0
 62
7
  6
CONTINUOUS
370
-3
390
F
  0
LAYER
  5
1FA
100
AcDbSymbolTableRecord
100
AcDbLayerTableRecord
  2
DEFAULT_1
 70
0
 62
7
  6
CENTER
370
-3
390
F
  0
LAYER
  5
1FB
100
AcDbSymbolTableRecord
100
AcDbLayerTableRecord
  2
DEFAULT_2
 70
0
 62
7
  6
HIDDEN
370
-3
390
F
  0
LAYER
  5
1FC
100
AcDbSymbolTableRecord
100
AcDbLayerTableRecord
  2
DEFAULT_3
 70
0
 62
7
  6
PHANTOM
370
-3
390
F
  0
LAYER
  5
1FD
100
AcDbSymbolTableRecord
100
AcDbLayerTableRecord
  2
00_COMPONENTS
 70
0
 62
7
  6
CONTINUOUS
370
-3
390
F
  0
LAYER
  5
1FE
100
AcDbSymbolTableRecord
100
AcDbLayerTableRecord
  2
01_1_DEFAULT_DATUMS
 70
0
 62
7
  6
CONTINUOUS
370
-3
390
F
  0
LAYER
  5
1FF
100
AcDbSymbolTableRecord
100
AcDbLayerTableRecord
  2
01_PLANES
 70
0
 62
7
  6
CONTINUOUS
370
-3
390
F
  0
LAYER
  5
200
100
AcDbSymbolTableRecord
100
AcDbLayerTableRecord
  2
02_COORD_SYS
 70
0
 62
7
  6
CONTINUOUS
370
-3
390
F
  0
LAYER
  5
201
100
AcDbSymbolTableRecord
100
AcDbLayerTableRecord
  2
03_AXES
 70
0
 62
7
  6
CONTINUOUS
370
-3
390
F
  0
LAYER
  5
202
100
AcDbSymbolTableRecord
100
AcDbLayerTableRecord
  2
04_POINTS
 70
0
 62
7
  6
CONTINUOUS
370
-3
390
F
  0
LAYER
  5
203
100
AcDbSymbolTableRecord
100
AcDbLayerTableRecord
  2
05_CURVES
 70
0
 62
7
  6
CONTINUOUS
370
-3
390
F
  0
LAYER
  5
204
100
AcDbSymbolTableRecord
100
AcDbLayerTableRecord
  2
06_SURFS
 70
0
 62
7
  6
CONTINUOUS
370
-3
390
F
  0
LAYER
  5
205
100
AcDbSymbolTableRecord
100
AcDbLayerTableRecord
  2
07_COSMETICS
 70
0
 62
7
  6
CONTINUOUS
370
-3
390
F
  0
LAYER
  5
206
100
AcDbSymbolTableRecord
100
AcDbLayerTableRecord
  2
10_NOTES
 70
0
 62
7
  6
CONTINUOUS
370
-3
390
F
  0
LAYER
  5
207
100
AcDbSymbolTableRecord
100
AcDbLayerTableRecord
  2
11_NOTES_PUB
 70
0
 62
7
  6
CONTINUOUS
370
-3
390
F
  0
LAYER
  5
208
100
AcDbSymbolTableRecord
100
AcDbLayerTableRecord
  2
13_REF_GTOL
 70
0
 62
7
  6
CONTINUOUS
370
-3
390
F
  0
LAYER
  5
209
100
AcDbSymbolTableRecord
100
AcDbLayerTableRecord
  2
16_MISC
 70
0
 62
7
  6
CONTINUOUS
370
-3
390
F
  0
LAYER
  5
20A
100
AcDbSymbolTableRecord
100
AcDbLayerTableRecord
  2
17_NO_PRINT
 70
0
 62
7
  6
CONTINUOUS
370
-3
390
F
  0
LAYER
  5
20B
100
AcDbSymbolTableRecord
100
AcDbLayerTableRecord
  2
18_DATUM_CAMS_JOINTS
 70
0
 62
7
  6
CONTINUOUS
370
-3
390
F
  0
LAYER
  5
20C
100
AcDbSymbolTableRecord
100
AcDbLayerTableRecord
  2
19_DATUM_FUNCTIONAL
 70
0
 62
7
  6
CONTINUOUS
370
-3
390
F
  0
LAYER
  5
20D
100
AcDbSymbolTableRecord
100
AcDbLayerTableRecord
  2
20_DATUM_KINEMATIC_SCHEME
 70
0
 62
7
  6
CONTINUOUS
370
-3
390
F
  0
ENDTAB
  0
TABLE
  2
STYLE
  5
3
100
AcDbSymbolTable
 70
1
  0
STYLE
  5
11
100
AcDbSymbolTableRecord
100
AcDbTextStyleTableRecord
  2
STANDARD
 70
0
 40
0.0
 41
1.0
 50
0.0
 71
0
 42
0.2
  3
ARIAL.TTF
  4

  0
STYLE
  5
20E
100
AcDbSymbolTableRecord
100
AcDbTextStyleTableRecord
  2
TEXTSTYLE_1
 70
0
 40
0.0
 41
0.8
 50
0.0
 71
0
 42
0.2
  3
gdt
  4

  0
ENDTAB
  0
TABLE
  2
VIEW
  5
6
100
AcDbSymbolTable
 70
0
  0
ENDTAB
  0
TABLE
  2
UCS
  5
7
100
AcDbSymbolTable
 70
0
  0
ENDTAB
  0
TABLE
  2
APPID
  5
9
100
AcDbSymbolTable
 70
1
  0
APPID
  5
20F
100
AcDbSymbolTableRecord
100
AcDbRegAppTableRecord
  2
ACAD
 70
0
  0
ENDTAB
  0
TABLE
  2
BLOCK_RECORD
  5
1
100
AcDbSymbolTable
 70
0
  0
BLOCK_RECORD
  5
210
100
AcDbSymbolTableRecord
100
AcDbBlockTableRecord
  2
*Model_Space
  0
BLOCK_RECORD
  5
211
100
AcDbSymbolTableRecord
100
AcDbBlockTableRecord
  2
*Paper_Space
  0
BLOCK_RECORD
  5
212
100
AcDbSymbolTableRecord
100
AcDbBlockTableRecord
  2
_FILLED
  0
ENDTAB
  0
TABLE
  2
DIMSTYLE
  5
A
100
AcDbSymbolTable
 70
1
100
AcDbDimStyleTable
 71
0
  0
DIMSTYLE
105
213
100
AcDbSymbolTableRecord
100
AcDbDimStyleTableRecord
  2
STANDARD
 70
0
  3

  4

 40
1.0
 41
0.7386052762
 42
1.0
 43
0.38
 44
1.0
 45
0.0
 46
0.0
 47
0.01
 48
0.01
140
1.0340473866
141
0.09
142
0.0
143
25.4
144
1.0
145
0.0
146
1.0
147
0.625
 71
1
 72
0
 73
0
 74
0
 75
0
 76
0
 77
1
 78
8
 79
2
170
0
171
1
172
0
173
0
174
0
175
0
176
0
177
0
178
0
270
2
179
2
271
2
272
2
273
2
274
2
275
0
280
0
281
0
282
0
283
1
284
8
285
0
286
0
287
3
288
0
340
11
278
46
341
212
342
212
343
212
344
212
  0
ENDTAB
  0
ENDSEC
  0
SECTION
  2
BLOCKS
  0
BLOCK
  5
20
100
AcDbEntity
  8
0
100
AcDbBlockBegin
  2
*Model_Space
 70
0
 10
0.0
 20
0.0
 30
0.0
  3
*Model_Space
  1

  0
ENDBLK
  5
21
100
AcDbEntity
  8
0
100
AcDbBlockEnd
  0
BLOCK
  5
1C
100
AcDbEntity
  8
0
100
AcDbBlockBegin
  2
*Paper_Space
 70
0
 10
0.0
 20
0.0
 30
0.0
  3
*Paper_Space
  1

  0
ENDBLK
  5
1D
100
AcDbEntity
  8
0
100
AcDbBlockEnd
  0
BLOCK
  5
214
100
AcDbEntity
  8
0
100
AcDbBlockBegin
  2
_FILLED
 70
64
 10
0.0
 20
0.0
  3
_FILLED
  1

  0
SOLID
  5
215
100
AcDbEntity
  8
0
  6
BYBLOCK
 62
0
100
AcDbTrace
 10
0.0
 20
0.0
 11
-1.0
 21
0.25
 12
-1.0
 22
-0.25
 13
-1.0
 23
-0.25
  0
ENDBLK
  5
216
100
AcDbEntity
  8
0
  6
BYBLOCK
 62
0
100
AcDbBlockEnd
  0
ENDSEC
  0
SECTION
  2
ENTITIES
  0
LINE
  5
217
100
AcDbEntity
  8
0
100
AcDbLine
 62
7
  6
BYLAYER
 10
7.1890889932
 20
29.4419850444
 11
7.1890889932
 21
33.5898173234
  0
LINE
  5
218
100
AcDbEntity
  8
0
100
AcDbLine
 62
7
  6
BYLAYER
 10
15.1021413835
 20
27.8336922548
 11
15.1021413835
 21
31.0741862228
  0
LINE
  5
219
100
AcDbEntity
  8
0
100
AcDbLine
 62
7
  6
BYLAYER
 10
16.7140889932
 20
33.1361481679
 11
16.7140889932
 21
33.5898173234
  0
LINE
  5
21A
100
AcDbEntity
  8
0
100
AcDbLine
 62
7
  6
BYLAYER
 10
37.8481346735
 20
55.8617862529
 11
34.0939928899
 21
53.4047481005
  0
LINE
  5
21B
100
AcDbEntity
  8
0
100
AcDbLine
 62
7
  6
BYLAYER
 10
32.7787036807
 20
50.9236610218
 11
10.1179477126
 21
36.0924838351
  0
LINE
  5
21C
100
AcDbEntity
  8
0
100
AcDbLine
 62
7
  6
BYLAYER
 10
34.0939928899
 20
53.4047481005
 11
32.7787036807
 21
50.9236610218
  0
LINE
  5
21D
100
AcDbEntity
  8
0
100
AcDbLine
 62
7
  6
BYLAYER
 10
34.7755774133
 20
53.8508365208
 11
34.7755558769
 21
56.8373058871
  0
LINE
  5
21E
100
AcDbEntity
  8
0
100
AcDbLine
 62
7
  6
BYLAYER
 10
44.251761163
 20
47.5402905254
 11
53.1233845742
 21
52.0585949267
  0
LINE
  5
21F
100
AcDbEntity
  8
0
100
AcDbLine
 62
7
  6
BYLAYER
 10
15.1021413835
 20
31.0741862228
 11
42.7607320183
 21
45.1606646505
  0
LINE
  5
220
100
AcDbEntity
  8
0
100
AcDbLine
 62
7
  6
BYLAYER
 10
44.251761163
 20
41.0593025895
 11
42.7607320183
 21
41.9201706825
  0
LINE
  5
221
100
AcDbEntity
  8
0
100
AcDbLine
 62
7
  6
BYLAYER
 10
38.7443058768
 20
60.077828475
 11
38.7443309925
 21
56.5950127667
  0
LINE
  5
222
100
AcDbEntity
  8
0
100
AcDbLine
 62
7
  6
BYLAYER
 10
42.7607320183
 20
41.9201706825
 11
15.1021413835
 21
27.8336922548
  0
LINE
  5
223
100
AcDbEntity
  8
0
100
AcDbLine
 62
7
  6
BYLAYER
 10
42.7607320183
 20
45.1606646505
 11
32.7787036807
 21
50.9236610218
  0
LINE
  5
224
100
AcDbEntity
  8
0
100
AcDbLine
 62
7
  6
BYLAYER
 10
42.3164041825
 20
55.4951981065
 11
42.3526162584
 21
55.8617970803
  0
LINE
  5
225
100
AcDbEntity
  8
0
100
AcDbLine
 62
7
  6
BYLAYER
 10
42.7607320183
 20
45.1606646505
 11
44.251761163
 21
47.5402905254
  0
LINE
  5
226
100
AcDbEntity
  8
0
100
AcDbLine
 62
7
  6
BYLAYER
 10
53.1233845742
 20
45.5776069908
 11
44.251761163
 21
41.0593025895
  0
LINE
  5
227
100
AcDbEntity
  8
0
100
AcDbLine
 62
7
  6
BYLAYER
 10
44.251761163
 20
47.5402905254
 11
34.0939928899
 21
53.4047481005
  0
LINE
  5
228
100
AcDbEntity
  8
0
100
AcDbLine
 62
7
  6
BYLAYER
 10
42.3526162584
 20
55.3388864718
 11
42.3526162584
 21
55.8617970803
  0
LINE
  5
229
100
AcDbEntity
  8
0
100
AcDbLine
 62
7
  6
BYLAYER
 10
42.6529838867
 20
56.5950221619
 11
42.6529838867
 21
54.4852969917
  0
LINE
  5
22A
100
AcDbEntity
  8
0
100
AcDbLine
 62
7
  6
BYLAYER
 10
42.3526162584
 20
55.8617970803
 11
37.8481346735
 21
55.8617862529
  0
LINE
  5
22B
100
AcDbEntity
  8
0
100
AcDbLine
 62
7
  6
BYLAYER
 10
38.7443309925
 20
56.5950127667
 11
42.6529838867
 21
56.5950221619
  0
LINE
  5
22C
100
AcDbEntity
  8
0
100
AcDbLine
 62
7
  6
BYLAYER
 10
47.8724308767
 20
60.0778504163
 11
38.7443058768
 21
60.077828475
  0
LINE
  5
22D
100
AcDbEntity
  8
0
100
AcDbLine
 62
7
  6
BYLAYER
 10
53.1233845742
 20
52.0585949267
 11
53.1233845742
 21
45.5776069908
  0
LINE
  5
22E
100
AcDbEntity
  8
0
100
AcDbLine
 62
7
  6
BYLAYER
 10
55.8099639237
 20
49.0142102326
 11
55.8099639237
 21
55.4951981686
  0
SPLINE
  5
22F
100
AcDbEntity
  8
0
100
AcDbSpline
 62
7
  6
BYLAYER
 70
0
 71
3
 72
15
 73
11
 74
0
 42
0.0000001
 43
0.0000001
 44
0.0000000001
 40
0.0
 40
0.0
 40
0.0
 40
0.0
 40
0.1504067762
 40
0.2928922495
 40
0.4271061924
 40
0.5533506916
 40
0.6723565872
 40
0.7852880272
 40
0.8938066061
 40
1.0
 40
1.0
 40
1.0
 40
1.0
 10
8.801036603
 20
35.6517792685
 30
0.0
 10
8.6781476026
 20
35.5891920863
 30
0.0
 10
8.4438130873
 20
35.4571372765
 30
0.0
 10
8.1219150841
 20
35.2329779919
 30
0.0
 10
7.8425084583
 20
34.9900200408
 30
0.0
 10
7.6088023993
 20
34.7309688131
 30
0.0
 10
7.4235280722
 20
34.4584105158
 30
0.0
 10
7.2890424748
 20
34.1751667168
 30
0.0
 10
7.207421938
 20
33.8845161545
 30
0.0
 10
7.189101259
 20
33.6871867494
 30
0.0
 10
7.189110195
 20
33.58981738
 30
0.0
  0
SPLINE
  5
230
100
AcDbEntity
  8
0
100
AcDbSpline
 62
7
  6
BYLAYER
 70
0
 71
3
 72
21
 73
17
 74
0
 42
0.0000001
 43
0.0000001
 44
0.0000000001
 40
0.0
 40
0.0
 40
0.0
 40
0.0
 40
0.0623823034
 40
0.1287904191
 40
0.1984100425
 40
0.2704133091
 40
0.4174534065
 40
0.561684039
 40
0.6303103354
 40
0.6954274273
 40
0.7564007042
 40
0.8128614071
 40
0.8647861236
 40
0.9125803634
 40
0.9571743871
 40
1.0
 40
1.0
 40
1.0
 40
1.0
 10
13.4670135229
 20
32.7149063564
 30
0.0
 10
13.3900502029
 20
32.6704718281
 30
0.0
 10
13.2250072813
 20
32.5891491346
 30
0.0
 10
12.9588466217
 20
32.4926331707
 30
0.0
 10
12.671137484
 20
32.4196101596
 30
0.0
 10
12.2645145086
 20
32.3552019461
 30
0.0
 10
11.7446099985
 20
32.3408880555
 30
0.0
 10
11.2340370058
 20
32.4124898427
 30
0.0
 10
10.8529764814
 20
32.5222939984
 30
0.0
 10
10.5951607189
 20
32.6261408261
 30
0.0
 10
10.366134055
 20
32.7507203225
 30
0.0
 10
10.1706682294
 20
32.8935601602
 30
0.0
 10
10.012894007
 20
33.051952111
 30
0.0
 10
9.8965418892
 20
33.2231676352
 30
0.0
 10
9.8247749832
 20
33.4037370775
 30
0.0
 10
9.8084874634
 20
33.52880821
 30
0.0
 10
9.8084767245
 20
33.5898173199
 30
0.0
  0
SPLINE
  5
231
100
AcDbEntity
  8
0
100
AcDbSpline
 62
7
  6
BYLAYER
 70
0
 71
3
 72
11
 73
7
 74
0
 42
0.0000001
 43
0.0000001
 44
0.0000000001
 40
0.0
 40
0.0
 40
0.0
 40
0.0
 40
0.2434707804
 40
0.4897580852
 40
0.7413242305
 40
1.0
 40
1.0
 40
1.0
 40
1.0
 10
34.7755854002
 20
56.8373058811
 30
0.0
 10
34.7755838226
 20
57.004012563
 30
0.0
 10
34.8075495832
 20
57.3401922806
 30
0.0
 10
34.9498516943
 20
57.8303271831
 30
0.0
 10
35.1826767966
 20
58.2960036622
 30
0.0
 10
35.3912601047
 20
58.5786344597
 30
0.0
 10
35.5074312032
 20
58.7123316834
 30
0.0
  0
SPLINE
  5
232
100
AcDbEntity
  8
0
100
AcDbSpline
 62
7
  6
BYLAYER
 70
0
 71
3
 72
12
 73
8
 74
0
 42
0.0000001
 43
0.0000001
 44
0.0000000001
 40
0.0
 40
0.0
 40
0.0
 40
0.0
 40
0.1168245098
 40
0.2365043502
 40
0.4836062456
 40
0.7394027892
 40
1.0
 40
1.0
 40
1.0
 40
1.0
 10
35.5074312032
 20
58.7123316834
 30
0.0
 10
35.5997475159
 20
58.8185752746
 30
0.0
 10
35.8004435044
 20
59.0220579767
 30
0.0
 10
36.2568550685
 20
59.385944324
 30
0.0
 10
36.9203877726
 20
59.7497167205
 30
0.0
 10
37.8064089415
 20
60.0174339477
 30
0.0
 10
38.4303431747
 20
60.0778277203
 30
0.0
 10
38.7443058768
 20
60.077828475
 30
0.0
  0
SPLINE
  5
233
100
AcDbEntity
  8
0
100
AcDbSpline
 62
7
  6
BYLAYER
 70
0
 71
3
 72
14
 73
10
 74
0
 42
0.0000001
 43
0.0000001
 44
0.0000000001
 40
0.0
 40
0.0
 40
0.0
 40
0.0
 40
0.1080578565
 40
0.2181535591
 40
0.3321482368
 40
0.4515527543
 40
0.7103676353
 40
0.851407415
 40
1.0
 40
1.0
 40
1.0
 40
1.0
 10
53.4287073969
 20
55.495198168
 30
0.0
 10
53.4287083349
 20
55.3900149424
 30
0.0
 10
53.4104061226
 20
55.1772418345
 30
0.0
 10
53.3289331522
 20
54.8629448746
 30
0.0
 10
53.194275642
 20
54.5554368731
 30
0.0
 10
52.9397664828
 20
54.1478726251
 30
0.0
 10
52.5876515422
 20
53.7773670055
 30
0.0
 10
52.1651372335
 20
53.4504942171
 30
0.0
 10
51.9266041069
 20
53.2992299629
 30
0.0
 10
51.801342334
 20
53.2269104763
 30
0.0
  0
SPLINE
  5
234
100
AcDbEntity
  8
0
100
AcDbSpline
 62
7
  6
BYLAYER
 70
0
 71
3
 72
11
 73
7
 74
0
 42
0.0000001
 43
0.0000001
 44
0.0000000001
 40
0.0
 40
0.0
 40
0.0
 40
0.0
 40
0.2367282537
 40
0.482717807
 40
0.7375868048
 40
1.0
 40
1.0
 40
1.0
 40
1.0
 10
35.2668201388
 20
54.1828760505
 30
0.0
 10
35.3893979967
 20
54.3648790142
 30
0.0
 10
35.6793608831
 20
54.7103187781
 30
0.0
 10
36.2138442269
 20
55.1425581101
 30
0.0
 10
36.836861065
 20
55.4849691883
 30
0.0
 10
37.2919374743
 20
55.6436855515
 30
0.0
 10
37.5271678666
 20
55.705592876
 30
0.0
  0
SPLINE
  5
235
100
AcDbEntity
  8
0
100
AcDbSpline
 62
7
  6
BYLAYER
 70
0
 71
3
 72
9
 73
5
 74
0
 42
0.0000001
 43
0.0000001
 44
0.0000000001
 40
0.0
 40
0.0
 40
0.0
 40
0.0
 40
0.2441542994
 40
1.0
 40
1.0
 40
1.0
 40
1.0
 10
53.8249641626
 20
45.9826617372
 30
0.0
 10
53.7697828139
 20
45.9465462448
 30
0.0
 10
53.541624945
 20
45.8019209056
 30
0.0
 10
53.3053126411
 20
45.6702626805
 30
0.0
 10
53.1233845742
 20
45.5776069908
 30
0.0
  0
SPLINE
  5
236
100
AcDbEntity
  8
0
100
AcDbSpline
 62
7
  6
BYLAYER
 70
0
 71
3
 72
20
 73
16
 74
0
 42
0.0000001
 43
0.0000001
 44
0.0000000001
 40
0.0
 40
0.0
 40
0.0
 40
0.0
 40
0.0450601399
 40
0.0909694901
 40
0.1385015927
 40
0.1882948266
 40
0.2408251959
 40
0.2964030922
 40
0.3551801032
 40
0.4171758289
 40
0.4822860416
 40
0.5503154485
 40
0.6938672081
 40
0.8449613944
 40
1.0
 40
1.0
 40
1.0
 40
1.0
 10
55.809953681
 20
55.4951981597
 30
0.0
 10
55.8099440049
 20
55.6454662243
 30
0.0
 10
55.7838342097
 20
55.9494414772
 30
0.0
 10
55.6673756158
 20
56.3984323165
 30
0.0
 10
55.4751065984
 20
56.8377457916
 30
0.0
 10
55.2094819445
 20
57.2629275345
 30
0.0
 10
54.8735235293
 20
57.6701669619
 30
0.0
 10
54.4706298822
 20
58.0557505718
 30
0.0
 10
54.0048427437
 20
58.4163549422
 30
0.0
 10
53.4805428543
 20
58.7485919713
 30
0.0
 10
52.9027780245
 20
59.0495826626
 30
0.0
 10
52.053274489
 20
59.4117219946
 30
0.0
 10
50.8922476025
 20
59.7646013024
 30
0.0
 10
49.4113842159
 20
60.0205125286
 30
0.0
 10
48.3894588158
 20
60.0778516591
 30
0.0
 10
47.8724308767
 20
60.0778504163
 30
0.0
  0
SPLINE
  5
237
100
AcDbEntity
  8
0
100
AcDbSpline
 62
7
  6
BYLAYER
 70
0
 71
3
 72
15
 73
11
 74
0
 42
0.0000001
 43
0.0000001
 44
0.0000000001
 40
0.0
 40
0.0
 40
0.0
 40
0.0
 40
0.1098666468
 40
0.2214942479
 40
0.336511806
 40
0.4562888183
 40
0.5819045848
 40
0.7141545992
 40
0.8535206067
 40
1.0
 40
1.0
 40
1.0
 40
1.0
 10
55.8099536956
 20
49.0142102246
 30
0.0
 10
55.8099626366
 20
48.8759531984
 30
0.0
 10
55.7878942855
 20
48.596749583
 30
0.0
 10
55.6894848924
 20
48.1832839202
 30
0.0
 10
55.526600132
 20
47.7772988913
 30
0.0
 10
55.301197074
 20
47.3822422506
 30
0.0
 10
55.0152508414
 20
47.0012622161
 30
0.0
 10
54.6713253757
 20
46.6371709664
 30
0.0
 10
54.2723350608
 20
46.292999141
 30
0.0
 10
53.9791981202
 20
46.083605905
 30
0.0
 10
53.8249641626
 20
45.9826617372
 30
0.0
  0
SPLINE
  5
238
100
AcDbEntity
  8
0
100
AcDbSpline
 62
7
  6
BYLAYER
 70
0
 71
3
 72
10
 73
6
 74
0
 42
0.0000001
 43
0.0000001
 44
0.0000000001
 40
0.0
 40
0.0
 40
0.0
 40
0.0
 40
0.4660415978
 40
0.7247433368
 40
1.0
 40
1.0
 40
1.0
 40
1.0
 10
16.3925636717
 20
28.4488793283
 30
0.0
 10
16.2462850037
 20
28.2308246303
 30
0.0
 10
15.9588216251
 20
27.9305450122
 30
0.0
 10
15.5023249131
 20
27.5998758439
 30
0.0
 10
15.240334446
 20
27.4504046173
 30
0.0
 10
15.1021413835
 20
27.3800230993
 30
0.0
  0
SPLINE
  5
239
100
AcDbEntity
  8
0
100
AcDbSpline
 62
7
  6
BYLAYER
 70
0
 71
3
 72
25
 73
21
 74
0
 42
0.0000001
 43
0.0000001
 44
0.0000000001
 40
0.0
 40
0.0
 40
0.0
 40
0.0
 40
0.0623743167
 40
0.1287254066
 40
0.1983107456
 40
0.2702873636
 40
0.3436633875
 40
0.4173938213
 40
0.4904172479
 40
0.5617032337
 40
0.630300388
 40
0.6953874614
 40
0.756334566
 40
0.8127718139
 40
0.8646729853
 40
0.9124481681
 40
0.935090445
 40
0.9570937353
 40
0.9786578092
 40
1.0
 40
1.0
 40
1.0
 40
1.0
 10
51.801342334
 20
53.2269104763
 30
0.0
 10
51.601745433
 20
53.1116738395
 30
0.0
 10
51.1739244649
 20
52.9007673404
 30
0.0
 10
50.4838602084
 20
52.6506803725
 30
0.0
 10
49.7380838472
 20
52.4613943217
 30
0.0
 10
48.9526695819
 20
52.336819147
 30
0.0
 10
48.1441828741
 20
52.2796672972
 30
0.0
 10
47.3299096956
 20
52.2911291619
 30
0.0
 10
46.5272084009
 20
52.3709461299
 30
0.0
 10
45.7531810075
 20
52.5174246326
 30
0.0
 10
45.0242739631
 20
52.7274744203
 30
0.0
 10
44.3559025199
 20
52.9967361371
 30
0.0
 10
43.7621109231
 20
53.319679379
 30
0.0
 10
43.2552987718
 20
53.6900085751
 30
0.0
 10
42.8463249891
 20
54.1005670254
 30
0.0
 10
42.5903352262
 20
54.4772625601
 30
0.0
 10
42.4476464695
 20
54.7882500587
 30
0.0
 10
42.3720099012
 20
55.0215454538
 30
0.0
 10
42.3263823605
 20
55.2576120236
 30
0.0
 10
42.3162511888
 20
55.4163383026
 30
0.0
 10
42.3162564805
 20
55.4951981098
 30
0.0
  0
SPLINE
  5
23A
100
AcDbEntity
  8
0
100
AcDbSpline
 62
7
  6
BYLAYER
 70
0
 71
3
 72
24
 73
20
 74
0
 42
0.0000001
 43
0.0000001
 44
0.0000000001
 40
0.0
 40
0.0
 40
0.0
 40
0.0
 40
0.0213192443
 40
0.0428547061
 40
0.0873069882
 40
0.134811959
 40
0.1862786792
 40
0.2421398286
 40
0.3024154674
 40
0.3667953009
 40
0.4347197676
 40
0.5054440154
 40
0.5780897283
 40
0.6516929494
 40
0.7252547689
 40
0.7977759063
 40
0.8682893002
 40
0.9359606458
 40
1.0
 40
1.0
 40
1.0
 40
1.0
 10
16.7140677915
 20
33.5898172668
 30
0.0
 10
16.7140617561
 20
33.6555817758
 30
0.0
 10
16.7057979404
 20
33.7879308626
 30
0.0
 10
16.6560311967
 20
34.0531862959
 30
0.0
 10
16.5289302937
 20
34.3830448088
 30
0.0
 10
16.2836573773
 20
34.7546422781
 30
0.0
 10
15.9506680511
 20
35.1002218149
 30
0.0
 10
15.5372763601
 20
35.4136242777
 30
0.0
 10
15.0518621785
 20
35.6893202822
 30
0.0
 10
14.5041023575
 20
35.9221865376
 30
0.0
 10
13.9049061877
 20
36.1077387322
 30
0.0
 10
13.2662688242
 20
36.2422914215
 30
0.0
 10
12.6010547317
 20
36.3231393045
 30
0.0
 10
11.9227052769
 20
36.348694959
 30
0.0
 10
11.2449295991
 20
36.3184232562
 30
0.0
 10
10.5814738924
 20
36.2329093577
 30
0.0
 10
9.9456158911
 20
36.093921794
 30
0.0
 10
9.350402138
 20
35.9041796988
 30
0.0
 10
8.9770669204
 20
35.7414312432
 30
0.0
 10
8.801036603
 20
35.6517792685
 30
0.0
  0
SPLINE
  5
23B
100
AcDbEntity
  8
0
100
AcDbSpline
 62
7
  6
BYLAYER
 70
0
 71
3
 72
13
 73
9
 74
0
 42
0.0000001
 43
0.0000001
 44
0.0000000001
 40
0.0
 40
0.0
 40
0.0
 40
0.0
 40
0.1080955595
 40
0.2182374817
 40
0.3322518011
 40
0.4516790163
 40
0.710657932
 40
1.0
 40
1.0
 40
1.0
 40
1.0
 10
14.094701262
 20
33.5898173269
 30
0.0
 10
14.0947084034
 20
33.5492458616
 30
0.0
 10
14.0876539273
 20
33.467167949
 30
0.0
 10
14.0561751823
 20
33.3459575517
 30
0.0
 10
14.0043154308
 20
33.227329645
 30
0.0
 10
13.9060800352
 20
33.0701093192
 30
0.0
 10
13.7316337213
 20
32.8866024647
 30
0.0
 10
13.561062853
 20
32.7692054383
 30
0.0
 10
13.4670135229
 20
32.7149063564
 30
0.0
  0
SPLINE
  5
23C
100
AcDbEntity
  8
0
100
AcDbSpline
 62
7
  6
BYLAYER
 70
0
 71
3
 72
24
 73
20
 74
0
 42
0.0000001
 43
0.0000001
 44
0.0000000001
 40
0.0
 40
0.0
 40
0.0
 40
0.0
 40
0.0640389188
 40
0.1317088761
 40
0.2022214754
 40
0.2747420053
 40
0.3483035586
 40
0.4219072068
 40
0.4945538748
 40
0.5652794299
 40
0.6332050494
 40
0.6975856465
 40
0.7578616134
 40
0.8137227335
 40
0.8651891116
 40
0.912693574
 40
0.9571454558
 40
0.9786807986
 40
1.0
 40
1.0
 40
1.0
 40
1.0
 10
15.1021413835
 20
27.3800230993
 30
0.0
 10
14.9261122638
 20
27.2903717345
 30
0.0
 10
14.5527827637
 20
27.1276242926
 30
0.0
 10
13.9575766581
 20
26.9378847166
 30
0.0
 10
13.32172747
 20
26.7988976686
 30
0.0
 10
12.6582774067
 20
26.7133803618
 30
0.0
 10
11.9805031499
 20
26.6831065427
 30
0.0
 10
11.3021501993
 20
26.7086608572
 30
0.0
 10
10.6369276652
 20
26.7895078353
 30
0.0
 10
9.9982794557
 20
26.9240604648
 30
0.0
 10
9.3990739128
 20
27.109616254
 30
0.0
 10
8.8513080049
 20
27.3424859049
 30
0.0
 10
8.3658915639
 20
27.6181846684
 30
0.0
 10
7.9525009603
 20
27.9315882573
 30
0.0
 10
7.6195145341
 20
28.2771670926
 30
0.0
 10
7.3742469245
 20
28.6487630054
 30
0.0
 10
7.2471454128
 20
28.9786180813
 30
0.0
 10
7.197382169
 20
29.2438723355
 30
0.0
 10
7.1891164333
 20
29.3762207223
 30
0.0
 10
7.1891100988
 20
29.4419850986
 30
0.0
  0
SPLINE
  5
23D
100
AcDbEntity
  8
0
100
AcDbSpline
 62
7
  6
BYLAYER
 70
0
 71
3
 72
21
 73
17
 74
0
 42
0.0000001
 43
0.0000001
 44
0.0000000001
 40
0.0
 40
0.0
 40
0.0
 40
0.0
 40
0.0551403472
 40
0.1110283408
 40
0.1681881736
 40
0.2270677797
 40
0.2878709583
 40
0.3506094442
 40
0.4807325796
 40
0.5476460261
 40
0.6150143522
 40
0.7485916387
 40
0.814033864
 40
0.8779061617
 40
0.9399294377
 40
1.0
 40
1.0
 40
1.0
 40
1.0
 10
35.5695357039
 20
58.7023424953
 30
0.0
 10
35.5716244666
 20
58.8397043927
 30
0.0
 10
35.6030262758
 20
59.1166024594
 30
0.0
 10
35.7297709132
 20
59.518510345
 30
0.0
 10
35.9328721167
 20
59.8983300598
 30
0.0
 10
36.2064863631
 20
60.2463334187
 30
0.0
 10
36.543628903
 20
60.5540851593
 30
0.0
 10
37.0717763335
 20
60.9047191876
 30
0.0
 10
37.6851476372
 20
61.1404349526
 30
0.0
 10
38.335755659
 20
61.2521090542
 30
0.0
 10
39.0040462515
 20
61.2792829622
 30
0.0
 10
39.6690765085
 20
61.1772897824
 30
0.0
 10
40.2849112326
 20
60.9495411056
 30
0.0
 10
40.706093215
 20
60.7225408735
 30
0.0
 10
41.0783514429
 20
60.4438837018
 30
0.0
 10
41.2912992515
 20
60.2244100298
 30
0.0
 10
41.3859499902
 20
60.1084804945
 30
0.0
  0
SPLINE
  5
23E
100
AcDbEntity
  8
0
100
AcDbSpline
 62
7
  6
BYLAYER
 70
0
 71
3
 72
15
 73
11
 74
0
 42
0.0000001
 43
0.0000001
 44
0.0000000001
 40
0.0
 40
0.0
 40
0.0
 40
0.0
 40
0.1464791933
 40
0.2858449585
 40
0.4180948651
 40
0.5437106529
 40
0.6634877314
 40
0.7785054084
 40
0.8901331614
 40
1.0
 40
1.0
 40
1.0
 40
1.0
 10
53.8249641626
 20
52.4636496732
 30
0.0
 10
53.9791979082
 20
52.5645937022
 30
0.0
 10
54.2723344576
 20
52.7739865189
 30
0.0
 10
54.6713242759
 20
53.1181578566
 30
0.0
 10
55.0152495433
 20
53.4822487024
 30
0.0
 10
55.3011960246
 20
53.863228521
 30
0.0
 10
55.526599288
 20
54.2582853304
 30
0.0
 10
55.689484574
 20
54.6642706143
 30
0.0
 10
55.7878939735
 20
55.0777368733
 30
0.0
 10
55.8099625837
 20
55.3569408934
 30
0.0
 10
55.809953681
 20
55.4951981597
 30
0.0
  0
SPLINE
  5
23F
100
AcDbEntity
  8
0
100
AcDbSpline
 62
7
  6
BYLAYER
 70
0
 71
3
 72
9
 73
5
 74
0
 42
0.0000001
 43
0.0000001
 44
0.0000000001
 40
0.0
 40
0.0
 40
0.0
 40
0.0
 40
0.2558729148
 40
1.0
 40
1.0
 40
1.0
 40
1.0
 10
53.1233845742
 20
52.0585949267
 30
0.0
 10
53.1849713029
 20
52.0899609547
 30
0.0
 10
53.4240968451
 20
52.2155825879
 30
0.0
 10
53.6567853392
 20
52.3535787677
 30
0.0
 10
53.8249641626
 20
52.4636496732
 30
0.0
  0
SPLINE
  5
240
100
AcDbEntity
  8
0
100
AcDbSpline
 62
7
  6
BYLAYER
 70
0
 71
3
 72
15
 73
11
 74
0
 42
0.0000001
 43
0.0000001
 44
0.0000000001
 40
0.0
 40
0.0
 40
0.0
 40
0.0
 40
0.1504067762
 40
0.2928922495
 40
0.4271061924
 40
0.5533506916
 40
0.6723565872
 40
0.7852880272
 40
0.8938066061
 40
1.0
 40
1.0
 40
1.0
 40
1.0
 10
15.1021413835
 20
31.5278553783
 30
0.0
 10
15.2250303839
 20
31.5904425606
 30
0.0
 10
15.4593648992
 20
31.7224973703
 30
0.0
 10
15.7812629024
 20
31.9466566549
 30
0.0
 10
16.0606695282
 20
32.189614606
 30
0.0
 10
16.2943755871
 20
32.4486658337
 30
0.0
 10
16.4796499143
 20
32.721224131
 30
0.0
 10
16.6141355117
 20
33.00446793
 30
0.0
 10
16.6957560485
 20
33.2951184924
 30
0.0
 10
16.7140767275
 20
33.4924478974
 30
0.0
 10
16.7140677915
 20
33.5898172668
 30
0.0
  0
SPLINE
  5
241
100
AcDbEntity
  8
0
100
AcDbSpline
 62
7
  6
BYLAYER
 70
0
 71
3
 72
15
 73
11
 74
0
 42
0.0000001
 43
0.0000001
 44
0.0000000001
 40
0.0
 40
0.0
 40
0.0
 40
0.0
 40
0.1061920193
 40
0.2147097984
 40
0.3276412481
 40
0.4466467224
 40
0.5728914243
 40
0.7071067477
 40
0.8495939118
 40
1.0
 40
1.0
 40
1.0
 40
1.0
 10
16.7140678877
 20
33.1361481137
 30
0.0
 10
16.7140772663
 20
33.038780029
 30
0.0
 10
16.6957530832
 20
32.8414531624
 30
0.0
 10
16.6141386312
 20
32.5508031438
 30
0.0
 10
16.4796500947
 20
32.2675619004
 30
0.0
 10
16.2943806099
 20
31.9950009127
 30
0.0
 10
16.060672642
 20
31.7359497661
 30
0.0
 10
15.7812650029
 20
31.4929886816
 30
0.0
 10
15.4593644604
 20
31.2688292769
 30
0.0
 10
15.225029791
 20
31.1367731031
 30
0.0
 10
15.1021413835
 20
31.0741862228
 30
0.0
  0
SPLINE
  5
242
100
AcDbEntity
  8
0
100
AcDbSpline
 62
7
  6
BYLAYER
 70
0
 71
3
 72
13
 73
9
 74
0
 42
0.0000001
 43
0.0000001
 44
0.0000000001
 40
0.0
 40
0.0
 40
0.0
 40
0.0
 40
0.1080955595
 40
0.2182374817
 40
0.3322518011
 40
0.4516790163
 40
0.710657932
 40
1.0
 40
1.0
 40
1.0
 40
1.0
 10
9.8084767245
 20
33.5898173199
 30
0.0
 10
9.808469583
 20
33.6303887852
 30
0.0
 10
9.8155240592
 20
33.7124666978
 30
0.0
 10
9.8470028041
 20
33.8336770951
 30
0.0
 10
9.8988625556
 20
33.9523050018
 30
0.0
 10
9.9970979513
 20
34.1095253277
 30
0.0
 10
10.1715442652
 20
34.2930321821
 30
0.0
 10
10.3421151334
 20
34.4104292085
 30
0.0
 10
10.4361644635
 20
34.4647282904
 30
0.0
  0
SPLINE
  5
243
100
AcDbEntity
  8
0
100
AcDbSpline
 62
7
  6
BYLAYER
 70
0
 71
3
 72
24
 73
20
 74
0
 42
0.0000001
 43
0.0000001
 44
0.0000000001
 40
0.0
 40
0.0
 40
0.0
 40
0.0
 40
0.0213192443
 40
0.0428547061
 40
0.0873069882
 40
0.134811959
 40
0.1862786792
 40
0.2421398286
 40
0.3024154674
 40
0.3667953009
 40
0.4347197676
 40
0.5054440154
 40
0.5780897283
 40
0.6516929494
 40
0.7252547689
 40
0.7977759063
 40
0.8682893002
 40
0.9359606458
 40
1.0
 40
1.0
 40
1.0
 40
1.0
 10
7.189110195
 20
33.58981738
 30
0.0
 10
7.1891162304
 20
33.524052871
 30
0.0
 10
7.1973800461
 20
33.3917037843
 30
0.0
 10
7.2471467897
 20
33.1264483509
 30
0.0
 10
7.3742476927
 20
32.796589838
 30
0.0
 10
7.6195206091
 20
32.4249923687
 30
0.0
 10
7.9525099354
 20
32.079412832
 30
0.0
 10
8.3659016264
 20
31.7660103692
 30
0.0
 10
8.851315808
 20
31.4903143646
 30
0.0
 10
9.399075629
 20
31.2574481092
 30
0.0
 10
9.9982717987
 20
31.0718959146
 30
0.0
 10
10.6369091622
 20
30.9373432253
 30
0.0
 10
11.3021232547
 20
30.8564953423
 30
0.0
 10
11.9804727095
 20
30.8309396878
 30
0.0
 10
12.6582483874
 20
30.8612113906
 30
0.0
 10
13.321704094
 20
30.9467252892
 30
0.0
 10
13.9575620954
 20
31.0857128528
 30
0.0
 10
14.5527758484
 20
31.275454948
 30
0.0
 10
14.9261110661
 20
31.4382034036
 30
0.0
 10
15.1021413835
 20
31.5278553783
 30
0.0
  0
SPLINE
  5
244
100
AcDbEntity
  8
0
100
AcDbSpline
 62
7
  6
BYLAYER
 70
0
 71
3
 72
15
 73
11
 74
0
 42
0.0000001
 43
0.0000001
 44
0.0000000001
 40
0.0
 40
0.0
 40
0.0
 40
0.0
 40
0.1353180894
 40
0.2693367263
 40
0.4007608311
 40
0.5286694787
 40
0.6524319356
 40
0.7719061083
 40
0.8874610252
 40
1.0
 40
1.0
 40
1.0
 40
1.0
 10
38.7443309925
 20
56.5950127667
 30
0.0
 10
38.5148430119
 20
56.5950122151
 30
0.0
 10
38.0574015969
 20
56.562601577
 30
0.0
 10
37.390962982
 20
56.418106191
 30
0.0
 10
36.7644371704
 20
56.1817205229
 30
0.0
 10
36.1966126308
 20
55.8604133854
 30
0.0
 10
35.7044644474
 20
55.4631894271
 30
0.0
 10
35.3030100745
 20
55.0013717636
 30
0.0
 10
35.0050207719
 20
54.4886567177
 30
0.0
 10
34.880657436
 20
54.1189240182
 30
0.0
 10
34.8392730848
 20
53.932608282
 30
0.0
  0
SPLINE
  5
245
100
AcDbEntity
  8
0
100
AcDbSpline
 62
7
  6
BYLAYER
 70
0
 71
3
 72
21
 73
17
 74
0
 42
0.0000001
 43
0.0000001
 44
0.0000000001
 40
0.0
 40
0.0
 40
0.0
 40
0.0
 40
0.0623823034
 40
0.1287904191
 40
0.1984100425
 40
0.2704133091
 40
0.4174534065
 40
0.561684039
 40
0.6303103354
 40
0.6954274273
 40
0.7564007042
 40
0.8128614071
 40
0.8647861236
 40
0.9125803634
 40
0.9571743871
 40
1.0
 40
1.0
 40
1.0
 40
1.0
 10
10.4361644635
 20
34.4647282904
 30
0.0
 10
10.5131277836
 20
34.5091628188
 30
0.0
 10
10.6781707051
 20
34.5904855122
 30
0.0
 10
10.9443313647
 20
34.6870014762
 30
0.0
 10
11.2320405025
 20
34.7600244872
 30
0.0
 10
11.6386634778
 20
34.8244327007
 30
0.0
 10
12.158567988
 20
34.8387465913
 30
0.0
 10
12.6691409806
 20
34.7671448041
 30
0.0
 10
13.050201505
 20
34.6573406485
 30
0.0
 10
13.3080172675
 20
34.5534938208
 30
0.0
 10
13.5370439315
 20
34.4289143243
 30
0.0
 10
13.7325097571
 20
34.2860744866
 30
0.0
 10
13.8902839795
 20
34.1276825358
 30
0.0
 10
14.0066360972
 20
33.9564670116
 30
0.0
 10
14.0784030032
 20
33.7758975693
 30
0.0
 10
14.0946905231
 20
33.6508264368
 30
0.0
 10
14.094701262
 20
33.5898173269
 30
0.0
  0
SPLINE
  5
246
100
AcDbEntity
  8
0
100
AcDbSpline
 62
7
  6
BYLAYER
 70
0
 71
3
 72
25
 73
21
 74
0
 42
0.0000001
 43
0.0000001
 44
0.0000000001
 40
0.0
 40
0.0
 40
0.0
 40
0.0
 40
0.0623731446
 40
0.1287280515
 40
0.1983142824
 40
0.2702923957
 40
0.3436690733
 40
0.4174005273
 40
0.4904262287
 40
0.5617140521
 40
0.6303116759
 40
0.6953989036
 40
0.7563464946
 40
0.8127840867
 40
0.8646840098
 40
0.9124580627
 40
0.9351030151
 40
0.9571079412
 40
0.9786682911
 40
1.0
 40
1.0
 40
1.0
 40
1.0
 10
43.9435855133
 20
57.7634858609
 30
0.0
 10
44.1431784776
 20
57.8787202246
 30
0.0
 10
44.5710107743
 20
58.0896244655
 30
0.0
 10
45.2610834796
 20
58.3397240109
 30
0.0
 10
46.0068827231
 20
58.5290116885
 30
0.0
 10
46.7923079004
 20
58.6535852139
 30
0.0
 10
47.6008064419
 20
58.7107274931
 30
0.0
 10
48.4150930592
 20
58.699257666
 30
0.0
 10
49.2178126728
 20
58.6194423724
 30
0.0
 10
49.9918558096
 20
58.4729553346
 30
0.0
 10
50.7207623343
 20
58.2628727218
 30
0.0
 10
51.3891312348
 20
57.9935977604
 30
0.0
 10
51.9829259751
 20
57.6706544568
 30
0.0
 10
52.489730966
 20
57.3003161072
 30
0.0
 10
52.8986665544
 20
56.889729614
 30
0.0
 10
53.1546343638
 20
56.5130208257
 30
0.0
 10
53.2973242266
 20
56.2020212625
 30
0.0
 10
53.3729348635
 20
55.968712495
 30
0.0
 10
53.4185019976
 20
55.7326868913
 30
0.0
 10
53.428706694
 20
55.5740191709
 30
0.0
 10
53.4287073969
 20
55.495198168
 30
0.0
  0
SPLINE
  5
247
100
AcDbEntity
  8
0
100
AcDbSpline
 62
7
  6
BYLAYER
 70
0
 71
3
 72
10
 73
6
 74
0
 42
0.0000001
 43
0.0000001
 44
0.0000000001
 40
0.0
 40
0.0
 40
0.0
 40
0.0
 40
0.4687024933
 40
0.7264785578
 40
1.0
 40
1.0
 40
1.0
 40
1.0
 10
42.6529838867
 20
56.5950221619
 30
0.0
 10
42.7994797496
 20
56.8267593533
 30
0.0
 10
43.085420406
 20
57.1502333234
 30
0.0
 10
43.5426566264
 20
57.5155414204
 30
0.0
 10
43.8050286894
 20
57.6834905188
 30
0.0
 10
43.9435855133
 20
57.7634858609
 30
0.0
  0
ENDSEC
  0
SECTION
  2
OBJECTS
  0
DICTIONARY
  5
C
100
AcDbDictionary
280
0
281
1
  3
ACAD_GROUP
350
D
  3
ACAD_MLINESTYLE
350
17
  3
ACAD_LAYOUT
350
1A
  3
ACAD_PLOTSETTINGS
350
19
  3
ACAD_PLOTSTYLENAME
350
E
  0
DICTIONARY
  5
D
102
{ACAD_REACTORS
330
C
102
}
100
AcDbDictionary
280
0
281
1
  0
ACDBDICTIONARYWDFLT
  5
E
102
{ACAD_REACTORS
330
C
102
}
100
AcDbDictionary
281
1
  3
Normal
350
F
100
AcDbDictionaryWithDefault
340
F
  0
DICTIONARY
  5
17
102
{ACAD_REACTORS
330
C
102
}
100
AcDbDictionary
280
0
281
1
  3
Standard
350
18
  0
DICTIONARY
  5
19
102
{ACAD_REACTORS
330
C
102
}
100
AcDbDictionary
281
1
  0
DICTIONARY
  5
1A
102
{ACAD_REACTORS
330
C
102
}
100
AcDbDictionary
281
1
  3
Model
350
248
  3
Layout1
350
249
  0
ACDBPLACEHOLDER
  5
F
102
{ACAD_REACTORS
330
E
102
}
  0
MLINESTYLE
  5
18
102
{ACAD_REACTORS
330
17
102
}
100
AcDbMlineStyle
  2
STANDARD
 70
0
  3

 62
256
 51
90.0
 52
90.0
 71
2
 49
0.5
 62
256
  6
BYLAYER
 49
-0.5
 62
256
  6
BYLAYER
  0
LAYOUT
  5
248
102
{ACAD_REACTORS
330
1A
102
}
100
AcDbPlotSettings
  1

  2
none_device
  4

  6

 40
0.0
 41
0.0
 42
0.0
 43
0.0
 44
210.0
 45
297.0
 46
0.0
 47
0.0
 48
0.0
 49
0.0
140
0.0
141
0.0
142
1.0
143
1.0
 70
1024
 72
1
 73
0
 74
0
  7

 75
0
147
1.0
148
0.0
149
0.0
100
AcDbLayout
  1
Model
 70
0
 71
0
 10
0.0
 20
0.0
 11
210.0
 21
297.0
 12
0.0
 22
0.0
 32
0.0
 14
0.0
 24
0.0
 34
0.0
 15
0.0
 25
0.0
 35
0.0
146
0.0
 13
0.0
 23
0.0
 33
0.0
 16
1.0
 26
0.0
 36
0.0
 17
0.0
 27
1.0
 37
0.0
 76
0
330
210
345
0
346
0
  0
LAYOUT
  5
249
102
{ACAD_REACTORS
330
1A
102
}
100
AcDbPlotSettings
  1

  2
none_device
  4

  6

 40
0.0
 41
0.0
 42
0.0
 43
0.0
 44
210.0
 45
297.0
 46
0.0
 47
0.0
 48
0.0
 49
0.0
140
0.0
141
0.0
142
1.0
143
1.0
 70
0
 72
1
 73
0
 74
0
  7

 75
0
147
1.0
148
0.0
149
0.0
100
AcDbLayout
  1
Layout1
 70
0
 71
1
 10
0.0
 20
0.0
 11
210.0
 21
297.0
 12
0.0
 22
0.0
 32
0.0
 14
0.0
 24
0.0
 34
0.0
 15
0.0
 25
0.0
 35
0.0
146
0.0
 13
0.0
 23
0.0
 33
0.0
 16
1.0
 26
0.0
 36
0.0
 17
0.0
 27
1.0
 37
0.0
 76
0
330
211
345
0
346
0
  0
ENDSEC
  0
EOF
