999
DXF file: C:\Users\sesa63760\Dev\_Creo\CAD\MCADID0002647_3D-CAD\drw0001_1.dxf
999
Pro/ENGINEER 2019471 by Parametric Technology Corporation
  0
SECTION
  2
HEADER
  9
$ACADVER
  1
AC1024
  9
$DWGCODEPAGE
  3
ANSI_1252
  9
$EXTMAX
 10
225.5599746609
 20
319.0062498776
 30
0.0
  9
$EXTMIN
 10
0.0
 20
0.0
 30
0.0
  9
$LIMMIN
 10
0.0
 20
0.0
  9
$LIMMAX
 10
225.5599746609
 20
319.0062498776
  9
$VIEWCTR
 10
112.7799873305
 20
159.5031249388
  9
$VIEWSIZE
 40
319.0062498776
  9
$CLAYER
  8
0
  9
$LTSCALE
 40
20.7944814735
  9
$CELTYPE
  6
BYLAYER
  9
$DIMSCALE
 40
1.0
  9
$DIMASZ
 40
2.6852377936
  9
$DIMEXO
 40
1.0
  9
$DIMDLI
 40
14.3670962908
  9
$DIMEXE
 40
1.0
  9
$DIMCEN
 40
3.402733332
  9
$DIMLFAC
 40
1.0
  9
$DIMBLK
  1
_FILLED
  9
$DIMALT
 70
0
  9
$DIMALTF
 40
0.0393700787
  9
$DIMTXT
 40
3.759332911
  9
$DIMTOL
 70
1
  9
$DIMLIM
 70
0
  9
$DIMTFAC
 40
1.0
  9
$DIMTP
 40
0.01
  9
$DIMTM
 40
0.01
  9
$DIMGAP
 40
0.625
  9
$DIMDSEP
 70
46
  9
$AUNITS
 70
0
  9
$PDMODE
 70
3
  9
$PDSIZE
 40
0.3125
  9
$HANDSEED
  5
33E
  9
$TILEMODE
 70
1
  9
$MEASUREMENT
 70
1
  9
$INSUNITS
 70
4
  0
ENDSEC
  0
SECTION
  2
CLASSES
  0
CLASS
  1
ACDBDICTIONARYWDFLT
  2
AcDbDictionaryWithDefault
  3
AutoCAD 2000
 90
0
 91
1
280
0
281
0
  0
CLASS
  1
ACDBPLACEHOLDER
  2
AcDbPlaceHolder
  3
AutoCAD 2000
 90
0
 91
1
280
0
281
0
  0
CLASS
  1
LAYOUT
  2
AcDbLayout
  3
AutoCAD 2000
 90
0
 91
0
280
0
281
0
  0
ENDSEC
  0
SECTION
  2
TABLES
  0
TABLE
  2
VPORT
  5
8
100
AcDbSymbolTable
 70
2
  0
VPORT
  5
1F4
100
AcDbSymbolTableRecord
100
AcDbViewportTableRecord
  2
*ACTIVE
 70
0
 10
0.0
 20
0.0
 11
1.0
 21
1.0
 12
112.7799873305
 22
159.5031249388
 13
0.0
 23
0.0
 14
1.0
 24
1.0
 15
0.0
 25
0.0
 16
0.0
 26
0.0
 36
1.0
 17
0.0
 27
0.0
 37
0.0
 40
319.0062498776
 41
0.7070707071
 42
50.0
 43
0.0
 44
0.0
 50
0.0
 51
0.0
 71
0
 72
100
 73
1
 74
1
 75
0
 76
0
 77
0
 78
0
  0
ENDTAB
  0
TABLE
  2
LTYPE
  5
5
100
AcDbSymbolTable
 70
6
  0
LTYPE
  5
14
100
AcDbSymbolTableRecord
100
AcDbLinetypeTableRecord
  2
BYBLOCK
 70
0
  3

 72
65
 73
0
 40
0.0
  0
LTYPE
  5
15
100
AcDbSymbolTableRecord
100
AcDbLinetypeTableRecord
  2
BYLAYER
 70
0
  3

 72
65
 73
0
 40
0.0
  0
LTYPE
  5
16
100
AcDbSymbolTableRecord
100
AcDbLinetypeTableRecord
  2
CONTINUOUS
 70
64
  3
Solid line
 72
65
 73
0
 40
0.0
  0
LTYPE
  5
1F5
100
AcDbSymbolTableRecord
100
AcDbLinetypeTableRecord
  2
CENTER
 70
64
  3
____ _ ____ _ ____ _ ____ _ ____ _ ____ _ ____
 72
65
 73
4
 40
0.6
 49
0.375
 74
0
 49
-0.075
 74
0
 49
0.075
 74
0
 49
-0.075
 74
0
  0
LTYPE
  5
1F6
100
AcDbSymbolTableRecord
100
AcDbLinetypeTableRecord
  2
HIDDEN
 70
64
  3
- - - - - - - - - - - - - - - - - - - -
 72
65
 73
2
 40
0.2
 49
0.1
 74
0
 49
-0.1
 74
0
  0
LTYPE
  5
1F7
100
AcDbSymbolTableRecord
100
AcDbLinetypeTableRecord
  2
PHANTOM
 70
64
  3
_____ _ _ _____ _ _ _____ _ _ _____
 72
65
 73
6
 40
0.8
 49
0.45
 74
0
 49
-0.05
 74
0
 49
0.1
 74
0
 49
-0.05
 74
0
 49
0.1
 74
0
 49
-0.05
 74
0
  0
LTYPE
  5
1F8
100
AcDbSymbolTableRecord
100
AcDbLinetypeTableRecord
  2
DOT
 70
64
  3
. . . . . . . . . . . . . . . . . . . .
 72
65
 73
2
 40
0.2
 49
0.1
 74
0
 49
-0.1
 74
0
  0
LTYPE
  5
1F9
100
AcDbSymbolTableRecord
100
AcDbLinetypeTableRecord
  2
DASHED
 70
64
  3
- - - - - - - - - - - - - - - - - - - -
 72
65
 73
2
 40
0.2
 49
0.1
 74
0
 49
-0.1
 74
0
  0
ENDTAB
  0
TABLE
  2
LAYER
  5
2
100
AcDbSymbolTable
 70
36
  0
LAYER
  5
10
100
AcDbSymbolTableRecord
100
AcDbLayerTableRecord
  2
0
 70
0
 62
7
  6
CONTINUOUS
370
-3
390
F
  0
LAYER
  5
1FA
100
AcDbSymbolTableRecord
100
AcDbLayerTableRecord
  2
DEFAULT_1
 70
0
 62
7
  6
CENTER
370
-3
390
F
  0
LAYER
  5
1FB
100
AcDbSymbolTableRecord
100
AcDbLayerTableRecord
  2
DEFAULT_2
 70
0
 62
7
  6
HIDDEN
370
-3
390
F
  0
LAYER
  5
1FC
100
AcDbSymbolTableRecord
100
AcDbLayerTableRecord
  2
DEFAULT_3
 70
0
 62
7
  6
PHANTOM
370
-3
390
F
  0
LAYER
  5
1FD
100
AcDbSymbolTableRecord
100
AcDbLayerTableRecord
  2
00_COMPONENTS
 70
0
 62
7
  6
CONTINUOUS
370
-3
390
F
  0
LAYER
  5
1FE
100
AcDbSymbolTableRecord
100
AcDbLayerTableRecord
  2
01_1_DEFAULT_DATUMS
 70
0
 62
7
  6
CONTINUOUS
370
-3
390
F
  0
LAYER
  5
1FF
100
AcDbSymbolTableRecord
100
AcDbLayerTableRecord
  2
01_PLANES
 70
0
 62
7
  6
CONTINUOUS
370
-3
390
F
  0
LAYER
  5
200
100
AcDbSymbolTableRecord
100
AcDbLayerTableRecord
  2
02_COORD_SYS
 70
0
 62
7
  6
CONTINUOUS
370
-3
390
F
  0
LAYER
  5
201
100
AcDbSymbolTableRecord
100
AcDbLayerTableRecord
  2
03_AXES
 70
0
 62
7
  6
CONTINUOUS
370
-3
390
F
  0
LAYER
  5
202
100
AcDbSymbolTableRecord
100
AcDbLayerTableRecord
  2
04_POINTS
 70
0
 62
7
  6
CONTINUOUS
370
-3
390
F
  0
LAYER
  5
203
100
AcDbSymbolTableRecord
100
AcDbLayerTableRecord
  2
05_CURVES
 70
0
 62
7
  6
CONTINUOUS
370
-3
390
F
  0
LAYER
  5
204
100
AcDbSymbolTableRecord
100
AcDbLayerTableRecord
  2
06_SURFS
 70
0
 62
7
  6
CONTINUOUS
370
-3
390
F
  0
LAYER
  5
205
100
AcDbSymbolTableRecord
100
AcDbLayerTableRecord
  2
07_COSMETICS
 70
0
 62
7
  6
CONTINUOUS
370
-3
390
F
  0
LAYER
  5
206
100
AcDbSymbolTableRecord
100
AcDbLayerTableRecord
  2
10_NOTES
 70
0
 62
7
  6
CONTINUOUS
370
-3
390
F
  0
LAYER
  5
207
100
AcDbSymbolTableRecord
100
AcDbLayerTableRecord
  2
11_NOTES_PUB
 70
0
 62
7
  6
CONTINUOUS
370
-3
390
F
  0
LAYER
  5
208
100
AcDbSymbolTableRecord
100
AcDbLayerTableRecord
  2
13_REF_GTOL
 70
0
 62
7
  6
CONTINUOUS
370
-3
390
F
  0
LAYER
  5
209
100
AcDbSymbolTableRecord
100
AcDbLayerTableRecord
  2
16_MISC
 70
0
 62
7
  6
CONTINUOUS
370
-3
390
F
  0
LAYER
  5
20A
100
AcDbSymbolTableRecord
100
AcDbLayerTableRecord
  2
17_NO_PRINT
 70
0
 62
7
  6
CONTINUOUS
370
-3
390
F
  0
LAYER
  5
20B
100
AcDbSymbolTableRecord
100
AcDbLayerTableRecord
  2
18_DATUM_CAMS_JOINTS
 70
0
 62
7
  6
CONTINUOUS
370
-3
390
F
  0
LAYER
  5
20C
100
AcDbSymbolTableRecord
100
AcDbLayerTableRecord
  2
19_DATUM_FUNCTIONAL
 70
0
 62
7
  6
CONTINUOUS
370
-3
390
F
  0
LAYER
  5
20D
100
AcDbSymbolTableRecord
100
AcDbLayerTableRecord
  2
20_DATUM_KINEMATIC_SCHEME
 70
0
 62
7
  6
CONTINUOUS
370
-3
390
F
  0
ENDTAB
  0
TABLE
  2
STYLE
  5
3
100
AcDbSymbolTable
 70
1
  0
STYLE
  5
11
100
AcDbSymbolTableRecord
100
AcDbTextStyleTableRecord
  2
STANDARD
 70
0
 40
0.0
 41
1.0
 50
0.0
 71
0
 42
0.2
  3
ARIAL.TTF
  4

  0
STYLE
  5
20E
100
AcDbSymbolTableRecord
100
AcDbTextStyleTableRecord
  2
TEXTSTYLE_1
 70
0
 40
0.0
 41
0.8
 50
0.0
 71
0
 42
0.2
  3
gdt
  4

  0
ENDTAB
  0
TABLE
  2
VIEW
  5
6
100
AcDbSymbolTable
 70
0
  0
ENDTAB
  0
TABLE
  2
UCS
  5
7
100
AcDbSymbolTable
 70
0
  0
ENDTAB
  0
TABLE
  2
APPID
  5
9
100
AcDbSymbolTable
 70
1
  0
APPID
  5
20F
100
AcDbSymbolTableRecord
100
AcDbRegAppTableRecord
  2
ACAD
 70
0
  0
ENDTAB
  0
TABLE
  2
BLOCK_RECORD
  5
1
100
AcDbSymbolTable
 70
0
  0
BLOCK_RECORD
  5
210
100
AcDbSymbolTableRecord
100
AcDbBlockTableRecord
  2
*Model_Space
  0
BLOCK_RECORD
  5
211
100
AcDbSymbolTableRecord
100
AcDbBlockTableRecord
  2
*Paper_Space
  0
BLOCK_RECORD
  5
212
100
AcDbSymbolTableRecord
100
AcDbBlockTableRecord
  2
_FILLED
  0
ENDTAB
  0
TABLE
  2
DIMSTYLE
  5
A
100
AcDbSymbolTable
 70
1
100
AcDbDimStyleTable
 71
0
  0
DIMSTYLE
105
213
100
AcDbSymbolTableRecord
100
AcDbDimStyleTableRecord
  2
STANDARD
 70
0
  3

  4

 40
1.0
 41
2.6852377936
 42
1.0
 43
0.38
 44
1.0
 45
0.0
 46
0.0
 47
0.01
 48
0.01
140
3.759332911
141
0.09
142
0.0
143
25.4
144
1.0
145
0.0
146
1.0
147
0.625
 71
1
 72
0
 73
0
 74
0
 75
0
 76
0
 77
1
 78
8
 79
2
170
0
171
1
172
0
173
0
174
0
175
0
176
0
177
0
178
0
270
2
179
2
271
2
272
2
273
2
274
2
275
0
280
0
281
0
282
0
283
1
284
8
285
0
286
0
287
3
288
0
340
11
278
46
341
212
342
212
343
212
344
212
  0
ENDTAB
  0
ENDSEC
  0
SECTION
  2
BLOCKS
  0
BLOCK
  5
20
100
AcDbEntity
  8
0
100
AcDbBlockBegin
  2
*Model_Space
 70
0
 10
0.0
 20
0.0
 30
0.0
  3
*Model_Space
  1

  0
ENDBLK
  5
21
100
AcDbEntity
  8
0
100
AcDbBlockEnd
  0
BLOCK
  5
1C
100
AcDbEntity
  8
0
100
AcDbBlockBegin
  2
*Paper_Space
 70
0
 10
0.0
 20
0.0
 30
0.0
  3
*Paper_Space
  1

  0
ENDBLK
  5
1D
100
AcDbEntity
  8
0
100
AcDbBlockEnd
  0
BLOCK
  5
214
100
AcDbEntity
  8
0
100
AcDbBlockBegin
  2
_FILLED
 70
64
 10
0.0
 20
0.0
  3
_FILLED
  1

  0
SOLID
  5
215
100
AcDbEntity
  8
0
  6
BYBLOCK
 62
0
100
AcDbTrace
 10
0.0
 20
0.0
 11
-1.0
 21
0.25
 12
-1.0
 22
-0.25
 13
-1.0
 23
-0.25
  0
ENDBLK
  5
216
100
AcDbEntity
  8
0
  6
BYBLOCK
 62
0
100
AcDbBlockEnd
  0
ENDSEC
  0
SECTION
  2
ENTITIES
  0
LINE
  5
217
100
AcDbEntity
  8
0
100
AcDbLine
 62
7
  6
BYLAYER
 10
26.3516887643
 20
102.1433819651
 11
26.1675521898
 21
101.7364345009
  0
LINE
  5
218
100
AcDbEntity
  8
0
100
AcDbLine
 62
7
  6
BYLAYER
 10
27.2406567066
 20
100.6036349751
 11
27.4247932811
 21
101.0105824393
  0
LINE
  5
219
100
AcDbEntity
  8
0
100
AcDbLine
 62
7
  6
BYLAYER
 10
174.7002593465
 20
219.0145811946
 11
122.094138022
 21
188.6426041832
  0
LINE
  5
21A
100
AcDbEntity
  8
0
100
AcDbLine
 62
7
  6
BYLAYER
 10
122.0761775846
 20
188.6322347817
 11
119.2025075901
 21
186.9731305404
  0
LINE
  5
21B
100
AcDbEntity
  8
0
100
AcDbLine
 62
7
  6
BYLAYER
 10
122.112098609
 20
188.632234868
 11
122.0941381716
 21
188.6218654665
  0
LINE
  5
21C
100
AcDbEntity
  8
0
100
AcDbLine
 62
7
  6
BYLAYER
 10
116.0594347725
 20
184.0178425177
 11
113.9041822767
 21
182.7735143367
  0
LINE
  5
21D
100
AcDbEntity
  8
0
100
AcDbLine
 62
7
  6
BYLAYER
 10
119.6694828526
 20
186.0606143428
 11
116.0773953596
 21
183.9867340412
  0
LINE
  5
21E
100
AcDbEntity
  8
0
100
AcDbLine
 62
7
  6
BYLAYER
 10
114.0646672855
 20
180.0069285605
 11
115.1422935335
 21
180.629092651
  0
LINE
  5
21F
100
AcDbEntity
  8
0
100
AcDbLine
 62
7
  6
BYLAYER
 10
118.7535527361
 20
178.3147019084
 11
120.1903877333
 21
179.144254029
  0
LINE
  5
220
100
AcDbEntity
  8
0
100
AcDbLine
 62
7
  6
BYLAYER
 10
113.9041822767
 20
175.5148078484
 11
112.4673472795
 21
174.6852557278
  0
LINE
  5
221
100
AcDbEntity
  8
0
100
AcDbLine
 62
7
  6
BYLAYER
 10
99.2665431421
 20
142.4881884727
 11
99.0824136724
 21
142.0812287672
  0
LINE
  5
222
100
AcDbEntity
  8
0
100
AcDbLine
 62
7
  6
BYLAYER
 10
126.8357570731
 20
181.9439967535
 11
123.24366958
 21
179.8701164518
  0
LINE
  5
223
100
AcDbEntity
  8
0
100
AcDbLine
 62
7
  6
BYLAYER
 10
116.4944022071
 20
173.3809725678
 11
115.6104500078
 21
172.8706255739
  0
LINE
  5
224
100
AcDbEntity
  8
0
100
AcDbLine
 62
7
  6
BYLAYER
 10
117.8746502286
 20
173.4078051359
 11
118.5090459083
 21
173.7740714661
  0
LINE
  5
225
100
AcDbEntity
  8
0
100
AcDbLine
 62
7
  6
BYLAYER
 10
133.122022351
 20
138.9105076839
 11
123.8972608497
 21
144.2363057342
  0
LINE
  5
226
100
AcDbEntity
  8
0
100
AcDbLine
 62
7
  6
BYLAYER
 10
134.5588573483
 20
139.7400598045
 11
135.0607264184
 21
139.4503121168
  0
LINE
  5
227
100
AcDbEntity
  8
0
100
AcDbLine
 62
7
  6
BYLAYER
 10
138.448915494
 20
137.4941844954
 11
140.8450628048
 21
136.1107994969
  0
LINE
  5
228
100
AcDbEntity
  8
0
100
AcDbLine
 62
7
  6
BYLAYER
 10
112.4673472795
 20
164.0336963648
 11
112.4673472795
 21
174.6852557278
  0
LINE
  5
229
100
AcDbEntity
  8
0
100
AcDbLine
 62
7
  6
BYLAYER
 10
113.9041822767
 20
182.7735143367
 11
113.9041822767
 21
179.8601743284
  0
LINE
  5
22A
100
AcDbEntity
  8
0
100
AcDbLine
 62
7
  6
BYLAYER
 10
113.9041822767
 20
175.9262478669
 11
113.9041822767
 21
175.5148078484
  0
LINE
  5
22B
100
AcDbEntity
  8
0
100
AcDbLine
 62
7
  6
BYLAYER
 10
117.2593409472
 20
166.8003386842
 11
110.0751659611
 21
162.6525780808
  0
LINE
  5
22C
100
AcDbEntity
  8
0
100
AcDbLine
 62
7
  6
BYLAYER
 10
108.6447128097
 20
160.3602430033
 11
105.0526253167
 21
158.2863627016
  0
LINE
  5
22D
100
AcDbEntity
  8
0
100
AcDbLine
 62
7
  6
BYLAYER
 10
139.4081679862
 20
174.6854761381
 11
135.8160804932
 21
172.6115958364
  0
LINE
  5
22E
100
AcDbEntity
  8
0
100
AcDbLine
 62
7
  6
BYLAYER
 10
139.4081679862
 20
174.6647369767
 11
135.8160804932
 21
172.590856675
  0
LINE
  5
22F
100
AcDbEntity
  8
0
100
AcDbLine
 62
7
  6
BYLAYER
 10
134.5588573483
 20
170.8488018972
 11
133.122022351
 21
170.0192497765
  0
LINE
  5
230
100
AcDbEntity
  8
0
100
AcDbLine
 62
7
  6
BYLAYER
 10
139.4082278076
 20
142.5399538645
 11
136.2651250793
 21
144.3545840183
  0
LINE
  5
231
100
AcDbEntity
  8
0
100
AcDbLine
 62
7
  6
BYLAYER
 10
147.0414174674
 20
138.9623834875
 11
146.3768723354
 21
139.3460501186
  0
LINE
  5
232
100
AcDbEntity
  8
0
100
AcDbLine
 62
7
  6
BYLAYER
 10
118.7535527361
 20
174.6853486642
 11
118.7535527361
 21
178.3147019084
  0
LINE
  5
233
100
AcDbEntity
  8
0
100
AcDbLine
 62
7
  6
BYLAYER
 10
119.2025075901
 20
185.7910076587
 11
119.2025075901
 21
186.9731305404
  0
LINE
  5
234
100
AcDbEntity
  8
0
100
AcDbLine
 62
7
  6
BYLAYER
 10
134.7193423571
 20
168.082216121
 11
135.796968605
 21
168.7043802115
  0
LINE
  5
235
100
AcDbEntity
  8
0
100
AcDbLine
 62
7
  6
BYLAYER
 10
134.0063468796
 20
166.9004584893
 11
133.122022351
 21
166.3898965324
  0
LINE
  5
236
100
AcDbEntity
  8
0
100
AcDbLine
 62
7
  6
BYLAYER
 10
98.1934245864
 20
143.6210122363
 11
26.3516747254
 21
102.143406203
  0
LINE
  5
237
100
AcDbEntity
  8
0
100
AcDbLine
 62
7
  6
BYLAYER
 10
149.9150873122
 20
172.5805349939
 11
149.8971268748
 21
172.5701655924
  0
LINE
  5
238
100
AcDbEntity
  8
0
100
AcDbLine
 62
7
  6
BYLAYER
 10
149.9150874618
 20
172.5597962773
 11
147.0414174674
 21
170.9006920359
  0
LINE
  5
239
100
AcDbEntity
  8
0
100
AcDbLine
 62
7
  6
BYLAYER
 10
149.9330479011
 20
172.5701656777
 11
202.5391692219
 21
202.9421426871
  0
LINE
  5
23A
100
AcDbEntity
  8
0
100
AcDbLine
 62
7
  6
BYLAYER
 10
146.5744422067
 20
170.5273802259
 11
140.8450628048
 21
167.2195415895
  0
LINE
  5
23B
100
AcDbEntity
  8
0
100
AcDbLine
 62
7
  6
BYLAYER
 10
99.0824206064
 20
142.0812167706
 11
27.2406707455
 21
100.6036107372
  0
LINE
  5
23C
100
AcDbEntity
  8
0
100
AcDbLine
 62
7
  6
BYLAYER
 10
150.3640983984
 20
145.0092727191
 11
158.4298029995
 21
140.3526413436
  0
LINE
  5
23D
100
AcDbEntity
  8
0
100
AcDbLine
 62
7
  6
BYLAYER
 10
153.2377399795
 20
146.4801831747
 11
156.6502515113
 21
144.5100132944
  0
LINE
  5
23E
100
AcDbEntity
  8
0
100
AcDbLine
 62
7
  6
BYLAYER
 10
136.2651250793
 20
160.9459131344
 11
137.1838331832
 21
161.4763263393
  0
LINE
  5
23F
100
AcDbEntity
  8
0
100
AcDbLine
 62
7
  6
BYLAYER
 10
138.5293253002
 20
161.4830926964
 11
139.6069515481
 21
162.1052567869
  0
LINE
  5
240
100
AcDbEntity
  8
0
100
AcDbLine
 62
7
  6
BYLAYER
 10
139.4082278076
 20
159.1312829805
 11
140.8450628048
 21
159.9608351012
  0
LINE
  5
241
100
AcDbEntity
  8
0
100
AcDbLine
 62
7
  6
BYLAYER
 10
142.9823547136
 20
160.1785745276
 11
146.5744422067
 21
162.2524548293
  0
LINE
  5
242
100
AcDbEntity
  8
0
100
AcDbLine
 62
7
  6
BYLAYER
 10
146.5924027937
 20
162.2420855141
 11
143.0003153006
 21
160.1682052125
  0
LINE
  5
243
100
AcDbEntity
  8
0
100
AcDbLine
 62
7
  6
BYLAYER
 10
149.9330479011
 20
149.9852189185
 11
149.915087314
 21
149.9955882336
  0
LINE
  5
244
100
AcDbEntity
  8
0
100
AcDbLine
 62
7
  6
BYLAYER
 10
150.3461378114
 20
150.2237147095
 11
150.3640983984
 21
150.2133453943
  0
LINE
  5
245
100
AcDbEntity
  8
0
100
AcDbLine
 62
7
  6
BYLAYER
 10
112.4673472795
 20
174.6852557278
 11
115.6104500078
 21
172.8706255739
  0
LINE
  5
246
100
AcDbEntity
  8
0
100
AcDbLine
 62
7
  6
BYLAYER
 10
136.2651250793
 20
160.9459131344
 11
139.4082278076
 21
159.1312829805
  0
LINE
  5
247
100
AcDbEntity
  8
0
100
AcDbLine
 62
7
  6
BYLAYER
 10
113.9041822767
 20
175.5148078484
 11
114.4060513468
 21
175.2250601607
  0
LINE
  5
248
100
AcDbEntity
  8
0
100
AcDbLine
 62
7
  6
BYLAYER
 10
138.3334711669
 20
161.4108704053
 11
140.8450628048
 21
159.9608351012
  0
LINE
  5
249
100
AcDbEntity
  8
0
100
AcDbLine
 62
7
  6
BYLAYER
 10
133.122022351
 20
170.0192497765
 11
133.122022351
 21
166.3898965324
  0
LINE
  5
24A
100
AcDbEntity
  8
0
100
AcDbLine
 62
7
  6
BYLAYER
 10
133.122022351
 20
142.539860928
 11
133.122022351
 21
138.9105076839
  0
LINE
  5
24B
100
AcDbEntity
  8
0
100
AcDbLine
 62
7
  6
BYLAYER
 10
134.5588573483
 20
170.8488018972
 11
134.5588573483
 21
168.0818589884
  0
LINE
  5
24C
100
AcDbEntity
  8
0
100
AcDbLine
 62
7
  6
BYLAYER
 10
134.5588573483
 20
140.151499823
 11
134.5588573483
 21
139.7400598045
  0
LINE
  5
24D
100
AcDbEntity
  8
0
100
AcDbLine
 62
7
  6
BYLAYER
 10
120.5526190546
 20
144.5049886631
 11
120.2161573269
 21
144.3107335537
  0
LINE
  5
24E
100
AcDbEntity
  8
0
100
AcDbLine
 62
7
  6
BYLAYER
 10
131.017764801
 20
149.8137735633
 11
130.4417277191
 21
149.4812003842
  0
LINE
  5
24F
100
AcDbEntity
  8
0
100
AcDbLine
 62
7
  6
BYLAYER
 10
118.8046673246
 20
142.7625805376
 11
115.2125798316
 21
140.688700236
  0
LINE
  5
250
100
AcDbEntity
  8
0
100
AcDbLine
 62
7
  6
BYLAYER
 10
128.6892897764
 20
147.0029684103
 11
121.5051147903
 21
142.855207807
  0
LINE
  5
251
100
AcDbEntity
  8
0
100
AcDbLine
 62
7
  6
BYLAYER
 10
156.6502515113
 20
153.8426359222
 11
156.6322909242
 21
153.8530052374
  0
LINE
  5
252
100
AcDbEntity
  8
0
100
AcDbLine
 62
7
  6
BYLAYER
 10
146.5924027937
 20
162.2420855141
 11
146.5744422067
 21
162.2524548293
  0
LINE
  5
253
100
AcDbEntity
  8
0
100
AcDbLine
 62
7
  6
BYLAYER
 10
118.7535527361
 20
178.3147019084
 11
133.122022351
 21
170.0192497765
  0
LINE
  5
254
100
AcDbEntity
  8
0
100
AcDbLine
 62
7
  6
BYLAYER
 10
140.8450628048
 20
167.2195415895
 11
134.5588573483
 21
170.8488018972
  0
LINE
  5
255
100
AcDbEntity
  8
0
100
AcDbLine
 62
7
  6
BYLAYER
 10
120.1903877333
 20
179.144254029
 11
113.9041822767
 21
182.7735143367
  0
LINE
  5
256
100
AcDbEntity
  8
0
100
AcDbLine
 62
7
  6
BYLAYER
 10
143.0003153006
 20
168.4638697705
 11
135.8160804932
 21
172.6115958364
  0
LINE
  5
257
100
AcDbEntity
  8
0
100
AcDbLine
 62
7
  6
BYLAYER
 10
123.24366958
 20
179.8701164518
 11
116.0594347725
 21
184.0178425177
  0
LINE
  5
258
100
AcDbEntity
  8
0
100
AcDbLine
 62
7
  6
BYLAYER
 10
139.4081679862
 20
174.6647369767
 11
139.4081679862
 21
174.6854761381
  0
LINE
  5
259
100
AcDbEntity
  8
0
100
AcDbLine
 62
7
  6
BYLAYER
 10
139.4082278076
 20
159.1312829805
 11
139.4082278076
 21
142.5399538645
  0
LINE
  5
25A
100
AcDbEntity
  8
0
100
AcDbLine
 62
7
  6
BYLAYER
 10
140.8450628048
 20
136.1107994969
 11
140.8450628048
 21
143.3695059851
  0
LINE
  5
25B
100
AcDbEntity
  8
0
100
AcDbLine
 62
7
  6
BYLAYER
 10
140.8450628048
 20
159.9608351012
 11
140.8450628048
 21
167.2195415895
  0
LINE
  5
25C
100
AcDbEntity
  8
0
100
AcDbLine
 62
7
  6
BYLAYER
 10
143.0003153006
 20
137.3551276779
 11
143.0003153006
 21
145.6507922359
  0
LINE
  5
25D
100
AcDbEntity
  8
0
100
AcDbLine
 62
7
  6
BYLAYER
 10
143.0003153006
 20
160.1682052125
 11
143.0003153006
 21
168.4638697705
  0
LINE
  5
25E
100
AcDbEntity
  8
0
100
AcDbLine
 62
7
  6
BYLAYER
 10
134.7193423571
 20
144.2321805166
 11
135.3537138398
 21
144.5984328767
  0
LINE
  5
25F
100
AcDbEntity
  8
0
100
AcDbLine
 62
7
  6
BYLAYER
 10
133.122022351
 20
142.539860928
 11
134.0312570901
 21
143.0648047159
  0
LINE
  5
260
100
AcDbEntity
  8
0
100
AcDbLine
 62
7
  6
BYLAYER
 10
149.8971268748
 20
149.9644796718
 11
202.5391692219
 21
180.3571959278
  0
LINE
  5
261
100
AcDbEntity
  8
0
100
AcDbLine
 62
7
  6
BYLAYER
 10
149.9150874636
 20
149.9541103556
 11
150.3640984002
 21
150.2133453933
  0
LINE
  5
262
100
AcDbEntity
  8
0
100
AcDbLine
 62
7
  6
BYLAYER
 10
156.6502515131
 20
153.8426359212
 11
202.5391692219
 21
180.3364567665
  0
LINE
  5
263
100
AcDbEntity
  8
0
100
AcDbLine
 62
7
  6
BYLAYER
 10
146.5924027937
 20
147.7246725376
 11
143.0003153006
 21
145.6507922359
  0
LINE
  5
264
100
AcDbEntity
  8
0
100
AcDbLine
 62
7
  6
BYLAYER
 10
140.8450628048
 20
143.3695059851
 11
139.4082278076
 21
142.5399538645
  0
LINE
  5
265
100
AcDbEntity
  8
0
100
AcDbLine
 62
7
  6
BYLAYER
 10
133.122022351
 20
138.9105076839
 11
134.5588573483
 21
139.7400598045
  0
LINE
  5
266
100
AcDbEntity
  8
0
100
AcDbLine
 62
7
  6
BYLAYER
 10
146.5744422067
 20
170.5273802259
 11
139.4081679862
 21
174.6647369767
  0
LINE
  5
267
100
AcDbEntity
  8
0
100
AcDbLine
 62
7
  6
BYLAYER
 10
126.8357570731
 20
181.9232575921
 11
119.6694828526
 21
186.0606143428
  0
LINE
  5
268
100
AcDbEntity
  8
0
100
AcDbLine
 62
7
  6
BYLAYER
 10
139.4081679862
 20
174.6854761381
 11
126.8357570731
 21
181.9439967535
  0
LINE
  5
269
100
AcDbEntity
  8
0
100
AcDbLine
 62
7
  6
BYLAYER
 10
119.2025075901
 20
186.9731305404
 11
147.0414174692
 21
170.9006920349
  0
LINE
  5
26A
100
AcDbEntity
  8
0
100
AcDbLine
 62
7
  6
BYLAYER
 10
149.9150874636
 20
172.5597962762
 11
149.8971268766
 21
172.5701655914
  0
LINE
  5
26B
100
AcDbEntity
  8
0
100
AcDbLine
 62
7
  6
BYLAYER
 10
122.0941381716
 20
188.6218654665
 11
122.0761775846
 21
188.6322347817
  0
LINE
  5
26C
100
AcDbEntity
  8
0
100
AcDbLine
 62
7
  6
BYLAYER
 10
122.094138022
 20
188.6426041832
 11
122.112098609
 21
188.632234868
  0
LINE
  5
26D
100
AcDbEntity
  8
0
100
AcDbLine
 62
7
  6
BYLAYER
 10
149.915087314
 20
172.5805349929
 11
149.9330479011
 21
172.5701656777
  0
LINE
  5
26E
100
AcDbEntity
  8
0
100
AcDbLine
 62
7
  6
BYLAYER
 10
146.5744422067
 20
139.4601164561
 11
146.5744422067
 21
147.7350418527
  0
LINE
  5
26F
100
AcDbEntity
  8
0
100
AcDbLine
 62
7
  6
BYLAYER
 10
146.5744422067
 20
162.2524548293
 11
146.5744422067
 21
170.5273802259
  0
LINE
  5
270
100
AcDbEntity
  8
0
100
AcDbLine
 62
7
  6
BYLAYER
 10
146.5924027937
 20
147.7246725376
 11
146.5924027937
 21
162.2420855141
  0
LINE
  5
271
100
AcDbEntity
  8
0
100
AcDbLine
 62
7
  6
BYLAYER
 10
147.0414174674
 20
170.9006920359
 11
147.0414174674
 21
138.9623834875
  0
LINE
  5
272
100
AcDbEntity
  8
0
100
AcDbLine
 62
7
  6
BYLAYER
 10
149.9150874618
 20
149.9541103566
 11
149.9150873122
 21
172.5805349939
  0
LINE
  5
273
100
AcDbEntity
  8
0
100
AcDbLine
 62
7
  6
BYLAYER
 10
149.9330479011
 20
149.9852189185
 11
149.9330479011
 21
172.5701656777
  0
LINE
  5
274
100
AcDbEntity
  8
0
100
AcDbLine
 62
7
  6
BYLAYER
 10
150.3640983984
 20
150.2133453943
 11
150.3640983984
 21
140.8807227665
  0
LINE
  5
275
100
AcDbEntity
  8
0
100
AcDbLine
 62
7
  6
BYLAYER
 10
138.5293253002
 20
137.633057092
 11
139.6069515481
 21
138.2552211825
  0
LINE
  5
276
100
AcDbEntity
  8
0
100
AcDbLine
 62
7
  6
BYLAYER
 10
146.5744422067
 20
139.4601164561
 11
142.9823547136
 21
137.3862361544
  0
LINE
  5
277
100
AcDbEntity
  8
0
100
AcDbLine
 62
7
  6
BYLAYER
 10
143.0003153006
 20
137.3551276779
 11
140.8450628048
 21
136.1107994969
  0
LINE
  5
278
100
AcDbEntity
  8
0
100
AcDbLine
 62
7
  6
BYLAYER
 10
202.5391692313
 20
171.0038341462
 11
192.1221155051
 21
164.9895812734
  0
LINE
  5
279
100
AcDbEntity
  8
0
100
AcDbLine
 62
7
  6
BYLAYER
 10
157.6380755719
 20
145.0803303774
 11
156.6502515113
 21
144.5100132944
  0
LINE
  5
27A
100
AcDbEntity
  8
0
100
AcDbLine
 62
7
  6
BYLAYER
 10
150.3640983984
 20
140.8807227665
 11
147.0414174674
 21
138.9623834875
  0
LINE
  5
27B
100
AcDbEntity
  8
0
100
AcDbLine
 62
7
  6
BYLAYER
 10
153.2377399795
 20
146.4801831747
 11
153.2377399795
 21
151.8931723906
  0
LINE
  5
27C
100
AcDbEntity
  8
0
100
AcDbLine
 62
7
  6
BYLAYER
 10
156.6502515113
 20
144.5100132944
 11
156.6502515113
 21
153.8426359222
  0
LINE
  5
27D
100
AcDbEntity
  8
0
100
AcDbLine
 62
7
  6
BYLAYER
 10
158.4298029995
 20
140.3526413436
 11
192.1221155051
 21
159.8047909246
  0
LINE
  5
27E
100
AcDbEntity
  8
0
100
AcDbLine
 62
7
  6
BYLAYER
 10
157.6380755719
 20
145.0803303774
 11
158.4298029995
 21
140.3526413436
  0
LINE
  5
27F
100
AcDbEntity
  8
0
100
AcDbLine
 62
7
  6
BYLAYER
 10
202.8857128832
 20
180.8549225332
 11
202.5212086443
 21
180.3468260891
  0
LINE
  5
280
100
AcDbEntity
  8
0
100
AcDbLine
 62
7
  6
BYLAYER
 10
192.1221155051
 20
164.9895812734
 11
192.1221155051
 21
159.8047909246
  0
LINE
  5
281
100
AcDbEntity
  8
0
100
AcDbLine
 62
7
  6
BYLAYER
 10
202.5391617478
 20
203.9790785358
 11
176.4963105967
 21
219.0145855097
  0
LINE
  5
282
100
AcDbEntity
  8
0
100
AcDbLine
 62
7
  6
BYLAYER
 10
202.5212086479
 20
180.3675652526
 11
202.5212086479
 21
180.3468260912
  0
LINE
  5
283
100
AcDbEntity
  8
0
100
AcDbLine
 62
7
  6
BYLAYER
 10
202.5391692367
 20
202.9421426957
 11
202.5391692367
 21
180.3571959364
  0
LINE
  5
284
100
AcDbEntity
  8
0
100
AcDbLine
 62
7
  6
BYLAYER
 10
202.5391692349
 20
180.336456776
 11
202.5391692349
 21
171.0038341482
  0
LINE
  5
285
100
AcDbEntity
  8
0
100
AcDbLine
 62
7
  6
BYLAYER
 10
202.9111398822
 20
180.8549225332
 11
202.9111398822
 21
171.5222999055
  0
LINE
  5
286
100
AcDbEntity
  8
0
100
AcDbLine
 62
7
  6
BYLAYER
 10
202.9111398822
 20
180.8756616946
 11
202.9111398822
 21
203.4606084539
  0
ARC
  5
287
100
AcDbEntity
  8
0
100
AcDbCircle
 62
7
  6
BYLAYER
 10
119.6041288887
 20
155.0267223789
 40
16.8352808824
100
AcDbArc
 50
202.6229200983
 51
202.9044132172
  0
ARC
  5
288
100
AcDbEntity
  8
0
100
AcDbCircle
 62
7
  6
BYLAYER
 10
119.6504131226
 20
154.9088585493
 40
16.8162726118
100
AcDbArc
 50
217.059526173
 51
217.5267911767
  0
ARC
  5
289
100
AcDbEntity
  8
0
100
AcDbCircle
 62
7
  6
BYLAYER
 10
133.9139200632
 20
139.3665326096
 40
6.5743550919
100
AcDbArc
 50
27.6865453439
 51
30.2193455756
  0
ARC
  5
28A
100
AcDbEntity
  8
0
100
AcDbCircle
 62
7
  6
BYLAYER
 10
140.4058949389
 20
143.1174367792
 40
6.567018777
100
AcDbArc
 50
207.4571245783
 51
209.7663737975
  0
ARC
  5
28B
100
AcDbEntity
  8
0
100
AcDbCircle
 62
7
  6
BYLAYER
 10
119.7512198676
 20
178.8921848232
 40
6.5670187773
100
AcDbArc
 50
207.4571245784
 51
209.7663737975
  0
ARC
  5
28C
100
AcDbEntity
  8
0
100
AcDbCircle
 62
7
  6
BYLAYER
 10
113.7008764091
 20
158.209707345
 40
5.8999673705
100
AcDbArc
 50
156.8529448008
 51
159.0998646379
  0
ARC
  5
28D
100
AcDbEntity
  8
0
100
AcDbCircle
 62
7
  6
BYLAYER
 10
119.4581671642
 20
148.1248813918
 40
5.8073651304
100
AcDbArc
 50
261.2892376247
 51
264.216071374
  0
ARC
  5
28E
100
AcDbEntity
  8
0
100
AcDbCircle
 62
7
  6
BYLAYER
 10
116.0635194122
 20
146.4941986737
 40
4.7157481914
100
AcDbArc
 50
331.2198893229
 51
334.979719987
  0
ARC
  5
28F
100
AcDbEntity
  8
0
100
AcDbCircle
 62
7
  6
BYLAYER
 10
110.3414203754
 20
157.4213862602
 40
3.3934087162
100
AcDbArc
 50
118.9835308344
 51
119.9993834444
  0
ARC
  5
290
100
AcDbEntity
  8
0
100
AcDbCircle
 62
7
  6
BYLAYER
 10
118.528221273
 20
175.8338310383
 40
2.5678689821
100
AcDbArc
 50
256.3427313884
 51
257.9023053835
  0
ARC
  5
291
100
AcDbEntity
  8
0
100
AcDbCircle
 62
7
  6
BYLAYER
 10
137.1471025164
 20
143.5851709925
 40
2.5678458595
100
AcDbArc
 50
162.0968877054
 51
163.6568088612
  0
ARC
  5
292
100
AcDbEntity
  8
0
100
AcDbCircle
 62
7
  6
BYLAYER
 10
100.0638305071
 20
143.5056883715
 40
2.4394810904
100
AcDbArc
 50
227.9679677966
 51
234.2291532534
  0
ARC
  5
293
100
AcDbEntity
  8
0
100
AcDbCircle
 62
7
  6
BYLAYER
 10
202.4850460149
 20
180.8549219052
 40
0.4260085794
100
AcDbArc
 50
0.0000844732
 51
1.3963100782
  0
ARC
  5
294
100
AcDbEntity
  8
0
100
AcDbCircle
 62
7
  6
BYLAYER
 10
202.4850460347
 20
180.8756622848
 40
0.4260085596
100
AcDbArc
 50
358.603618346
 51
359.9999206211
  0
SPLINE
  5
295
100
AcDbEntity
  8
0
100
AcDbSpline
 62
7
  6
BYLAYER
 70
0
 71
3
 72
9
 73
5
 74
0
 42
0.0000001
 43
0.0000001
 44
0.0000000001
 40
0.0
 40
0.0
 40
0.0
 40
0.0
 40
0.4802313176
 40
1.0
 40
1.0
 40
1.0
 40
1.0
 10
194.1418553296
 20
200.5042718981
 30
0.0
 10
194.1419113221
 20
200.4283188099
 30
0.0
 10
194.1112169003
 20
200.2690675551
 30
0.0
 10
194.0288830365
 20
200.1307554603
 30
0.0
 10
193.9781291589
 20
200.0660876766
 30
0.0
  0
SPLINE
  5
296
100
AcDbEntity
  8
0
100
AcDbSpline
 62
7
  6
BYLAYER
 70
0
 71
3
 72
9
 73
5
 74
0
 42
0.0000001
 43
0.0000001
 44
0.0000000001
 40
0.0
 40
0.0
 40
0.0
 40
0.0
 40
0.2392215047
 40
1.0
 40
1.0
 40
1.0
 40
1.0
 10
193.9781291589
 20
200.0660876766
 30
0.0
 10
193.9649066035
 20
200.0492402279
 30
0.0
 10
193.9072263039
 20
199.9807099331
 30
0.0
 10
193.8408291864
 20
199.9197460906
 30
0.0
 10
193.7874012205
 20
199.8775040249
 30
0.0
  0
SPLINE
  5
297
100
AcDbEntity
  8
0
100
AcDbSpline
 62
7
  6
BYLAYER
 70
0
 71
3
 72
9
 73
5
 74
0
 42
0.0000001
 43
0.0000001
 44
0.0000000001
 40
0.0
 40
0.0
 40
0.0
 40
0.0
 40
0.2594886701
 40
1.0
 40
1.0
 40
1.0
 40
1.0
 10
191.0004800114
 20
199.7530600881
 30
0.0
 10
190.9806112676
 20
199.7645316374
 30
0.0
 10
190.9049318696
 20
199.8102411078
 30
0.0
 10
190.8329009157
 20
199.862155658
 30
0.0
 10
190.7828685806
 20
199.9043854947
 30
0.0
  0
SPLINE
  5
298
100
AcDbEntity
  8
0
100
AcDbSpline
 62
7
  6
BYLAYER
 70
0
 71
3
 72
9
 73
5
 74
0
 42
0.0000001
 43
0.0000001
 44
0.0000000001
 40
0.0
 40
0.0
 40
0.0
 40
0.0
 40
0.2577302653
 40
1.0
 40
1.0
 40
1.0
 40
1.0
 10
190.7828685806
 20
199.9043854947
 30
0.0
 10
190.7708381525
 20
199.9145397883
 30
0.0
 10
190.7248964271
 20
199.9547966141
 30
0.0
 10
190.6819889741
 20
199.9985672041
 30
0.0
 10
190.6524829882
 20
200.0329928425
 30
0.0
  0
SPLINE
  5
299
100
AcDbEntity
  8
0
100
AcDbSpline
 62
7
  6
BYLAYER
 70
0
 71
3
 72
9
 73
5
 74
0
 42
0.0000001
 43
0.0000001
 44
0.0000000001
 40
0.0
 40
0.0
 40
0.0
 40
0.0
 40
0.5224590184
 40
1.0
 40
1.0
 40
1.0
 40
1.0
 10
190.6524829882
 20
200.0329928425
 30
0.0
 10
190.5939120292
 20
200.1013295746
 30
0.0
 10
190.4978441955
 20
200.2484125876
 30
0.0
 10
190.4615882485
 20
200.4220072707
 30
0.0
 10
190.4615276031
 20
200.5042719306
 30
0.0
  0
SPLINE
  5
29A
100
AcDbEntity
  8
0
100
AcDbSpline
 62
7
  6
BYLAYER
 70
0
 71
3
 72
9
 73
5
 74
0
 42
0.0000001
 43
0.0000001
 44
0.0000000001
 40
0.0
 40
0.0
 40
0.0
 40
0.0
 40
0.4802313176
 40
1.0
 40
1.0
 40
1.0
 40
1.0
 10
130.9209404744
 20
188.2682770963
 30
0.0
 10
130.9209964669
 20
188.1923240082
 30
0.0
 10
130.8903020451
 20
188.0330727534
 30
0.0
 10
130.8079681812
 20
187.8947606585
 30
0.0
 10
130.7572143036
 20
187.8300928749
 30
0.0
  0
SPLINE
  5
29B
100
AcDbEntity
  8
0
100
AcDbSpline
 62
7
  6
BYLAYER
 70
0
 71
3
 72
9
 73
5
 74
0
 42
0.0000001
 43
0.0000001
 44
0.0000000001
 40
0.0
 40
0.0
 40
0.0
 40
0.0
 40
0.2392221049
 40
1.0
 40
1.0
 40
1.0
 40
1.0
 10
130.7572143036
 20
187.8300928749
 30
0.0
 10
130.7439925449
 20
187.8132464412
 30
0.0
 10
130.686316011
 20
187.744720333
 30
0.0
 10
130.6199236696
 20
187.6837597455
 30
0.0
 10
130.5664996211
 20
187.6415197038
 30
0.0
  0
SPLINE
  5
29C
100
AcDbEntity
  8
0
100
AcDbSpline
 62
7
  6
BYLAYER
 70
0
 71
3
 72
9
 73
5
 74
0
 42
0.0000001
 43
0.0000001
 44
0.0000000001
 40
0.0
 40
0.0
 40
0.0
 40
0.0
 40
0.2594786747
 40
1.0
 40
1.0
 40
1.0
 40
1.0
 10
127.7795651562
 20
187.5170652863
 30
0.0
 10
127.7597154409
 20
187.5285258492
 30
0.0
 10
127.6841047333
 20
187.5741918879
 30
0.0
 10
127.612135539
 20
187.6260511236
 30
0.0
 10
127.5621404356
 20
187.6682331307
 30
0.0
  0
SPLINE
  5
29D
100
AcDbEntity
  8
0
100
AcDbSpline
 62
7
  6
BYLAYER
 70
0
 71
3
 72
9
 73
5
 74
0
 42
0.0000001
 43
0.0000001
 44
0.0000000001
 40
0.0
 40
0.0
 40
0.0
 40
0.0
 40
0.2577403558
 40
1.0
 40
1.0
 40
1.0
 40
1.0
 10
127.5621404356
 20
187.6682331307
 30
0.0
 10
127.5500915484
 20
187.6783990512
 30
0.0
 10
127.5040816653
 20
187.718701656
 30
0.0
 10
127.4611128274
 20
187.762527217
 30
0.0
 10
127.431567917
 20
187.7969982927
 30
0.0
  0
SPLINE
  5
29E
100
AcDbEntity
  8
0
100
AcDbSpline
 62
7
  6
BYLAYER
 70
0
 71
3
 72
9
 73
5
 74
0
 42
0.0000001
 43
0.0000001
 44
0.0000000001
 40
0.0
 40
0.0
 40
0.0
 40
0.0
 40
0.5224589964
 40
1.0
 40
1.0
 40
1.0
 40
1.0
 10
127.431567917
 20
187.7969982927
 30
0.0
 10
127.37299702
 20
187.8653349978
 30
0.0
 10
127.276929294
 20
188.0124179451
 30
0.0
 10
127.2406733932
 20
188.1860125173
 30
0.0
 10
127.2406127479
 20
188.2682771288
 30
0.0
  0
SPLINE
  5
29F
100
AcDbEntity
  8
0
100
AcDbSpline
 62
7
  6
BYLAYER
 70
0
 71
3
 72
11
 73
7
 74
0
 42
0.0000001
 43
0.0000001
 44
0.0000000001
 40
0.0
 40
0.0
 40
0.0
 40
0.0
 40
0.217747394
 40
0.4515495671
 40
0.7112321116
 40
1.0
 40
1.0
 40
1.0
 40
1.0
 10
195.4756403533
 20
166.9144404032
 30
0.0
 10
195.4705750711
 20
166.7968907257
 30
0.0
 10
195.4181976791
 20
166.5534534189
 30
0.0
 10
195.224701695
 20
166.2158724146
 30
0.0
 10
194.9278027077
 20
165.9101980428
 30
0.0
 10
194.6818947506
 20
165.7415677427
 30
0.0
 10
194.5467648437
 20
165.6635509202
 30
0.0
  0
SPLINE
  5
2A0
100
AcDbEntity
  8
0
100
AcDbSpline
 62
7
  6
BYLAYER
 70
0
 71
3
 72
11
 73
7
 74
0
 42
0.0000001
 43
0.0000001
 44
0.0000000001
 40
0.0
 40
0.0
 40
0.0
 40
0.0
 40
0.2372659767
 40
0.5000005258
 40
0.762734789
 40
1.0
 40
1.0
 40
1.0
 40
1.0
 10
176.4963105967
 20
219.0145855097
 30
0.0
 10
176.3688025334
 20
219.0882006587
 30
0.0
 10
176.0723164527
 20
219.195629397
 30
0.0
 10
175.5982835606
 20
219.2469790197
 30
0.0
 10
175.1242513831
 20
219.1956272345
 30
0.0
 10
174.8277664675
 20
219.0881970255
 30
0.0
 10
174.7002593465
 20
219.0145811946
 30
0.0
  0
SPLINE
  5
2A1
100
AcDbEntity
  8
0
100
AcDbSpline
 62
7
  6
BYLAYER
 70
0
 71
3
 72
11
 73
7
 74
0
 42
0.0000001
 43
0.0000001
 44
0.0000000001
 40
0.0
 40
0.0
 40
0.0
 40
0.0
 40
0.2372734671
 40
0.5000329558
 40
0.7628075425
 40
1.0
 40
1.0
 40
1.0
 40
1.0
 10
130.7870323779
 20
187.7508602614
 30
0.0
 10
130.544757863
 20
187.6109838399
 30
0.0
 10
129.9813952706
 20
187.4068573654
 30
0.0
 10
129.0806324048
 20
187.3092322747
 30
0.0
 10
128.1799881498
 20
187.4069652759
 30
0.0
 10
127.6166943056
 20
187.6110446636
 30
0.0
 10
127.3745114626
 20
187.7508888378
 30
0.0
  0
SPLINE
  5
2A2
100
AcDbEntity
  8
0
100
AcDbSpline
 62
7
  6
BYLAYER
 70
0
 71
3
 72
11
 73
7
 74
0
 42
0.0000001
 43
0.0000001
 44
0.0000000001
 40
0.0
 40
0.0
 40
0.0
 40
0.0
 40
0.2372711027
 40
0.5000161929
 40
0.7627840377
 40
1.0
 40
1.0
 40
1.0
 40
1.0
 10
194.0079472332
 20
199.9868550631
 30
0.0
 10
193.7656750645
 20
199.8469799963
 30
0.0
 10
193.2023305399
 20
199.6428641892
 30
0.0
 10
192.3015986569
 20
199.5452199046
 30
0.0
 10
191.4009493823
 20
199.6429473835
 30
0.0
 10
190.8376360408
 20
199.8470306034
 30
0.0
 10
190.5954262149
 20
199.9868836258
 30
0.0
  0
SPLINE
  5
2A3
100
AcDbEntity
  8
0
100
AcDbSpline
 62
7
  6
BYLAYER
 70
0
 71
3
 72
15
 73
11
 74
0
 42
0.0000001
 43
0.0000001
 44
0.0000000001
 40
0.0
 40
0.0
 40
0.0
 40
0.0
 40
0.1288244605
 40
0.2705976782
 40
0.4178986235
 40
0.5623949216
 40
0.69620836
 40
0.8136001012
 40
0.9130679301
 40
1.0
 40
1.0
 40
1.0
 40
1.0
 10
151.890722125
 20
175.5669149427
 30
0.0
 10
151.702710479
 20
175.4583670163
 30
0.0
 10
151.2769525211
 20
175.2827441981
 30
0.0
 10
150.5831476952
 20
175.1438630634
 30
0.0
 10
149.8492472509
 20
175.1236457449
 30
0.0
 10
149.1354875915
 20
175.2238674661
 30
0.0
 10
148.4987481077
 20
175.4366250437
 30
0.0
 10
147.9887278171
 20
175.7474060259
 30
0.0
 10
147.6431608403
 20
176.1403334559
 30
0.0
 10
147.5547800609
 20
176.4573474744
 30
0.0
 10
147.5547744042
 20
176.6038466429
 30
0.0
  0
SPLINE
  5
2A4
100
AcDbEntity
  8
0
100
AcDbSpline
 62
7
  6
BYLAYER
 70
0
 71
3
 72
15
 73
11
 74
0
 42
0.0000001
 43
0.0000001
 44
0.0000000001
 40
0.0
 40
0.0
 40
0.0
 40
0.0
 40
0.1288244605
 40
0.2705976782
 40
0.4178986235
 40
0.5623949216
 40
0.69620836
 40
0.8136001012
 40
0.9130679301
 40
1.0
 40
1.0
 40
1.0
 40
1.0
 10
173.0838633563
 20
212.0671072302
 30
0.0
 10
172.8958517104
 20
211.9585593037
 30
0.0
 10
172.4700937525
 20
211.7829364855
 30
0.0
 10
171.7762889266
 20
211.6440553508
 30
0.0
 10
171.0423884823
 20
211.6238380324
 30
0.0
 10
170.3286288229
 20
211.7240597535
 30
0.0
 10
169.6918893391
 20
211.9368173311
 30
0.0
 10
169.1818690485
 20
212.2475983133
 30
0.0
 10
168.8363020716
 20
212.6405257433
 30
0.0
 10
168.7479212923
 20
212.9575397619
 30
0.0
 10
168.7479156355
 20
213.1040389303
 30
0.0
  0
SPLINE
  5
2A5
100
AcDbEntity
  8
0
100
AcDbSpline
 62
7
  6
BYLAYER
 70
0
 71
3
 72
9
 73
5
 74
0
 42
0.0000001
 43
0.0000001
 44
0.0000000001
 40
0.0
 40
0.0
 40
0.0
 40
0.0
 40
0.2437474076
 40
1.0
 40
1.0
 40
1.0
 40
1.0
 10
101.0535672586
 20
142.695577798
 30
0.0
 10
101.0535672586
 20
142.7517621941
 30
0.0
 10
101.0441022984
 20
142.9822309455
 30
0.0
 10
100.9996001609
 20
143.2107375502
 30
0.0
 10
100.9504818342
 20
143.3779924591
 30
0.0
  0
SPLINE
  5
2A6
100
AcDbEntity
  8
0
100
AcDbSpline
 62
7
  6
BYLAYER
 70
0
 71
3
 72
14
 73
10
 74
0
 42
0.0000001
 43
0.0000001
 44
0.0000000001
 40
0.0
 40
0.0
 40
0.0
 40
0.0
 40
0.2619933279
 40
0.3924551136
 40
0.5188305672
 40
0.6410376618
 40
0.7607886954
 40
0.880076112
 40
1.0
 40
1.0
 40
1.0
 40
1.0
 10
100.9504818342
 20
143.3779924591
 30
0.0
 10
100.8596046503
 20
143.687442233
 30
0.0
 10
100.6420634618
 20
144.1311638397
 30
0.0
 10
100.2353157082
 20
144.6259146767
 30
0.0
 10
99.8792669456
 20
144.9318148907
 30
0.0
 10
99.4804538879
 20
145.1551004223
 30
0.0
 10
99.0459823704
 20
145.2725229887
 30
0.0
 10
98.5974082975
 20
145.2620117623
 30
0.0
 10
98.3148927112
 20
145.1576089677
 30
0.0
 10
98.1870427405
 20
145.0837951932
 30
0.0
  0
SPLINE
  5
2A7
100
AcDbEntity
  8
0
100
AcDbSpline
 62
7
  6
BYLAYER
 70
0
 71
3
 72
11
 73
7
 74
0
 42
0.0000001
 43
0.0000001
 44
0.0000000001
 40
0.0
 40
0.0
 40
0.0
 40
0.0
 40
0.2500787102
 40
0.4986790195
 40
0.7476890224
 40
1.0
 40
1.0
 40
1.0
 40
1.0
 10
98.1870427405
 20
145.0837951932
 30
0.0
 10
98.0719276872
 20
145.0173338829
 30
0.0
 10
97.8612467719
 20
144.8485010688
 30
0.0
 10
97.6356969344
 20
144.5151047584
 30
0.0
 10
97.5047936568
 20
144.1342678883
 30
0.0
 10
97.4795085567
 20
143.8666190372
 30
0.0
 10
97.4795085567
 20
143.7325093145
 30
0.0
  0
SPLINE
  5
2A8
100
AcDbEntity
  8
0
100
AcDbSpline
 62
7
  6
BYLAYER
 70
0
 71
3
 72
9
 73
5
 74
0
 42
0.0000001
 43
0.0000001
 44
0.0000000001
 40
0.0
 40
0.0
 40
0.0
 40
0.0
 40
0.2451382173
 40
1.0
 40
1.0
 40
1.0
 40
1.0
 10
97.4795085567
 20
143.7325093145
 30
0.0
 10
97.4795085567
 20
143.6928489083
 30
0.0
 10
97.4841977339
 20
143.5310753869
 30
0.0
 10
97.5066783011
 20
143.3699777383
 30
0.0
 10
97.5319626889
 20
143.2504962199
 30
0.0
  0
SPLINE
  5
2A9
100
AcDbEntity
  8
0
100
AcDbSpline
 62
7
  6
BYLAYER
 70
0
 71
3
 72
11
 73
7
 74
0
 42
0.0000001
 43
0.0000001
 44
0.0000000001
 40
0.0
 40
0.0
 40
0.0
 40
0.0
 40
0.2543582105
 40
0.5031931692
 40
0.7509679378
 40
1.0
 40
1.0
 40
1.0
 40
1.0
 10
98.6378442439
 20
141.526387695
 30
0.0
 10
98.762607374
 20
141.4366914207
 30
0.0
 10
99.0280324161
 20
141.2826381757
 30
0.0
 10
99.4696085676
 20
141.1570365533
 30
0.0
 10
99.9272176735
 20
141.163538763
 30
0.0
 10
100.2157462897
 20
141.2690712578
 30
0.0
 10
100.3460330749
 20
141.3442919193
 30
0.0
  0
SPLINE
  5
2AA
100
AcDbEntity
  8
0
100
AcDbSpline
 62
7
  6
BYLAYER
 70
0
 71
3
 72
11
 73
7
 74
0
 42
0.0000001
 43
0.0000001
 44
0.0000000001
 40
0.0
 40
0.0
 40
0.0
 40
0.0
 40
0.2500787102
 40
0.4986790195
 40
0.7476890224
 40
1.0
 40
1.0
 40
1.0
 40
1.0
 10
100.3460330749
 20
141.3442919193
 30
0.0
 10
100.4611481282
 20
141.4107532295
 30
0.0
 10
100.6718290435
 20
141.5795860437
 30
0.0
 10
100.897378881
 20
141.9129823541
 30
0.0
 10
101.0282821585
 20
142.2938192242
 30
0.0
 10
101.0535672586
 20
142.5614680753
 30
0.0
 10
101.0535672586
 20
142.695577798
 30
0.0
  0
SPLINE
  5
2AB
100
AcDbEntity
  8
0
100
AcDbSpline
 62
7
  6
BYLAYER
 70
0
 71
3
 72
11
 73
7
 74
0
 42
0.0000001
 43
0.0000001
 44
0.0000000001
 40
0.0
 40
0.0
 40
0.0
 40
0.0
 40
0.2500787102
 40
0.4986790195
 40
0.7476890224
 40
1.0
 40
1.0
 40
1.0
 40
1.0
 10
101.6032636975
 20
142.0701500248
 30
0.0
 10
101.7183787507
 20
142.1366113351
 30
0.0
 10
101.9290596661
 20
142.3054441493
 30
0.0
 10
102.1546095035
 20
142.6388404597
 30
0.0
 10
102.2855127811
 20
143.0196773298
 30
0.0
 10
102.3107978812
 20
143.2873261809
 30
0.0
 10
102.3107978812
 20
143.4214359036
 30
0.0
  0
SPLINE
  5
2AC
100
AcDbEntity
  8
0
100
AcDbSpline
 62
7
  6
BYLAYER
 70
0
 71
3
 72
9
 73
5
 74
0
 42
0.0000001
 43
0.0000001
 44
0.0000000001
 40
0.0
 40
0.0
 40
0.0
 40
0.0
 40
0.4981955279
 40
1.0
 40
1.0
 40
1.0
 40
1.0
 10
100.8785874714
 20
141.8925709092
 30
0.0
 10
101.0036497618
 20
141.8885155765
 30
0.0
 10
101.2570943661
 20
141.9125576072
 30
0.0
 10
101.4941144952
 20
142.0071330797
 30
0.0
 10
101.6032636975
 20
142.0701500248
 30
0.0
  0
SPLINE
  5
2AD
100
AcDbEntity
  8
0
100
AcDbSpline
 62
7
  6
BYLAYER
 70
0
 71
3
 72
9
 73
5
 74
0
 42
0.0000001
 43
0.0000001
 44
0.0000000001
 40
0.0
 40
0.0
 40
0.0
 40
0.0
 40
0.5013345137
 40
1.0
 40
1.0
 40
1.0
 40
1.0
 10
99.444273363
 20
145.8096532988
 30
0.0
 10
99.3236163621
 20
145.7399923627
 30
0.0
 10
99.103745134
 20
145.5611929093
 30
0.0
 10
98.9506332579
 20
145.3239198481
 30
0.0
 10
98.891883886
 20
145.1984083362
 30
0.0
  0
SPLINE
  5
2AE
100
AcDbEntity
  8
0
100
AcDbSpline
 62
7
  6
BYLAYER
 70
0
 71
3
 72
9
 73
5
 74
0
 42
0.0000001
 43
0.0000001
 44
0.0000000001
 40
0.0
 40
0.0
 40
0.0
 40
0.0
 40
0.2437474076
 40
1.0
 40
1.0
 40
1.0
 40
1.0
 10
102.3107978812
 20
143.4214359036
 30
0.0
 10
102.3107978812
 20
143.4776202997
 30
0.0
 10
102.301332921
 20
143.7080890511
 30
0.0
 10
102.2568307835
 20
143.9365956558
 30
0.0
 10
102.2077124567
 20
144.1038505647
 30
0.0
  0
SPLINE
  5
2AF
100
AcDbEntity
  8
0
100
AcDbSpline
 62
7
  6
BYLAYER
 70
0
 71
3
 72
14
 73
10
 74
0
 42
0.0000001
 43
0.0000001
 44
0.0000000001
 40
0.0
 40
0.0
 40
0.0
 40
0.0
 40
0.2619933279
 40
0.3924551136
 40
0.5188305672
 40
0.6410376618
 40
0.7607886954
 40
0.880076112
 40
1.0
 40
1.0
 40
1.0
 40
1.0
 10
102.2077124567
 20
144.1038505647
 30
0.0
 10
102.1168352728
 20
144.4133003386
 30
0.0
 10
101.8992940843
 20
144.8570219452
 30
0.0
 10
101.4925463308
 20
145.3517727823
 30
0.0
 10
101.1364975681
 20
145.6576729963
 30
0.0
 10
100.7376845104
 20
145.8809585279
 30
0.0
 10
100.303212993
 20
145.9983810943
 30
0.0
 10
99.8546389201
 20
145.9878698678
 30
0.0
 10
99.5721233338
 20
145.8834670732
 30
0.0
 10
99.444273363
 20
145.8096532988
 30
0.0
  0
SPLINE
  5
2B0
100
AcDbEntity
  8
0
100
AcDbSpline
 62
7
  6
BYLAYER
 70
0
 71
3
 72
9
 73
5
 74
0
 42
0.0000001
 43
0.0000001
 44
0.0000000001
 40
0.0
 40
0.0
 40
0.0
 40
0.0
 40
0.2437474076
 40
1.0
 40
1.0
 40
1.0
 40
1.0
 10
103.5680285037
 20
144.1472940092
 30
0.0
 10
103.5680285037
 20
144.2034784052
 30
0.0
 10
103.5585635436
 20
144.4339471567
 30
0.0
 10
103.5140614061
 20
144.6624537614
 30
0.0
 10
103.4649430793
 20
144.8297086703
 30
0.0
  0
SPLINE
  5
2B1
100
AcDbEntity
  8
0
100
AcDbSpline
 62
7
  6
BYLAYER
 70
0
 71
3
 72
14
 73
10
 74
0
 42
0.0000001
 43
0.0000001
 44
0.0000000001
 40
0.0
 40
0.0
 40
0.0
 40
0.0
 40
0.2619933279
 40
0.3924551136
 40
0.5188305672
 40
0.6410376618
 40
0.7607886954
 40
0.880076112
 40
1.0
 40
1.0
 40
1.0
 40
1.0
 10
103.4649430793
 20
144.8297086703
 30
0.0
 10
103.3740658954
 20
145.1391584442
 30
0.0
 10
103.1565247069
 20
145.5828800508
 30
0.0
 10
102.7497769534
 20
146.0776308879
 30
0.0
 10
102.3937281907
 20
146.3835311019
 30
0.0
 10
101.994915133
 20
146.6068166335
 30
0.0
 10
101.5604436156
 20
146.7242391999
 30
0.0
 10
101.1118695426
 20
146.7137279734
 30
0.0
 10
100.8293539564
 20
146.6093251788
 30
0.0
 10
100.7015039856
 20
146.5355114044
 30
0.0
  0
SPLINE
  5
2B2
100
AcDbEntity
  8
0
100
AcDbSpline
 62
7
  6
BYLAYER
 70
0
 71
3
 72
9
 73
5
 74
0
 42
0.0000001
 43
0.0000001
 44
0.0000000001
 40
0.0
 40
0.0
 40
0.0
 40
0.0
 40
0.5013345137
 40
1.0
 40
1.0
 40
1.0
 40
1.0
 10
100.7015039856
 20
146.5355114044
 30
0.0
 10
100.5808469847
 20
146.4658504682
 30
0.0
 10
100.3609757566
 20
146.2870510149
 30
0.0
 10
100.2078638804
 20
146.0497779536
 30
0.0
 10
100.1491145085
 20
145.9242664418
 30
0.0
  0
SPLINE
  5
2B3
100
AcDbEntity
  8
0
100
AcDbSpline
 62
7
  6
BYLAYER
 70
0
 71
3
 72
9
 73
5
 74
0
 42
0.0000001
 43
0.0000001
 44
0.0000000001
 40
0.0
 40
0.0
 40
0.0
 40
0.0
 40
0.4746856355
 40
1.0
 40
1.0
 40
1.0
 40
1.0
 10
153.2377399795
 20
146.4801831747
 30
0.0
 10
152.8290900375
 20
146.7161119913
 30
0.0
 10
151.8863634314
 20
147.0726009151
 30
0.0
 10
150.8939935795
 20
147.2078862618
 30
0.0
 10
150.372140697
 20
147.2267467932
 30
0.0
  0
SPLINE
  5
2B4
100
AcDbEntity
  8
0
100
AcDbSpline
 62
7
  6
BYLAYER
 70
0
 71
3
 72
9
 73
5
 74
0
 42
0.0000001
 43
0.0000001
 44
0.0000000001
 40
0.0
 40
0.0
 40
0.0
 40
0.0
 40
0.4981955279
 40
1.0
 40
1.0
 40
1.0
 40
1.0
 10
102.135818094
 20
142.6184290148
 30
0.0
 10
102.2608803844
 20
142.6143736821
 30
0.0
 10
102.5143249887
 20
142.6384157128
 30
0.0
 10
102.7513451177
 20
142.7329911853
 30
0.0
 10
102.86049432
 20
142.7960081304
 30
0.0
  0
SPLINE
  5
2B5
100
AcDbEntity
  8
0
100
AcDbSpline
 62
7
  6
BYLAYER
 70
0
 71
3
 72
11
 73
7
 74
0
 42
0.0000001
 43
0.0000001
 44
0.0000000001
 40
0.0
 40
0.0
 40
0.0
 40
0.0
 40
0.2500787102
 40
0.4986790195
 40
0.7476890224
 40
1.0
 40
1.0
 40
1.0
 40
1.0
 10
102.86049432
 20
142.7960081304
 30
0.0
 10
102.9756093733
 20
142.8624694407
 30
0.0
 10
103.1862902886
 20
143.0313022549
 30
0.0
 10
103.4118401261
 20
143.3646985653
 30
0.0
 10
103.5427434037
 20
143.7455354354
 30
0.0
 10
103.5680285037
 20
144.0131842864
 30
0.0
 10
103.5680285037
 20
144.1472940092
 30
0.0
  0
SPLINE
  5
2B6
100
AcDbEntity
  8
0
100
AcDbSpline
 62
7
  6
BYLAYER
 70
0
 71
3
 72
11
 73
7
 74
0
 42
0.0000001
 43
0.0000001
 44
0.0000000001
 40
0.0
 40
0.0
 40
0.0
 40
0.0
 40
0.2500787102
 40
0.4986790195
 40
0.7476890224
 40
1.0
 40
1.0
 40
1.0
 40
1.0
 10
104.1177249426
 20
143.521866236
 30
0.0
 10
104.2328399959
 20
143.5883275463
 30
0.0
 10
104.4435209112
 20
143.7571603605
 30
0.0
 10
104.6690707487
 20
144.0905566709
 30
0.0
 10
104.7999740262
 20
144.471393541
 30
0.0
 10
104.8252591263
 20
144.739042392
 30
0.0
 10
104.8252591263
 20
144.8731521148
 30
0.0
  0
SPLINE
  5
2B7
100
AcDbEntity
  8
0
100
AcDbSpline
 62
7
  6
BYLAYER
 70
0
 71
3
 72
9
 73
5
 74
0
 42
0.0000001
 43
0.0000001
 44
0.0000000001
 40
0.0
 40
0.0
 40
0.0
 40
0.0
 40
0.4981955279
 40
1.0
 40
1.0
 40
1.0
 40
1.0
 10
103.3930487166
 20
143.3442871204
 30
0.0
 10
103.5181110069
 20
143.3402317876
 30
0.0
 10
103.7715556112
 20
143.3642738184
 30
0.0
 10
104.0085757403
 20
143.4588492908
 30
0.0
 10
104.1177249426
 20
143.521866236
 30
0.0
  0
SPLINE
  5
2B8
100
AcDbEntity
  8
0
100
AcDbSpline
 62
7
  6
BYLAYER
 70
0
 71
3
 72
9
 73
5
 74
0
 42
0.0000001
 43
0.0000001
 44
0.0000000001
 40
0.0
 40
0.0
 40
0.0
 40
0.0
 40
0.5013345137
 40
1.0
 40
1.0
 40
1.0
 40
1.0
 10
101.9587346082
 20
147.26136951
 30
0.0
 10
101.8380776073
 20
147.1917085738
 30
0.0
 10
101.6182063791
 20
147.0129091205
 30
0.0
 10
101.465094503
 20
146.7756360592
 30
0.0
 10
101.4063451311
 20
146.6501245474
 30
0.0
  0
SPLINE
  5
2B9
100
AcDbEntity
  8
0
100
AcDbSpline
 62
7
  6
BYLAYER
 70
0
 71
3
 72
9
 73
5
 74
0
 42
0.0000001
 43
0.0000001
 44
0.0000000001
 40
0.0
 40
0.0
 40
0.0
 40
0.0
 40
0.2437474076
 40
1.0
 40
1.0
 40
1.0
 40
1.0
 10
104.8252591263
 20
144.8731521148
 30
0.0
 10
104.8252591263
 20
144.9293365108
 30
0.0
 10
104.8157941661
 20
145.1598052623
 30
0.0
 10
104.7712920286
 20
145.388311867
 30
0.0
 10
104.7221737019
 20
145.5555667759
 30
0.0
  0
SPLINE
  5
2BA
100
AcDbEntity
  8
0
100
AcDbSpline
 62
7
  6
BYLAYER
 70
0
 71
3
 72
14
 73
10
 74
0
 42
0.0000001
 43
0.0000001
 44
0.0000000001
 40
0.0
 40
0.0
 40
0.0
 40
0.0
 40
0.2619933279
 40
0.3924551136
 40
0.5188305672
 40
0.6410376618
 40
0.7607886954
 40
0.880076112
 40
1.0
 40
1.0
 40
1.0
 40
1.0
 10
104.7221737019
 20
145.5555667759
 30
0.0
 10
104.631296518
 20
145.8650165498
 30
0.0
 10
104.4137553295
 20
146.3087381564
 30
0.0
 10
104.0070075759
 20
146.8034889935
 30
0.0
 10
103.6509588133
 20
147.1093892074
 30
0.0
 10
103.2521457556
 20
147.3326747391
 30
0.0
 10
102.8176742381
 20
147.4500973055
 30
0.0
 10
102.3691001652
 20
147.439586079
 30
0.0
 10
102.0865845789
 20
147.3351832844
 30
0.0
 10
101.9587346082
 20
147.26136951
 30
0.0
  0
SPLINE
  5
2BB
100
AcDbEntity
  8
0
100
AcDbSpline
 62
7
  6
BYLAYER
 70
0
 71
3
 72
9
 73
5
 74
0
 42
0.0000001
 43
0.0000001
 44
0.0000000001
 40
0.0
 40
0.0
 40
0.0
 40
0.0
 40
0.2437474076
 40
1.0
 40
1.0
 40
1.0
 40
1.0
 10
106.0824897489
 20
145.5990102203
 30
0.0
 10
106.0824897489
 20
145.6551946164
 30
0.0
 10
106.0730247887
 20
145.8856633679
 30
0.0
 10
106.0285226512
 20
146.1141699725
 30
0.0
 10
105.9794043244
 20
146.2814248815
 30
0.0
  0
SPLINE
  5
2BC
100
AcDbEntity
  8
0
100
AcDbSpline
 62
7
  6
BYLAYER
 70
0
 71
3
 72
14
 73
10
 74
0
 42
0.0000001
 43
0.0000001
 44
0.0000000001
 40
0.0
 40
0.0
 40
0.0
 40
0.0
 40
0.2619933279
 40
0.3924551136
 40
0.5188305672
 40
0.6410376618
 40
0.7607886954
 40
0.880076112
 40
1.0
 40
1.0
 40
1.0
 40
1.0
 10
105.9794043244
 20
146.2814248815
 30
0.0
 10
105.8885271405
 20
146.5908746554
 30
0.0
 10
105.670985952
 20
147.034596262
 30
0.0
 10
105.2642381985
 20
147.529347099
 30
0.0
 10
104.9081894358
 20
147.835247313
 30
0.0
 10
104.5093763781
 20
148.0585328447
 30
0.0
 10
104.0749048607
 20
148.175955411
 30
0.0
 10
103.6263307878
 20
148.1654441846
 30
0.0
 10
103.3438152015
 20
148.06104139
 30
0.0
 10
103.2159652307
 20
147.9872276156
 30
0.0
  0
SPLINE
  5
2BD
100
AcDbEntity
  8
0
100
AcDbSpline
 62
7
  6
BYLAYER
 70
0
 71
3
 72
9
 73
5
 74
0
 42
0.0000001
 43
0.0000001
 44
0.0000000001
 40
0.0
 40
0.0
 40
0.0
 40
0.0
 40
0.5013345137
 40
1.0
 40
1.0
 40
1.0
 40
1.0
 10
103.2159652307
 20
147.9872276156
 30
0.0
 10
103.0953082298
 20
147.9175666794
 30
0.0
 10
102.8754370017
 20
147.7387672261
 30
0.0
 10
102.7223251256
 20
147.5014941648
 30
0.0
 10
102.6635757537
 20
147.3759826529
 30
0.0
  0
SPLINE
  5
2BE
100
AcDbEntity
  8
0
100
AcDbSpline
 62
7
  6
BYLAYER
 70
0
 71
3
 72
9
 73
5
 74
0
 42
0.0000001
 43
0.0000001
 44
0.0000000001
 40
0.0
 40
0.0
 40
0.0
 40
0.0
 40
0.4981955279
 40
1.0
 40
1.0
 40
1.0
 40
1.0
 10
104.6502793391
 20
144.0701452259
 30
0.0
 10
104.7753416295
 20
144.0660898932
 30
0.0
 10
105.0287862338
 20
144.0901319239
 30
0.0
 10
105.2658063629
 20
144.1847073964
 30
0.0
 10
105.3749555652
 20
144.2477243416
 30
0.0
  0
SPLINE
  5
2BF
100
AcDbEntity
  8
0
100
AcDbSpline
 62
7
  6
BYLAYER
 70
0
 71
3
 72
11
 73
7
 74
0
 42
0.0000001
 43
0.0000001
 44
0.0000000001
 40
0.0
 40
0.0
 40
0.0
 40
0.0
 40
0.2500787102
 40
0.4986790195
 40
0.7476890224
 40
1.0
 40
1.0
 40
1.0
 40
1.0
 10
105.3749555652
 20
144.2477243416
 30
0.0
 10
105.4900706184
 20
144.3141856519
 30
0.0
 10
105.7007515338
 20
144.4830184661
 30
0.0
 10
105.9263013712
 20
144.8164147765
 30
0.0
 10
106.0572046488
 20
145.1972516466
 30
0.0
 10
106.0824897489
 20
145.4649004976
 30
0.0
 10
106.0824897489
 20
145.5990102203
 30
0.0
  0
SPLINE
  5
2C0
100
AcDbEntity
  8
0
100
AcDbSpline
 62
7
  6
BYLAYER
 70
0
 71
3
 72
11
 73
7
 74
0
 42
0.0000001
 43
0.0000001
 44
0.0000000001
 40
0.0
 40
0.0
 40
0.0
 40
0.0
 40
0.2500787102
 40
0.4986790195
 40
0.7476890224
 40
1.0
 40
1.0
 40
1.0
 40
1.0
 10
106.6321861877
 20
144.9735824472
 30
0.0
 10
106.747301241
 20
145.0400437575
 30
0.0
 10
106.9579821563
 20
145.2088765716
 30
0.0
 10
107.1835319938
 20
145.542272882
 30
0.0
 10
107.3144352713
 20
145.9231097521
 30
0.0
 10
107.3397203714
 20
146.1907586032
 30
0.0
 10
107.3397203714
 20
146.3248683259
 30
0.0
  0
SPLINE
  5
2C1
100
AcDbEntity
  8
0
100
AcDbSpline
 62
7
  6
BYLAYER
 70
0
 71
3
 72
9
 73
5
 74
0
 42
0.0000001
 43
0.0000001
 44
0.0000000001
 40
0.0
 40
0.0
 40
0.0
 40
0.0
 40
0.4981955279
 40
1.0
 40
1.0
 40
1.0
 40
1.0
 10
105.9075099617
 20
144.7960033315
 30
0.0
 10
106.0325722521
 20
144.7919479988
 30
0.0
 10
106.2860168564
 20
144.8159900295
 30
0.0
 10
106.5230369854
 20
144.910565502
 30
0.0
 10
106.6321861877
 20
144.9735824472
 30
0.0
  0
SPLINE
  5
2C2
100
AcDbEntity
  8
0
100
AcDbSpline
 62
7
  6
BYLAYER
 70
0
 71
3
 72
9
 73
5
 74
0
 42
0.0000001
 43
0.0000001
 44
0.0000000001
 40
0.0
 40
0.0
 40
0.0
 40
0.0
 40
0.5013345137
 40
1.0
 40
1.0
 40
1.0
 40
1.0
 10
104.4731958533
 20
148.7130857211
 30
0.0
 10
104.3525388524
 20
148.643424785
 30
0.0
 10
104.1326676243
 20
148.4646253316
 30
0.0
 10
103.9795557481
 20
148.2273522704
 30
0.0
 10
103.9208063762
 20
148.1018407585
 30
0.0
  0
SPLINE
  5
2C3
100
AcDbEntity
  8
0
100
AcDbSpline
 62
7
  6
BYLAYER
 70
0
 71
3
 72
9
 73
5
 74
0
 42
0.0000001
 43
0.0000001
 44
0.0000000001
 40
0.0
 40
0.0
 40
0.0
 40
0.0
 40
0.2437474076
 40
1.0
 40
1.0
 40
1.0
 40
1.0
 10
107.3397203714
 20
146.3248683259
 30
0.0
 10
107.3397203714
 20
146.381052722
 30
0.0
 10
107.3302554113
 20
146.6115214734
 30
0.0
 10
107.2857532738
 20
146.8400280781
 30
0.0
 10
107.236634947
 20
147.007282987
 30
0.0
  0
SPLINE
  5
2C4
100
AcDbEntity
  8
0
100
AcDbSpline
 62
7
  6
BYLAYER
 70
0
 71
3
 72
14
 73
10
 74
0
 42
0.0000001
 43
0.0000001
 44
0.0000000001
 40
0.0
 40
0.0
 40
0.0
 40
0.0
 40
0.2619933279
 40
0.3924551136
 40
0.5188305672
 40
0.6410376618
 40
0.7607886954
 40
0.880076112
 40
1.0
 40
1.0
 40
1.0
 40
1.0
 10
107.236634947
 20
147.007282987
 30
0.0
 10
107.1457577631
 20
147.3167327609
 30
0.0
 10
106.9282165746
 20
147.7604543676
 30
0.0
 10
106.5214688211
 20
148.2552052046
 30
0.0
 10
106.1654200584
 20
148.5611054186
 30
0.0
 10
105.7666070007
 20
148.7843909503
 30
0.0
 10
105.3321354833
 20
148.9018135166
 30
0.0
 10
104.8835614103
 20
148.8913022902
 30
0.0
 10
104.6010458241
 20
148.7868994956
 30
0.0
 10
104.4731958533
 20
148.7130857211
 30
0.0
  0
SPLINE
  5
2C5
100
AcDbEntity
  8
0
100
AcDbSpline
 62
7
  6
BYLAYER
 70
0
 71
3
 72
9
 73
5
 74
0
 42
0.0000001
 43
0.0000001
 44
0.0000000001
 40
0.0
 40
0.0
 40
0.0
 40
0.0
 40
0.2437474076
 40
1.0
 40
1.0
 40
1.0
 40
1.0
 10
108.596950994
 20
147.0507264315
 30
0.0
 10
108.596950994
 20
147.1069108276
 30
0.0
 10
108.5874860338
 20
147.337379579
 30
0.0
 10
108.5429838963
 20
147.5658861837
 30
0.0
 10
108.4938655696
 20
147.7331410926
 30
0.0
  0
SPLINE
  5
2C6
100
AcDbEntity
  8
0
100
AcDbSpline
 62
7
  6
BYLAYER
 70
0
 71
3
 72
14
 73
10
 74
0
 42
0.0000001
 43
0.0000001
 44
0.0000000001
 40
0.0
 40
0.0
 40
0.0
 40
0.0
 40
0.2619933279
 40
0.3924551136
 40
0.5188305672
 40
0.6410376618
 40
0.7607886954
 40
0.880076112
 40
1.0
 40
1.0
 40
1.0
 40
1.0
 10
108.4938655696
 20
147.7331410926
 30
0.0
 10
108.4029883857
 20
148.0425908665
 30
0.0
 10
108.1854471972
 20
148.4863124732
 30
0.0
 10
107.7786994436
 20
148.9810633102
 30
0.0
 10
107.422650681
 20
149.2869635242
 30
0.0
 10
107.0238376233
 20
149.5102490558
 30
0.0
 10
106.5893661058
 20
149.6276716222
 30
0.0
 10
106.1407920329
 20
149.6171603958
 30
0.0
 10
105.8582764466
 20
149.5127576012
 30
0.0
 10
105.7304264759
 20
149.4389438267
 30
0.0
  0
SPLINE
  5
2C7
100
AcDbEntity
  8
0
100
AcDbSpline
 62
7
  6
BYLAYER
 70
0
 71
3
 72
9
 73
5
 74
0
 42
0.0000001
 43
0.0000001
 44
0.0000000001
 40
0.0
 40
0.0
 40
0.0
 40
0.0
 40
0.5013345137
 40
1.0
 40
1.0
 40
1.0
 40
1.0
 10
105.7304264759
 20
149.4389438267
 30
0.0
 10
105.609769475
 20
149.3692828906
 30
0.0
 10
105.3898982468
 20
149.1904834372
 30
0.0
 10
105.2367863707
 20
148.953210376
 30
0.0
 10
105.1780369988
 20
148.8276988641
 30
0.0
  0
SPLINE
  5
2C8
100
AcDbEntity
  8
0
100
AcDbSpline
 62
7
  6
BYLAYER
 70
0
 71
3
 72
9
 73
5
 74
0
 42
0.0000001
 43
0.0000001
 44
0.0000000001
 40
0.0
 40
0.0
 40
0.0
 40
0.0
 40
0.4981955279
 40
1.0
 40
1.0
 40
1.0
 40
1.0
 10
107.1647405843
 20
145.5218614371
 30
0.0
 10
107.2898028746
 20
145.5178061044
 30
0.0
 10
107.5432474789
 20
145.5418481351
 30
0.0
 10
107.780267608
 20
145.6364236076
 30
0.0
 10
107.8894168103
 20
145.6994405528
 30
0.0
  0
SPLINE
  5
2C9
100
AcDbEntity
  8
0
100
AcDbSpline
 62
7
  6
BYLAYER
 70
0
 71
3
 72
11
 73
7
 74
0
 42
0.0000001
 43
0.0000001
 44
0.0000000001
 40
0.0
 40
0.0
 40
0.0
 40
0.0
 40
0.2500787102
 40
0.4986790195
 40
0.7476890224
 40
1.0
 40
1.0
 40
1.0
 40
1.0
 10
107.8894168103
 20
145.6994405528
 30
0.0
 10
108.0045318636
 20
145.765901863
 30
0.0
 10
108.2152127789
 20
145.9347346772
 30
0.0
 10
108.4407626163
 20
146.2681309876
 30
0.0
 10
108.5716658939
 20
146.6489678577
 30
0.0
 10
108.596950994
 20
146.9166167088
 30
0.0
 10
108.596950994
 20
147.0507264315
 30
0.0
  0
SPLINE
  5
2CA
100
AcDbEntity
  8
0
100
AcDbSpline
 62
7
  6
BYLAYER
 70
0
 71
3
 72
11
 73
7
 74
0
 42
0.0000001
 43
0.0000001
 44
0.0000000001
 40
0.0
 40
0.0
 40
0.0
 40
0.0
 40
0.2500787102
 40
0.4986790195
 40
0.7476890224
 40
1.0
 40
1.0
 40
1.0
 40
1.0
 10
109.1466474329
 20
146.4252986583
 30
0.0
 10
109.2617624861
 20
146.4917599686
 30
0.0
 10
109.4724434015
 20
146.6605927828
 30
0.0
 10
109.6979932389
 20
146.9939890932
 30
0.0
 10
109.8288965165
 20
147.3748259633
 30
0.0
 10
109.8541816166
 20
147.6424748144
 30
0.0
 10
109.8541816166
 20
147.7765845371
 30
0.0
  0
SPLINE
  5
2CB
100
AcDbEntity
  8
0
100
AcDbSpline
 62
7
  6
BYLAYER
 70
0
 71
3
 72
9
 73
5
 74
0
 42
0.0000001
 43
0.0000001
 44
0.0000000001
 40
0.0
 40
0.0
 40
0.0
 40
0.0
 40
0.2590653992
 40
1.0
 40
1.0
 40
1.0
 40
1.0
 10
118.7535527361
 20
174.6853486642
 30
0.0
 10
118.7535527361
 20
174.6299861253
 30
0.0
 10
118.7492671914
 20
174.4163303091
 30
0.0
 10
118.7274499592
 20
174.2028432519
 30
0.0
 10
118.6995294682
 20
174.0469858832
 30
0.0
  0
SPLINE
  5
2CC
100
AcDbEntity
  8
0
100
AcDbSpline
 62
7
  6
BYLAYER
 70
0
 71
3
 72
9
 73
5
 74
0
 42
0.0000001
 43
0.0000001
 44
0.0000000001
 40
0.0
 40
0.0
 40
0.0
 40
0.0
 40
0.2662485177
 40
1.0
 40
1.0
 40
1.0
 40
1.0
 10
118.6995294682
 20
174.0469858832
 30
0.0
 10
118.6859680559
 20
173.9712835595
 30
0.0
 10
118.6246807141
 20
173.6891191412
 30
0.0
 10
118.5177804496
 20
173.4152622778
 30
0.0
 10
118.4095364971
 20
173.2330388776
 30
0.0
  0
SPLINE
  5
2CD
100
AcDbEntity
  8
0
100
AcDbSpline
 62
7
  6
BYLAYER
 70
0
 71
3
 72
9
 73
5
 74
0
 42
0.0000001
 43
0.0000001
 44
0.0000000001
 40
0.0
 40
0.0
 40
0.0
 40
0.0
 40
0.5112709649
 40
1.0
 40
1.0
 40
1.0
 40
1.0
 10
118.4095364971
 20
173.2330388776
 30
0.0
 10
118.337601981
 20
173.1119406378
 30
0.0
 10
118.1698308603
 20
172.889561877
 30
0.0
 10
117.9495326285
 20
172.7178300636
 30
0.0
 10
117.832928968
 20
172.6505093622
 30
0.0
  0
SPLINE
  5
2CE
100
AcDbEntity
  8
0
100
AcDbSpline
 62
7
  6
BYLAYER
 70
0
 71
3
 72
9
 73
5
 74
0
 42
0.0000001
 43
0.0000001
 44
0.0000000001
 40
0.0
 40
0.0
 40
0.0
 40
0.0
 40
0.4981955279
 40
1.0
 40
1.0
 40
1.0
 40
1.0
 10
108.4219712068
 20
146.2477195427
 30
0.0
 10
108.5470334972
 20
146.24366421
 30
0.0
 10
108.8004781015
 20
146.2677062407
 30
0.0
 10
109.0374982305
 20
146.3622817132
 30
0.0
 10
109.1466474329
 20
146.4252986583
 30
0.0
  0
SPLINE
  5
2CF
100
AcDbEntity
  8
0
100
AcDbSpline
 62
7
  6
BYLAYER
 70
0
 71
3
 72
9
 73
5
 74
0
 42
0.0000001
 43
0.0000001
 44
0.0000000001
 40
0.0
 40
0.0
 40
0.0
 40
0.0
 40
0.5013345137
 40
1.0
 40
1.0
 40
1.0
 40
1.0
 10
106.9876570984
 20
150.1648019323
 30
0.0
 10
106.8670000975
 20
150.0951409962
 30
0.0
 10
106.6471288694
 20
149.9163415428
 30
0.0
 10
106.4940169933
 20
149.6790684816
 30
0.0
 10
106.4352676214
 20
149.5535569697
 30
0.0
  0
SPLINE
  5
2D0
100
AcDbEntity
  8
0
100
AcDbSpline
 62
7
  6
BYLAYER
 70
0
 71
3
 72
9
 73
5
 74
0
 42
0.0000001
 43
0.0000001
 44
0.0000000001
 40
0.0
 40
0.0
 40
0.0
 40
0.0
 40
0.2437474076
 40
1.0
 40
1.0
 40
1.0
 40
1.0
 10
109.8541816166
 20
147.7765845371
 30
0.0
 10
109.8541816166
 20
147.8327689332
 30
0.0
 10
109.8447166564
 20
148.0632376846
 30
0.0
 10
109.8002145189
 20
148.2917442893
 30
0.0
 10
109.7510961921
 20
148.4589991982
 30
0.0
  0
SPLINE
  5
2D1
100
AcDbEntity
  8
0
100
AcDbSpline
 62
7
  6
BYLAYER
 70
0
 71
3
 72
9
 73
5
 74
0
 42
0.0000001
 43
0.0000001
 44
0.0000000001
 40
0.0
 40
0.0
 40
0.0
 40
0.0
 40
0.5068455561
 40
1.0
 40
1.0
 40
1.0
 40
1.0
 10
109.7510961921
 20
148.4589991982
 30
0.0
 10
109.6569575305
 20
148.7795547691
 30
0.0
 10
109.3586385717
 20
149.3813940687
 30
0.0
 10
108.8840630344
 20
149.862589065
 30
0.0
 10
108.6118619248
 20
150.0402849427
 30
0.0
  0
SPLINE
  5
2D2
100
AcDbEntity
  8
0
100
AcDbSpline
 62
7
  6
BYLAYER
 70
0
 71
3
 72
11
 73
7
 74
0
 42
0.0000001
 43
0.0000001
 44
0.0000000001
 40
0.0
 40
0.0
 40
0.0
 40
0.0
 40
0.2532914889
 40
0.5022599719
 40
0.7504077871
 40
1.0
 40
1.0
 40
1.0
 40
1.0
 10
108.6118619248
 20
150.0402849427
 30
0.0
 10
108.4908732163
 20
150.1192677021
 30
0.0
 10
108.2346946833
 20
150.2534009015
 30
0.0
 10
107.8140846791
 20
150.3556937368
 30
0.0
 10
107.3823026672
 20
150.3382101775
 30
0.0
 10
107.1109593524
 20
150.2359900969
 30
0.0
 10
106.9876570984
 20
150.1648019323
 30
0.0
  0
SPLINE
  5
2D3
100
AcDbEntity
  8
0
100
AcDbSpline
 62
7
  6
BYLAYER
 70
0
 71
3
 72
9
 73
5
 74
0
 42
0.0000001
 43
0.0000001
 44
0.0000000001
 40
0.0
 40
0.0
 40
0.0
 40
0.0
 40
0.2437474076
 40
1.0
 40
1.0
 40
1.0
 40
1.0
 10
111.1114122391
 20
148.5024426427
 30
0.0
 10
111.1114122391
 20
148.5586270387
 30
0.0
 10
111.101947279
 20
148.7890957902
 30
0.0
 10
111.0574451415
 20
149.0176023949
 30
0.0
 10
111.0083268147
 20
149.1848573038
 30
0.0
  0
SPLINE
  5
2D4
100
AcDbEntity
  8
0
100
AcDbSpline
 62
7
  6
BYLAYER
 70
0
 71
3
 72
14
 73
10
 74
0
 42
0.0000001
 43
0.0000001
 44
0.0000000001
 40
0.0
 40
0.0
 40
0.0
 40
0.0
 40
0.2619933279
 40
0.3924551136
 40
0.5188305672
 40
0.6410376618
 40
0.7607886954
 40
0.880076112
 40
1.0
 40
1.0
 40
1.0
 40
1.0
 10
111.0083268147
 20
149.1848573038
 30
0.0
 10
110.9174496308
 20
149.4943070777
 30
0.0
 10
110.6999084423
 20
149.9380286843
 30
0.0
 10
110.2931606887
 20
150.4327795214
 30
0.0
 10
109.9371119261
 20
150.7386797354
 30
0.0
 10
109.5382988684
 20
150.961965267
 30
0.0
 10
109.103827351
 20
151.0793878334
 30
0.0
 10
108.655253278
 20
151.0688766069
 30
0.0
 10
108.3727376918
 20
150.9644738123
 30
0.0
 10
108.244887721
 20
150.8906600379
 30
0.0
  0
SPLINE
  5
2D5
100
AcDbEntity
  8
0
100
AcDbSpline
 62
7
  6
BYLAYER
 70
0
 71
3
 72
9
 73
5
 74
0
 42
0.0000001
 43
0.0000001
 44
0.0000000001
 40
0.0
 40
0.0
 40
0.0
 40
0.0
 40
0.2646901925
 40
1.0
 40
1.0
 40
1.0
 40
1.0
 10
115.9696587571
 20
173.596492639
 30
0.0
 10
116.0326899759
 20
173.5601023711
 30
0.0
 10
116.2748817267
 20
173.4300610214
 30
0.0
 10
116.5345628905
 20
173.3303690313
 30
0.0
 10
116.7312863901
 20
173.2836806511
 30
0.0
  0
SPLINE
  5
2D6
100
AcDbEntity
  8
0
100
AcDbSpline
 62
7
  6
BYLAYER
 70
0
 71
3
 72
9
 73
5
 74
0
 42
0.0000001
 43
0.0000001
 44
0.0000000001
 40
0.0
 40
0.0
 40
0.0
 40
0.0
 40
0.2584669363
 40
1.0
 40
1.0
 40
1.0
 40
1.0
 10
116.7312863901
 20
173.2836806511
 30
0.0
 10
116.7641123161
 20
173.2758900755
 30
0.0
 10
116.8917698506
 20
173.2486479483
 30
0.0
 10
117.0221097146
 20
173.2334137665
 30
0.0
 10
117.1188503684
 20
173.2302482509
 30
0.0
  0
SPLINE
  5
2D7
100
AcDbEntity
  8
0
100
AcDbSpline
 62
7
  6
BYLAYER
 70
0
 71
3
 72
9
 73
5
 74
0
 42
0.0000001
 43
0.0000001
 44
0.0000000001
 40
0.0
 40
0.0
 40
0.0
 40
0.0
 40
0.5134517394
 40
1.0
 40
1.0
 40
1.0
 40
1.0
 10
117.1188503684
 20
173.2302482509
 30
0.0
 10
117.2529734966
 20
173.2258595184
 30
0.0
 10
117.5168307235
 20
173.2478827309
 30
0.0
 10
117.7644637705
 20
173.3443270193
 30
0.0
 10
117.8746162565
 20
173.4078642218
 30
0.0
  0
SPLINE
  5
2D8
100
AcDbEntity
  8
0
100
AcDbSpline
 62
7
  6
BYLAYER
 70
0
 71
3
 72
9
 73
5
 74
0
 42
0.0000001
 43
0.0000001
 44
0.0000000001
 40
0.0
 40
0.0
 40
0.0
 40
0.0
 40
0.5013345137
 40
1.0
 40
1.0
 40
1.0
 40
1.0
 10
108.244887721
 20
150.8906600379
 30
0.0
 10
108.1242307201
 20
150.8209991017
 30
0.0
 10
107.904359492
 20
150.6421996484
 30
0.0
 10
107.7512476158
 20
150.4049265871
 30
0.0
 10
107.6924982439
 20
150.2794150753
 30
0.0
  0
SPLINE
  5
2D9
100
AcDbEntity
  8
0
100
AcDbSpline
 62
7
  6
BYLAYER
 70
0
 71
3
 72
9
 73
5
 74
0
 42
0.0000001
 43
0.0000001
 44
0.0000000001
 40
0.0
 40
0.0
 40
0.0
 40
0.0
 40
0.4981955279
 40
1.0
 40
1.0
 40
1.0
 40
1.0
 10
109.6792018294
 20
146.9735776483
 30
0.0
 10
109.8042641198
 20
146.9695223156
 30
0.0
 10
110.0577087241
 20
146.9935643463
 30
0.0
 10
110.2947288531
 20
147.0881398188
 30
0.0
 10
110.4038780554
 20
147.1511567639
 30
0.0
  0
SPLINE
  5
2DA
100
AcDbEntity
  8
0
100
AcDbSpline
 62
7
  6
BYLAYER
 70
0
 71
3
 72
11
 73
7
 74
0
 42
0.0000001
 43
0.0000001
 44
0.0000000001
 40
0.0
 40
0.0
 40
0.0
 40
0.0
 40
0.2500787102
 40
0.4986790195
 40
0.7476890224
 40
1.0
 40
1.0
 40
1.0
 40
1.0
 10
110.4038780554
 20
147.1511567639
 30
0.0
 10
110.5189931087
 20
147.2176180742
 30
0.0
 10
110.729674024
 20
147.3864508884
 30
0.0
 10
110.9552238615
 20
147.7198471988
 30
0.0
 10
111.086127139
 20
148.1006840689
 30
0.0
 10
111.1114122391
 20
148.3683329199
 30
0.0
 10
111.1114122391
 20
148.5024426427
 30
0.0
  0
SPLINE
  5
2DB
100
AcDbEntity
  8
0
100
AcDbSpline
 62
7
  6
BYLAYER
 70
0
 71
3
 72
11
 73
7
 74
0
 42
0.0000001
 43
0.0000001
 44
0.0000000001
 40
0.0
 40
0.0
 40
0.0
 40
0.0
 40
0.2177738129
 40
0.4509331436
 40
0.7102292874
 40
1.0
 40
1.0
 40
1.0
 40
1.0
 10
105.052662783
 20
158.2862977928
 30
0.0
 10
104.7175263858
 20
158.0928185328
 30
0.0
 10
104.090376425
 20
157.5657110304
 30
0.0
 10
103.422983113
 20
156.4742492948
 30
0.0
 10
103.0262204313
 20
155.1291908192
 30
0.0
 10
102.9483677667
 20
154.1501697101
 30
0.0
 10
102.9483677667
 20
153.6352575347
 30
0.0
  0
SPLINE
  5
2DC
100
AcDbEntity
  8
0
100
AcDbSpline
 62
7
  6
BYLAYER
 70
0
 71
3
 72
17
 73
13
 74
0
 42
0.0000001
 43
0.0000001
 44
0.0000000001
 40
0.0
 40
0.0
 40
0.0
 40
0.0
 40
0.0428636791
 40
0.0875947337
 40
0.1355842181
 40
0.1877152053
 40
0.3052494057
 40
0.4390064105
 40
0.5832554994
 40
0.7301914712
 40
0.8715203154
 40
1.0
 40
1.0
 40
1.0
 40
1.0
 10
108.6971163611
 20
160.3898011611
 30
0.0
 10
108.9494022059
 20
160.5295507793
 30
0.0
 10
109.5043673934
 20
160.7490296334
 30
0.0
 10
110.4165325688
 20
160.8690512792
 30
0.0
 10
111.3942061739
 20
160.7854858551
 30
0.0
 10
112.8123631781
 20
160.3943641
 30
0.0
 10
114.6216252345
 20
159.3909207426
 30
0.0
 10
116.6188058571
 20
157.6087305273
 30
0.0
 10
118.3821773056
 20
155.3395828875
 30
0.0
 10
119.7687807472
 20
152.7654160132
 30
0.0
 10
120.6681774649
 20
150.0956244667
 30
0.0
 10
120.9089248747
 20
148.2781549027
 30
0.0
 10
120.9089248747
 20
147.4136857045
 30
0.0
  0
SPLINE
  5
2DD
100
AcDbEntity
  8
0
100
AcDbSpline
 62
7
  6
BYLAYER
 70
0
 71
3
 72
14
 73
10
 74
0
 42
0.0000001
 43
0.0000001
 44
0.0000000001
 40
0.0
 40
0.0
 40
0.0
 40
0.0
 40
0.1213285412
 40
0.2538817873
 40
0.392851929
 40
0.5327177017
 40
0.6677675725
 40
0.7929428907
 40
1.0
 40
1.0
 40
1.0
 40
1.0
 10
133.9302457758
 20
166.3380516834
 30
0.0
 10
133.9302457758
 20
166.0650205782
 30
0.0
 10
133.9944939396
 20
165.4930698397
 30
0.0
 10
134.2413874942
 20
164.6408038392
 30
0.0
 10
134.6298085565
 20
163.7966797137
 30
0.0
 10
135.1356246323
 20
163.011490831
 30
0.0
 10
135.7319514367
 20
162.3298485765
 30
0.0
 10
136.5397289538
 20
161.660658714
 30
0.0
 10
137.2626970219
 20
161.335053255
 30
0.0
 10
137.7278402878
 20
161.3076465738
 30
0.0
  0
SPLINE
  5
2DE
100
AcDbEntity
  8
0
100
AcDbSpline
 62
7
  6
BYLAYER
 70
0
 71
3
 72
9
 73
5
 74
0
 42
0.0000001
 43
0.0000001
 44
0.0000000001
 40
0.0
 40
0.0
 40
0.0
 40
0.0
 40
0.5148562488
 40
1.0
 40
1.0
 40
1.0
 40
1.0
 10
137.7278402878
 20
161.3076465738
 30
0.0
 10
137.8699329413
 20
161.2992743402
 30
0.0
 10
138.1497708004
 20
161.3163010157
 30
0.0
 10
138.4131562627
 20
161.4160535561
 30
0.0
 10
138.529285151
 20
161.483161723
 30
0.0
  0
SPLINE
  5
2DF
100
AcDbEntity
  8
0
100
AcDbSpline
 62
7
  6
BYLAYER
 70
0
 71
3
 72
9
 73
5
 74
0
 42
0.0000001
 43
0.0000001
 44
0.0000000001
 40
0.0
 40
0.0
 40
0.0
 40
0.0
 40
0.481729996
 40
1.0
 40
1.0
 40
1.0
 40
1.0
 10
110.0752081594
 20
162.6525049674
 30
0.0
 10
109.6829664704
 20
162.4260574456
 30
0.0
 10
108.950775969
 20
161.8016805312
 30
0.0
 10
108.4674802672
 20
160.9769509342
 30
0.0
 10
108.2758624701
 20
160.528939704
 30
0.0
  0
SPLINE
  5
2E0
100
AcDbEntity
  8
0
100
AcDbSpline
 62
7
  6
BYLAYER
 70
0
 71
3
 72
17
 73
13
 74
0
 42
0.0000001
 43
0.0000001
 44
0.0000000001
 40
0.0
 40
0.0
 40
0.0
 40
0.0
 40
0.0428585476
 40
0.087488526
 40
0.1353232368
 40
0.1872867882
 40
0.3045518633
 40
0.4382202219
 40
0.5825647156
 40
0.7297203973
 40
0.8713076868
 40
1.0
 40
1.0
 40
1.0
 40
1.0
 10
117.2593805611
 20
166.8002700705
 30
0.0
 10
117.5411650029
 20
166.9629543961
 30
0.0
 10
118.1623055826
 20
167.2211754928
 30
0.0
 10
119.1876723307
 20
167.3714336831
 30
0.0
 10
120.2888112718
 20
167.2903867374
 30
0.0
 10
121.8887710999
 20
166.8648478823
 30
0.0
 10
123.9340056635
 20
165.7464072959
 30
0.0
 10
126.1937254492
 20
163.7452274159
 30
0.0
 10
128.1911651096
 20
161.1885499798
 30
0.0
 10
129.763075756
 20
158.2829471188
 30
0.0
 10
130.7832565499
 20
155.2667313365
 30
0.0
 10
131.0565795202
 20
153.2124714073
 30
0.0
 10
131.0565795202
 20
152.2354617231
 30
0.0
  0
SPLINE
  5
2E1
100
AcDbEntity
  8
0
100
AcDbSpline
 62
7
  6
BYLAYER
 70
0
 71
3
 72
11
 73
7
 74
0
 42
0.0000001
 43
0.0000001
 44
0.0000000001
 40
0.0
 40
0.0
 40
0.0
 40
0.0
 40
0.2896403952
 40
0.5491094116
 40
0.7822346475
 40
1.0
 40
1.0
 40
1.0
 40
1.0
 10
136.6243338286
 20
137.8217445951
 30
0.0
 10
136.7914760885
 20
137.7252471494
 30
0.0
 10
137.1240881439
 20
137.5670916213
 30
0.0
 10
137.6352281606
 20
137.4435677446
 30
0.0
 10
138.1149403794
 20
137.4556316977
 30
0.0
 10
138.4035972576
 20
137.5606144133
 30
0.0
 10
138.529291328
 20
137.6331161779
 30
0.0
  0
SPLINE
  5
2E2
100
AcDbEntity
  8
0
100
AcDbSpline
 62
7
  6
BYLAYER
 70
0
 71
3
 72
9
 73
5
 74
0
 42
0.0000001
 43
0.0000001
 44
0.0000000001
 40
0.0
 40
0.0
 40
0.0
 40
0.0
 40
0.2651929964
 40
1.0
 40
1.0
 40
1.0
 40
1.0
 10
131.0565795202
 20
152.2354617231
 30
0.0
 10
131.0565795202
 20
152.0138529952
 30
0.0
 10
131.0306337663
 20
151.1788522214
 30
0.0
 10
130.896499265
 20
150.3438343789
 30
0.0
 10
130.7175321483
 20
149.7564517238
 30
0.0
  0
SPLINE
  5
2E3
100
AcDbEntity
  8
0
100
AcDbSpline
 62
7
  6
BYLAYER
 70
0
 71
3
 72
10
 73
6
 74
0
 42
0.0000001
 43
0.0000001
 44
0.0000000001
 40
0.0
 40
0.0
 40
0.0
 40
0.0
 40
0.5240329554
 40
0.7654896188
 40
1.0
 40
1.0
 40
1.0
 40
1.0
 10
130.7175321483
 20
149.7564517238
 30
0.0
 10
130.5397735406
 20
149.17303548
 30
0.0
 10
130.1560193772
 20
148.3430163036
 30
0.0
 10
129.3767450482
 20
147.4697734582
 30
0.0
 10
128.9256201155
 20
147.1395019264
 30
0.0
 10
128.6892501625
 20
147.0030370239
 30
0.0
  0
SPLINE
  5
2E4
100
AcDbEntity
  8
0
100
AcDbSpline
 62
7
  6
BYLAYER
 70
0
 71
3
 72
9
 73
5
 74
0
 42
0.0000001
 43
0.0000001
 44
0.0000000001
 40
0.0
 40
0.0
 40
0.0
 40
0.0
 40
0.517189613
 40
1.0
 40
1.0
 40
1.0
 40
1.0
 10
118.8729169883
 20
142.3470814654
 30
0.0
 10
119.3385140247
 20
142.3000551715
 30
0.0
 10
120.2574914054
 20
142.3216033242
 30
0.0
 10
121.1267362794
 20
142.6368611992
 30
0.0
 10
121.505072592
 20
142.8552809204
 30
0.0
  0
SPLINE
  5
2E5
100
AcDbEntity
  8
0
100
AcDbSpline
 62
7
  6
BYLAYER
 70
0
 71
3
 72
9
 73
5
 74
0
 42
0.0000001
 43
0.0000001
 44
0.0000000001
 40
0.0
 40
0.0
 40
0.0
 40
0.0
 40
0.2720104119
 40
1.0
 40
1.0
 40
1.0
 40
1.0
 10
120.9089248747
 20
147.4136857045
 30
0.0
 10
120.9089248747
 20
147.143310435
 30
0.0
 10
120.8670334304
 20
146.1513747625
 30
0.0
 10
120.6430513835
 20
145.1553049563
 30
0.0
 10
120.3367330374
 20
144.4997247285
 30
0.0
  0
SPLINE
  5
2E6
100
AcDbEntity
  8
0
100
AcDbSpline
 62
7
  6
BYLAYER
 70
0
 71
3
 72
9
 73
5
 74
0
 42
0.0000001
 43
0.0000001
 44
0.0000000001
 40
0.0
 40
0.0
 40
0.0
 40
0.0
 40
0.5129221739
 40
1.0
 40
1.0
 40
1.0
 40
1.0
 10
120.1967494342
 20
144.2238043049
 30
0.0
 10
120.0289099585
 20
143.9185693841
 30
0.0
 10
119.6309616078
 20
143.3577925975
 30
0.0
 10
119.0911025838
 20
142.9280305624
 30
0.0
 10
118.804632493
 20
142.7626408691
 30
0.0
  0
SPLINE
  5
2E7
100
AcDbEntity
  8
0
100
AcDbSpline
 62
7
  6
BYLAYER
 70
0
 71
3
 72
9
 73
5
 74
0
 42
0.0000001
 43
0.0000001
 44
0.0000000001
 40
0.0
 40
0.0
 40
0.0
 40
0.0
 40
0.4852351114
 40
1.0
 40
1.0
 40
1.0
 40
1.0
 10
134.7193763292
 20
144.2321214308
 30
0.0
 10
134.6036208336
 20
144.1653523488
 30
0.0
 10
134.3863134193
 20
143.9879633174
 30
0.0
 10
134.2318685198
 20
143.7553086738
 30
0.0
 10
134.1681076334
 20
143.6286926474
 30
0.0
  0
SPLINE
  5
2E8
100
AcDbEntity
  8
0
100
AcDbSpline
 62
7
  6
BYLAYER
 70
0
 71
3
 72
11
 73
7
 74
0
 42
0.0000001
 43
0.0000001
 44
0.0000000001
 40
0.0
 40
0.0
 40
0.0
 40
0.0
 40
0.2043828091
 40
0.4432588087
 40
0.7122090906
 40
1.0
 40
1.0
 40
1.0
 40
1.0
 10
134.1681076334
 20
143.6286926474
 30
0.0
 10
134.0555098772
 20
143.4050966265
 30
0.0
 10
133.9132378417
 20
142.8684865119
 30
0.0
 10
133.9299826547
 20
141.9893227045
 30
0.0
 10
134.1492569537
 20
141.0338361736
 30
0.0
 10
134.4160880217
 20
140.4022968977
 30
0.0
 10
134.5786106418
 20
140.0894847752
 30
0.0
  0
SPLINE
  5
2E9
100
AcDbEntity
  8
0
100
AcDbSpline
 62
7
  6
BYLAYER
 70
0
 71
3
 72
9
 73
5
 74
0
 42
0.0000001
 43
0.0000001
 44
0.0000000001
 40
0.0
 40
0.0
 40
0.0
 40
0.0
 40
0.5255052979
 40
1.0
 40
1.0
 40
1.0
 40
1.0
 10
134.7053485047
 20
139.8571444658
 30
0.0
 10
134.9506015271
 20
139.4282799921
 30
0.0
 10
135.5079151722
 20
138.6610602695
 30
0.0
 10
136.2380131796
 20
138.04478188
 30
0.0
 10
136.6243338286
 20
137.8217445951
 30
0.0
  0
SPLINE
  5
2EA
100
AcDbEntity
  8
0
100
AcDbSpline
 62
7
  6
BYLAYER
 70
0
 71
3
 72
9
 73
5
 74
0
 42
0.0000001
 43
0.0000001
 44
0.0000000001
 40
0.0
 40
0.0
 40
0.0
 40
0.0
 40
0.4765777942
 40
1.0
 40
1.0
 40
1.0
 40
1.0
 10
102.9483677667
 20
153.6352575347
 30
0.0
 10
102.9483677667
 20
152.8044194641
 30
0.0
 10
103.1706557724
 20
151.0594554023
 30
0.0
 10
103.7132081488
 20
149.3930787873
 30
0.0
 10
104.0642149033
 20
148.550785712
 30
0.0
  0
SPLINE
  5
2EB
100
AcDbEntity
  8
0
100
AcDbSpline
 62
7
  6
BYLAYER
 70
0
 71
3
 72
14
 73
10
 74
0
 42
0.0000001
 43
0.0000001
 44
0.0000000001
 40
0.0
 40
0.0
 40
0.0
 40
0.0
 40
0.3071278952
 40
0.4484529488
 40
0.5790364666
 40
0.6981507334
 40
0.8063225236
 40
0.9056666231
 40
1.0
 40
1.0
 40
1.0
 40
1.0
 10
106.3139553413
 20
144.6655232331
 30
0.0
 10
106.9700910331
 20
143.8112650843
 30
0.0
 10
108.0522359228
 20
142.6470945269
 30
0.0
 10
109.6826934235
 20
141.4290509125
 30
0.0
 10
110.8873953279
 20
140.7629780904
 30
0.0
 10
112.0755188905
 20
140.3385902313
 30
0.0
 10
113.2179614356
 20
140.1706399513
 30
0.0
 10
114.2833953559
 20
140.2706270388
 30
0.0
 10
114.9260169755
 20
140.5233497472
 30
0.0
 10
115.2125423653
 20
140.6887651448
 30
0.0
  0
SPLINE
  5
2EC
100
AcDbEntity
  8
0
100
AcDbSpline
 62
7
  6
BYLAYER
 70
0
 71
3
 72
18
 73
14
 74
0
 42
0.0000001
 43
0.0000001
 44
0.0000000001
 40
0.0
 40
0.0
 40
0.0
 40
0.0
 40
0.1139750442
 40
0.1626689618
 40
0.2081068961
 40
0.2535632767
 40
0.3022284445
 40
0.3563521534
 40
0.4168327374
 40
0.5551703773
 40
0.7084157319
 40
0.8616614332
 40
1.0
 40
1.0
 40
1.0
 40
1.0
 10
109.0549688486
 20
149.9023032119
 30
0.0
 10
109.0549688486
 20
150.0235832491
 30
0.0
 10
109.0807065087
 20
150.2022144884
 30
0.0
 10
109.1977855681
 20
150.3936398078
 30
0.0
 10
109.3136935724
 20
150.4912154936
 30
0.0
 10
109.4561036677
 20
150.5426017336
 30
0.0
 10
109.6160379535
 20
150.5469316543
 30
0.0
 10
109.7864287417
 20
150.5056245508
 30
0.0
 10
110.0307903569
 20
150.3893734413
 30
0.0
 10
110.3216141782
 20
150.1441209507
 30
0.0
 10
110.6033955943
 20
149.7593388958
 30
0.0
 10
110.7958052132
 20
149.3230481565
 30
0.0
 10
110.8510275504
 20
149.0125767844
 30
0.0
 10
110.8510275504
 20
148.8653716955
 30
0.0
  0
SPLINE
  5
2ED
100
AcDbEntity
  8
0
100
AcDbSpline
 62
7
  6
BYLAYER
 70
0
 71
3
 72
11
 73
7
 74
0
 42
0.0000001
 43
0.0000001
 44
0.0000000001
 40
0.0
 40
0.0
 40
0.0
 40
0.0
 40
0.241781435
 40
0.5045774482
 40
0.7649407153
 40
1.0
 40
1.0
 40
1.0
 40
1.0
 10
108.7640306406
 20
149.6525017813
 30
0.0
 10
108.8835725109
 20
149.5728970901
 30
0.0
 10
109.1074664492
 20
149.3676847336
 30
0.0
 10
109.3679361032
 20
148.9915808011
 30
0.0
 10
109.5439430647
 20
148.5736601848
 30
0.0
 10
109.5937969279
 20
148.2791421428
 30
0.0
 10
109.5937969279
 20
148.1395135899
 30
0.0
  0
SPLINE
  5
2EE
100
AcDbEntity
  8
0
100
AcDbSpline
 62
7
  6
BYLAYER
 70
0
 71
3
 72
11
 73
7
 74
0
 42
0.0000001
 43
0.0000001
 44
0.0000000001
 40
0.0
 40
0.0
 40
0.0
 40
0.0
 40
0.241781435
 40
0.5045774482
 40
0.7649407153
 40
1.0
 40
1.0
 40
1.0
 40
1.0
 10
107.506800018
 20
148.9266436757
 30
0.0
 10
107.6263418883
 20
148.8470389846
 30
0.0
 10
107.8502358266
 20
148.641826628
 30
0.0
 10
108.1107054806
 20
148.2657226955
 30
0.0
 10
108.2867124421
 20
147.8478020792
 30
0.0
 10
108.3365663053
 20
147.5532840372
 30
0.0
 10
108.3365663053
 20
147.4136554843
 30
0.0
  0
SPLINE
  5
2EF
100
AcDbEntity
  8
0
100
AcDbSpline
 62
7
  6
BYLAYER
 70
0
 71
3
 72
11
 73
7
 74
0
 42
0.0000001
 43
0.0000001
 44
0.0000000001
 40
0.0
 40
0.0
 40
0.0
 40
0.0
 40
0.241781435
 40
0.5045774482
 40
0.7649407153
 40
1.0
 40
1.0
 40
1.0
 40
1.0
 10
106.2495693955
 20
148.2007855701
 30
0.0
 10
106.3691112658
 20
148.121180879
 30
0.0
 10
106.5930052041
 20
147.9159685224
 30
0.0
 10
106.853474858
 20
147.5398645899
 30
0.0
 10
107.0294818195
 20
147.1219439736
 30
0.0
 10
107.0793356827
 20
146.8274259316
 30
0.0
 10
107.0793356827
 20
146.6877973787
 30
0.0
  0
SPLINE
  5
2F0
100
AcDbEntity
  8
0
100
AcDbSpline
 62
7
  6
BYLAYER
 70
0
 71
3
 72
11
 73
7
 74
0
 42
0.0000001
 43
0.0000001
 44
0.0000000001
 40
0.0
 40
0.0
 40
0.0
 40
0.0
 40
0.241781435
 40
0.5045774482
 40
0.7649407153
 40
1.0
 40
1.0
 40
1.0
 40
1.0
 10
104.9923387729
 20
147.4749274645
 30
0.0
 10
105.1118806432
 20
147.3953227734
 30
0.0
 10
105.3357745815
 20
147.1901104168
 30
0.0
 10
105.5962442355
 20
146.8140064844
 30
0.0
 10
105.772251197
 20
146.396085868
 30
0.0
 10
105.8221050602
 20
146.101567826
 30
0.0
 10
105.8221050602
 20
145.9619392731
 30
0.0
  0
SPLINE
  5
2F1
100
AcDbEntity
  8
0
100
AcDbSpline
 62
7
  6
BYLAYER
 70
0
 71
3
 72
11
 73
7
 74
0
 42
0.0000001
 43
0.0000001
 44
0.0000000001
 40
0.0
 40
0.0
 40
0.0
 40
0.0
 40
0.241781435
 40
0.5045774482
 40
0.7649407153
 40
1.0
 40
1.0
 40
1.0
 40
1.0
 10
103.7351081503
 20
146.7490693589
 30
0.0
 10
103.8546500206
 20
146.6694646678
 30
0.0
 10
104.0785439589
 20
146.4642523112
 30
0.0
 10
104.3390136129
 20
146.0881483788
 30
0.0
 10
104.5150205744
 20
145.6702277625
 30
0.0
 10
104.5648744376
 20
145.3757097204
 30
0.0
 10
104.5648744376
 20
145.2360811675
 30
0.0
  0
SPLINE
  5
2F2
100
AcDbEntity
  8
0
100
AcDbSpline
 62
7
  6
BYLAYER
 70
0
 71
3
 72
11
 73
7
 74
0
 42
0.0000001
 43
0.0000001
 44
0.0000000001
 40
0.0
 40
0.0
 40
0.0
 40
0.0
 40
0.241781435
 40
0.5045774482
 40
0.7649407153
 40
1.0
 40
1.0
 40
1.0
 40
1.0
 10
102.4778775278
 20
146.0232112534
 30
0.0
 10
102.5974193981
 20
145.9436065622
 30
0.0
 10
102.8213133364
 20
145.7383942056
 30
0.0
 10
103.0817829903
 20
145.3622902732
 30
0.0
 10
103.2577899518
 20
144.9443696569
 30
0.0
 10
103.307643815
 20
144.6498516148
 30
0.0
 10
103.307643815
 20
144.510223062
 30
0.0
  0
SPLINE
  5
2F3
100
AcDbEntity
  8
0
100
AcDbSpline
 62
7
  6
BYLAYER
 70
0
 71
3
 72
11
 73
7
 74
0
 42
0.0000001
 43
0.0000001
 44
0.0000000001
 40
0.0
 40
0.0
 40
0.0
 40
0.0
 40
0.241781435
 40
0.5045774482
 40
0.7649407153
 40
1.0
 40
1.0
 40
1.0
 40
1.0
 10
101.2206469052
 20
145.2973531478
 30
0.0
 10
101.3401887755
 20
145.2177484566
 30
0.0
 10
101.5640827138
 20
145.0125361001
 30
0.0
 10
101.8245523678
 20
144.6364321676
 30
0.0
 10
102.0005593293
 20
144.2185115513
 30
0.0
 10
102.0504131925
 20
143.9239935093
 30
0.0
 10
102.0504131925
 20
143.7843649564
 30
0.0
  0
SPLINE
  5
2F4
100
AcDbEntity
  8
0
100
AcDbSpline
 62
7
  6
BYLAYER
 70
0
 71
3
 72
11
 73
7
 74
0
 42
0.0000001
 43
0.0000001
 44
0.0000000001
 40
0.0
 40
0.0
 40
0.0
 40
0.0
 40
0.241781435
 40
0.5045774482
 40
0.7649407153
 40
1.0
 40
1.0
 40
1.0
 40
1.0
 10
99.9634162826
 20
144.5714950422
 30
0.0
 10
100.0829581529
 20
144.4918903511
 30
0.0
 10
100.3068520912
 20
144.2866779945
 30
0.0
 10
100.5673217452
 20
143.910574062
 30
0.0
 10
100.7433287067
 20
143.4926534457
 30
0.0
 10
100.7931825699
 20
143.1981354037
 30
0.0
 10
100.7931825699
 20
143.0585068508
 30
0.0
  0
SPLINE
  5
2F5
100
AcDbEntity
  8
0
100
AcDbSpline
 62
7
  6
BYLAYER
 70
0
 71
3
 72
9
 73
5
 74
0
 42
0.0000001
 43
0.0000001
 44
0.0000000001
 40
0.0
 40
0.0
 40
0.0
 40
0.0
 40
0.2471651531
 40
1.0
 40
1.0
 40
1.0
 40
1.0
 10
134.0426461191
 20
144.5747002301
 30
0.0
 10
134.0815345062
 20
144.5971522996
 30
0.0
 10
134.2429601207
 20
144.6808172736
 30
0.0
 10
134.4195894731
 20
144.7343129348
 30
0.0
 10
134.5543797003
 20
144.7575186613
 30
0.0
  0
SPLINE
  5
2F6
100
AcDbEntity
  8
0
100
AcDbSpline
 62
7
  6
BYLAYER
 70
0
 71
3
 72
9
 73
5
 74
0
 42
0.0000001
 43
0.0000001
 44
0.0000000001
 40
0.0
 40
0.0
 40
0.0
 40
0.0
 40
0.2459576225
 40
1.0
 40
1.0
 40
1.0
 40
1.0
 10
134.5543797003
 20
144.7575186613
 30
0.0
 10
134.5772018435
 20
144.7614477623
 30
0.0
 10
134.6703145523
 20
144.7755060277
 30
0.0
 10
134.764549894
 20
144.7819125644
 30
0.0
 10
134.8355405851
 20
144.7827894168
 30
0.0
  0
SPLINE
  5
2F7
100
AcDbEntity
  8
0
100
AcDbSpline
 62
7
  6
BYLAYER
 70
0
 71
3
 72
9
 73
5
 74
0
 42
0.0000001
 43
0.0000001
 44
0.0000000001
 40
0.0
 40
0.0
 40
0.0
 40
0.0
 40
0.235547724
 40
1.0
 40
1.0
 40
1.0
 40
1.0
 10
134.8355405851
 20
144.7827894168
 30
0.0
 10
134.9035834394
 20
144.7836298584
 30
0.0
 10
135.1926422862
 20
144.7718791934
 30
0.0
 10
135.4776113298
 20
144.7019161441
 30
0.0
 10
135.6853421496
 20
144.6269473635
 30
0.0
  0
SPLINE
  5
2F8
100
AcDbEntity
  8
0
100
AcDbSpline
 62
7
  6
BYLAYER
 70
0
 71
3
 72
9
 73
5
 74
0
 42
0.0000001
 43
0.0000001
 44
0.0000000001
 40
0.0
 40
0.0
 40
0.0
 40
0.0
 40
0.2410372549
 40
1.0
 40
1.0
 40
1.0
 40
1.0
 10
135.6853421496
 20
144.6269473635
 30
0.0
 10
135.7337893691
 20
144.6094630587
 30
0.0
 10
135.9329748284
 20
144.5319476126
 30
0.0
 10
136.1246742168
 20
144.4356715272
 30
0.0
 10
136.2651250793
 20
144.3545840183
 30
0.0
  0
SPLINE
  5
2F9
100
AcDbEntity
  8
0
100
AcDbSpline
 62
7
  6
BYLAYER
 70
0
 71
3
 72
13
 73
9
 74
0
 42
0.0000001
 43
0.0000001
 44
0.0000000001
 40
0.0
 40
0.0
 40
0.0
 40
0.0
 40
0.2699336621
 40
0.5613241335
 40
0.6954675297
 40
0.8131379116
 40
0.9128505993
 40
1.0
 40
1.0
 40
1.0
 40
1.0
 10
26.1675521898
 20
101.7364345009
 30
0.0
 10
26.1675521898
 20
101.5776113271
 30
0.0
 10
26.2548830036
 20
101.2484194828
 30
0.0
 10
26.480945155
 20
100.8989598715
 30
0.0
 10
26.7216203042
 20
100.6855012694
 30
0.0
 10
26.9051202102
 20
100.5853393491
 30
0.0
 10
27.0846761039
 20
100.5493716504
 30
0.0
 10
27.1962447863
 20
100.5780050098
 30
0.0
 10
27.2406634991
 20
100.603623206
 30
0.0
  0
SPLINE
  5
2FA
100
AcDbEntity
  8
0
100
AcDbSpline
 62
7
  6
BYLAYER
 70
0
 71
3
 72
9
 73
5
 74
0
 42
0.0000001
 43
0.0000001
 44
0.0000000001
 40
0.0
 40
0.0
 40
0.0
 40
0.0
 40
0.4746108196
 40
1.0
 40
1.0
 40
1.0
 40
1.0
 10
194.5467648437
 20
165.6635509202
 30
0.0
 10
194.2483098284
 20
165.4912388654
 30
0.0
 10
193.5584587262
 20
165.2330368122
 30
0.0
 10
192.8327377017
 20
165.1391582619
 30
0.0
 10
192.4513829755
 20
165.1287414406
 30
0.0
  0
SPLINE
  5
2FB
100
AcDbEntity
  8
0
100
AcDbSpline
 62
7
  6
BYLAYER
 70
0
 71
3
 72
9
 73
5
 74
0
 42
0.0000001
 43
0.0000001
 44
0.0000000001
 40
0.0
 40
0.0
 40
0.0
 40
0.0
 40
0.4865515589
 40
1.0
 40
1.0
 40
1.0
 40
1.0
 10
134.7193825063
 20
168.0821470944
 30
0.0
 10
134.6093117956
 20
168.0185398066
 30
0.0
 10
134.4020128237
 20
167.8523796839
 30
0.0
 10
134.2510393613
 20
167.6349575377
 30
0.0
 10
134.1877802442
 20
167.5166530511
 30
0.0
  0
SPLINE
  5
2FC
100
AcDbEntity
  8
0
100
AcDbSpline
 62
7
  6
BYLAYER
 70
0
 71
3
 72
9
 73
5
 74
0
 42
0.0000001
 43
0.0000001
 44
0.0000000001
 40
0.0
 40
0.0
 40
0.0
 40
0.0
 40
0.2421958491
 40
1.0
 40
1.0
 40
1.0
 40
1.0
 10
134.1877802442
 20
167.5166530511
 30
0.0
 10
134.1729859823
 20
167.4889854573
 30
0.0
 10
134.1150090573
 20
167.3730983592
 30
0.0
 10
134.0693455821
 20
167.2511848286
 30
0.0
 10
134.0410838003
 20
167.1571733024
 30
0.0
  0
SPLINE
  5
2FD
100
AcDbEntity
  8
0
100
AcDbSpline
 62
7
  6
BYLAYER
 70
0
 71
3
 72
9
 73
5
 74
0
 42
0.0000001
 43
0.0000001
 44
0.0000000001
 40
0.0
 40
0.0
 40
0.0
 40
0.0
 40
0.2356686145
 40
1.0
 40
1.0
 40
1.0
 40
1.0
 10
134.0410838003
 20
167.1571733024
 30
0.0
 10
134.0223515112
 20
167.094861198
 30
0.0
 10
133.9545452172
 20
166.8269636629
 30
0.0
 10
133.9302457758
 20
166.5490795613
 30
0.0
 10
133.9302457758
 20
166.3380516834
 30
0.0
  0
SPLINE
  5
2FE
100
AcDbEntity
  8
0
100
AcDbSpline
 62
7
  6
BYLAYER
 70
0
 71
3
 72
13
 73
9
 74
0
 42
0.0000001
 43
0.0000001
 44
0.0000000001
 40
0.0
 40
0.0
 40
0.0
 40
0.0
 40
0.0919327571
 40
0.1897916821
 40
0.2978405383
 40
0.4180489276
 40
0.6928388563
 40
1.0
 40
1.0
 40
1.0
 40
1.0
 10
114.0647012577
 20
180.0068694747
 30
0.0
 10
113.945245817
 20
179.9379662225
 30
0.0
 10
113.7212212338
 20
179.7530257175
 30
0.0
 10
113.4762798973
 20
179.37264956
 30
0.0
 10
113.3224096683
 20
178.9037250608
 30
0.0
 10
113.2375255828
 20
178.1498424357
 30
0.0
 10
113.3880359936
 20
177.091637232
 30
0.0
 10
113.7115087609
 20
176.2730970195
 30
0.0
 10
113.9239355703
 20
175.864232819
 30
0.0
  0
SPLINE
  5
2FF
100
AcDbEntity
  8
0
100
AcDbSpline
 62
7
  6
BYLAYER
 70
0
 71
3
 72
9
 73
5
 74
0
 42
0.0000001
 43
0.0000001
 44
0.0000000001
 40
0.0
 40
0.0
 40
0.0
 40
0.0
 40
0.5255052979
 40
1.0
 40
1.0
 40
1.0
 40
1.0
 10
114.0506734331
 20
175.6318925097
 30
0.0
 10
114.2959264556
 20
175.203028036
 30
0.0
 10
114.8532401007
 20
174.4358083134
 30
0.0
 10
115.583338108
 20
173.8195299239
 30
0.0
 10
115.9696587571
 20
173.596492639
 30
0.0
  0
SPLINE
  5
300
100
AcDbEntity
  8
0
100
AcDbSpline
 62
7
  6
BYLAYER
 70
0
 71
3
 72
11
 73
7
 74
0
 42
0.0000001
 43
0.0000001
 44
0.0000000001
 40
0.0
 40
0.0
 40
0.0
 40
0.0
 40
0.2177227832
 40
0.4508712161
 40
0.7104668615
 40
1.0
 40
1.0
 40
1.0
 40
1.0
 10
152.634552442
 20
176.6038462755
 30
0.0
 10
152.6345561765
 20
176.5071306679
 30
0.0
 10
152.5989895277
 20
176.3054811469
 30
0.0
 10
152.4460420267
 20
176.0244436832
 30
0.0
 10
152.2042378272
 20
175.7706014538
 30
0.0
 10
152.0021059801
 20
175.6312220576
 30
0.0
 10
151.890722125
 20
175.5669149427
 30
0.0
  0
SPLINE
  5
301
100
AcDbEntity
  8
0
100
AcDbSpline
 62
7
  6
BYLAYER
 70
0
 71
3
 72
11
 73
7
 74
0
 42
0.0000001
 43
0.0000001
 44
0.0000000001
 40
0.0
 40
0.0
 40
0.0
 40
0.0
 40
0.2177227832
 40
0.4508712161
 40
0.7104668615
 40
1.0
 40
1.0
 40
1.0
 40
1.0
 10
173.8276936734
 20
213.104038563
 30
0.0
 10
173.8276974078
 20
213.0073229554
 30
0.0
 10
173.792130759
 20
212.8056734343
 30
0.0
 10
173.639183258
 20
212.5246359706
 30
0.0
 10
173.3973790586
 20
212.2707937412
 30
0.0
 10
173.1952472115
 20
212.131414345
 30
0.0
 10
173.0838633563
 20
212.0671072302
 30
0.0
  0
SPLINE
  5
302
100
AcDbEntity
  8
0
100
AcDbSpline
 62
7
  6
BYLAYER
 70
0
 71
3
 72
10
 73
6
 74
0
 42
0.0000001
 43
0.0000001
 44
0.0000000001
 40
0.0
 40
0.0
 40
0.0
 40
0.0
 40
0.218389945
 40
0.4522219339
 40
1.0
 40
1.0
 40
1.0
 40
1.0
 10
202.9110545943
 20
171.5222999054
 30
0.0
 10
202.9110545964
 20
171.473941192
 30
0.0
 10
202.8932957266
 20
171.3730812113
 30
0.0
 10
202.7859989403
 20
171.1761489633
 30
0.0
 10
202.6442148678
 20
171.0644819109
 30
0.0
 10
202.5391692313
 20
171.0038341462
 30
0.0
  0
SPLINE
  5
303
100
AcDbEntity
  8
0
100
AcDbSpline
 62
7
  6
BYLAYER
 70
0
 71
3
 72
8
 73
4
 74
0
 42
0.0000001
 43
0.0000001
 44
0.0000000001
 40
0.0
 40
0.0
 40
0.0
 40
0.0
 40
1.0
 40
1.0
 40
1.0
 40
1.0
 10
202.9109280828
 20
180.8652808631
 30
0.0
 10
202.9100819813
 20
180.8305700869
 30
0.0
 10
202.9048972163
 20
180.7957328994
 30
0.0
 10
202.8958221537
 20
180.7622187664
 30
0.0
  0
SPLINE
  5
304
100
AcDbEntity
  8
0
100
AcDbSpline
 62
7
  6
BYLAYER
 70
0
 71
3
 72
9
 73
5
 74
0
 42
0.0000001
 43
0.0000001
 44
0.0000000001
 40
0.0
 40
0.0
 40
0.0
 40
0.0
 40
0.4561659962
 40
1.0
 40
1.0
 40
1.0
 40
1.0
 10
202.8958221537
 20
180.7622187664
 30
0.0
 10
202.8739669223
 20
180.681507573
 30
0.0
 10
202.7751170071
 20
180.5181979995
 30
0.0
 10
202.6255016231
 20
180.4070396656
 30
0.0
 10
202.5391692219
 20
180.3571959278
 30
0.0
  0
SPLINE
  5
305
100
AcDbEntity
  8
0
100
AcDbSpline
 62
7
  6
BYLAYER
 70
0
 71
3
 72
10
 73
6
 74
0
 42
0.0000001
 43
0.0000001
 44
0.0000000001
 40
0.0
 40
0.0
 40
0.0
 40
0.0
 40
0.2183894923
 40
0.4522212896
 40
1.0
 40
1.0
 40
1.0
 40
1.0
 10
202.9110545943
 20
203.4606084539
 30
0.0
 10
202.9110545921
 20
203.5089676893
 30
0.0
 10
202.8932953171
 20
203.6098288349
 30
0.0
 10
202.7859961335
 20
203.8067631155
 30
0.0
 10
202.6442092969
 20
203.9184306768
 30
0.0
 10
202.5391617478
 20
203.9790785358
 30
0.0
  0
SPLINE
  5
306
100
AcDbEntity
  8
0
100
AcDbSpline
 62
7
  6
BYLAYER
 70
0
 71
3
 72
13
 73
9
 74
0
 42
0.0000001
 43
0.0000001
 44
0.0000000001
 40
0.0
 40
0.0
 40
0.0
 40
0.0
 40
0.3070964178
 40
0.582042985
 40
0.7023084702
 40
0.8103620541
 40
0.9081653144
 40
1.0
 40
1.0
 40
1.0
 40
1.0
 10
139.7355296376
 20
142.4212022869
 30
0.0
 10
139.9507884901
 20
142.010908019
 30
0.0
 10
140.2791095875
 20
141.1885996965
 30
0.0
 10
140.4339976514
 20
140.1244935777
 30
0.0
 10
140.3508877462
 20
139.3656395483
 30
0.0
 10
140.1974272485
 20
138.8935399555
 30
0.0
 10
139.9519716565
 20
138.5105927725
 30
0.0
 10
139.7269325895
 20
138.3245205323
 30
0.0
 10
139.6069118367
 20
138.2552904793
 30
0.0
  0
SPLINE
  5
307
100
AcDbEntity
  8
0
100
AcDbSpline
 62
7
  6
BYLAYER
 70
0
 71
3
 72
15
 73
11
 74
0
 42
0.0000001
 43
0.0000001
 44
0.0000000001
 40
0.0
 40
0.0
 40
0.0
 40
0.0
 40
0.1288244605
 40
0.2705976782
 40
0.4178986235
 40
0.5623949216
 40
0.69620836
 40
0.8136001012
 40
0.9130679301
 40
1.0
 40
1.0
 40
1.0
 40
1.0
 10
169.4917459526
 20
214.1409702631
 30
0.0
 10
169.6797575985
 20
214.2495181896
 30
0.0
 10
170.1055155564
 20
214.4251410078
 30
0.0
 10
170.7993203823
 20
214.5640221425
 30
0.0
 10
171.5332208266
 20
214.5842394609
 30
0.0
 10
172.246980486
 20
214.4840177398
 30
0.0
 10
172.8837199698
 20
214.2712601621
 30
0.0
 10
173.3937402604
 20
213.96047918
 30
0.0
 10
173.7393072373
 20
213.56755175
 30
0.0
 10
173.8276880166
 20
213.2505377314
 30
0.0
 10
173.8276936734
 20
213.104038563
 30
0.0
  0
SPLINE
  5
308
100
AcDbEntity
  8
0
100
AcDbSpline
 62
7
  6
BYLAYER
 70
0
 71
3
 72
13
 73
9
 74
0
 42
0.0000001
 43
0.0000001
 44
0.0000000001
 40
0.0
 40
0.0
 40
0.0
 40
0.0
 40
0.0871398081
 40
0.1868484731
 40
0.3045123423
 40
0.4386460221
 40
0.7300494215
 40
1.0
 40
1.0
 40
1.0
 40
1.0
 10
98.193431432
 20
143.6210003929
 30
0.0
 10
98.2378483273
 20
143.646610502
 30
0.0
 10
98.3494001013
 20
143.675264719
 30
0.0
 10
98.5289478018
 20
143.6392880504
 30
0.0
 10
98.7124401075
 20
143.539144629
 30
0.0
 10
98.9531234754
 20
143.3256951061
 30
0.0
 10
99.1791992222
 20
142.9762302871
 30
0.0
 10
99.2665431421
 20
142.6470216916
 30
0.0
 10
99.2665431421
 20
142.4881884727
 30
0.0
  0
SPLINE
  5
309
100
AcDbEntity
  8
0
100
AcDbSpline
 62
7
  6
BYLAYER
 70
0
 71
3
 72
11
 73
7
 74
0
 42
0.0000001
 43
0.0000001
 44
0.0000000001
 40
0.0
 40
0.0
 40
0.0
 40
0.0
 40
0.2177017717
 40
0.4508891239
 40
0.7106078345
 40
1.0
 40
1.0
 40
1.0
 40
1.0
 10
127.2406127479
 20
188.2682771288
 30
0.0
 10
127.2405610972
 20
188.3383406886
 30
0.0
 10
127.2664206484
 20
188.4844335146
 30
0.0
 10
127.3771821361
 20
188.6881140898
 30
0.0
 10
127.552488074
 20
188.8719303807
 30
0.0
 10
127.6988739044
 20
188.9729662539
 30
0.0
 10
127.7795320817
 20
189.0195339963
 30
0.0
  0
SPLINE
  5
30A
100
AcDbEntity
  8
0
100
AcDbSpline
 62
7
  6
BYLAYER
 70
0
 71
3
 72
11
 73
7
 74
0
 42
0.0000001
 43
0.0000001
 44
0.0000000001
 40
0.0
 40
0.0
 40
0.0
 40
0.0
 40
0.2177017717
 40
0.4508891239
 40
0.7106078345
 40
1.0
 40
1.0
 40
1.0
 40
1.0
 10
190.4615276031
 20
200.5042719306
 30
0.0
 10
190.4614759524
 20
200.5743354904
 30
0.0
 10
190.4873355037
 20
200.7204283163
 30
0.0
 10
190.5980969913
 20
200.9241088916
 30
0.0
 10
190.7734029292
 20
201.1079251825
 30
0.0
 10
190.9197887596
 20
201.2089610557
 30
0.0
 10
191.0004469369
 20
201.255528798
 30
0.0
  0
SPLINE
  5
30B
100
AcDbEntity
  8
0
100
AcDbSpline
 62
7
  6
BYLAYER
 70
0
 71
3
 72
9
 73
5
 74
0
 42
0.0000001
 43
0.0000001
 44
0.0000000001
 40
0.0
 40
0.0
 40
0.0
 40
0.0
 40
0.257878617
 40
1.0
 40
1.0
 40
1.0
 40
1.0
 10
117.9900492943
 20
173.3229901372
 30
0.0
 10
118.0260998654
 20
173.3152662876
 30
0.0
 10
118.1665212598
 20
173.2883826891
 30
0.0
 10
118.3094898811
 20
173.2741985335
 30
0.0
 10
118.4155712325
 20
173.2721817677
 30
0.0
  0
SPLINE
  5
30C
100
AcDbEntity
  8
0
100
AcDbSpline
 62
7
  6
BYLAYER
 70
0
 71
3
 72
9
 73
5
 74
0
 42
0.0000001
 43
0.0000001
 44
0.0000000001
 40
0.0
 40
0.0
 40
0.0
 40
0.0
 40
0.4745065561
 40
1.0
 40
1.0
 40
1.0
 40
1.0
 10
117.047285005
 20
180.440405148
 30
0.0
 10
117.4265156701
 20
180.2214611746
 30
0.0
 10
118.1446784583
 20
179.618950502
 30
0.0
 10
118.6961171527
 20
178.8692884722
 30
0.0
 10
118.9401775134
 20
178.4502307223
 30
0.0
  0
SPLINE
  5
30D
100
AcDbEntity
  8
0
100
AcDbSpline
 62
7
  6
BYLAYER
 70
0
 71
3
 72
11
 73
7
 74
0
 42
0.0000001
 43
0.0000001
 44
0.0000000001
 40
0.0
 40
0.0
 40
0.0
 40
0.0
 40
0.2896403952
 40
0.5491094116
 40
0.7822346475
 40
1.0
 40
1.0
 40
1.0
 40
1.0
 10
115.9696587571
 20
179.8182410575
 30
0.0
 10
115.8025164972
 20
179.9147385032
 30
0.0
 10
115.4699044418
 20
180.0728940312
 30
0.0
 10
114.9587644251
 20
180.1964179079
 30
0.0
 10
114.4790522063
 20
180.1843539549
 30
0.0
 10
114.1903953281
 20
180.0793712392
 30
0.0
 10
114.0647012577
 20
180.0068694747
 30
0.0
  0
SPLINE
  5
30E
100
AcDbEntity
  8
0
100
AcDbSpline
 62
7
  6
BYLAYER
 70
0
 71
3
 72
10
 73
6
 74
0
 42
0.0000001
 43
0.0000001
 44
0.0000000001
 40
0.0
 40
0.0
 40
0.0
 40
0.0
 40
0.5477780664
 40
0.7816100554
 40
1.0
 40
1.0
 40
1.0
 40
1.0
 10
202.5391692219
 20
202.9421426871
 30
0.0
 10
202.6442148603
 20
203.0027904529
 30
0.0
 10
202.785998936
 20
203.1144575065
 30
0.0
 10
202.893295726
 20
203.3113897571
 30
0.0
 10
202.9110545964
 20
203.4122497397
 30
0.0
 10
202.9110545943
 20
203.4606084539
 30
0.0
  0
SPLINE
  5
30F
100
AcDbEntity
  8
0
100
AcDbSpline
 62
7
  6
BYLAYER
 70
0
 71
3
 72
11
 73
7
 74
0
 42
0.0000001
 43
0.0000001
 44
0.0000000001
 40
0.0
 40
0.0
 40
0.0
 40
0.0
 40
0.2896413964
 40
0.5491107671
 40
0.7822355978
 40
1.0
 40
1.0
 40
1.0
 40
1.0
 10
140.3960481293
 20
163.8494212245
 30
0.0
 10
140.3960481293
 20
163.6564172319
 30
0.0
 10
140.3667114511
 20
163.2892779543
 30
0.0
 10
140.2181162136
 20
162.7848403867
 30
0.0
 10
139.9678080895
 20
162.3754175655
 30
0.0
 10
139.7325559608
 20
162.1779200917
 30
0.0
 10
139.6069173722
 20
162.1053157375
 30
0.0
  0
SPLINE
  5
310
100
AcDbEntity
  8
0
100
AcDbSpline
 62
7
  6
BYLAYER
 70
0
 71
3
 72
11
 73
7
 74
0
 42
0.0000001
 43
0.0000001
 44
0.0000000001
 40
0.0
 40
0.0
 40
0.0
 40
0.0
 40
0.2177738129
 40
0.4509331436
 40
0.7102292874
 40
1.0
 40
1.0
 40
1.0
 40
1.0
 10
115.2125423653
 20
140.6887651448
 30
0.0
 10
115.5476787625
 20
140.8822444048
 30
0.0
 10
116.1748287233
 20
141.4093519071
 30
0.0
 10
116.8422220353
 20
142.5008136428
 30
0.0
 10
117.2389847169
 20
143.8458721183
 30
0.0
 10
117.3168373816
 20
144.8248932274
 30
0.0
 10
117.3168373816
 20
145.3398054029
 30
0.0
  0
SPLINE
  5
311
100
AcDbEntity
  8
0
100
AcDbSpline
 62
7
  6
BYLAYER
 70
0
 71
3
 72
16
 73
12
 74
0
 42
0.0000001
 43
0.0000001
 44
0.0000000001
 40
0.0
 40
0.0
 40
0.0
 40
0.0
 40
0.128744776
 40
0.2703971998
 40
0.4176131979
 40
0.5620174334
 40
0.6957476677
 40
0.8130627022
 40
0.912470568
 40
0.9571203641
 40
1.0
 40
1.0
 40
1.0
 40
1.0
 10
139.3184218814
 20
163.227257134
 30
0.0
 10
139.3184218814
 20
163.5529165425
 30
0.0
 10
139.2273081696
 20
164.2376658142
 30
0.0
 10
138.8873028702
 20
165.2430625342
 30
0.0
 10
138.3632169971
 20
166.2115911908
 30
0.0
 10
137.6977729979
 20
167.0637453631
 30
0.0
 10
136.943380706
 20
167.7310310212
 30
0.0
 10
136.1585495
 20
168.16153345
 30
0.0
 10
135.4923026477
 20
168.2916308226
 30
0.0
 10
135.020369502
 20
168.2224579968
 30
0.0
 10
134.8132935644
 20
168.1364160971
 30
0.0
 10
134.7193825063
 20
168.0821470944
 30
0.0
  0
SPLINE
  5
312
100
AcDbEntity
  8
0
100
AcDbSpline
 62
7
  6
BYLAYER
 70
0
 71
3
 72
10
 73
6
 74
0
 42
0.0000001
 43
0.0000001
 44
0.0000000001
 40
0.0
 40
0.0
 40
0.0
 40
0.0
 40
0.5477780664
 40
0.7816100554
 40
1.0
 40
1.0
 40
1.0
 40
1.0
 10
202.5391692219
 20
180.3364567665
 30
0.0
 10
202.6442148603
 20
180.3971045323
 30
0.0
 10
202.785998936
 20
180.5087715858
 30
0.0
 10
202.893295726
 20
180.7057038365
 30
0.0
 10
202.9110545964
 20
180.806563819
 30
0.0
 10
202.9110545943
 20
180.8549225332
 30
0.0
  0
SPLINE
  5
313
100
AcDbEntity
  8
0
100
AcDbSpline
 62
7
  6
BYLAYER
 70
0
 71
3
 72
17
 73
13
 74
0
 42
0.0000001
 43
0.0000001
 44
0.0000000001
 40
0.0
 40
0.0
 40
0.0
 40
0.0
 40
0.0428579617
 40
0.0874873457
 40
0.1353218209
 40
0.1872854162
 40
0.3045510825
 40
0.4382200079
 40
0.5825638878
 40
0.7297193332
 40
0.8713069225
 40
1.0
 40
1.0
 40
1.0
 40
1.0
 10
111.0276941017
 20
161.0027410991
 30
0.0
 10
111.2625112098
 20
161.1383096069
 30
0.0
 10
111.7801215465
 20
161.3534895729
 30
0.0
 10
112.6345834531
 20
161.4787117781
 30
0.0
 10
113.5521947362
 20
161.4111744501
 30
0.0
 10
114.8854985171
 20
161.0565646226
 30
0.0
 10
116.5898700842
 20
160.124530353
 30
0.0
 10
118.4729739244
 20
158.4568797894
 30
0.0
 10
120.1375075141
 20
156.3263178462
 30
0.0
 10
121.4474319923
 20
153.9049857664
 30
0.0
 10
122.2975904214
 20
151.3914696524
 30
0.0
 10
122.5253605077
 20
149.679579336
 30
0.0
 10
122.5253605077
 20
148.8653997571
 30
0.0
  0
SPLINE
  5
314
100
AcDbEntity
  8
0
100
AcDbSpline
 62
7
  6
BYLAYER
 70
0
 71
3
 72
11
 73
7
 74
0
 42
0.0000001
 43
0.0000001
 44
0.0000000001
 40
0.0
 40
0.0
 40
0.0
 40
0.0
 40
0.2177737817
 40
0.4509330137
 40
0.7102293554
 40
1.0
 40
1.0
 40
1.0
 40
1.0
 10
121.505072592
 20
142.8552809204
 30
0.0
 10
121.8821007894
 20
143.0729454455
 30
0.0
 10
122.5876463432
 20
143.6659389599
 30
0.0
 10
123.3384609387
 20
144.8938357968
 30
0.0
 10
123.7848214657
 20
146.4070256258
 30
0.0
 10
123.8724045341
 20
147.5084250249
 30
0.0
 10
123.8724045341
 20
148.0877011197
 30
0.0
  0
SPLINE
  5
315
100
AcDbEntity
  8
0
100
AcDbSpline
 62
7
  6
BYLAYER
 70
0
 71
3
 72
9
 73
5
 74
0
 42
0.0000001
 43
0.0000001
 44
0.0000000001
 40
0.0
 40
0.0
 40
0.0
 40
0.0
 40
0.2574959397
 40
1.0
 40
1.0
 40
1.0
 40
1.0
 10
136.6243338286
 20
144.0434930136
 30
0.0
 10
136.5895228271
 20
144.0635907
 30
0.0
 10
136.4530218726
 20
144.1393294526
 30
0.0
 10
136.3111995697
 20
144.205631918
 30
0.0
 10
136.2033860832
 20
144.248185668
 30
0.0
  0
SPLINE
  5
316
100
AcDbEntity
  8
0
100
AcDbSpline
 62
7
  6
BYLAYER
 70
0
 71
3
 72
9
 73
5
 74
0
 42
0.0000001
 43
0.0000001
 44
0.0000000001
 40
0.0
 40
0.0
 40
0.0
 40
0.0
 40
0.2570431602
 40
1.0
 40
1.0
 40
1.0
 40
1.0
 10
136.2033860832
 20
144.248185668
 30
0.0
 10
136.1748868109
 20
144.2594342692
 30
0.0
 10
136.0633124477
 20
144.3013789712
 30
0.0
 10
135.948871258
 20
144.3358554507
 30
0.0
 10
135.8627061956
 20
144.3563050014
 30
0.0
  0
SPLINE
  5
317
100
AcDbEntity
  8
0
100
AcDbSpline
 62
7
  6
BYLAYER
 70
0
 71
3
 72
9
 73
5
 74
0
 42
0.0000001
 43
0.0000001
 44
0.0000000001
 40
0.0
 40
0.0
 40
0.0
 40
0.0
 40
0.5257940697
 40
1.0
 40
1.0
 40
1.0
 40
1.0
 10
135.8627061956
 20
144.3563050014
 30
0.0
 10
135.6629389809
 20
144.4037157464
 30
0.0
 10
135.2658733468
 20
144.4432182123
 30
0.0
 10
134.8797770639
 20
144.3246423927
 30
0.0
 10
134.7193763292
 20
144.2321214308
 30
0.0
  0
SPLINE
  5
318
100
AcDbEntity
  8
0
100
AcDbSpline
 62
7
  6
BYLAYER
 70
0
 71
3
 72
17
 73
13
 74
0
 42
0.0000001
 43
0.0000001
 44
0.0000000001
 40
0.0
 40
0.0
 40
0.0
 40
0.0
 40
0.0428582351
 40
0.087487895
 40
0.1353225067
 40
0.1872860939
 40
0.3045513972
 40
0.4382200758
 40
0.5825643335
 40
0.7297200328
 40
0.8713075009
 40
1.0
 40
1.0
 40
1.0
 40
1.0
 10
120.8578451177
 20
167.4113756975
 30
0.0
 10
121.1083182868
 20
167.5559830473
 30
0.0
 10
121.6604394624
 20
167.7855102075
 30
0.0
 10
122.5718707626
 20
167.9190775273
 30
0.0
 10
123.5506586199
 20
167.8470362136
 30
0.0
 10
124.972847068
 20
167.4687831376
 30
0.0
 10
126.7908383663
 20
166.4746135648
 30
0.0
 10
128.7994806373
 20
164.6957866281
 30
0.0
 10
130.5749839189
 20
162.4231845445
 30
0.0
 10
131.9722376971
 20
159.8404267797
 30
0.0
 10
132.8790686393
 20
157.1593445015
 30
0.0
 10
133.122022351
 20
155.3333330432
 30
0.0
 10
133.122022351
 20
154.4648787302
 30
0.0
  0
SPLINE
  5
319
100
AcDbEntity
  8
0
100
AcDbSpline
 62
7
  6
BYLAYER
 70
0
 71
3
 72
16
 73
12
 74
0
 42
0.0000001
 43
0.0000001
 44
0.0000000001
 40
0.0
 40
0.0
 40
0.0
 40
0.0
 40
0.0428765898
 40
0.0875235238
 40
0.1869288725
 40
0.3042409656
 40
0.4379668271
 40
0.5823720524
 40
0.7295946825
 40
0.8712549434
 40
1.0
 40
1.0
 40
1.0
 40
1.0
 10
138.529291328
 20
137.6331161779
 30
0.0
 10
138.6232397859
 20
137.6873067133
 30
0.0
 10
138.8012705296
 20
137.8236235355
 30
0.0
 10
139.0971630529
 20
138.1977009914
 30
0.0
 10
139.317617249
 20
138.8397276836
 30
0.0
 10
139.3372302125
 20
139.7346396912
 30
0.0
 10
139.1365626522
 20
140.7216036481
 30
0.0
 10
138.7313065545
 20
141.7239935238
 30
0.0
 10
138.1545692974
 20
142.6621806558
 30
0.0
 10
137.4538428906
 20
143.4593680412
 30
0.0
 10
136.9063675984
 20
143.8806644244
 30
0.0
 10
136.6243338286
 20
144.0434930136
 30
0.0
  0
SPLINE
  5
31A
100
AcDbEntity
  8
0
100
AcDbSpline
 62
7
  6
BYLAYER
 70
0
 71
3
 72
17
 73
13
 74
0
 42
0.0000001
 43
0.0000001
 44
0.0000000001
 40
0.0
 40
0.0
 40
0.0
 40
0.0
 40
0.1286905275
 40
0.2702748698
 40
0.4174289428
 40
0.5617755113
 40
0.6954465764
 40
0.8127125137
 40
0.864675972
 40
0.9125104655
 40
0.9571407421
 40
1.0
 40
1.0
 40
1.0
 40
1.0
 10
123.8724045341
 20
148.0877011197
 30
0.0
 10
123.8724045341
 20
149.064697245
 30
0.0
 10
123.5990896731
 20
151.1189209211
 30
0.0
 10
122.5789441014
 20
154.1350968685
 30
0.0
 10
121.0070593174
 20
157.0406928605
 30
0.0
 10
119.0096145152
 20
159.5973964254
 30
0.0
 10
116.7498753782
 20
161.59862086
 30
0.0
 10
114.7046206997
 20
162.7170782283
 30
0.0
 10
113.1046568005
 20
163.1426258415
 30
0.0
 10
112.0035193424
 20
163.223659035
 30
0.0
 10
110.9781406499
 20
163.0734291551
 30
0.0
 10
110.3569996837
 20
162.8151878084
 30
0.0
 10
110.0752081594
 20
162.6525049674
 30
0.0
  0
SPLINE
  5
31B
100
AcDbEntity
  8
0
100
AcDbSpline
 62
7
  6
BYLAYER
 70
0
 71
3
 72
11
 73
7
 74
0
 42
0.0000001
 43
0.0000001
 44
0.0000000001
 40
0.0
 40
0.0
 40
0.0
 40
0.0
 40
0.2897753627
 40
0.5490690247
 40
0.7822275075
 40
1.0
 40
1.0
 40
1.0
 40
1.0
 10
122.5253605077
 20
148.8653997571
 30
0.0
 10
122.5253605077
 20
148.3826614605
 30
0.0
 10
122.4523739253
 20
147.4648239548
 30
0.0
 10
122.0804022708
 20
146.203831921
 30
0.0
 10
121.4547305574
 20
145.1805861463
 30
0.0
 10
120.8667724276
 20
144.6864357334
 30
0.0
 10
120.5525866497
 20
144.5050447887
 30
0.0
  0
SPLINE
  5
31C
100
AcDbEntity
  8
0
100
AcDbSpline
 62
7
  6
BYLAYER
 70
0
 71
3
 72
9
 73
5
 74
0
 42
0.0000001
 43
0.0000001
 44
0.0000000001
 40
0.0
 40
0.0
 40
0.0
 40
0.0
 40
0.2622736328
 40
1.0
 40
1.0
 40
1.0
 40
1.0
 10
127.3745114626
 20
187.7508888378
 30
0.0
 10
127.3415345418
 20
187.769930774
 30
0.0
 10
127.217687775
 20
187.8456839323
 30
0.0
 10
127.1015177586
 20
187.9345233543
 30
0.0
 10
127.0235276706
 20
188.0079426338
 30
0.0
  0
SPLINE
  5
31D
100
AcDbEntity
  8
0
100
AcDbSpline
 62
7
  6
BYLAYER
 70
0
 71
3
 72
12
 73
8
 74
0
 42
0.0000001
 43
0.0000001
 44
0.0000000001
 40
0.0
 40
0.0
 40
0.0
 40
0.0
 40
0.2505984956
 40
0.3636943849
 40
0.4749980282
 40
0.7134133922
 40
1.0
 40
1.0
 40
1.0
 40
1.0
 10
127.0235276706
 20
188.0079426338
 30
0.0
 10
126.8964700834
 20
188.1275536863
 30
0.0
 10
126.7364395814
 20
188.3392656763
 30
0.0
 10
126.6594652109
 20
188.6650993874
 30
0.0
 10
126.6788095067
 20
188.9916389943
 30
0.0
 10
126.9032369158
 20
189.3974542917
 30
0.0
 10
127.2016962851
 20
189.6212504325
 30
0.0
 10
127.3745208444
 20
189.7210301427
 30
0.0
  0
SPLINE
  5
31E
100
AcDbEntity
  8
0
100
AcDbSpline
 62
7
  6
BYLAYER
 70
0
 71
3
 72
9
 73
5
 74
0
 42
0.0000001
 43
0.0000001
 44
0.0000000001
 40
0.0
 40
0.0
 40
0.0
 40
0.0
 40
0.242674599
 40
1.0
 40
1.0
 40
1.0
 40
1.0
 10
134.8723403051
 20
144.7684209083
 30
0.0
 10
134.8555685864
 20
144.7380520612
 30
0.0
 10
134.7897344402
 20
144.6111109637
 30
0.0
 10
134.7368882359
 20
144.4775687092
 30
0.0
 10
134.7035976416
 20
144.3745481427
 30
0.0
  0
SPLINE
  5
31F
100
AcDbEntity
  8
0
100
AcDbSpline
 62
7
  6
BYLAYER
 70
0
 71
3
 72
17
 73
13
 74
0
 42
0.0000001
 43
0.0000001
 44
0.0000000001
 40
0.0
 40
0.0
 40
0.0
 40
0.0
 40
0.1286908663
 40
0.2702750622
 40
0.4174285196
 40
0.5617744855
 40
0.6954459904
 40
0.8127124041
 40
0.8646760414
 40
0.9125105996
 40
0.9571408058
 40
1.0
 40
1.0
 40
1.0
 40
1.0
 10
117.3168373816
 20
145.3398054029
 30
0.0
 10
117.3168373816
 20
146.2082486893
 30
0.0
 10
117.0738908664
 20
148.034226764
 30
0.0
 10
116.1670933387
 20
150.7152684528
 30
0.0
 10
114.7698685522
 20
153.298013081
 30
0.0
 10
112.9943662984
 20
155.5706349744
 30
0.0
 10
110.9857104222
 20
157.3495054299
 30
0.0
 10
109.1677004664
 20
158.3436955119
 30
0.0
 10
107.7455053693
 20
158.7219604892
 30
0.0
 10
106.7667153854
 20
158.7939901436
 30
0.0
 10
105.855268076
 20
158.6604523013
 30
0.0
 10
105.3031439098
 20
158.4309042976
 30
0.0
 10
105.052662783
 20
158.2862977928
 30
0.0
  0
SPLINE
  5
320
100
AcDbEntity
  8
0
100
AcDbSpline
 62
7
  6
BYLAYER
 70
0
 71
3
 72
15
 73
11
 74
0
 42
0.0000001
 43
0.0000001
 44
0.0000000001
 40
0.0
 40
0.0
 40
0.0
 40
0.0
 40
0.0869321293
 40
0.1814404096
 40
0.2940671426
 40
0.4258715636
 40
0.5714535052
 40
0.7220252109
 40
0.8678547364
 40
1.0
 40
1.0
 40
1.0
 40
1.0
 10
109.0425467975
 20
151.0127209681
 30
0.0
 10
109.1215948385
 20
151.095351934
 30
0.0
 10
109.3391241016
 20
151.2250189276
 30
0.0
 10
109.7402150968
 20
151.2183209976
 30
0.0
 10
110.1574806897
 20
151.0425271896
 30
0.0
 10
110.5660547793
 20
150.7249894012
 30
0.0
 10
110.9331542865
 20
150.293810546
 30
0.0
 10
111.2263723545
 20
149.7880992941
 30
0.0
 10
111.4183101956
 20
149.254944159
 30
0.0
 10
111.4705746618
 20
148.8888971185
 30
0.0
 10
111.4705746618
 20
148.7150703992
 30
0.0
  0
SPLINE
  5
321
100
AcDbEntity
  8
0
100
AcDbSpline
 62
7
  6
BYLAYER
 70
0
 71
3
 72
9
 73
5
 74
0
 42
0.0000001
 43
0.0000001
 44
0.0000000001
 40
0.0
 40
0.0
 40
0.0
 40
0.0
 40
0.2628751772
 40
1.0
 40
1.0
 40
1.0
 40
1.0
 10
111.4705746618
 20
148.7150703992
 30
0.0
 10
111.4705746618
 20
148.6823289777
 30
0.0
 10
111.4670742262
 20
148.5578443462
 30
0.0
 10
111.4491727829
 20
148.4334455577
 30
0.0
 10
111.425720318
 20
148.344681718
 30
0.0
  0
SPLINE
  5
322
100
AcDbEntity
  8
0
100
AcDbSpline
 62
7
  6
BYLAYER
 70
0
 71
3
 72
9
 73
5
 74
0
 42
0.0000001
 43
0.0000001
 44
0.0000000001
 40
0.0
 40
0.0
 40
0.0
 40
0.0
 40
0.528724995
 40
1.0
 40
1.0
 40
1.0
 40
1.0
 10
111.425720318
 20
148.344681718
 30
0.0
 10
111.3958148963
 20
148.2314944663
 30
0.0
 10
111.3064634274
 20
148.0219640869
 30
0.0
 10
111.1302532004
 20
147.871672735
 30
0.0
 10
111.0361647916
 20
147.8265460139
 30
0.0
  0
SPLINE
  5
323
100
AcDbEntity
  8
0
100
AcDbSpline
 62
7
  6
BYLAYER
 70
0
 71
3
 72
11
 73
7
 74
0
 42
0.0000001
 43
0.0000001
 44
0.0000000001
 40
0.0
 40
0.0
 40
0.0
 40
0.0
 40
0.2350749943
 40
0.4954248956
 40
0.7581961281
 40
1.0
 40
1.0
 40
1.0
 40
1.0
 10
99.5359519473
 20
142.3326487452
 30
0.0
 10
99.5359519473
 20
142.4722535742
 30
0.0
 10
99.4861093444
 20
142.7667026286
 30
0.0
 10
99.3101752694
 20
143.1845199812
 30
0.0
 10
99.0498189
 20
143.560557849
 30
0.0
 10
98.8260196043
 20
143.7657589367
 30
0.0
 10
98.7065189617
 20
143.8453882279
 30
0.0
  0
SPLINE
  5
324
100
AcDbEntity
  8
0
100
AcDbSpline
 62
7
  6
BYLAYER
 70
0
 71
3
 72
11
 73
7
 74
0
 42
0.0000001
 43
0.0000001
 44
0.0000000001
 40
0.0
 40
0.0
 40
0.0
 40
0.0
 40
0.2990536477
 40
0.5541728388
 40
0.7781276005
 40
1.0
 40
1.0
 40
1.0
 40
1.0
 10
98.7065189617
 20
143.8453882279
 30
0.0
 10
98.6284182895
 20
143.8974306357
 30
0.0
 10
98.4727412678
 20
143.9794663475
 30
0.0
 10
98.2279654178
 20
144.0266272783
 30
0.0
 10
98.0057838553
 20
143.9739317228
 30
0.0
 10
97.8987535736
 20
143.8738983173
 30
0.0
 10
97.8589370956
 20
143.8167758577
 30
0.0
  0
SPLINE
  5
325
100
AcDbEntity
  8
0
100
AcDbSpline
 62
7
  6
BYLAYER
 70
0
 71
3
 72
9
 73
5
 74
0
 42
0.0000001
 43
0.0000001
 44
0.0000000001
 40
0.0
 40
0.0
 40
0.0
 40
0.0
 40
0.2247895296
 40
1.0
 40
1.0
 40
1.0
 40
1.0
 10
97.8589370956
 20
143.8167758577
 30
0.0
 10
97.8389263614
 20
143.7880675839
 30
0.0
 10
97.7631296266
 20
143.6510165157
 30
0.0
 10
97.7398932455
 20
143.4902614834
 30
0.0
 10
97.7398932455
 20
143.3695802617
 30
0.0
  0
SPLINE
  5
326
100
AcDbEntity
  8
0
100
AcDbSpline
 62
7
  6
BYLAYER
 70
0
 71
3
 72
14
 73
10
 74
0
 42
0.0000001
 43
0.0000001
 44
0.0000000001
 40
0.0
 40
0.0
 40
0.0
 40
0.0
 40
0.2737980146
 40
0.3906275452
 40
0.4996597147
 40
0.6085733156
 40
0.725270286
 40
0.8553013878
 40
1.0
 40
1.0
 40
1.0
 40
1.0
 10
98.6344116969
 20
141.8162194954
 30
0.0
 10
98.7396934296
 20
141.7549606181
 30
0.0
 10
98.9076673224
 20
141.6869499037
 30
0.0
 10
99.1328376044
 20
141.6919622017
 30
0.0
 10
99.2759230057
 20
141.7429605138
 30
0.0
 10
99.3923574776
 20
141.8403814516
 30
0.0
 10
99.4764723621
 20
141.9771052311
 30
0.0
 10
99.5259308772
 20
142.1456685417
 30
0.0
 10
99.5359519473
 20
142.2682754771
 30
0.0
 10
99.5359519473
 20
142.3326487452
 30
0.0
  0
SPLINE
  5
327
100
AcDbEntity
  8
0
100
AcDbSpline
 62
7
  6
BYLAYER
 70
0
 71
3
 72
13
 73
9
 74
0
 42
0.0000001
 43
0.0000001
 44
0.0000000001
 40
0.0
 40
0.0
 40
0.0
 40
0.0
 40
0.2699336621
 40
0.5613241335
 40
0.6954675297
 40
0.8131379116
 40
0.9128505993
 40
1.0
 40
1.0
 40
1.0
 40
1.0
 10
27.4247932811
 20
101.0105824393
 30
0.0
 10
27.4247932811
 20
101.1694056132
 30
0.0
 10
27.3374624673
 20
101.4985974574
 30
0.0
 10
27.1114003159
 20
101.8480570688
 30
0.0
 10
26.8707251668
 20
102.0615156708
 30
0.0
 10
26.6872252607
 20
102.1616775911
 30
0.0
 10
26.5076693671
 20
102.1976452898
 30
0.0
 10
26.3961006847
 20
102.1690119304
 30
0.0
 10
26.3516819718
 20
102.1433937342
 30
0.0
  0
SPLINE
  5
328
100
AcDbEntity
  8
0
100
AcDbSpline
 62
7
  6
BYLAYER
 70
0
 71
3
 72
16
 73
12
 74
0
 42
0.0000001
 43
0.0000001
 44
0.0000000001
 40
0.0
 40
0.0
 40
0.0
 40
0.0
 40
0.0428765743
 40
0.0875234667
 40
0.186928609
 40
0.3042403422
 40
0.4379658104
 40
0.582370771
 40
0.729593422
 40
0.8712541043
 40
1.0
 40
1.0
 40
1.0
 40
1.0
 10
135.7970027808
 20
168.7043212609
 30
0.0
 10
135.8909069743
 20
168.7585868603
 30
0.0
 10
136.0979749253
 20
168.8446060071
 30
0.0
 10
136.5698778835
 20
168.9138160309
 30
0.0
 10
137.2361099565
 20
168.7837223708
 30
0.0
 10
138.0209252274
 20
168.3532557826
 30
0.0
 10
138.7753200852
 20
167.6859970836
 30
0.0
 10
139.440781899
 20
166.8338477416
 30
0.0
 10
139.9649051022
 20
165.8652923431
 30
0.0
 10
140.3049282693
 20
164.8598569656
 30
0.0
 10
140.3960481293
 20
164.1750837599
 30
0.0
 10
140.3960481293
 20
163.8494212245
 30
0.0
  0
SPLINE
  5
329
100
AcDbEntity
  8
0
100
AcDbSpline
 62
7
  6
BYLAYER
 70
0
 71
3
 72
11
 73
7
 74
0
 42
0.0000001
 43
0.0000001
 44
0.0000000001
 40
0.0
 40
0.0
 40
0.0
 40
0.0
 40
0.2177660095
 40
0.4508968553
 40
0.7103699668
 40
1.0
 40
1.0
 40
1.0
 40
1.0
 10
138.529285151
 20
161.483161723
 30
0.0
 10
138.6549248146
 20
161.5557659443
 30
0.0
 10
138.8901916969
 20
161.7532539201
 30
0.0
 10
139.1404924356
 20
162.1626925583
 30
0.0
 10
139.2890851555
 20
162.6671270562
 30
0.0
 10
139.3184218814
 20
163.0342609883
 30
0.0
 10
139.3184218814
 20
163.227257134
 30
0.0
  0
SPLINE
  5
32A
100
AcDbEntity
  8
0
100
AcDbSpline
 62
7
  6
BYLAYER
 70
0
 71
3
 72
11
 73
7
 74
0
 42
0.0000001
 43
0.0000001
 44
0.0000000001
 40
0.0
 40
0.0
 40
0.0
 40
0.0
 40
0.2177669599
 40
0.450898211
 40
0.7103709681
 40
1.0
 40
1.0
 40
1.0
 40
1.0
 10
115.1423332448
 20
180.6290233542
 30
0.0
 10
115.2680277366
 20
180.7015261182
 30
0.0
 10
115.5566837681
 20
180.8065263557
 30
0.0
 10
116.036405991
 20
180.8185760074
 30
0.0
 10
116.5475420909
 20
180.6950514842
 30
0.0
 10
116.8801495406
 20
180.5368986704
 30
0.0
 10
117.047285005
 20
180.440405148
 30
0.0
  0
SPLINE
  5
32B
100
AcDbEntity
  8
0
100
AcDbSpline
 62
7
  6
BYLAYER
 70
0
 71
3
 72
15
 73
11
 74
0
 42
0.0000001
 43
0.0000001
 44
0.0000000001
 40
0.0
 40
0.0
 40
0.0
 40
0.0
 40
0.1287874522
 40
0.2705880129
 40
0.4178736713
 40
0.5623799043
 40
0.6961940776
 40
0.8135918696
 40
0.9130653315
 40
1.0
 40
1.0
 40
1.0
 40
1.0
 10
127.7795320817
 20
189.0195339963
 30
0.0
 10
127.9157084671
 20
189.0981549998
 30
0.0
 10
128.2241746382
 20
189.2253463625
 30
0.0
 10
128.7267916904
 20
189.3260605063
 30
0.0
 10
129.2585384688
 20
189.340622926
 30
0.0
 10
129.7756594149
 20
189.2680816743
 30
0.0
 10
130.2370099867
 20
189.1139377155
 30
0.0
 10
130.6065426725
 20
188.8888152456
 30
0.0
 10
130.8569888434
 20
188.6041189972
 30
0.0
 10
130.9208622263
 20
188.3744197291
 30
0.0
 10
130.9209404744
 20
188.2682770963
 30
0.0
  0
SPLINE
  5
32C
100
AcDbEntity
  8
0
100
AcDbSpline
 62
7
  6
BYLAYER
 70
0
 71
3
 72
9
 73
5
 74
0
 42
0.0000001
 43
0.0000001
 44
0.0000000001
 40
0.0
 40
0.0
 40
0.0
 40
0.0
 40
0.2623231588
 40
1.0
 40
1.0
 40
1.0
 40
1.0
 10
190.5954262149
 20
199.9868836258
 30
0.0
 10
190.562345049
 20
200.005984837
 30
0.0
 10
190.4381372625
 20
200.0819709928
 30
0.0
 10
190.3216566671
 20
200.1711296247
 30
0.0
 10
190.2435024491
 20
200.2448264753
 30
0.0
  0
SPLINE
  5
32D
100
AcDbEntity
  8
0
100
AcDbSpline
 62
7
  6
BYLAYER
 70
0
 71
3
 72
12
 73
8
 74
0
 42
0.0000001
 43
0.0000001
 44
0.0000000001
 40
0.0
 40
0.0
 40
0.0
 40
0.0
 40
0.2505298911
 40
0.3636162294
 40
0.4749276733
 40
0.7133822427
 40
1.0
 40
1.0
 40
1.0
 40
1.0
 10
190.2435024491
 20
200.2448264753
 30
0.0
 10
190.1166566812
 20
200.3644378517
 30
0.0
 10
189.9569588825
 20
200.5761276478
 30
0.0
 10
189.8803259549
 20
200.9017799339
 30
0.0
 10
189.8999212788
 20
201.2281253092
 30
0.0
 10
190.1243770382
 20
201.6336246245
 30
0.0
 10
190.422697552
 20
201.8572951238
 30
0.0
 10
190.5954356996
 20
201.9570249445
 30
0.0
  0
SPLINE
  5
32E
100
AcDbEntity
  8
0
100
AcDbSpline
 62
7
  6
BYLAYER
 70
0
 71
3
 72
10
 73
6
 74
0
 42
0.0000001
 43
0.0000001
 44
0.0000000001
 40
0.0
 40
0.0
 40
0.0
 40
0.0
 40
0.2265881757
 40
0.4640889187
 40
1.0
 40
1.0
 40
1.0
 40
1.0
 10
117.8746162565
 20
173.4078642218
 30
0.0
 10
117.9766133398
 20
173.4666972956
 30
0.0
 10
118.1692799547
 20
173.6178038616
 30
0.0
 10
118.4817411479
 20
174.0389079905
 30
0.0
 10
118.5968619396
 20
174.4389029062
 30
0.0
 10
118.6349018037
 20
174.7147837693
 30
0.0
  0
SPLINE
  5
32F
100
AcDbEntity
  8
0
100
AcDbSpline
 62
7
  6
BYLAYER
 70
0
 71
3
 72
11
 73
7
 74
0
 42
0.0000001
 43
0.0000001
 44
0.0000000001
 40
0.0
 40
0.0
 40
0.0
 40
0.0
 40
0.2276000241
 40
0.489973526
 40
0.7578947345
 40
1.0
 40
1.0
 40
1.0
 40
1.0
 10
118.6349018037
 20
174.7147837693
 30
0.0
 10
118.6972595775
 20
175.1670281945
 30
0.0
 10
118.6071957695
 20
176.1699389281
 30
0.0
 10
118.0593895332
 20
177.6019011992
 30
0.0
 10
117.1769789583
 20
178.8915465994
 30
0.0
 10
116.3902187485
 20
179.5754361262
 30
0.0
 10
115.9696587571
 20
179.8182410575
 30
0.0
  0
SPLINE
  5
330
100
AcDbEntity
  8
0
100
AcDbSpline
 62
7
  6
BYLAYER
 70
0
 71
3
 72
11
 73
7
 74
0
 42
0.0000001
 43
0.0000001
 44
0.0000000001
 40
0.0
 40
0.0
 40
0.0
 40
0.0
 40
0.2177843137
 40
0.4509117637
 40
0.7102976701
 40
1.0
 40
1.0
 40
1.0
 40
1.0
 10
117.832928968
 20
172.6505093622
 30
0.0
 10
117.6863068029
 20
172.5658575858
 30
0.0
 10
117.3494195837
 20
172.4435984548
 30
0.0
 10
116.7898556535
 20
172.429430404
 30
0.0
 10
116.1934916438
 20
172.5734416809
 30
0.0
 10
115.8054913807
 20
172.7580209322
 30
0.0
 10
115.6104500078
 20
172.8706255739
 30
0.0
  0
SPLINE
  5
331
100
AcDbEntity
  8
0
100
AcDbSpline
 62
7
  6
BYLAYER
 70
0
 71
3
 72
16
 73
12
 74
0
 42
0.0000001
 43
0.0000001
 44
0.0000000001
 40
0.0
 40
0.0
 40
0.0
 40
0.0
 40
0.1367914814
 40
0.2881310546
 40
0.4421331803
 40
0.5861569067
 40
0.7103750325
 40
0.8121446705
 40
0.8576994107
 40
0.9025950774
 40
1.0
 40
1.0
 40
1.0
 40
1.0
 10
127.3745208444
 20
189.7210301427
 30
0.0
 10
127.5928301296
 20
189.8470703149
 30
0.0
 10
128.0959468332
 20
190.0386328775
 30
0.0
 10
128.9076442872
 20
190.1534849062
 30
0.0
 10
129.7401162976
 20
190.1054336795
 30
0.0
 10
130.4970690493
 20
189.8977681681
 30
0.0
 10
131.0966665687
 20
189.5548661361
 30
0.0
 10
131.4223958948
 20
189.1469885994
 30
0.0
 10
131.5045962013
 20
188.7966209797
 30
0.0
 10
131.4758013248
 20
188.4463642195
 30
0.0
 10
131.3296585992
 20
188.2092100393
 30
0.0
 10
131.2074405092
 20
188.0777462029
 30
0.0
  0
SPLINE
  5
332
100
AcDbEntity
  8
0
100
AcDbSpline
 62
7
  6
BYLAYER
 70
0
 71
3
 72
9
 73
5
 74
0
 42
0.0000001
 43
0.0000001
 44
0.0000000001
 40
0.0
 40
0.0
 40
0.0
 40
0.0
 40
0.2355104934
 40
1.0
 40
1.0
 40
1.0
 40
1.0
 10
131.2074405092
 20
188.0777462029
 30
0.0
 10
131.1789144397
 20
188.0470621484
 30
0.0
 10
131.0519198239
 20
187.9222487792
 30
0.0
 10
130.9048097254
 20
187.8188586388
 30
0.0
 10
130.7870323779
 20
187.7508602614
 30
0.0
  0
SPLINE
  5
333
100
AcDbEntity
  8
0
100
AcDbSpline
 62
7
  6
BYLAYER
 70
0
 71
3
 72
15
 73
11
 74
0
 42
0.0000001
 43
0.0000001
 44
0.0000000001
 40
0.0
 40
0.0
 40
0.0
 40
0.0
 40
0.1287874522
 40
0.2705880129
 40
0.4178736713
 40
0.5623799043
 40
0.6961940776
 40
0.8135918696
 40
0.9130653315
 40
1.0
 40
1.0
 40
1.0
 40
1.0
 10
191.0004469369
 20
201.255528798
 30
0.0
 10
191.1366233223
 20
201.3341498015
 30
0.0
 10
191.4450894934
 20
201.4613411643
 30
0.0
 10
191.9477065456
 20
201.562055308
 30
0.0
 10
192.479453324
 20
201.5766177278
 30
0.0
 10
192.9965742701
 20
201.5040764761
 30
0.0
 10
193.457924842
 20
201.3499325173
 30
0.0
 10
193.8274575277
 20
201.1248100474
 30
0.0
 10
194.0779036986
 20
200.8401137989
 30
0.0
 10
194.1417770815
 20
200.6104145309
 30
0.0
 10
194.1418553296
 20
200.5042718981
 30
0.0
  0
SPLINE
  5
334
100
AcDbEntity
  8
0
100
AcDbSpline
 62
7
  6
BYLAYER
 70
0
 71
3
 72
11
 73
7
 74
0
 42
0.0000001
 43
0.0000001
 44
0.0000000001
 40
0.0
 40
0.0
 40
0.0
 40
0.0
 40
0.2177227832
 40
0.4508712161
 40
0.7104668615
 40
1.0
 40
1.0
 40
1.0
 40
1.0
 10
147.5547744042
 20
176.6038466429
 30
0.0
 10
147.5547706697
 20
176.7005622505
 30
0.0
 10
147.5903373185
 20
176.9022117715
 30
0.0
 10
147.7432848195
 20
177.1832492352
 30
0.0
 10
147.985089019
 20
177.4370914646
 30
0.0
 10
148.1872208661
 20
177.5764708608
 30
0.0
 10
148.2986047212
 20
177.6407779757
 30
0.0
  0
SPLINE
  5
335
100
AcDbEntity
  8
0
100
AcDbSpline
 62
7
  6
BYLAYER
 70
0
 71
3
 72
16
 73
12
 74
0
 42
0.0000001
 43
0.0000001
 44
0.0000000001
 40
0.0
 40
0.0
 40
0.0
 40
0.0
 40
0.1367914814
 40
0.2881310546
 40
0.4421331803
 40
0.5861569067
 40
0.7103750325
 40
0.8121446705
 40
0.8576994107
 40
0.9025950774
 40
1.0
 40
1.0
 40
1.0
 40
1.0
 10
190.5954356996
 20
201.9570249445
 30
0.0
 10
190.8137449848
 20
202.0830651167
 30
0.0
 10
191.3168616884
 20
202.2746276793
 30
0.0
 10
192.1285591424
 20
202.389479708
 30
0.0
 10
192.9610311528
 20
202.3414284812
 30
0.0
 10
193.7179839046
 20
202.1337629698
 30
0.0
 10
194.317581424
 20
201.7908609378
 30
0.0
 10
194.64331075
 20
201.3829834011
 30
0.0
 10
194.7255110565
 20
201.0326157814
 30
0.0
 10
194.69671618
 20
200.6823590213
 30
0.0
 10
194.5505734544
 20
200.4452048411
 30
0.0
 10
194.4283553644
 20
200.3137410046
 30
0.0
  0
SPLINE
  5
336
100
AcDbEntity
  8
0
100
AcDbSpline
 62
7
  6
BYLAYER
 70
0
 71
3
 72
9
 73
5
 74
0
 42
0.0000001
 43
0.0000001
 44
0.0000000001
 40
0.0
 40
0.0
 40
0.0
 40
0.0
 40
0.2355104934
 40
1.0
 40
1.0
 40
1.0
 40
1.0
 10
194.4283553644
 20
200.3137410046
 30
0.0
 10
194.399829295
 20
200.2830569502
 30
0.0
 10
194.2728346791
 20
200.158243581
 30
0.0
 10
194.1257245806
 20
200.0548534405
 30
0.0
 10
194.0079472332
 20
199.9868550631
 30
0.0
  0
SPLINE
  5
337
100
AcDbEntity
  8
0
100
AcDbSpline
 62
7
  6
BYLAYER
 70
0
 71
3
 72
11
 73
7
 74
0
 42
0.0000001
 43
0.0000001
 44
0.0000000001
 40
0.0
 40
0.0
 40
0.0
 40
0.0
 40
0.2177227832
 40
0.4508712161
 40
0.7104668615
 40
1.0
 40
1.0
 40
1.0
 40
1.0
 10
168.7479156355
 20
213.1040389303
 30
0.0
 10
168.7479119011
 20
213.2007545379
 30
0.0
 10
168.7834785499
 20
213.402404059
 30
0.0
 10
168.9364260509
 20
213.6834415227
 30
0.0
 10
169.1782302504
 20
213.9372837521
 30
0.0
 10
169.3803620974
 20
214.0766631482
 30
0.0
 10
169.4917459526
 20
214.1409702631
 30
0.0
  0
SPLINE
  5
338
100
AcDbEntity
  8
0
100
AcDbSpline
 62
7
  6
BYLAYER
 70
0
 71
3
 72
11
 73
7
 74
0
 42
0.0000001
 43
0.0000001
 44
0.0000000001
 40
0.0
 40
0.0
 40
0.0
 40
0.0
 40
0.237239768
 40
0.4999988393
 40
0.7627585384
 40
1.0
 40
1.0
 40
1.0
 40
1.0
 10
136.2651250793
 20
160.9459131344
 30
0.0
 10
135.8188930398
 20
161.2035394942
 30
0.0
 10
134.9744596161
 20
161.9142369561
 30
0.0
 10
133.9888910482
 20
163.261046252
 30
0.0
 10
133.3152957118
 20
164.7879785792
 30
0.0
 10
133.122022351
 20
165.874631392
 30
0.0
 10
133.122022351
 20
166.3898965324
 30
0.0
  0
SPLINE
  5
339
100
AcDbEntity
  8
0
100
AcDbSpline
 62
7
  6
BYLAYER
 70
0
 71
3
 72
11
 73
7
 74
0
 42
0.0000001
 43
0.0000001
 44
0.0000000001
 40
0.0
 40
0.0
 40
0.0
 40
0.0
 40
0.2897033281
 40
0.5490895198
 40
0.7822165953
 40
1.0
 40
1.0
 40
1.0
 40
1.0
 10
133.122022351
 20
142.539860928
 30
0.0
 10
133.122022351
 20
142.7650808298
 30
0.0
 10
133.1561690017
 20
143.19340135
 30
0.0
 10
133.3296336736
 20
143.7818912989
 30
0.0
 10
133.621690571
 20
144.2594176126
 30
0.0
 10
133.896020646
 20
144.4900465438
 30
0.0
 10
134.0426461191
 20
144.5747002301
 30
0.0
  0
SPLINE
  5
33A
100
AcDbEntity
  8
0
100
AcDbSpline
 62
7
  6
BYLAYER
 70
0
 71
3
 72
11
 73
7
 74
0
 42
0.0000001
 43
0.0000001
 44
0.0000000001
 40
0.0
 40
0.0
 40
0.0
 40
0.0
 40
0.2897742801
 40
0.5490675679
 40
0.7822266446
 40
1.0
 40
1.0
 40
1.0
 40
1.0
 10
133.122022351
 20
154.4648787302
 30
0.0
 10
133.122022351
 20
153.9499597826
 30
0.0
 10
133.0441722161
 20
152.9709353669
 30
0.0
 10
132.647401845
 20
151.6258792147
 30
0.0
 10
131.9800213112
 20
150.5344129219
 30
0.0
 10
131.3528627931
 20
150.0073183692
 30
0.0
 10
131.0177299694
 20
149.8138338947
 30
0.0
  0
SPLINE
  5
33B
100
AcDbEntity
  8
0
100
AcDbSpline
 62
7
  6
BYLAYER
 70
0
 71
3
 72
15
 73
11
 74
0
 42
0.0000001
 43
0.0000001
 44
0.0000000001
 40
0.0
 40
0.0
 40
0.0
 40
0.0
 40
0.1288244605
 40
0.2705976782
 40
0.4178986235
 40
0.5623949216
 40
0.69620836
 40
0.8136001012
 40
0.9130679301
 40
1.0
 40
1.0
 40
1.0
 40
1.0
 10
148.2986047212
 20
177.6407779757
 30
0.0
 10
148.4866163672
 20
177.7493259021
 30
0.0
 10
148.912374325
 20
177.9249487204
 30
0.0
 10
149.606179151
 20
178.0638298551
 30
0.0
 10
150.3400795952
 20
178.0840471735
 30
0.0
 10
151.0538392547
 20
177.9838254524
 30
0.0
 10
151.6905787385
 20
177.7710678747
 30
0.0
 10
152.200599029
 20
177.4602868926
 30
0.0
 10
152.5461660059
 20
177.0673594625
 30
0.0
 10
152.6345467853
 20
176.750345444
 30
0.0
 10
152.634552442
 20
176.6038462755
 30
0.0
  0
ENDSEC
  0
SECTION
  2
OBJECTS
  0
DICTIONARY
  5
C
100
AcDbDictionary
280
0
281
1
  3
ACAD_GROUP
350
D
  3
ACAD_MLINESTYLE
350
17
  3
ACAD_LAYOUT
350
1A
  3
ACAD_PLOTSETTINGS
350
19
  3
ACAD_PLOTSTYLENAME
350
E
  0
DICTIONARY
  5
D
102
{ACAD_REACTORS
330
C
102
}
100
AcDbDictionary
280
0
281
1
  0
ACDBDICTIONARYWDFLT
  5
E
102
{ACAD_REACTORS
330
C
102
}
100
AcDbDictionary
281
1
  3
Normal
350
F
100
AcDbDictionaryWithDefault
340
F
  0
DICTIONARY
  5
17
102
{ACAD_REACTORS
330
C
102
}
100
AcDbDictionary
280
0
281
1
  3
Standard
350
18
  0
DICTIONARY
  5
19
102
{ACAD_REACTORS
330
C
102
}
100
AcDbDictionary
281
1
  0
DICTIONARY
  5
1A
102
{ACAD_REACTORS
330
C
102
}
100
AcDbDictionary
281
1
  3
Model
350
33C
  3
Layout1
350
33D
  0
ACDBPLACEHOLDER
  5
F
102
{ACAD_REACTORS
330
E
102
}
  0
MLINESTYLE
  5
18
102
{ACAD_REACTORS
330
17
102
}
100
AcDbMlineStyle
  2
STANDARD
 70
0
  3

 62
256
 51
90.0
 52
90.0
 71
2
 49
0.5
 62
256
  6
BYLAYER
 49
-0.5
 62
256
  6
BYLAYER
  0
LAYOUT
  5
33C
102
{ACAD_REACTORS
330
1A
102
}
100
AcDbPlotSettings
  1

  2
none_device
  4

  6

 40
0.0
 41
0.0
 42
0.0
 43
0.0
 44
210.0
 45
297.0
 46
0.0
 47
0.0
 48
0.0
 49
0.0
140
0.0
141
0.0
142
1.0
143
1.0
 70
1024
 72
1
 73
0
 74
0
  7

 75
0
147
1.0
148
0.0
149
0.0
100
AcDbLayout
  1
Model
 70
0
 71
0
 10
0.0
 20
0.0
 11
210.0
 21
297.0
 12
0.0
 22
0.0
 32
0.0
 14
0.0
 24
0.0
 34
0.0
 15
0.0
 25
0.0
 35
0.0
146
0.0
 13
0.0
 23
0.0
 33
0.0
 16
1.0
 26
0.0
 36
0.0
 17
0.0
 27
1.0
 37
0.0
 76
0
330
210
345
0
346
0
  0
LAYOUT
  5
33D
102
{ACAD_REACTORS
330
1A
102
}
100
AcDbPlotSettings
  1

  2
none_device
  4

  6

 40
0.0
 41
0.0
 42
0.0
 43
0.0
 44
210.0
 45
297.0
 46
0.0
 47
0.0
 48
0.0
 49
0.0
140
0.0
141
0.0
142
1.0
143
1.0
 70
0
 72
1
 73
0
 74
0
  7

 75
0
147
1.0
148
0.0
149
0.0
100
AcDbLayout
  1
Layout1
 70
0
 71
1
 10
0.0
 20
0.0
 11
210.0
 21
297.0
 12
0.0
 22
0.0
 32
0.0
 14
0.0
 24
0.0
 34
0.0
 15
0.0
 25
0.0
 35
0.0
146
0.0
 13
0.0
 23
0.0
 33
0.0
 16
1.0
 26
0.0
 36
0.0
 17
0.0
 27
1.0
 37
0.0
 76
0
330
211
345
0
346
0
  0
ENDSEC
  0
EOF
