999
DXF file: C:\Users\sesa63760\Dev\_Creo\CAD\MCADID0002516_3D-CAD\drw0001_1.dxf
999
Pro/ENGINEER 2019471 by Parametric Technology Corporation
  0
SECTION
  2
HEADER
  9
$ACADVER
  1
AC1024
  9
$DWGCODEPAGE
  3
ANSI_1252
  9
$EXTMAX
 10
57.8590307408
 20
81.8292006192
 30
0.0
  9
$EXTMIN
 10
0.0
 20
0.0
 30
0.0
  9
$LIMMIN
 10
0.0
 20
0.0
  9
$LIMMAX
 10
57.8590307408
 20
81.8292006192
  9
$VIEWCTR
 10
28.9295153704
 20
40.9146003096
  9
$VIEWSIZE
 40
81.8292006192
  9
$CLAYER
  8
0
  9
$LTSCALE
 40
5.3340515959
  9
$CELTYPE
  6
BYLAYER
  9
$DIMSCALE
 40
1.0
  9
$DIMASZ
 40
0.688797985
  9
$DIMEXO
 40
1.0
  9
$DIMDLI
 40
3.685344739
  9
$DIMEXE
 40
1.0
  9
$DIMCEN
 40
0.8728448066
  9
$DIMLFAC
 40
1.0
  9
$DIMBLK
  1
_FILLED
  9
$DIMALT
 70
0
  9
$DIMALTF
 40
0.0393700787
  9
$DIMTXT
 40
0.964317179
  9
$DIMTOL
 70
1
  9
$DIMLIM
 70
0
  9
$DIMTFAC
 40
1.0
  9
$DIMTP
 40
0.01
  9
$DIMTM
 40
0.01
  9
$DIMGAP
 40
0.625
  9
$DIMDSEP
 70
46
  9
$AUNITS
 70
0
  9
$PDMODE
 70
3
  9
$PDSIZE
 40
0.3125
  9
$HANDSEED
  5
261
  9
$TILEMODE
 70
1
  9
$MEASUREMENT
 70
1
  9
$INSUNITS
 70
4
  0
ENDSEC
  0
SECTION
  2
CLASSES
  0
CLASS
  1
ACDBDICTIONARYWDFLT
  2
AcDbDictionaryWithDefault
  3
AutoCAD 2000
 90
0
 91
1
280
0
281
0
  0
CLASS
  1
ACDBPLACEHOLDER
  2
AcDbPlaceHolder
  3
AutoCAD 2000
 90
0
 91
1
280
0
281
0
  0
CLASS
  1
LAYOUT
  2
AcDbLayout
  3
AutoCAD 2000
 90
0
 91
0
280
0
281
0
  0
ENDSEC
  0
SECTION
  2
TABLES
  0
TABLE
  2
VPORT
  5
8
100
AcDbSymbolTable
 70
2
  0
VPORT
  5
1F4
100
AcDbSymbolTableRecord
100
AcDbViewportTableRecord
  2
*ACTIVE
 70
0
 10
0.0
 20
0.0
 11
1.0
 21
1.0
 12
28.9295153704
 22
40.9146003096
 13
0.0
 23
0.0
 14
1.0
 24
1.0
 15
0.0
 25
0.0
 16
0.0
 26
0.0
 36
1.0
 17
0.0
 27
0.0
 37
0.0
 40
81.8292006192
 41
0.7070707071
 42
50.0
 43
0.0
 44
0.0
 50
0.0
 51
0.0
 71
0
 72
100
 73
1
 74
1
 75
0
 76
0
 77
0
 78
0
  0
ENDTAB
  0
TABLE
  2
LTYPE
  5
5
100
AcDbSymbolTable
 70
6
  0
LTYPE
  5
14
100
AcDbSymbolTableRecord
100
AcDbLinetypeTableRecord
  2
BYBLOCK
 70
0
  3

 72
65
 73
0
 40
0.0
  0
LTYPE
  5
15
100
AcDbSymbolTableRecord
100
AcDbLinetypeTableRecord
  2
BYLAYER
 70
0
  3

 72
65
 73
0
 40
0.0
  0
LTYPE
  5
16
100
AcDbSymbolTableRecord
100
AcDbLinetypeTableRecord
  2
CONTINUOUS
 70
64
  3
Solid line
 72
65
 73
0
 40
0.0
  0
LTYPE
  5
1F5
100
AcDbSymbolTableRecord
100
AcDbLinetypeTableRecord
  2
CENTER
 70
64
  3
____ _ ____ _ ____ _ ____ _ ____ _ ____ _ ____
 72
65
 73
4
 40
0.6
 49
0.375
 74
0
 49
-0.075
 74
0
 49
0.075
 74
0
 49
-0.075
 74
0
  0
LTYPE
  5
1F6
100
AcDbSymbolTableRecord
100
AcDbLinetypeTableRecord
  2
HIDDEN
 70
64
  3
- - - - - - - - - - - - - - - - - - - -
 72
65
 73
2
 40
0.2
 49
0.1
 74
0
 49
-0.1
 74
0
  0
LTYPE
  5
1F7
100
AcDbSymbolTableRecord
100
AcDbLinetypeTableRecord
  2
PHANTOM
 70
64
  3
_____ _ _ _____ _ _ _____ _ _ _____
 72
65
 73
6
 40
0.8
 49
0.45
 74
0
 49
-0.05
 74
0
 49
0.1
 74
0
 49
-0.05
 74
0
 49
0.1
 74
0
 49
-0.05
 74
0
  0
LTYPE
  5
1F8
100
AcDbSymbolTableRecord
100
AcDbLinetypeTableRecord
  2
DOT
 70
64
  3
. . . . . . . . . . . . . . . . . . . .
 72
65
 73
2
 40
0.2
 49
0.1
 74
0
 49
-0.1
 74
0
  0
LTYPE
  5
1F9
100
AcDbSymbolTableRecord
100
AcDbLinetypeTableRecord
  2
DASHED
 70
64
  3
- - - - - - - - - - - - - - - - - - - -
 72
65
 73
2
 40
0.2
 49
0.1
 74
0
 49
-0.1
 74
0
  0
ENDTAB
  0
TABLE
  2
LAYER
  5
2
100
AcDbSymbolTable
 70
36
  0
LAYER
  5
10
100
AcDbSymbolTableRecord
100
AcDbLayerTableRecord
  2
0
 70
0
 62
7
  6
CONTINUOUS
370
-3
390
F
  0
LAYER
  5
1FA
100
AcDbSymbolTableRecord
100
AcDbLayerTableRecord
  2
DEFAULT_1
 70
0
 62
7
  6
CENTER
370
-3
390
F
  0
LAYER
  5
1FB
100
AcDbSymbolTableRecord
100
AcDbLayerTableRecord
  2
DEFAULT_2
 70
0
 62
7
  6
HIDDEN
370
-3
390
F
  0
LAYER
  5
1FC
100
AcDbSymbolTableRecord
100
AcDbLayerTableRecord
  2
DEFAULT_3
 70
0
 62
7
  6
PHANTOM
370
-3
390
F
  0
LAYER
  5
1FD
100
AcDbSymbolTableRecord
100
AcDbLayerTableRecord
  2
00_COMPONENTS
 70
0
 62
7
  6
CONTINUOUS
370
-3
390
F
  0
LAYER
  5
1FE
100
AcDbSymbolTableRecord
100
AcDbLayerTableRecord
  2
01_1_DEFAULT_DATUMS
 70
0
 62
7
  6
CONTINUOUS
370
-3
390
F
  0
LAYER
  5
1FF
100
AcDbSymbolTableRecord
100
AcDbLayerTableRecord
  2
01_PLANES
 70
0
 62
7
  6
CONTINUOUS
370
-3
390
F
  0
LAYER
  5
200
100
AcDbSymbolTableRecord
100
AcDbLayerTableRecord
  2
02_COORD_SYS
 70
0
 62
7
  6
CONTINUOUS
370
-3
390
F
  0
LAYER
  5
201
100
AcDbSymbolTableRecord
100
AcDbLayerTableRecord
  2
03_AXES
 70
0
 62
7
  6
CONTINUOUS
370
-3
390
F
  0
LAYER
  5
202
100
AcDbSymbolTableRecord
100
AcDbLayerTableRecord
  2
04_POINTS
 70
0
 62
7
  6
CONTINUOUS
370
-3
390
F
  0
LAYER
  5
203
100
AcDbSymbolTableRecord
100
AcDbLayerTableRecord
  2
05_CURVES
 70
0
 62
7
  6
CONTINUOUS
370
-3
390
F
  0
LAYER
  5
204
100
AcDbSymbolTableRecord
100
AcDbLayerTableRecord
  2
06_SURFS
 70
0
 62
7
  6
CONTINUOUS
370
-3
390
F
  0
LAYER
  5
205
100
AcDbSymbolTableRecord
100
AcDbLayerTableRecord
  2
07_COSMETICS
 70
0
 62
7
  6
CONTINUOUS
370
-3
390
F
  0
LAYER
  5
206
100
AcDbSymbolTableRecord
100
AcDbLayerTableRecord
  2
10_NOTES
 70
0
 62
7
  6
CONTINUOUS
370
-3
390
F
  0
LAYER
  5
207
100
AcDbSymbolTableRecord
100
AcDbLayerTableRecord
  2
11_NOTES_PUB
 70
0
 62
7
  6
CONTINUOUS
370
-3
390
F
  0
LAYER
  5
208
100
AcDbSymbolTableRecord
100
AcDbLayerTableRecord
  2
13_REF_GTOL
 70
0
 62
7
  6
CONTINUOUS
370
-3
390
F
  0
LAYER
  5
209
100
AcDbSymbolTableRecord
100
AcDbLayerTableRecord
  2
16_MISC
 70
0
 62
7
  6
CONTINUOUS
370
-3
390
F
  0
LAYER
  5
20A
100
AcDbSymbolTableRecord
100
AcDbLayerTableRecord
  2
17_NO_PRINT
 70
0
 62
7
  6
CONTINUOUS
370
-3
390
F
  0
LAYER
  5
20B
100
AcDbSymbolTableRecord
100
AcDbLayerTableRecord
  2
18_DATUM_CAMS_JOINTS
 70
0
 62
7
  6
CONTINUOUS
370
-3
390
F
  0
LAYER
  5
20C
100
AcDbSymbolTableRecord
100
AcDbLayerTableRecord
  2
19_DATUM_FUNCTIONAL
 70
0
 62
7
  6
CONTINUOUS
370
-3
390
F
  0
LAYER
  5
20D
100
AcDbSymbolTableRecord
100
AcDbLayerTableRecord
  2
20_DATUM_KINEMATIC_SCHEME
 70
0
 62
7
  6
CONTINUOUS
370
-3
390
F
  0
ENDTAB
  0
TABLE
  2
STYLE
  5
3
100
AcDbSymbolTable
 70
1
  0
STYLE
  5
11
100
AcDbSymbolTableRecord
100
AcDbTextStyleTableRecord
  2
STANDARD
 70
0
 40
0.0
 41
1.0
 50
0.0
 71
0
 42
0.2
  3
ARIAL.TTF
  4

  0
STYLE
  5
20E
100
AcDbSymbolTableRecord
100
AcDbTextStyleTableRecord
  2
TEXTSTYLE_1
 70
0
 40
0.0
 41
0.8
 50
0.0
 71
0
 42
0.2
  3
gdt
  4

  0
ENDTAB
  0
TABLE
  2
VIEW
  5
6
100
AcDbSymbolTable
 70
0
  0
ENDTAB
  0
TABLE
  2
UCS
  5
7
100
AcDbSymbolTable
 70
0
  0
ENDTAB
  0
TABLE
  2
APPID
  5
9
100
AcDbSymbolTable
 70
1
  0
APPID
  5
20F
100
AcDbSymbolTableRecord
100
AcDbRegAppTableRecord
  2
ACAD
 70
0
  0
ENDTAB
  0
TABLE
  2
BLOCK_RECORD
  5
1
100
AcDbSymbolTable
 70
0
  0
BLOCK_RECORD
  5
210
100
AcDbSymbolTableRecord
100
AcDbBlockTableRecord
  2
*Model_Space
  0
BLOCK_RECORD
  5
211
100
AcDbSymbolTableRecord
100
AcDbBlockTableRecord
  2
*Paper_Space
  0
BLOCK_RECORD
  5
212
100
AcDbSymbolTableRecord
100
AcDbBlockTableRecord
  2
_FILLED
  0
ENDTAB
  0
TABLE
  2
DIMSTYLE
  5
A
100
AcDbSymbolTable
 70
1
100
AcDbDimStyleTable
 71
0
  0
DIMSTYLE
105
213
100
AcDbSymbolTableRecord
100
AcDbDimStyleTableRecord
  2
STANDARD
 70
0
  3

  4

 40
1.0
 41
0.688797985
 42
1.0
 43
0.38
 44
1.0
 45
0.0
 46
0.0
 47
0.01
 48
0.01
140
0.964317179
141
0.09
142
0.0
143
25.4
144
1.0
145
0.0
146
1.0
147
0.625
 71
1
 72
0
 73
0
 74
0
 75
0
 76
0
 77
1
 78
8
 79
2
170
0
171
1
172
0
173
0
174
0
175
0
176
0
177
0
178
0
270
2
179
2
271
2
272
2
273
2
274
2
275
0
280
0
281
0
282
0
283
1
284
8
285
0
286
0
287
3
288
0
340
11
278
46
341
212
342
212
343
212
344
212
  0
ENDTAB
  0
ENDSEC
  0
SECTION
  2
BLOCKS
  0
BLOCK
  5
20
100
AcDbEntity
  8
0
100
AcDbBlockBegin
  2
*Model_Space
 70
0
 10
0.0
 20
0.0
 30
0.0
  3
*Model_Space
  1

  0
ENDBLK
  5
21
100
AcDbEntity
  8
0
100
AcDbBlockEnd
  0
BLOCK
  5
1C
100
AcDbEntity
  8
0
100
AcDbBlockBegin
  2
*Paper_Space
 70
0
 10
0.0
 20
0.0
 30
0.0
  3
*Paper_Space
  1

  0
ENDBLK
  5
1D
100
AcDbEntity
  8
0
100
AcDbBlockEnd
  0
BLOCK
  5
214
100
AcDbEntity
  8
0
100
AcDbBlockBegin
  2
_FILLED
 70
64
 10
0.0
 20
0.0
  3
_FILLED
  1

  0
SOLID
  5
215
100
AcDbEntity
  8
0
  6
BYBLOCK
 62
0
100
AcDbTrace
 10
0.0
 20
0.0
 11
-1.0
 21
0.25
 12
-1.0
 22
-0.25
 13
-1.0
 23
-0.25
  0
ENDBLK
  5
216
100
AcDbEntity
  8
0
  6
BYBLOCK
 62
0
100
AcDbBlockEnd
  0
ENDSEC
  0
SECTION
  2
ENTITIES
  0
LINE
  5
217
100
AcDbEntity
  8
0
100
AcDbLine
 62
7
  6
BYLAYER
 10
6.7123129663
 20
34.6678167094
 11
6.7123129663
 21
29.4830263606
  0
LINE
  5
218
100
AcDbEntity
  8
0
100
AcDbLine
 62
7
  6
BYLAYER
 10
14.6498129663
 20
34.6678167094
 11
14.6498129663
 21
38.6860292297
  0
LINE
  5
219
100
AcDbEntity
  8
0
100
AcDbLine
 62
7
  6
BYLAYER
 10
17.2691879663
 20
39.2045082646
 11
17.2691879663
 21
38.6860292297
  0
LINE
  5
21A
100
AcDbEntity
  8
0
100
AcDbLine
 62
7
  6
BYLAYER
 10
21.5554379663
 20
39.2045082646
 11
21.5554379663
 21
38.6860292297
  0
LINE
  5
21B
100
AcDbEntity
  8
0
100
AcDbLine
 62
7
  6
BYLAYER
 10
34.3075919638
 20
54.4771227549
 11
30.566473089
 21
51.8832380325
  0
LINE
  5
21C
100
AcDbEntity
  8
0
100
AcDbLine
 62
7
  6
BYLAYER
 10
22.4598345969
 20
32.8789190958
 11
22.4598345969
 21
36.1194130638
  0
LINE
  5
21D
100
AcDbEntity
  8
0
100
AcDbLine
 62
7
  6
BYLAYER
 10
29.2914053007
 20
49.3789296309
 11
17.3710608128
 21
41.1140226639
  0
LINE
  5
21E
100
AcDbEntity
  8
0
100
AcDbLine
 62
7
  6
BYLAYER
 10
24.1748129663
 20
38.2323600742
 11
24.1748129663
 21
38.6860292297
  0
LINE
  5
21F
100
AcDbEntity
  8
0
100
AcDbLine
 62
7
  6
BYLAYER
 10
30.566473089
 20
51.8832380325
 11
29.2914053007
 21
49.3789296309
  0
LINE
  5
220
100
AcDbEntity
  8
0
100
AcDbLine
 62
7
  6
BYLAYER
 10
34.1454761458
 20
49.1688559042
 11
30.174535675
 21
46.8762460395
  0
LINE
  5
221
100
AcDbEntity
  8
0
100
AcDbLine
 62
7
  6
BYLAYER
 10
29.0520083334
 20
44.931960858
 11
30.174535675
 21
46.8762460395
  0
LINE
  5
222
100
AcDbEntity
  8
0
100
AcDbLine
 62
7
  6
BYLAYER
 10
36.109915351
 20
48.0347120581
 11
32.1389748802
 21
45.7421021933
  0
LINE
  5
223
100
AcDbEntity
  8
0
100
AcDbLine
 62
7
  6
BYLAYER
 10
32.1389748802
 20
45.7421021933
 11
31.0164475386
 21
43.7978170119
  0
LINE
  5
224
100
AcDbEntity
  8
0
100
AcDbLine
 62
7
  6
BYLAYER
 10
31.0164475386
 20
43.7978170119
 11
34.9873880094
 21
46.0904268766
  0
LINE
  5
225
100
AcDbEntity
  8
0
100
AcDbLine
 62
7
  6
BYLAYER
 10
40.2501820787
 20
46.2924725206
 11
49.1871171986
 21
50.5889557815
  0
LINE
  5
226
100
AcDbEntity
  8
0
100
AcDbLine
 62
7
  6
BYLAYER
 10
31.0110299516
 20
52.1914691507
 11
31.0110064342
 21
55.4526418506
  0
LINE
  5
227
100
AcDbEntity
  8
0
100
AcDbLine
 62
7
  6
BYLAYER
 10
22.4598345969
 20
36.1194130638
 11
38.7189315129
 21
43.9360679685
  0
LWPOLYLINE
  5
228
100
AcDbEntity
  8
0
100
AcDbPolyline
 62
7
  6
BYLAYER
 90
4
 70
0
 10
18.5183781225
 20
41.9095089719
 10
17.4183224178
 20
41.9091196099
 10
13.6590329128
 20
41.204535068
 10
10.432019457
 20
39.8524742918
  0
LWPOLYLINE
  5
229
100
AcDbEntity
  8
0
100
AcDbPolyline
 62
7
  6
BYLAYER
 90
3
 70
0
 10
32.1123069761
 20
34.6678167096
 10
31.9534335625
 20
35.8239574909
 10
31.2327156131
 20
37.0965323973
  0
LINE
  5
22A
100
AcDbEntity
  8
0
100
AcDbLine
 62
7
  6
BYLAYER
 10
32.1123129663
 20
34.6678167094
 11
32.1123129663
 21
29.4830263606
  0
LINE
  5
22B
100
AcDbEntity
  8
0
100
AcDbLine
 62
7
  6
BYLAYER
 10
34.9873880094
 20
46.0904268766
 11
36.109915351
 21
48.0347120581
  0
LINE
  5
22C
100
AcDbEntity
  8
0
100
AcDbLine
 62
7
  6
BYLAYER
 10
29.0520083334
 20
44.931960858
 11
31.0164475386
 21
43.7978170119
  0
LINE
  5
22D
100
AcDbEntity
  8
0
100
AcDbLine
 62
7
  6
BYLAYER
 10
34.9797564341
 20
58.6931644385
 11
34.9797815498
 21
55.2103487303
  0
LINE
  5
22E
100
AcDbEntity
  8
0
100
AcDbLine
 62
7
  6
BYLAYER
 10
38.7189315129
 20
40.6955740005
 11
22.4598345969
 21
32.8789190958
  0
LINE
  5
22F
100
AcDbEntity
  8
0
100
AcDbLine
 62
7
  6
BYLAYER
 10
49.1871171986
 20
44.1079678455
 11
40.2501820787
 21
39.8114845846
  0
LINE
  5
230
100
AcDbEntity
  8
0
100
AcDbLine
 62
7
  6
BYLAYER
 10
40.2501820787
 20
39.8114845846
 11
38.7189315129
 21
40.6955740005
  0
LINE
  5
231
100
AcDbEntity
  8
0
100
AcDbLine
 62
7
  6
BYLAYER
 10
32.1389748802
 20
45.7421021933
 11
30.174535675
 21
46.8762460395
  0
LINE
  5
232
100
AcDbEntity
  8
0
100
AcDbLine
 62
7
  6
BYLAYER
 10
38.5518489754
 20
54.1105340728
 11
38.5880668157
 21
54.4771330439
  0
LINE
  5
233
100
AcDbEntity
  8
0
100
AcDbLine
 62
7
  6
BYLAYER
 10
38.7189315129
 20
43.9360679685
 11
40.2501820787
 21
46.2924725206
  0
LINE
  5
234
100
AcDbEntity
  8
0
100
AcDbLine
 62
7
  6
BYLAYER
 10
38.7189315129
 20
43.9360679685
 11
34.9873880094
 21
46.0904268766
  0
LINE
  5
235
100
AcDbEntity
  8
0
100
AcDbLine
 62
7
  6
BYLAYER
 10
31.9003927175
 20
47.8726641198
 11
29.2914053007
 21
49.3789296309
  0
LINE
  5
236
100
AcDbEntity
  8
0
100
AcDbLine
 62
7
  6
BYLAYER
 10
38.5880668157
 20
53.9541089149
 11
38.5880668157
 21
54.4771330439
  0
LINE
  5
237
100
AcDbEntity
  8
0
100
AcDbLine
 62
7
  6
BYLAYER
 10
38.8884344441
 20
55.2103581255
 11
38.8884344441
 21
53.1007610179
  0
LINE
  5
238
100
AcDbEntity
  8
0
100
AcDbLine
 62
7
  6
BYLAYER
 10
36.109915351
 20
48.0347120581
 11
34.1454761458
 21
49.1688559042
  0
LINE
  5
239
100
AcDbEntity
  8
0
100
AcDbLine
 62
7
  6
BYLAYER
 10
40.2501820787
 20
46.2924725206
 11
30.566473089
 21
51.8832380325
  0
LINE
  5
23A
100
AcDbEntity
  8
0
100
AcDbLine
 62
7
  6
BYLAYER
 10
38.5880668157
 20
54.4771330439
 11
34.3075919638
 21
54.4771227549
  0
LINE
  5
23B
100
AcDbEntity
  8
0
100
AcDbLine
 62
7
  6
BYLAYER
 10
34.9797815498
 20
55.2103487303
 11
38.8884344441
 21
55.2103581255
  0
LINE
  5
23C
100
AcDbEntity
  8
0
100
AcDbLine
 62
7
  6
BYLAYER
 10
44.1078814341
 20
58.6931863798
 11
34.9797564341
 21
58.6931644385
  0
LINE
  5
23D
100
AcDbEntity
  8
0
100
AcDbLine
 62
7
  6
BYLAYER
 10
49.1871171986
 20
50.5889557815
 11
49.1871171986
 21
44.1079678455
  0
LINE
  5
23E
100
AcDbEntity
  8
0
100
AcDbLine
 62
7
  6
BYLAYER
 10
52.045414481
 20
47.6295461962
 11
52.045414481
 21
54.1105341321
  0
SPLINE
  5
23F
100
AcDbEntity
  8
0
100
AcDbSpline
 62
7
  6
BYLAYER
 70
0
 71
3
 72
27
 73
23
 74
0
 42
0.0000001
 43
0.0000001
 44
0.0000000001
 40
0.0
 40
0.0
 40
0.0
 40
0.0
 40
0.0623757879
 40
0.1287095429
 40
0.198294524
 40
0.2702637487
 40
0.3436343736
 40
0.4173601272
 40
0.4903782432
 40
0.561658456
 40
0.6302493417
 40
0.6953306707
 40
0.7562722583
 40
0.7850801655
 40
0.8127410827
 40
0.8646362992
 40
0.8890203507
 40
0.9124673455
 40
0.9351093755
 40
0.9571123504
 40
0.9786702758
 40
1.0
 40
1.0
 40
1.0
 40
1.0
 10
28.3926064757
 20
24.2983687782
 30
0.0
 10
27.9363289436
 20
24.0349383947
 30
0.0
 10
26.9585013071
 20
23.5528207343
 30
0.0
 10
25.3811497637
 20
22.981278044
 30
0.0
 10
23.6765744305
 20
22.5485617392
 30
0.0
 10
21.8812602295
 20
22.2638734206
 30
0.0
 10
20.0332569378
 20
22.1332400908
 30
0.0
 10
18.1720062639
 20
22.1594258255
 30
0.0
 10
16.3372091176
 20
22.3418908337
 30
0.0
 10
14.5679898012
 20
22.6767360708
 30
0.0
 10
12.9018694196
 20
23.1569183015
 30
0.0
 10
11.374289012
 20
23.7723197213
 30
0.0
 10
10.2221460431
 20
24.398928667
 30
0.0
 10
9.4029338379
 20
24.9593315553
 30
0.0
 10
8.6864948754
 20
25.5297518894
 30
0.0
 10
8.0634204439
 20
26.1556221932
 30
0.0
 10
7.5592485545
 20
26.8318819724
 30
0.0
 10
7.2529209445
 20
27.3435882126
 30
0.0
 10
7.0126431358
 20
27.8674715597
 30
0.0
 10
6.8397542654
 20
28.400693549
 30
0.0
 10
6.7356093088
 20
28.9401951096
 30
0.0
 10
6.7123183986
 20
29.3028627821
 30
0.0
 10
6.7123185379
 20
29.4830263603
 30
0.0
  0
SPLINE
  5
240
100
AcDbEntity
  8
0
100
AcDbSpline
 62
7
  6
BYLAYER
 70
0
 71
3
 72
22
 73
18
 74
0
 42
0.0000001
 43
0.0000001
 44
0.0000000001
 40
0.0
 40
0.0
 40
0.0
 40
0.0
 40
0.0428176504
 40
0.0874044589
 40
0.1351912157
 40
0.1871079118
 40
0.2435601176
 40
0.3045232594
 40
0.3696296329
 40
0.4382446201
 40
0.5095524604
 40
0.5825961097
 40
0.7296198028
 40
0.8016149528
 40
0.871227208
 40
0.937627064
 40
1.0
 40
1.0
 40
1.0
 40
1.0
 10
21.5554255144
 20
39.2045082649
 30
0.0
 10
21.5554151057
 20
39.2655146758
 30
0.0
 10
21.5391326406
 20
39.3905824327
 30
0.0
 10
21.4673657118
 20
39.5711469622
 30
0.0
 10
21.3510175569
 20
39.7423604765
 30
0.0
 10
21.1932495469
 20
39.9007555052
 30
0.0
 10
20.9977857299
 20
40.043590538
 30
0.0
 10
20.7687654664
 20
40.16817664
 30
0.0
 10
20.5109627325
 20
40.2720111545
 30
0.0
 10
20.2298325804
 20
40.3530600557
 30
0.0
 10
19.9312569305
 20
40.4095639156
 30
0.0
 10
19.5177691488
 20
40.4506654451
 30
0.0
 10
19.0993648999
 20
40.4391202586
 30
0.0
 10
18.6927857752
 20
40.3747187499
 30
0.0
 10
18.4050575627
 20
40.301693549
 30
0.0
 10
18.1388954432
 20
40.2051764208
 30
0.0
 10
17.9738511051
 20
40.1238533837
 30
0.0
 10
17.8968884366
 20
40.0794192316
 30
0.0
  0
SPLINE
  5
241
100
AcDbEntity
  8
0
100
AcDbSpline
 62
7
  6
BYLAYER
 70
0
 71
3
 72
15
 73
11
 74
0
 42
0.0000001
 43
0.0000001
 44
0.0000000001
 40
0.0
 40
0.0
 40
0.0
 40
0.0
 40
0.1485729932
 40
0.2895089399
 40
0.422725548
 40
0.5486396872
 40
0.6680009063
 40
0.7819370783
 40
0.8919854036
 40
1.0
 40
1.0
 40
1.0
 40
1.0
 10
10.432019457
 20
39.8524742918
 30
0.0
 10
10.1456152267
 20
39.6871197194
 30
0.0
 10
9.6004910056
 20
39.3415735386
 30
0.0
 10
8.8552003775
 20
38.7647575851
 30
0.0
 10
8.2105606164
 20
38.1477219527
 30
0.0
 10
7.673066242
 20
37.4961559393
 30
0.0
 10
7.2480464461
 20
36.8158947579
 30
0.0
 10
6.9404403763
 20
36.1129858592
 30
0.0
 10
6.754108327
 20
35.3946097374
 30
0.0
 10
6.7123194998
 20
34.9082478532
 30
0.0
 10
6.7123188241
 20
34.6678167092
 30
0.0
  0
SPLINE
  5
242
100
AcDbEntity
  8
0
100
AcDbSpline
 62
7
  6
BYLAYER
 70
0
 71
3
 72
24
 73
20
 74
0
 42
0.0000001
 43
0.0000001
 44
0.0000000001
 40
0.0
 40
0.0
 40
0.0
 40
0.0
 40
0.0213182575
 40
0.0428475902
 40
0.0872544272
 40
0.1346485683
 40
0.1859309333
 40
0.241542078
 40
0.3015225005
 40
0.3655890168
 40
0.433212244
 40
0.5036803317
 40
0.5761483537
 40
0.6496828044
 40
0.7233125408
 40
0.7960597261
 40
0.8669718133
 40
0.9352193494
 40
1.0
 40
1.0
 40
1.0
 40
1.0
 10
24.174787066
 20
38.6860292398
 30
0.0
 10
24.1747857588
 20
38.7509751643
 30
0.0
 10
24.1667450214
 20
38.8816598704
 30
0.0
 10
24.118190311
 20
39.143559061
 30
0.0
 10
23.9943527692
 20
39.4693581252
 30
0.0
 10
23.7550534448
 20
39.8369768879
 30
0.0
 10
23.429935867
 20
40.1795065153
 30
0.0
 10
23.0259879756
 20
40.4909790528
 30
0.0
 10
22.5512084559
 20
40.7660182702
 30
0.0
 10
22.0148344946
 20
40.9996301894
 30
0.0
 10
21.4272976151
 20
41.1874438562
 30
0.0
 10
20.8000695682
 20
41.3258286365
 30
0.0
 10
20.1454703509
 20
41.412056252
 30
0.0
 10
19.4764037373
 20
41.4444793502
 30
0.0
 10
18.8060631504
 20
41.4224419038
 30
0.0
 10
18.1477126447
 20
41.3463580643
 30
0.0
 10
17.5142121322
 20
41.2177581505
 30
0.0
 10
16.9182520698
 20
41.0390986819
 30
0.0
 10
16.5426578653
 20
40.8844866031
 30
0.0
 10
16.3647913358
 20
40.79897624
 30
0.0
  0
SPLINE
  5
243
100
AcDbEntity
  8
0
100
AcDbSpline
 62
7
  6
BYLAYER
 70
0
 71
3
 72
11
 73
7
 74
0
 42
0.0000001
 43
0.0000001
 44
0.0000000001
 40
0.0
 40
0.0
 40
0.0
 40
0.0
 40
0.2434707008
 40
0.48975789
 40
0.7413239103
 40
1.0
 40
1.0
 40
1.0
 40
1.0
 10
31.0110358939
 20
55.4526418443
 30
0.0
 10
31.0110343854
 20
55.6193467405
 30
0.0
 10
31.042999337
 20
55.9555228267
 30
0.0
 10
31.1852985991
 20
56.4456527432
 30
0.0
 10
31.4181188498
 20
56.9113256231
 30
0.0
 10
31.6266986276
 20
57.1939546387
 30
0.0
 10
31.7428677766
 20
57.3276514102
 30
0.0
  0
SPLINE
  5
244
100
AcDbEntity
  8
0
100
AcDbSpline
 62
7
  6
BYLAYER
 70
0
 71
3
 72
12
 73
8
 74
0
 42
0.0000001
 43
0.0000001
 44
0.0000000001
 40
0.0
 40
0.0
 40
0.0
 40
0.0
 40
0.1168245201
 40
0.2365043474
 40
0.4836059948
 40
0.7394026967
 40
1.0
 40
1.0
 40
1.0
 40
1.0
 10
31.7428677766
 20
57.3276514102
 30
0.0
 10
31.835183937
 20
57.4338962497
 30
0.0
 10
32.0358798888
 20
57.6373813789
 30
0.0
 10
32.4922922445
 20
58.0012717997
 30
0.0
 10
33.1558275217
 20
58.3650487152
 30
0.0
 10
34.0418535477
 20
58.6327690808
 30
0.0
 10
34.6657917692
 20
58.6931636838
 30
0.0
 10
34.9797564341
 20
58.6931644385
 30
0.0
  0
SPLINE
  5
245
100
AcDbEntity
  8
0
100
AcDbSpline
 62
7
  6
BYLAYER
 70
0
 71
3
 72
15
 73
11
 74
0
 42
0.0000001
 43
0.0000001
 44
0.0000000001
 40
0.0
 40
0.0
 40
0.0
 40
0.0
 40
0.1080094531
 40
0.2180556175
 40
0.3319988641
 40
0.4513495886
 40
0.5772540998
 40
0.710496703
 40
0.8514734886
 40
1.0
 40
1.0
 40
1.0
 40
1.0
 10
49.6641599444
 20
54.1105341314
 30
0.0
 10
49.6641604675
 20
54.0053508895
 30
0.0
 10
49.6458562743
 20
53.7925794386
 30
0.0
 10
49.5643788557
 20
53.4782775645
 30
0.0
 10
49.4297311292
 20
53.1707941838
 30
0.0
 10
49.2438756947
 20
52.8731428195
 30
0.0
 10
49.0086840336
 20
52.5881036249
 30
0.0
 10
48.7266348077
 20
52.3180934197
 30
0.0
 10
48.4005188692
 20
52.0657717196
 30
0.0
 10
48.1620550944
 20
51.9145661747
 30
0.0
 10
48.0367928914
 20
51.8422464398
 30
0.0
  0
SPLINE
  5
246
100
AcDbEntity
  8
0
100
AcDbSpline
 62
7
  6
BYLAYER
 70
0
 71
3
 72
13
 73
9
 74
0
 42
0.0000001
 43
0.0000001
 44
0.0000000001
 40
0.0
 40
0.0
 40
0.0
 40
0.0
 40
0.1154327313
 40
0.2335720439
 40
0.3546647594
 40
0.4787729245
 40
0.7349719437
 40
1.0
 40
1.0
 40
1.0
 40
1.0
 10
31.3126822466
 20
52.4757866759
 30
0.0
 10
31.3749408594
 20
52.5986238214
 30
0.0
 10
31.518620337
 20
52.8385806911
 30
0.0
 10
31.7829395212
 20
53.1704184799
 30
0.0
 10
32.094565828
 20
53.473384529
 30
0.0
 10
32.5715150834
 20
53.8364490974
 30
0.0
 10
33.2613088401
 20
54.1931028612
 30
0.0
 10
33.8660996026
 20
54.3577196113
 30
0.0
 10
34.1778853554
 20
54.41027643
 30
0.0
  0
SPLINE
  5
247
100
AcDbEntity
  8
0
100
AcDbSpline
 62
7
  6
BYLAYER
 70
0
 71
3
 72
20
 73
16
 74
0
 42
0.0000001
 43
0.0000001
 44
0.0000000001
 40
0.0
 40
0.0
 40
0.0
 40
0.0
 40
0.0450600315
 40
0.0909693268
 40
0.1385016707
 40
0.1882946024
 40
0.2408253661
 40
0.2964029407
 40
0.3551801923
 40
0.4171757847
 40
0.4822861049
 40
0.5503155505
 40
0.6938673361
 40
0.844961206
 40
1.0
 40
1.0
 40
1.0
 40
1.0
 10
52.0454078232
 20
54.110534132
 30
0.0
 10
52.0454079491
 20
54.26080185
 30
0.0
 10
52.0192719248
 20
54.5647746437
 30
0.0
 10
51.9028411117
 20
55.0137719645
 30
0.0
 10
51.710546779
 20
55.4530748949
 30
0.0
 10
51.4449437997
 20
55.8782705253
 30
0.0
 10
51.1089675022
 20
56.2854955034
 30
0.0
 10
50.7060857396
 20
56.6710917483
 30
0.0
 10
50.2402919583
 20
57.0316877524
 30
0.0
 10
49.7159945769
 20
57.3639291279
 30
0.0
 10
49.1382293862
 20
57.6649200677
 30
0.0
 10
48.2887239921
 20
58.0270564857
 30
0.0
 10
47.1276982722
 20
58.3799365659
 30
0.0
 10
45.6468351343
 20
58.6358486007
 30
0.0
 10
44.6249100515
 20
58.6931876226
 30
0.0
 10
44.1078814341
 20
58.6931863798
 30
0.0
  0
SPLINE
  5
248
100
AcDbEntity
  8
0
100
AcDbSpline
 62
7
  6
BYLAYER
 70
0
 71
3
 72
15
 73
11
 74
0
 42
0.0000001
 43
0.0000001
 44
0.0000000001
 40
0.0
 40
0.0
 40
0.0
 40
0.0
 40
0.1107199742
 40
0.2230798828
 40
0.3386061364
 40
0.4585953747
 40
0.5840964583
 40
0.7159041702
 40
0.8545203988
 40
1.0
 40
1.0
 40
1.0
 40
1.0
 10
52.0454078982
 20
47.629546196
 30
0.0
 10
52.0454079135
 20
47.4967561757
 30
0.0
 10
52.0250811787
 20
47.2287894429
 30
0.0
 10
51.9343589349
 20
46.8315397739
 30
0.0
 10
51.7840803016
 20
46.4408859236
 30
0.0
 10
51.575935469
 20
46.0598880775
 30
0.0
 10
51.3115667031
 20
45.6913805651
 30
0.0
 10
50.9931926708
 20
45.3378840052
 30
0.0
 10
50.6233149636
 20
45.002139008
 30
0.0
 10
50.350981724
 20
44.796553693
 30
0.0
 10
50.2075966
 20
44.6971383858
 30
0.0
  0
SPLINE
  5
249
100
AcDbEntity
  8
0
100
AcDbSpline
 62
7
  6
BYLAYER
 70
0
 71
3
 72
9
 73
5
 74
0
 42
0.0000001
 43
0.0000001
 44
0.0000000001
 40
0.0
 40
0.0
 40
0.0
 40
0.0
 40
0.2415069015
 40
1.0
 40
1.0
 40
1.0
 40
1.0
 10
50.2075966
 20
44.6971383858
 30
0.0
 10
50.1295950872
 20
44.6430564549
 30
0.0
 10
49.8017171022
 20
44.4262188226
 30
0.0
 10
49.4557823309
 20
44.2371301622
 30
0.0
 10
49.1871171986
 20
44.1079678455
 30
0.0
  0
SPLINE
  5
24A
100
AcDbEntity
  8
0
100
AcDbSpline
 62
7
  6
BYLAYER
 70
0
 71
3
 72
15
 73
11
 74
0
 42
0.0000001
 43
0.0000001
 44
0.0000000001
 40
0.0
 40
0.0
 40
0.0
 40
0.0
 40
0.1080132169
 40
0.2180603664
 40
0.3319955958
 40
0.4513562581
 40
0.577269973
 40
0.7104871956
 40
0.8514256694
 40
1.0
 40
1.0
 40
1.0
 40
1.0
 10
32.1123073947
 20
29.4830263609
 30
0.0
 10
32.1123072088
 20
29.2425982907
 30
0.0
 10
32.0705193398
 20
28.7562420274
 30
0.0
 10
31.8841902264
 20
28.0378733608
 30
0.0
 10
31.5765901536
 20
27.3349684328
 30
0.0
 10
31.1515749951
 20
26.6547093549
 30
0.0
 10
30.6140840083
 20
26.0031417499
 30
0.0
 10
29.9694428915
 20
25.386098558
 30
0.0
 10
29.2241433136
 20
24.809277826
 30
0.0
 10
28.6790132804
 20
24.463724837
 30
0.0
 10
28.3926064757
 20
24.2983687782
 30
0.0
  0
SPLINE
  5
24B
100
AcDbEntity
  8
0
100
AcDbSpline
 62
7
  6
BYLAYER
 70
0
 71
3
 72
25
 73
21
 74
0
 42
0.0000001
 43
0.0000001
 44
0.0000000001
 40
0.0
 40
0.0
 40
0.0
 40
0.0
 40
0.0623742273
 40
0.1287251872
 40
0.1983105048
 40
0.2702871104
 40
0.343663141
 40
0.4173937016
 40
0.4904172737
 40
0.5617033596
 40
0.6303005805
 40
0.6953876862
 40
0.7563348261
 40
0.8127720689
 40
0.8646731655
 40
0.9124482969
 40
0.9350905585
 40
0.9570938198
 40
0.9786578518
 40
1.0
 40
1.0
 40
1.0
 40
1.0
 10
48.0367928914
 20
51.8422464398
 30
0.0
 10
47.8371962753
 20
51.7270099676
 30
0.0
 10
47.4093761298
 20
51.5161036337
 30
0.0
 10
46.7193126969
 20
51.2660169851
 30
0.0
 10
45.9735369937
 20
51.0767308117
 30
0.0
 10
45.1881228589
 20
50.9521554208
 30
0.0
 10
44.3796357193
 20
50.8950032061
 30
0.0
 10
43.5653614988
 20
50.9064650837
 30
0.0
 10
42.762658818
 20
50.9862820775
 30
0.0
 10
41.9886302884
 20
51.1327608535
 30
0.0
 10
41.2597225839
 20
51.3428110333
 30
0.0
 10
40.5913507599
 20
51.6120731658
 30
0.0
 10
39.9975591503
 20
51.9350168703
 30
0.0
 10
39.4907472281
 20
52.3053461055
 30
0.0
 10
39.0817740943
 20
52.7159045609
 30
0.0
 10
38.8257850848
 20
53.0925999428
 30
0.0
 10
38.6830965089
 20
53.4035871391
 30
0.0
 10
38.6074602747
 20
53.6368823103
 30
0.0
 10
38.5618328152
 20
53.8729484574
 30
0.0
 10
38.5517016202
 20
54.031674426
 30
0.0
 10
38.5517069293
 20
54.110534076
 30
0.0
  0
SPLINE
  5
24C
100
AcDbEntity
  8
0
100
AcDbSpline
 62
7
  6
BYLAYER
 70
0
 71
3
 72
13
 73
9
 74
0
 42
0.0000001
 43
0.0000001
 44
0.0000000001
 40
0.0
 40
0.0
 40
0.0
 40
0.0
 40
0.2893484882
 40
0.5483241342
 40
0.6677500445
 40
0.7817641639
 40
0.8919052228
 40
1.0
 40
1.0
 40
1.0
 40
1.0
 10
17.8968884366
 20
40.0794192316
 30
0.0
 10
17.8028369285
 20
40.0251188922
 30
0.0
 10
17.6322647877
 20
39.9077213171
 30
0.0
 10
17.4578178436
 20
39.7242134368
 30
0.0
 10
17.3595855555
 20
39.5669930567
 30
0.0
 10
17.3077252036
 20
39.4483666184
 30
0.0
 10
17.2762427564
 20
39.3271573074
 30
0.0
 10
17.2691934961
 20
39.2450794752
 30
0.0
 10
17.2692004183
 20
39.2045082642
 30
0.0
  0
SPLINE
  5
24D
100
AcDbEntity
  8
0
100
AcDbSpline
 62
7
  6
BYLAYER
 70
0
 71
3
 72
15
 73
11
 74
0
 42
0.0000001
 43
0.0000001
 44
0.0000000001
 40
0.0
 40
0.0
 40
0.0
 40
0.0
 40
0.1511929358
 40
0.294333548
 40
0.4289891911
 40
0.5554056898
 40
0.6742784049
 40
0.786773109
 40
0.8946166794
 40
1.0
 40
1.0
 40
1.0
 40
1.0
 10
16.3647913358
 20
40.79897624
 30
0.0
 10
16.2346371734
 20
40.7364038735
 30
0.0
 10
15.986249248
 20
40.6037524254
 30
0.0
 10
15.6443654615
 20
40.3766557697
 30
0.0
 10
15.3470943076
 20
40.1289498176
 30
0.0
 10
15.098084318
 20
39.8635363248
 30
0.0
 10
14.9003728633
 20
39.5832703129
 30
0.0
 10
14.7567329645
 20
39.2911667111
 30
0.0
 10
14.6694162288
 20
38.9908623261
 30
0.0
 10
14.6498368406
 20
38.7866875479
 30
0.0
 10
14.6498388667
 20
38.6860292195
 30
0.0
  0
SPLINE
  5
24E
100
AcDbEntity
  8
0
100
AcDbSpline
 62
7
  6
BYLAYER
 70
0
 71
3
 72
22
 73
18
 74
0
 42
0.0000001
 43
0.0000001
 44
0.0000000001
 40
0.0
 40
0.0
 40
0.0
 40
0.0
 40
0.0551231401
 40
0.110993681
 40
0.1681355362
 40
0.2269965286
 40
0.2877806089
 40
0.3504995175
 40
0.4149815319
 40
0.4808942285
 40
0.5477868378
 40
0.6151342675
 40
0.748670058
 40
0.8140919323
 40
0.8779443884
 40
0.9399483086
 40
1.0
 40
1.0
 40
1.0
 40
1.0
 10
31.8049845945
 20
57.3175686838
 30
0.0
 10
31.8070662289
 20
57.454933371
 30
0.0
 10
31.8384546665
 20
57.7318383919
 30
0.0
 10
31.9651853168
 20
58.1337598756
 30
0.0
 10
32.1682707593
 20
58.5135924771
 30
0.0
 10
32.4418970213
 20
58.8616167363
 30
0.0
 10
32.7789660278
 20
59.1693577242
 30
0.0
 10
33.1707672987
 20
59.4293968497
 30
0.0
 10
33.6074581062
 20
59.6355238829
 30
0.0
 10
34.0781405062
 20
59.782721967
 30
0.0
 10
34.5712708732
 20
59.8674821291
 30
0.0
 10
35.2394217774
 20
59.8945979994
 30
0.0
 10
35.9045319131
 20
59.7926315818
 30
0.0
 10
36.5203688258
 20
59.5648730515
 30
0.0
 10
36.9415605169
 20
59.3378672229
 30
0.0
 10
37.3138232753
 20
59.0592014618
 30
0.0
 10
37.5267727068
 20
58.8397213209
 30
0.0
 10
37.6214235177
 20
58.7237884765
 30
0.0
  0
SPLINE
  5
24F
100
AcDbEntity
  8
0
100
AcDbSpline
 62
7
  6
BYLAYER
 70
0
 71
3
 72
25
 73
21
 74
0
 42
0.0000001
 43
0.0000001
 44
0.0000000001
 40
0.0
 40
0.0
 40
0.0
 40
0.0
 40
0.0647731423
 40
0.133018321
 40
0.2039244552
 40
0.2766655538
 40
0.3502904725
 40
0.4238201345
 40
0.4962839924
 40
0.566747846
 40
0.6343676488
 40
0.6984306301
 40
0.7584058408
 40
0.8140132176
 40
0.8652926363
 40
0.9126822138
 40
0.9352162041
 40
0.957155768
 40
0.9786837855
 40
1.0
 40
1.0
 40
1.0
 40
1.0
 10
22.4598345969
 20
32.554869699
 30
0.0
 10
22.2819762319
 20
32.4693632611
 30
0.0
 10
21.9063811911
 20
32.3147580551
 30
0.0
 10
21.310429135
 20
32.1360897507
 30
0.0
 10
20.676927668
 20
32.0074847243
 30
0.0
 10
20.0185808066
 20
31.9314136874
 30
0.0
 10
19.3482419298
 20
31.9093687502
 30
0.0
 10
18.6791695186
 20
31.9417813512
 30
0.0
 10
18.0245651728
 20
32.0280189494
 30
0.0
 10
17.3973304189
 20
32.1664127945
 30
0.0
 10
16.809781275
 20
32.3542143792
 30
0.0
 10
16.2733998464
 20
32.5878274053
 30
0.0
 10
15.7986376558
 20
32.8628807386
 30
0.0
 10
15.3946806465
 20
33.1743876213
 30
0.0
 10
15.0695612258
 20
33.5167514356
 30
0.0
 10
14.8668124985
 20
33.8286094119
 30
0.0
 10
14.7538544491
 20
34.0852391435
 30
0.0
 10
14.693992974
 20
34.2776964493
 30
0.0
 10
14.6578803975
 20
34.4721982619
 30
0.0
 10
14.6498183171
 20
34.6028724624
 30
0.0
 10
14.6498239665
 20
34.667816709
 30
0.0
  0
SPLINE
  5
250
100
AcDbEntity
  8
0
100
AcDbSpline
 62
7
  6
BYLAYER
 70
0
 71
3
 72
15
 73
11
 74
0
 42
0.0000001
 43
0.0000001
 44
0.0000000001
 40
0.0
 40
0.0
 40
0.0
 40
0.0
 40
0.1053817388
 40
0.2132243775
 40
0.325718936
 40
0.4445912689
 40
0.5710078733
 40
0.7056648611
 40
0.8488074622
 40
1.0
 40
1.0
 40
1.0
 40
1.0
 10
24.1747867308
 20
38.2323600597
 30
0.0
 10
24.1747894879
 20
38.1317032681
 30
0.0
 10
24.1552076364
 20
37.9275312877
 30
0.0
 10
24.0678961294
 20
37.6272282071
 30
0.0
 10
23.9242542612
 20
37.3351271304
 30
0.0
 10
23.726547631
 20
37.0548585411
 30
0.0
 10
23.4775360926
 20
36.7894449399
 30
0.0
 10
23.1802638617
 20
36.5417354093
 30
0.0
 10
22.8383769616
 20
36.3146384377
 30
0.0
 10
22.5899883831
 20
36.1819852495
 30
0.0
 10
22.4598345969
 20
36.1194130638
 30
0.0
  0
SPLINE
  5
251
100
AcDbEntity
  8
0
100
AcDbSpline
 62
7
  6
BYLAYER
 70
0
 71
3
 72
24
 73
20
 74
0
 42
0.0000001
 43
0.0000001
 44
0.0000000001
 40
0.0
 40
0.0
 40
0.0
 40
0.0
 40
0.0213182575
 40
0.0428475902
 40
0.0872544272
 40
0.1346485683
 40
0.1859309333
 40
0.241542078
 40
0.3015225005
 40
0.3655890168
 40
0.433212244
 40
0.5036803317
 40
0.5761483537
 40
0.6496828044
 40
0.7233125408
 40
0.7960597261
 40
0.8669718133
 40
0.9352193494
 40
1.0
 40
1.0
 40
1.0
 40
1.0
 10
14.6498388667
 20
38.6860292195
 30
0.0
 10
14.6498401739
 20
38.6210832951
 30
0.0
 10
14.6578809113
 20
38.490398589
 30
0.0
 10
14.7064356217
 20
38.2284993983
 30
0.0
 10
14.8302731635
 20
37.9027003342
 30
0.0
 10
15.0695724879
 20
37.5350815714
 30
0.0
 10
15.3946900657
 20
37.1925519441
 30
0.0
 10
15.7986379571
 20
36.8810794065
 30
0.0
 10
16.2734174768
 20
36.6060401892
 30
0.0
 10
16.8097914381
 20
36.37242827
 30
0.0
 10
17.3973283176
 20
36.1846146032
 30
0.0
 10
18.0245563645
 20
36.0462298228
 30
0.0
 10
18.6791555818
 20
35.9600022074
 30
0.0
 10
19.3482221954
 20
35.9275791092
 30
0.0
 10
20.0185627823
 20
35.9496165555
 30
0.0
 10
20.676913288
 20
36.0257003951
 30
0.0
 10
21.3104138005
 20
36.1543003089
 30
0.0
 10
21.9063738629
 20
36.3329597775
 30
0.0
 10
22.2819680674
 20
36.4875718563
 30
0.0
 10
22.4598345969
 20
36.5730822193
 30
0.0
  0
SPLINE
  5
252
100
AcDbEntity
  8
0
100
AcDbSpline
 62
7
  6
BYLAYER
 70
0
 71
3
 72
25
 73
21
 74
0
 42
0.0000001
 43
0.0000001
 44
0.0000000001
 40
0.0
 40
0.0
 40
0.0
 40
0.0
 40
0.0623731035
 40
0.1287277956
 40
0.198313594
 40
0.2702911123
 40
0.3436673054
 40
0.4173986924
 40
0.4904245194
 40
0.5617124832
 40
0.6303103376
 40
0.6953978709
 40
0.7563458396
 40
0.8127838191
 40
0.8646840322
 40
0.9124582032
 40
0.93510314
 40
0.9571080408
 40
0.9786683429
 40
1.0
 40
1.0
 40
1.0
 40
1.0
 10
40.1790360707
 20
56.3788218244
 30
0.0
 10
40.3786290149
 20
56.4940561766
 30
0.0
 10
40.8064612423
 20
56.7049591355
 30
0.0
 10
41.4965324382
 20
56.9550564492
 30
0.0
 10
42.2423276803
 20
57.1443427336
 30
0.0
 10
43.0277474337
 20
57.2689171924
 30
0.0
 10
43.8362419292
 20
57.3260625273
 30
0.0
 10
44.6505274677
 20
57.314596919
 30
0.0
 10
45.4532487101
 20
57.2347855593
 30
0.0
 10
46.2272944278
 20
57.0882994647
 30
0.0
 10
46.9562036416
 20
56.8782154622
 30
0.0
 10
47.6245757117
 20
56.6089382969
 30
0.0
 10
48.2183745169
 20
56.2859935595
 30
0.0
 10
48.7251840986
 20
55.9156542363
 30
0.0
 10
49.1341232185
 20
55.5050668531
 30
0.0
 10
49.3900943131
 20
55.1283579296
 30
0.0
 10
49.5327829234
 20
54.8173572541
 30
0.0
 10
49.608393249
 20
54.5840485286
 30
0.0
 10
49.653956684
 20
54.3480224454
 30
0.0
 10
49.6641595525
 20
54.1893549869
 30
0.0
 10
49.6641599444
 20
54.1105341314
 30
0.0
  0
SPLINE
  5
253
100
AcDbEntity
  8
0
100
AcDbSpline
 62
7
  6
BYLAYER
 70
0
 71
3
 72
10
 73
6
 74
0
 42
0.0000001
 43
0.0000001
 44
0.0000000001
 40
0.0
 40
0.0
 40
0.0
 40
0.0
 40
0.4687024933
 40
0.7264785578
 40
1.0
 40
1.0
 40
1.0
 40
1.0
 10
38.8884344441
 20
55.2103581255
 30
0.0
 10
39.0349303069
 20
55.4420953168
 30
0.0
 10
39.3208709633
 20
55.765569287
 30
0.0
 10
39.7781071837
 20
56.130877384
 30
0.0
 10
40.0404792468
 20
56.2988264824
 30
0.0
 10
40.1790360707
 20
56.3788218244
 30
0.0
  0
SPLINE
  5
254
100
AcDbEntity
  8
0
100
AcDbSpline
 62
7
  6
BYLAYER
 70
0
 71
3
 72
15
 73
11
 74
0
 42
0.0000001
 43
0.0000001
 44
0.0000000001
 40
0.0
 40
0.0
 40
0.0
 40
0.0
 40
0.1454794109
 40
0.2840954057
 40
0.4159030035
 40
0.5414041063
 40
0.6613934091
 40
0.7769197765
 40
0.8892798356
 40
1.0
 40
1.0
 40
1.0
 40
1.0
 10
50.2075966
 20
51.1781263218
 30
0.0
 10
50.3509815351
 20
51.2775414981
 30
0.0
 10
50.623314426
 20
51.4831264214
 30
0.0
 10
50.9931916936
 20
51.8188709405
 30
0.0
 10
51.3115655209
 20
52.1723671355
 30
0.0
 10
51.5759345211
 20
52.5408744332
 30
0.0
 10
51.7840795519
 20
52.921872437
 30
0.0
 10
51.9343585885
 20
53.3125265489
 30
0.0
 10
52.0250810067
 20
53.7097767555
 30
0.0
 10
52.0454077118
 20
53.9777438847
 30
0.0
 10
52.0454078232
 20
54.110534132
 30
0.0
  0
SPLINE
  5
255
100
AcDbEntity
  8
0
100
AcDbSpline
 62
7
  6
BYLAYER
 70
0
 71
3
 72
9
 73
5
 74
0
 42
0.0000001
 43
0.0000001
 44
0.0000000001
 40
0.0
 40
0.0
 40
0.0
 40
0.0
 40
0.2585514237
 40
1.0
 40
1.0
 40
1.0
 40
1.0
 10
49.1871171986
 20
50.5889557815
 30
0.0
 10
49.2786960239
 20
50.6329828316
 30
0.0
 10
49.6297915912
 20
50.8095743884
 30
0.0
 10
49.968131087
 20
51.0120941916
 30
0.0
 10
50.2075966
 20
51.1781263218
 30
0.0
  0
SPLINE
  5
256
100
AcDbEntity
  8
0
100
AcDbSpline
 62
7
  6
BYLAYER
 70
0
 71
3
 72
10
 73
6
 74
0
 42
0.0000001
 43
0.0000001
 44
0.0000000001
 40
0.0
 40
0.0
 40
0.0
 40
0.0
 40
0.4710844905
 40
0.728671531
 40
1.0
 40
1.0
 40
1.0
 40
1.0
 10
23.6850724543
 20
33.4533612353
 30
0.0
 10
23.5293757929
 20
33.2707333288
 30
0.0
 10
23.2490965106
 20
33.0207443809
 30
0.0
 10
22.8227456957
 20
32.7415144696
 30
0.0
 10
22.5844108956
 20
32.6147604753
 30
0.0
 10
22.4598345969
 20
32.554869699
 30
0.0
  0
SPLINE
  5
257
100
AcDbEntity
  8
0
100
AcDbSpline
 62
7
  6
BYLAYER
 70
0
 71
3
 72
13
 73
9
 74
0
 42
0.0000001
 43
0.0000001
 44
0.0000000001
 40
0.0
 40
0.0
 40
0.0
 40
0.0
 40
0.2893484882
 40
0.5483241342
 40
0.6677500445
 40
0.7817641639
 40
0.8919052228
 40
1.0
 40
1.0
 40
1.0
 40
1.0
 10
20.927737496
 20
38.3295972975
 30
0.0
 10
21.0217890041
 20
38.3838976369
 30
0.0
 10
21.1923611449
 20
38.501295212
 30
0.0
 10
21.3668080891
 20
38.6848030923
 30
0.0
 10
21.4650403772
 20
38.8420234725
 30
0.0
 10
21.5169007291
 20
38.9606499107
 30
0.0
 10
21.5483831763
 20
39.0818592217
 30
0.0
 10
21.5554324365
 20
39.1639370539
 30
0.0
 10
21.5554255144
 20
39.2045082649
 30
0.0
  0
SPLINE
  5
258
100
AcDbEntity
  8
0
100
AcDbSpline
 62
7
  6
BYLAYER
 70
0
 71
3
 72
15
 73
11
 74
0
 42
0.0000001
 43
0.0000001
 44
0.0000000001
 40
0.0
 40
0.0
 40
0.0
 40
0.0
 40
0.1485729932
 40
0.2895089399
 40
0.422725548
 40
0.5486396872
 40
0.6680009063
 40
0.7819370783
 40
0.8919854036
 40
1.0
 40
1.0
 40
1.0
 40
1.0
 10
28.3926064757
 20
29.483159127
 30
0.0
 10
28.679010706
 20
29.6485136994
 30
0.0
 10
29.2241349271
 20
29.9940598802
 30
0.0
 10
29.9694255552
 20
30.5708758337
 30
0.0
 10
30.6140653162
 20
31.1879114661
 30
0.0
 10
31.1515596907
 20
31.8394774795
 30
0.0
 10
31.5765794866
 20
32.5197386608
 30
0.0
 10
31.8841855563
 20
33.2226475596
 30
0.0
 10
32.0705176057
 20
33.9410236814
 30
0.0
 10
32.1123064329
 20
34.4273855655
 30
0.0
 10
32.1123071086
 20
34.6678167096
 30
0.0
  0
SPLINE
  5
259
100
AcDbEntity
  8
0
100
AcDbSpline
 62
7
  6
BYLAYER
 70
0
 71
3
 72
15
 73
11
 74
0
 42
0.0000001
 43
0.0000001
 44
0.0000000001
 40
0.0
 40
0.0
 40
0.0
 40
0.0
 40
0.1363917733
 40
0.2712431959
 40
0.4031138389
 40
0.5309674382
 40
0.6542164204
 40
0.7728977462
 40
0.8877129195
 40
1.0
 40
1.0
 40
1.0
 40
1.0
 10
34.9797815498
 20
55.2103487303
 30
0.0
 10
34.7326331511
 20
55.2103481362
 30
0.0
 10
34.2402873345
 20
55.1728034332
 30
0.0
 10
33.5263175998
 20
55.0055116163
 30
0.0
 10
32.8619331036
 20
54.7327050241
 30
0.0
 10
32.2702150917
 20
54.3634707154
 30
0.0
 10
31.7717717326
 20
53.9098015942
 30
0.0
 10
31.3844795839
 20
53.3866088327
 30
0.0
 10
31.1230461256
 20
52.8120130913
 30
0.0
 10
31.0390859073
 20
52.4048580439
 30
0.0
 10
31.0212600195
 20
52.2021708619
 30
0.0
  0
SPLINE
  5
25A
100
AcDbEntity
  8
0
100
AcDbSpline
 62
7
  6
BYLAYER
 70
0
 71
3
 72
22
 73
18
 74
0
 42
0.0000001
 43
0.0000001
 44
0.0000000001
 40
0.0
 40
0.0
 40
0.0
 40
0.0
 40
0.0623731916
 40
0.1287715098
 40
0.1983811625
 40
0.2703741704
 40
0.4173936834
 40
0.4904370034
 40
0.561746045
 40
0.6303626864
 40
0.695470538
 40
0.7564351353
 40
0.8128878155
 40
0.8648051503
 40
0.9125926417
 40
0.9571804149
 40
1.0
 40
1.0
 40
1.0
 40
1.0
 10
20.927737496
 20
37.8111182627
 30
0.0
 10
20.8507745198
 20
37.7666839328
 30
0.0
 10
20.6857320675
 20
37.6853612244
 30
0.0
 10
20.4195751084
 20
37.5888462538
 30
0.0
 10
20.1318560459
 20
37.5158216987
 30
0.0
 10
19.7252900406
 20
37.4514197014
 30
0.0
 10
19.30689534
 20
37.4398678196
 30
0.0
 10
18.8934124293
 20
37.4809691058
 30
0.0
 10
18.5948317725
 20
37.5374654394
 30
0.0
 10
18.313695227
 20
37.6185152422
 30
0.0
 10
18.0558860397
 20
37.7223503617
 30
0.0
 10
17.8268579732
 20
37.8469327654
 30
0.0
 10
17.6313924952
 20
37.9897716187
 30
0.0
 10
17.4736182485
 20
38.1481637422
 30
0.0
 10
17.3572660723
 20
38.3193792216
 30
0.0
 10
17.285498766
 20
38.499948752
 30
0.0
 10
17.2692115611
 20
38.6250200662
 30
0.0
 10
17.269200767
 20
38.6860292276
 30
0.0
  0
SPLINE
  5
25B
100
AcDbEntity
  8
0
100
AcDbSpline
 62
7
  6
BYLAYER
 70
0
 71
3
 72
15
 73
11
 74
0
 42
0.0000001
 43
0.0000001
 44
0.0000000001
 40
0.0
 40
0.0
 40
0.0
 40
0.0
 40
0.1511929358
 40
0.294333548
 40
0.4289891911
 40
0.5554056898
 40
0.6742784049
 40
0.786773109
 40
0.8946166794
 40
1.0
 40
1.0
 40
1.0
 40
1.0
 10
22.4598345969
 20
36.5730822193
 30
0.0
 10
22.5899887593
 20
36.6356545858
 30
0.0
 10
22.8383766847
 20
36.768306034
 30
0.0
 10
23.1802604711
 20
36.9954026896
 30
0.0
 10
23.4775316251
 20
37.2431086417
 30
0.0
 10
23.7265416147
 20
37.5085221346
 30
0.0
 10
23.9242530693
 20
37.7887881465
 30
0.0
 10
24.0678929682
 20
38.0808917483
 30
0.0
 10
24.1552097039
 20
38.3811961332
 30
0.0
 10
24.1747890921
 20
38.5853709114
 30
0.0
 10
24.174787066
 20
38.6860292398
 30
0.0
  0
SPLINE
  5
25C
100
AcDbEntity
  8
0
100
AcDbSpline
 62
7
  6
BYLAYER
 70
0
 71
3
 72
22
 73
18
 74
0
 42
0.0000001
 43
0.0000001
 44
0.0000000001
 40
0.0
 40
0.0
 40
0.0
 40
0.0
 40
0.0428176504
 40
0.0874044589
 40
0.1351912157
 40
0.1871079118
 40
0.2435601176
 40
0.3045232594
 40
0.3696296329
 40
0.4382446201
 40
0.5095524604
 40
0.5825961097
 40
0.7296198028
 40
0.8016149528
 40
0.871227208
 40
0.937627064
 40
1.0
 40
1.0
 40
1.0
 40
1.0
 10
17.2692004183
 20
39.2045082642
 30
0.0
 10
17.269210827
 20
39.1435018533
 30
0.0
 10
17.285493292
 20
39.0184340964
 30
0.0
 10
17.3572602208
 20
38.837869567
 30
0.0
 10
17.4736083758
 20
38.6666560526
 30
0.0
 10
17.6313763858
 20
38.5082610239
 30
0.0
 10
17.8268402027
 20
38.3654259911
 30
0.0
 10
18.0558604663
 20
38.2408398891
 30
0.0
 10
18.3136632001
 20
38.1370053746
 30
0.0
 10
18.5947933522
 20
38.0559564734
 30
0.0
 10
18.8933690022
 20
37.9994526135
 30
0.0
 10
19.3068567838
 20
37.9583510841
 30
0.0
 10
19.7252610328
 20
37.9698962706
 30
0.0
 10
20.1318401575
 20
38.0342977792
 30
0.0
 10
20.41956837
 20
38.1073229801
 30
0.0
 10
20.6857304895
 20
38.2038401083
 30
0.0
 10
20.8507748276
 20
38.2851631454
 30
0.0
 10
20.927737496
 20
38.3295972975
 30
0.0
  0
SPLINE
  5
25D
100
AcDbEntity
  8
0
100
AcDbSpline
 62
7
  6
BYLAYER
 70
0
 71
3
 72
13
 73
9
 74
0
 42
0.0000001
 43
0.0000001
 44
0.0000000001
 40
0.0
 40
0.0
 40
0.0
 40
0.0
 40
0.1080957246
 40
0.2182376506
 40
0.3322520757
 40
0.4516794995
 40
0.7106580816
 40
1.0
 40
1.0
 40
1.0
 40
1.0
 10
21.5554251657
 20
38.6860292318
 30
0.0
 10
21.5554323439
 20
38.6454577007
 30
0.0
 10
21.5483783434
 20
38.5633796678
 30
0.0
 10
21.5168992428
 20
38.4421692023
 30
0.0
 10
21.4650392546
 20
38.3235412733
 30
0.0
 10
21.3668037204
 20
38.1663210358
 30
0.0
 10
21.1923577654
 20
37.9828139508
 30
0.0
 10
21.0217867865
 20
37.8654173217
 30
0.0
 10
20.927737496
 20
37.8111182627
 30
0.0
  0
SPLINE
  5
25E
100
AcDbEntity
  8
0
100
AcDbSpline
 62
7
  6
BYLAYER
 70
0
 71
3
 72
26
 73
22
 74
0
 42
0.0000001
 43
0.0000001
 44
0.0000000001
 40
0.0
 40
0.0
 40
0.0
 40
0.0
 40
0.0213308672
 40
0.0428899678
 40
0.0648941443
 40
0.0875374375
 40
0.1109856902
 40
0.1353710938
 40
0.1872689631
 40
0.2437032014
 40
0.3046472877
 40
0.3697309087
 40
0.4383238079
 40
0.5096057819
 40
0.5826255322
 40
0.6563529397
 40
0.7297254068
 40
0.8016968126
 40
0.87128424
 40
0.937621117
 40
1.0
 40
1.0
 40
1.0
 40
1.0
 10
6.7123188241
 20
34.6678167092
 30
0.0
 10
6.7123183177
 20
34.4876501885
 30
0.0
 10
6.7356115367
 20
34.124976484
 30
0.0
 10
6.8397596852
 20
33.5854660002
 30
0.0
 10
7.0126532146
 20
33.0522354864
 30
0.0
 10
7.2529426699
 20
32.5283439395
 30
0.0
 10
7.5592699786
 20
32.0166362756
 30
0.0
 10
8.0634938624
 20
31.3403338894
 30
0.0
 10
8.8587626656
 20
30.5415528496
 30
0.0
 10
10.0169726574
 20
29.6953631399
 30
0.0
 10
11.374284637
 20
28.9571010027
 30
0.0
 10
12.9019824857
 20
28.3416701761
 30
0.0
 10
14.568058145
 20
27.8615107302
 30
0.0
 10
16.3372672387
 20
27.5266721098
 30
0.0
 10
18.1720361601
 20
27.3442145667
 30
0.0
 10
20.0332615613
 20
27.3180308344
 30
0.0
 10
21.8812436935
 20
27.44866245
 30
0.0
 10
23.6765452055
 20
27.7333474275
 30
0.0
 10
25.3811216974
 20
28.1660593417
 30
0.0
 10
26.9584838324
 20
28.737604503
 30
0.0
 10
27.9363233032
 20
29.219725487
 30
0.0
 10
28.3926064757
 20
29.483159127
 30
0.0
  0
ENDSEC
  0
SECTION
  2
OBJECTS
  0
DICTIONARY
  5
C
100
AcDbDictionary
280
0
281
1
  3
ACAD_GROUP
350
D
  3
ACAD_MLINESTYLE
350
17
  3
ACAD_LAYOUT
350
1A
  3
ACAD_PLOTSETTINGS
350
19
  3
ACAD_PLOTSTYLENAME
350
E
  0
DICTIONARY
  5
D
102
{ACAD_REACTORS
330
C
102
}
100
AcDbDictionary
280
0
281
1
  0
ACDBDICTIONARYWDFLT
  5
E
102
{ACAD_REACTORS
330
C
102
}
100
AcDbDictionary
281
1
  3
Normal
350
F
100
AcDbDictionaryWithDefault
340
F
  0
DICTIONARY
  5
17
102
{ACAD_REACTORS
330
C
102
}
100
AcDbDictionary
280
0
281
1
  3
Standard
350
18
  0
DICTIONARY
  5
19
102
{ACAD_REACTORS
330
C
102
}
100
AcDbDictionary
281
1
  0
DICTIONARY
  5
1A
102
{ACAD_REACTORS
330
C
102
}
100
AcDbDictionary
281
1
  3
Model
350
25F
  3
Layout1
350
260
  0
ACDBPLACEHOLDER
  5
F
102
{ACAD_REACTORS
330
E
102
}
  0
MLINESTYLE
  5
18
102
{ACAD_REACTORS
330
17
102
}
100
AcDbMlineStyle
  2
STANDARD
 70
0
  3

 62
256
 51
90.0
 52
90.0
 71
2
 49
0.5
 62
256
  6
BYLAYER
 49
-0.5
 62
256
  6
BYLAYER
  0
LAYOUT
  5
25F
102
{ACAD_REACTORS
330
1A
102
}
100
AcDbPlotSettings
  1

  2
none_device
  4

  6

 40
0.0
 41
0.0
 42
0.0
 43
0.0
 44
210.0
 45
297.0
 46
0.0
 47
0.0
 48
0.0
 49
0.0
140
0.0
141
0.0
142
1.0
143
1.0
 70
1024
 72
1
 73
0
 74
0
  7

 75
0
147
1.0
148
0.0
149
0.0
100
AcDbLayout
  1
Model
 70
0
 71
0
 10
0.0
 20
0.0
 11
210.0
 21
297.0
 12
0.0
 22
0.0
 32
0.0
 14
0.0
 24
0.0
 34
0.0
 15
0.0
 25
0.0
 35
0.0
146
0.0
 13
0.0
 23
0.0
 33
0.0
 16
1.0
 26
0.0
 36
0.0
 17
0.0
 27
1.0
 37
0.0
 76
0
330
210
345
0
346
0
  0
LAYOUT
  5
260
102
{ACAD_REACTORS
330
1A
102
}
100
AcDbPlotSettings
  1

  2
none_device
  4

  6

 40
0.0
 41
0.0
 42
0.0
 43
0.0
 44
210.0
 45
297.0
 46
0.0
 47
0.0
 48
0.0
 49
0.0
140
0.0
141
0.0
142
1.0
143
1.0
 70
0
 72
1
 73
0
 74
0
  7

 75
0
147
1.0
148
0.0
149
0.0
100
AcDbLayout
  1
Layout1
 70
0
 71
1
 10
0.0
 20
0.0
 11
210.0
 21
297.0
 12
0.0
 22
0.0
 32
0.0
 14
0.0
 24
0.0
 34
0.0
 15
0.0
 25
0.0
 35
0.0
146
0.0
 13
0.0
 23
0.0
 33
0.0
 16
1.0
 26
0.0
 36
0.0
 17
0.0
 27
1.0
 37
0.0
 76
0
330
211
345
0
346
0
  0
ENDSEC
  0
EOF
