999
DXF file: C:\Users\sesa63760\Dev\_Creo\CAD\MCADID0002511_3D-CAD\drw0001_1.dxf
999
Pro/ENGINEER 2019471 by Parametric Technology Corporation
  0
SECTION
  2
HEADER
  9
$ACADVER
  1
AC1024
  9
$DWGCODEPAGE
  3
ANSI_1252
  9
$EXTMAX
 10
52.7558431002
 20
74.6118352417
 30
0.0
  9
$EXTMIN
 10
0.0
 20
0.0
 30
0.0
  9
$LIMMIN
 10
0.0
 20
0.0
  9
$LIMMAX
 10
52.7558431002
 20
74.6118352417
  9
$VIEWCTR
 10
26.3779215501
 20
37.3059176209
  9
$VIEWSIZE
 40
74.6118352417
  9
$CLAYER
  8
0
  9
$LTSCALE
 40
4.8635862972
  9
$CELTYPE
  6
BYLAYER
  9
$DIMSCALE
 40
1.0
  9
$DIMASZ
 40
0.6280457512
  9
$DIMEXO
 40
1.0
  9
$DIMDLI
 40
3.3602959872
  9
$DIMEXE
 40
1.0
  9
$DIMCEN
 40
0.7958595759
  9
$DIMLFAC
 40
1.0
  9
$DIMBLK
  1
_FILLED
  9
$DIMALT
 70
0
  9
$DIMALTF
 40
0.0393700787
  9
$DIMTXT
 40
0.8792640517
  9
$DIMTOL
 70
1
  9
$DIMLIM
 70
0
  9
$DIMTFAC
 40
1.0
  9
$DIMTP
 40
0.01
  9
$DIMTM
 40
0.01
  9
$DIMGAP
 40
0.625
  9
$DIMDSEP
 70
46
  9
$AUNITS
 70
0
  9
$PDMODE
 70
3
  9
$PDSIZE
 40
0.3125
  9
$HANDSEED
  5
25F
  9
$TILEMODE
 70
1
  9
$MEASUREMENT
 70
1
  9
$INSUNITS
 70
4
  0
ENDSEC
  0
SECTION
  2
CLASSES
  0
CLASS
  1
ACDBDICTIONARYWDFLT
  2
AcDbDictionaryWithDefault
  3
AutoCAD 2000
 90
0
 91
1
280
0
281
0
  0
CLASS
  1
ACDBPLACEHOLDER
  2
AcDbPlaceHolder
  3
AutoCAD 2000
 90
0
 91
1
280
0
281
0
  0
CLASS
  1
LAYOUT
  2
AcDbLayout
  3
AutoCAD 2000
 90
0
 91
0
280
0
281
0
  0
ENDSEC
  0
SECTION
  2
TABLES
  0
TABLE
  2
VPORT
  5
8
100
AcDbSymbolTable
 70
2
  0
VPORT
  5
1F4
100
AcDbSymbolTableRecord
100
AcDbViewportTableRecord
  2
*ACTIVE
 70
0
 10
0.0
 20
0.0
 11
1.0
 21
1.0
 12
26.3779215501
 22
37.3059176209
 13
0.0
 23
0.0
 14
1.0
 24
1.0
 15
0.0
 25
0.0
 16
0.0
 26
0.0
 36
1.0
 17
0.0
 27
0.0
 37
0.0
 40
74.6118352417
 41
0.7070707071
 42
50.0
 43
0.0
 44
0.0
 50
0.0
 51
0.0
 71
0
 72
100
 73
1
 74
1
 75
0
 76
0
 77
0
 78
0
  0
ENDTAB
  0
TABLE
  2
LTYPE
  5
5
100
AcDbSymbolTable
 70
6
  0
LTYPE
  5
14
100
AcDbSymbolTableRecord
100
AcDbLinetypeTableRecord
  2
BYBLOCK
 70
0
  3

 72
65
 73
0
 40
0.0
  0
LTYPE
  5
15
100
AcDbSymbolTableRecord
100
AcDbLinetypeTableRecord
  2
BYLAYER
 70
0
  3

 72
65
 73
0
 40
0.0
  0
LTYPE
  5
16
100
AcDbSymbolTableRecord
100
AcDbLinetypeTableRecord
  2
CONTINUOUS
 70
64
  3
Solid line
 72
65
 73
0
 40
0.0
  0
LTYPE
  5
1F5
100
AcDbSymbolTableRecord
100
AcDbLinetypeTableRecord
  2
CENTER
 70
64
  3
____ _ ____ _ ____ _ ____ _ ____ _ ____ _ ____
 72
65
 73
4
 40
0.6
 49
0.375
 74
0
 49
-0.075
 74
0
 49
0.075
 74
0
 49
-0.075
 74
0
  0
LTYPE
  5
1F6
100
AcDbSymbolTableRecord
100
AcDbLinetypeTableRecord
  2
HIDDEN
 70
64
  3
- - - - - - - - - - - - - - - - - - - -
 72
65
 73
2
 40
0.2
 49
0.1
 74
0
 49
-0.1
 74
0
  0
LTYPE
  5
1F7
100
AcDbSymbolTableRecord
100
AcDbLinetypeTableRecord
  2
PHANTOM
 70
64
  3
_____ _ _ _____ _ _ _____ _ _ _____
 72
65
 73
6
 40
0.8
 49
0.45
 74
0
 49
-0.05
 74
0
 49
0.1
 74
0
 49
-0.05
 74
0
 49
0.1
 74
0
 49
-0.05
 74
0
  0
LTYPE
  5
1F8
100
AcDbSymbolTableRecord
100
AcDbLinetypeTableRecord
  2
DOT
 70
64
  3
. . . . . . . . . . . . . . . . . . . .
 72
65
 73
2
 40
0.2
 49
0.1
 74
0
 49
-0.1
 74
0
  0
LTYPE
  5
1F9
100
AcDbSymbolTableRecord
100
AcDbLinetypeTableRecord
  2
DASHED
 70
64
  3
- - - - - - - - - - - - - - - - - - - -
 72
65
 73
2
 40
0.2
 49
0.1
 74
0
 49
-0.1
 74
0
  0
ENDTAB
  0
TABLE
  2
LAYER
  5
2
100
AcDbSymbolTable
 70
36
  0
LAYER
  5
10
100
AcDbSymbolTableRecord
100
AcDbLayerTableRecord
  2
0
 70
0
 62
7
  6
CONTINUOUS
370
-3
390
F
  0
LAYER
  5
1FA
100
AcDbSymbolTableRecord
100
AcDbLayerTableRecord
  2
DEFAULT_1
 70
0
 62
7
  6
CENTER
370
-3
390
F
  0
LAYER
  5
1FB
100
AcDbSymbolTableRecord
100
AcDbLayerTableRecord
  2
DEFAULT_2
 70
0
 62
7
  6
HIDDEN
370
-3
390
F
  0
LAYER
  5
1FC
100
AcDbSymbolTableRecord
100
AcDbLayerTableRecord
  2
DEFAULT_3
 70
0
 62
7
  6
PHANTOM
370
-3
390
F
  0
LAYER
  5
1FD
100
AcDbSymbolTableRecord
100
AcDbLayerTableRecord
  2
00_COMPONENTS
 70
0
 62
7
  6
CONTINUOUS
370
-3
390
F
  0
LAYER
  5
1FE
100
AcDbSymbolTableRecord
100
AcDbLayerTableRecord
  2
01_1_DEFAULT_DATUMS
 70
0
 62
7
  6
CONTINUOUS
370
-3
390
F
  0
LAYER
  5
1FF
100
AcDbSymbolTableRecord
100
AcDbLayerTableRecord
  2
01_PLANES
 70
0
 62
7
  6
CONTINUOUS
370
-3
390
F
  0
LAYER
  5
200
100
AcDbSymbolTableRecord
100
AcDbLayerTableRecord
  2
02_COORD_SYS
 70
0
 62
7
  6
CONTINUOUS
370
-3
390
F
  0
LAYER
  5
201
100
AcDbSymbolTableRecord
100
AcDbLayerTableRecord
  2
03_AXES
 70
0
 62
7
  6
CONTINUOUS
370
-3
390
F
  0
LAYER
  5
202
100
AcDbSymbolTableRecord
100
AcDbLayerTableRecord
  2
04_POINTS
 70
0
 62
7
  6
CONTINUOUS
370
-3
390
F
  0
LAYER
  5
203
100
AcDbSymbolTableRecord
100
AcDbLayerTableRecord
  2
05_CURVES
 70
0
 62
7
  6
CONTINUOUS
370
-3
390
F
  0
LAYER
  5
204
100
AcDbSymbolTableRecord
100
AcDbLayerTableRecord
  2
06_SURFS
 70
0
 62
7
  6
CONTINUOUS
370
-3
390
F
  0
LAYER
  5
205
100
AcDbSymbolTableRecord
100
AcDbLayerTableRecord
  2
07_COSMETICS
 70
0
 62
7
  6
CONTINUOUS
370
-3
390
F
  0
LAYER
  5
206
100
AcDbSymbolTableRecord
100
AcDbLayerTableRecord
  2
10_NOTES
 70
0
 62
7
  6
CONTINUOUS
370
-3
390
F
  0
LAYER
  5
207
100
AcDbSymbolTableRecord
100
AcDbLayerTableRecord
  2
11_NOTES_PUB
 70
0
 62
7
  6
CONTINUOUS
370
-3
390
F
  0
LAYER
  5
208
100
AcDbSymbolTableRecord
100
AcDbLayerTableRecord
  2
13_REF_GTOL
 70
0
 62
7
  6
CONTINUOUS
370
-3
390
F
  0
LAYER
  5
209
100
AcDbSymbolTableRecord
100
AcDbLayerTableRecord
  2
16_MISC
 70
0
 62
7
  6
CONTINUOUS
370
-3
390
F
  0
LAYER
  5
20A
100
AcDbSymbolTableRecord
100
AcDbLayerTableRecord
  2
17_NO_PRINT
 70
0
 62
7
  6
CONTINUOUS
370
-3
390
F
  0
LAYER
  5
20B
100
AcDbSymbolTableRecord
100
AcDbLayerTableRecord
  2
18_DATUM_CAMS_JOINTS
 70
0
 62
7
  6
CONTINUOUS
370
-3
390
F
  0
LAYER
  5
20C
100
AcDbSymbolTableRecord
100
AcDbLayerTableRecord
  2
19_DATUM_FUNCTIONAL
 70
0
 62
7
  6
CONTINUOUS
370
-3
390
F
  0
LAYER
  5
20D
100
AcDbSymbolTableRecord
100
AcDbLayerTableRecord
  2
20_DATUM_KINEMATIC_SCHEME
 70
0
 62
7
  6
CONTINUOUS
370
-3
390
F
  0
ENDTAB
  0
TABLE
  2
STYLE
  5
3
100
AcDbSymbolTable
 70
1
  0
STYLE
  5
11
100
AcDbSymbolTableRecord
100
AcDbTextStyleTableRecord
  2
STANDARD
 70
0
 40
0.0
 41
1.0
 50
0.0
 71
0
 42
0.2
  3
ARIAL.TTF
  4

  0
STYLE
  5
20E
100
AcDbSymbolTableRecord
100
AcDbTextStyleTableRecord
  2
TEXTSTYLE_1
 70
0
 40
0.0
 41
0.8
 50
0.0
 71
0
 42
0.2
  3
gdt
  4

  0
ENDTAB
  0
TABLE
  2
VIEW
  5
6
100
AcDbSymbolTable
 70
0
  0
ENDTAB
  0
TABLE
  2
UCS
  5
7
100
AcDbSymbolTable
 70
0
  0
ENDTAB
  0
TABLE
  2
APPID
  5
9
100
AcDbSymbolTable
 70
1
  0
APPID
  5
20F
100
AcDbSymbolTableRecord
100
AcDbRegAppTableRecord
  2
ACAD
 70
0
  0
ENDTAB
  0
TABLE
  2
BLOCK_RECORD
  5
1
100
AcDbSymbolTable
 70
0
  0
BLOCK_RECORD
  5
210
100
AcDbSymbolTableRecord
100
AcDbBlockTableRecord
  2
*Model_Space
  0
BLOCK_RECORD
  5
211
100
AcDbSymbolTableRecord
100
AcDbBlockTableRecord
  2
*Paper_Space
  0
BLOCK_RECORD
  5
212
100
AcDbSymbolTableRecord
100
AcDbBlockTableRecord
  2
_FILLED
  0
ENDTAB
  0
TABLE
  2
DIMSTYLE
  5
A
100
AcDbSymbolTable
 70
1
100
AcDbDimStyleTable
 71
0
  0
DIMSTYLE
105
213
100
AcDbSymbolTableRecord
100
AcDbDimStyleTableRecord
  2
STANDARD
 70
0
  3

  4

 40
1.0
 41
0.6280457512
 42
1.0
 43
0.38
 44
1.0
 45
0.0
 46
0.0
 47
0.01
 48
0.01
140
0.8792640517
141
0.09
142
0.0
143
25.4
144
1.0
145
0.0
146
1.0
147
0.625
 71
1
 72
0
 73
0
 74
0
 75
0
 76
0
 77
1
 78
8
 79
2
170
0
171
1
172
0
173
0
174
0
175
0
176
0
177
0
178
0
270
2
179
2
271
2
272
2
273
2
274
2
275
0
280
0
281
0
282
0
283
1
284
8
285
0
286
0
287
3
288
0
340
11
278
46
341
212
342
212
343
212
344
212
  0
ENDTAB
  0
ENDSEC
  0
SECTION
  2
BLOCKS
  0
BLOCK
  5
20
100
AcDbEntity
  8
0
100
AcDbBlockBegin
  2
*Model_Space
 70
0
 10
0.0
 20
0.0
 30
0.0
  3
*Model_Space
  1

  0
ENDBLK
  5
21
100
AcDbEntity
  8
0
100
AcDbBlockEnd
  0
BLOCK
  5
1C
100
AcDbEntity
  8
0
100
AcDbBlockBegin
  2
*Paper_Space
 70
0
 10
0.0
 20
0.0
 30
0.0
  3
*Paper_Space
  1

  0
ENDBLK
  5
1D
100
AcDbEntity
  8
0
100
AcDbBlockEnd
  0
BLOCK
  5
214
100
AcDbEntity
  8
0
100
AcDbBlockBegin
  2
_FILLED
 70
64
 10
0.0
 20
0.0
  3
_FILLED
  1

  0
SOLID
  5
215
100
AcDbEntity
  8
0
  6
BYBLOCK
 62
0
100
AcDbTrace
 10
0.0
 20
0.0
 11
-1.0
 21
0.25
 12
-1.0
 22
-0.25
 13
-1.0
 23
-0.25
  0
ENDBLK
  5
216
100
AcDbEntity
  8
0
  6
BYBLOCK
 62
0
100
AcDbBlockEnd
  0
ENDSEC
  0
SECTION
  2
ENTITIES
  0
LINE
  5
217
100
AcDbEntity
  8
0
100
AcDbLine
 62
7
  6
BYLAYER
 10
6.0906198077
 20
25.1733277456
 11
6.0906198077
 21
19.9885373968
  0
LINE
  5
218
100
AcDbEntity
  8
0
100
AcDbLine
 62
7
  6
BYLAYER
 10
9.2656198077
 20
25.1733277456
 11
9.2656198077
 21
26.4695253328
  0
LINE
  5
219
100
AcDbEntity
  8
0
100
AcDbLine
 62
7
  6
BYLAYER
 10
11.4881198077
 20
26.4695253328
 11
11.4881198077
 21
26.955599428
  0
LINE
  5
21A
100
AcDbEntity
  8
0
100
AcDbLine
 62
7
  6
BYLAYER
 10
15.6092269122
 20
33.9818117304
 11
15.6092269122
 21
32.058254511
  0
LINE
  5
21B
100
AcDbEntity
  8
0
100
AcDbLine
 62
7
  6
BYLAYER
 10
15.6273045991
 20
32.0478175897
 11
15.6273045991
 21
32.0270784283
  0
LINE
  5
21C
100
AcDbEntity
  8
0
100
AcDbLine
 62
7
  6
BYLAYER
 10
16.5681198077
 20
26.4695253328
 11
16.5681198077
 21
26.955599428
  0
LINE
  5
21D
100
AcDbEntity
  8
0
100
AcDbLine
 62
7
  6
BYLAYER
 10
16.9912360969
 20
23.344785631
 11
16.9912360969
 21
24.3169338214
  0
LINE
  5
21E
100
AcDbEntity
  8
0
100
AcDbLine
 62
7
  6
BYLAYER
 10
15.6273045991
 20
32.0270784283
 11
23.6542084319
 21
27.39284818
  0
LINE
  5
21F
100
AcDbEntity
  8
0
100
AcDbLine
 62
7
  6
BYLAYER
 10
15.6092269122
 20
32.058254511
 11
15.6273045991
 21
32.0478175897
  0
LINE
  5
220
100
AcDbEntity
  8
0
100
AcDbLine
 62
7
  6
BYLAYER
 10
23.6542084319
 20
27.4135873414
 11
23.6722861188
 21
27.4031504201
  0
LINE
  5
221
100
AcDbEntity
  8
0
100
AcDbLine
 62
7
  6
BYLAYER
 10
23.6722861188
 20
29.3267076395
 11
15.6092269122
 21
33.9818117304
  0
LINE
  5
222
100
AcDbEntity
  8
0
100
AcDbLine
 62
7
  6
BYLAYER
 10
20.3609263908
 20
33.9031236371
 11
20.3609263908
 21
34.3405903228
  0
LINE
  5
223
100
AcDbEntity
  8
0
100
AcDbLine
 62
7
  6
BYLAYER
 10
21.9656198077
 20
25.1733277456
 11
21.9656198077
 21
19.9885373968
  0
LINE
  5
224
100
AcDbEntity
  8
0
100
AcDbLine
 62
7
  6
BYLAYER
 10
29.9924713223
 20
44.4308714674
 11
15.6092269122
 21
33.9818117304
  0
LWPOLYLINE
  5
225
100
AcDbEntity
  8
0
100
AcDbPolyline
 62
7
  6
BYLAYER
 90
3
 70
0
 10
12.2038396849
 20
29.5635884975
 10
10.6860348632
 20
29.3299634201
 10
8.4154363643
 20
28.4137387346
  0
LINE
  5
226
100
AcDbEntity
  8
0
100
AcDbLine
 62
7
  6
BYLAYER
 10
23.6542084319
 20
27.39284818
 11
23.6542084319
 21
27.4135873414
  0
LINE
  5
227
100
AcDbEntity
  8
0
100
AcDbLine
 62
7
  6
BYLAYER
 10
23.6722861188
 20
27.4031504201
 11
23.6722861188
 21
29.3267076395
  0
LINE
  5
228
100
AcDbEntity
  8
0
100
AcDbLine
 62
7
  6
BYLAYER
 10
15.619088684
 20
32.0446796749
 11
10.2996439673
 21
28.1802389391
  0
LINE
  5
229
100
AcDbEntity
  8
0
100
AcDbLine
 62
7
  6
BYLAYER
 10
26.0409147392
 20
37.1824468641
 11
26.0409147392
 21
37.6199135498
  0
LINE
  5
22A
100
AcDbEntity
  8
0
100
AcDbLine
 62
7
  6
BYLAYER
 10
26.7109263908
 20
33.9031236371
 11
26.7109263908
 21
34.3405903228
  0
LINE
  5
22B
100
AcDbEntity
  8
0
100
AcDbLine
 62
7
  6
BYLAYER
 10
29.9924713223
 20
42.6717487876
 11
29.9924713223
 21
54.3375270723
  0
LINE
  5
22C
100
AcDbEntity
  8
0
100
AcDbLine
 62
7
  6
BYLAYER
 10
32.3909147392
 20
37.1824468641
 11
32.3909147392
 21
37.6199135498
  0
LINE
  5
22D
100
AcDbEntity
  8
0
100
AcDbLine
 62
7
  6
BYLAYER
 10
23.6722861188
 20
29.3267076395
 11
44.156101186
 21
38.7253310166
  0
LINE
  5
22E
100
AcDbEntity
  8
0
100
AcDbLine
 62
7
  6
BYLAYER
 10
44.156101186
 20
36.8017737972
 11
23.6542084319
 21
27.39284818
  0
LINE
  5
22F
100
AcDbEntity
  8
0
100
AcDbLine
 62
7
  6
BYLAYER
 10
16.9912360969
 20
24.3169338214
 11
41.0236844079
 21
35.3437825682
  0
LINE
  5
230
100
AcDbEntity
  8
0
100
AcDbLine
 62
7
  6
BYLAYER
 10
41.0236844079
 20
34.3716343778
 11
16.9912360969
 21
23.344785631
  0
LINE
  5
231
100
AcDbEntity
  8
0
100
AcDbLine
 62
7
  6
BYLAYER
 10
41.0236844079
 20
35.3437825682
 11
41.0236844079
 21
34.3716343778
  0
LWPOLYLINE
  5
232
100
AcDbEntity
  8
0
100
AcDbPolyline
 62
7
  6
BYLAYER
 90
6
 70
0
 10
45.559260363
 20
33.0544525735
 10
44.5732897588
 20
32.4483877675
 10
42.1488631044
 20
31.5539069318
 10
39.3544918046
 20
31.1630179838
 10
36.4796058883
 20
31.3191936691
 10
35.1365282371
 20
31.6704205936
  0
LINE
  5
233
100
AcDbEntity
  8
0
100
AcDbLine
 62
7
  6
BYLAYER
 10
44.156101186
 20
38.7253310166
 11
44.156101186
 21
36.8017737972
  0
LINE
  5
234
100
AcDbEntity
  8
0
100
AcDbLine
 62
7
  6
BYLAYER
 10
47.4549713223
 20
36.1907608516
 11
47.4549713223
 21
54.3375270723
  0
ARC
  5
235
100
AcDbEntity
  8
0
100
AcDbCircle
 62
7
  6
BYLAYER
 10
38.8083200531
 20
50.9012658637
 40
15.7144241293
100
AcDbArc
 50
277.8877244779
 51
278.1043554392
  0
ARC
  5
236
100
AcDbEntity
  8
0
100
AcDbCircle
 62
7
  6
BYLAYER
 10
19.3045447325
 20
25.1731078154
 40
2.6610479449
100
AcDbArc
 50
0.0047363305
 51
8.9506225415
  0
SPLINE
  5
237
100
AcDbEntity
  8
0
100
AcDbSpline
 62
7
  6
BYLAYER
 70
0
 71
3
 72
26
 73
22
 74
0
 42
0.0000001
 43
0.0000001
 44
0.0000000001
 40
0.0
 40
0.0
 40
0.0
 40
0.0
 40
0.0623759463
 40
0.1287185985
 40
0.1983049155
 40
0.2702788092
 40
0.3436518992
 40
0.4173816264
 40
0.4904037691
 40
0.5616875836
 40
0.6302817159
 40
0.6953660399
 40
0.7563105581
 40
0.8127450496
 40
0.8392686427
 40
0.8646906392
 40
0.9124626681
 40
0.9351058525
 40
0.9571098462
 40
0.9786691182
 40
1.0
 40
1.0
 40
1.0
 40
1.0
 10
19.640803251
 20
16.7481264078
 30
0.0
 10
19.3556436763
 20
16.5834904334
 30
0.0
 10
18.744483212
 20
16.2821760191
 30
0.0
 10
17.7586460874
 20
15.9249362044
 30
0.0
 10
16.6932565732
 20
15.654513595
 30
0.0
 10
15.5712021756
 20
15.4765674448
 30
0.0
 10
14.4162002731
 20
15.3949237466
 30
0.0
 10
13.2529222732
 20
15.4112810312
 30
0.0
 10
12.1061741095
 20
15.5253220471
 30
0.0
 10
11.000404215
 20
15.7346125359
 30
0.0
 10
9.9591169895
 20
16.0347143978
 30
0.0
 10
9.0042701116
 20
16.4193969317
 30
0.0
 10
8.1560946089
 20
16.8807045149
 30
0.0
 10
7.540340495
 20
17.3305948779
 30
0.0
 10
7.121698822
 20
17.7215308185
 30
0.0
 10
6.7687670256
 20
18.1126225089
 30
0.0
 10
6.4821009717
 20
18.5345195438
 30
0.0
 10
6.27832893
 20
18.9787914287
 30
0.0
 10
6.1703036282
 20
19.3120868869
 30
0.0
 10
6.105148472
 20
19.6492595936
 30
0.0
 10
6.0906470245
 20
19.8759347972
 30
0.0
 10
6.0906467706
 20
19.988537377
 30
0.0
  0
SPLINE
  5
238
100
AcDbEntity
  8
0
100
AcDbSpline
 62
7
  6
BYLAYER
 70
0
 71
3
 72
15
 73
11
 74
0
 42
0.0000001
 43
0.0000001
 44
0.0000000001
 40
0.0
 40
0.0
 40
0.0
 40
0.0
 40
0.1485547696
 40
0.2895089085
 40
0.4227326371
 40
0.548640667
 40
0.6680016089
 40
0.7819395144
 40
0.8919872367
 40
1.0
 40
1.0
 40
1.0
 40
1.0
 10
8.4154363643
 20
28.4137387346
 30
0.0
 10
8.2364558592
 20
28.3104049086
 30
0.0
 10
7.8957662412
 20
28.0944206075
 30
0.0
 10
7.4299291589
 20
27.7339347919
 30
0.0
 10
7.0270209584
 20
27.3482571345
 30
0.0
 10
6.6910818362
 20
26.9410327554
 30
0.0
 10
6.4254607432
 20
26.5158656386
 30
0.0
 10
6.2332153748
 20
26.0765475351
 30
0.0
 10
6.1167078202
 20
25.6275728204
 30
0.0
 10
6.0906468217
 20
25.3235944628
 30
0.0
 10
6.090646947
 20
25.1733277014
 30
0.0
  0
SPLINE
  5
239
100
AcDbEntity
  8
0
100
AcDbSpline
 62
7
  6
BYLAYER
 70
0
 71
3
 72
23
 73
19
 74
0
 42
0.0000001
 43
0.0000001
 44
0.0000000001
 40
0.0
 40
0.0
 40
0.0
 40
0.0
 40
0.0428115665
 40
0.0873927817
 40
0.1351757572
 40
0.1870835589
 40
0.2435305985
 40
0.3044881848
 40
0.3695847658
 40
0.4381934074
 40
0.5094910758
 40
0.5825258612
 40
0.6562678793
 40
0.7296588678
 40
0.8016475856
 40
0.871245664
 40
0.937627004
 40
1.0
 40
1.0
 40
1.0
 40
1.0
 10
16.5681024271
 20
26.9555994279
 30
0.0
 10
16.568101875
 20
27.027902838
 30
0.0
 10
16.5487804254
 20
27.1761275298
 30
0.0
 10
16.4637717782
 20
27.3901552435
 30
0.0
 10
16.3258154221
 20
27.5930382264
 30
0.0
 10
16.1388696533
 20
27.7808041644
 30
0.0
 10
15.9071914301
 20
27.9500854286
 30
0.0
 10
15.6357392868
 20
28.0977139542
 30
0.0
 10
15.3302077457
 20
28.2208240897
 30
0.0
 10
14.9969938402
 20
28.3168483812
 30
0.0
 10
14.6431538494
 20
28.3838092399
 30
0.0
 10
14.2762087582
 20
28.4203203074
 30
0.0
 10
13.903965134
 20
28.4255556239
 30
0.0
 10
13.534368729
 20
28.399412551
 30
0.0
 10
13.1753084385
 20
28.3425039826
 30
0.0
 10
12.8343458994
 20
28.2559614902
 30
0.0
 10
12.5188864346
 20
28.1415983377
 30
0.0
 10
12.3232885579
 20
28.0452008241
 30
0.0
 10
12.2320611058
 20
27.9925309445
 30
0.0
  0
SPLINE
  5
23A
100
AcDbEntity
  8
0
100
AcDbSpline
 62
7
  6
BYLAYER
 70
0
 71
3
 72
25
 73
21
 74
0
 42
0.0000001
 43
0.0000001
 44
0.0000000001
 40
0.0
 40
0.0
 40
0.0
 40
0.0
 40
0.0213308966
 40
0.0428911141
 40
0.0648959602
 40
0.0875403168
 40
0.1353154354
 40
0.1872169271
 40
0.2436536784
 40
0.3046007282
 40
0.3696888652
 40
0.4382855143
 40
0.5095714039
 40
0.5825958807
 40
0.6563254302
 40
0.7297030392
 40
0.8016818119
 40
0.8712678332
 40
0.9376307435
 40
1.0
 40
1.0
 40
1.0
 40
1.0
 10
32.3909039991
 20
37.6199135519
 30
0.0
 10
32.390908542
 20
37.66495238
 30
0.0
 10
32.3850996153
 20
37.7556203293
 30
0.0
 10
32.359024748
 20
37.8904834037
 30
0.0
 10
32.3158334036
 20
38.0238035801
 30
0.0
 10
32.234312131
 20
38.2015267359
 30
0.0
 10
32.0880347454
 20
38.4167897791
 30
0.0
 10
31.8543382524
 20
38.6513949599
 30
0.0
 10
31.5647471005
 20
38.8630304686
 30
0.0
 10
31.2254428338
 20
39.0475827139
 30
0.0
 10
30.8435113184
 20
39.2014355805
 30
0.0
 10
30.426996697
 20
39.3214742163
 30
0.0
 10
29.9846990352
 20
39.4051993006
 30
0.0
 10
29.5260124107
 20
39.4508066958
 30
0.0
 10
29.0607106042
 20
39.4573535812
 30
0.0
 10
28.5987131337
 20
39.4246987149
 30
0.0
 10
28.149893077
 20
39.3535335514
 30
0.0
 10
27.723704508
 20
39.2453627246
 30
0.0
 10
27.3293757413
 20
39.1024314025
 30
0.0
 10
27.0848872995
 20
38.9819220052
 30
0.0
 10
26.9708413619
 20
38.9160779454
 30
0.0
  0
SPLINE
  5
23B
100
AcDbEntity
  8
0
100
AcDbSpline
 62
7
  6
BYLAYER
 70
0
 71
3
 72
25
 73
21
 74
0
 42
0.0000001
 43
0.0000001
 44
0.0000000001
 40
0.0
 40
0.0
 40
0.0
 40
0.0
 40
0.0213308966
 40
0.0428911141
 40
0.0648959602
 40
0.0875403168
 40
0.1353154354
 40
0.1872169271
 40
0.2436536784
 40
0.3046007282
 40
0.3696888652
 40
0.4382855143
 40
0.5095714039
 40
0.5825958807
 40
0.6563254302
 40
0.7297030392
 40
0.8016818119
 40
0.8712678332
 40
0.9376307435
 40
1.0
 40
1.0
 40
1.0
 40
1.0
 10
26.7109156507
 20
34.3405903249
 30
0.0
 10
26.7109201936
 20
34.385629153
 30
0.0
 10
26.7051112669
 20
34.4762971023
 30
0.0
 10
26.6790363996
 20
34.6111601767
 30
0.0
 10
26.6358450552
 20
34.7444803531
 30
0.0
 10
26.5543237826
 20
34.9222035088
 30
0.0
 10
26.4080463971
 20
35.1374665521
 30
0.0
 10
26.174349904
 20
35.3720717329
 30
0.0
 10
25.8847587521
 20
35.5837072416
 30
0.0
 10
25.5454544854
 20
35.7682594869
 30
0.0
 10
25.16352297
 20
35.9221123535
 30
0.0
 10
24.7470083486
 20
36.0421509893
 30
0.0
 10
24.3047106868
 20
36.1258760736
 30
0.0
 10
23.8460240623
 20
36.1714834688
 30
0.0
 10
23.3807222558
 20
36.1780303542
 30
0.0
 10
22.9187247853
 20
36.1453754879
 30
0.0
 10
22.4699047286
 20
36.0742103244
 30
0.0
 10
22.0437161597
 20
35.9660394976
 30
0.0
 10
21.6493873929
 20
35.8231081755
 30
0.0
 10
21.4048989512
 20
35.7025987781
 30
0.0
 10
21.2908530135
 20
35.6367547184
 30
0.0
  0
SPLINE
  5
23C
100
AcDbEntity
  8
0
100
AcDbSpline
 62
7
  6
BYLAYER
 70
0
 71
3
 72
15
 73
11
 74
0
 42
0.0000001
 43
0.0000001
 44
0.0000000001
 40
0.0
 40
0.0
 40
0.0
 40
0.0
 40
0.1446632052
 40
0.2826644036
 40
0.4141133007
 40
0.5395313634
 40
0.6597038753
 40
0.7756445181
 40
0.8885945712
 40
1.0
 40
1.0
 40
1.0
 40
1.0
 10
31.8881822817
 20
57.4738353504
 30
0.0
 10
31.7397917291
 20
57.3660334036
 30
0.0
 10
31.4581094885
 20
57.1436377575
 30
0.0
 10
31.076222126
 20
56.7822250498
 30
0.0
 10
30.7478765963
 20
56.4030906001
 30
0.0
 10
30.4754939664
 20
56.0089785166
 30
0.0
 10
30.261212601
 20
55.602437603
 30
0.0
 10
30.1066340484
 20
55.1863040186
 30
0.0
 10
30.013359124
 20
54.7636492256
 30
0.0
 10
29.9924701936
 20
54.4787752732
 30
0.0
 10
29.9924765481
 20
54.3375271059
 30
0.0
  0
SPLINE
  5
23D
100
AcDbEntity
  8
0
100
AcDbSpline
 62
7
  6
BYLAYER
 70
0
 71
3
 72
9
 73
5
 74
0
 42
0.0000001
 43
0.0000001
 44
0.0000000001
 40
0.0
 40
0.0
 40
0.0
 40
0.0
 40
0.2556449831
 40
1.0
 40
1.0
 40
1.0
 40
1.0
 10
32.5497695347
 20
57.9019791602
 30
0.0
 10
32.4915988095
 20
57.8683944768
 30
0.0
 10
32.2656757875
 20
57.7342450347
 30
0.0
 10
32.0464118871
 20
57.5887851178
 30
0.0
 10
31.8881822817
 20
57.4738353504
 30
0.0
  0
SPLINE
  5
23E
100
AcDbEntity
  8
0
100
AcDbSpline
 62
7
  6
BYLAYER
 70
0
 71
3
 72
25
 73
21
 74
0
 42
0.0000001
 43
0.0000001
 44
0.0000000001
 40
0.0
 40
0.0
 40
0.0
 40
0.0
 40
0.062376388
 40
0.128725893
 40
0.1983135924
 40
0.2702911591
 40
0.3436671909
 40
0.4173994997
 40
0.4904249199
 40
0.5617122947
 40
0.6303105087
 40
0.69539879
 40
0.7563462937
 40
0.8127831795
 40
0.8646835278
 40
0.9124584012
 40
0.9351026577
 40
0.9571080704
 40
0.9786681319
 40
1.0
 40
1.0
 40
1.0
 40
1.0
 10
42.6750504665
 20
52.056277736
 30
0.0
 10
42.4743064244
 20
51.9403788012
 30
0.0
 10
42.0440419957
 20
51.7282604597
 30
0.0
 10
41.3500211107
 20
51.4767506266
 30
0.0
 10
40.5999776941
 20
51.2863803464
 30
0.0
 10
39.8100623546
 20
51.1610977779
 30
0.0
 10
38.9969459195
 20
51.1036168967
 30
0.0
 10
38.1780053575
 20
51.1151440266
 30
0.0
 10
37.3706988916
 20
51.1954301773
 30
0.0
 10
36.5922353586
 20
51.3427639311
 30
0.0
 10
35.8591537984
 20
51.5540278496
 30
0.0
 10
35.186953213
 20
51.8248301559
 30
0.0
 10
34.5897711816
 20
52.1496332545
 30
0.0
 10
34.0800812945
 20
52.5221034308
 30
0.0
 10
33.6688109506
 20
52.9350310629
 30
0.0
 10
33.4113244055
 20
53.313867683
 30
0.0
 10
33.2678881954
 20
53.6266771086
 30
0.0
 10
33.1917935468
 20
53.861298552
 30
0.0
 10
33.1459801923
 20
54.0986812354
 30
0.0
 10
33.1357443181
 20
54.2582550859
 30
0.0
 10
33.1357369238
 20
54.3375271289
 30
0.0
  0
SPLINE
  5
23F
100
AcDbEntity
  8
0
100
AcDbSpline
 62
7
  6
BYLAYER
 70
0
 71
3
 72
15
 73
11
 74
0
 42
0.0000001
 43
0.0000001
 44
0.0000000001
 40
0.0
 40
0.0
 40
0.0
 40
0.0
 40
0.1080096836
 40
0.2180559142
 40
0.331996611
 40
0.4513535188
 40
0.5772591934
 40
0.7104909639
 40
0.8514574033
 40
1.0
 40
1.0
 40
1.0
 40
1.0
 10
44.3117057209
 20
54.3375270157
 30
0.0
 10
44.3117155882
 20
54.2317423315
 30
0.0
 10
44.2933287712
 20
54.0177501574
 30
0.0
 10
44.211356314
 20
53.7016625045
 30
0.0
 10
44.0759730607
 20
53.3924029068
 30
0.0
 10
43.8890180743
 20
53.0930660191
 30
0.0
 10
43.6524992054
 20
52.8063902927
 30
0.0
 10
43.3688478054
 20
52.53485368
 30
0.0
 10
43.0408809197
 20
52.2810812008
 30
0.0
 10
42.8010422992
 20
52.1290187204
 30
0.0
 10
42.6750504665
 20
52.056277736
 30
0.0
  0
SPLINE
  5
240
100
AcDbEntity
  8
0
100
AcDbSpline
 62
7
  6
BYLAYER
 70
0
 71
3
 72
15
 73
11
 74
0
 42
0.0000001
 43
0.0000001
 44
0.0000000001
 40
0.0
 40
0.0
 40
0.0
 40
0.0
 40
0.1485068847
 40
0.2894923468
 40
0.4227495438
 40
0.5486541305
 40
0.6679983919
 40
0.7819414283
 40
0.8919904257
 40
1.0
 40
1.0
 40
1.0
 40
1.0
 10
21.2908530135
 20
35.6367547184
 30
0.0
 10
21.219284126
 20
35.5954346485
 30
0.0
 10
21.0830278915
 20
35.5090293447
 30
0.0
 10
20.8966711324
 20
35.3648495591
 30
0.0
 10
20.7354843672
 20
35.2105553265
 30
0.0
 10
20.601087324
 20
35.0476717859
 30
0.0
 10
20.4948858755
 20
34.8775873437
 30
0.0
 10
20.4179630412
 20
34.7018790951
 30
0.0
 10
20.3713738299
 20
34.5222827901
 30
0.0
 10
20.3609431934
 20
34.4006950507
 30
0.0
 10
20.3609371309
 20
34.3405903206
 30
0.0
  0
SPLINE
  5
241
100
AcDbEntity
  8
0
100
AcDbSpline
 62
7
  6
BYLAYER
 70
0
 71
3
 72
15
 73
11
 74
0
 42
0.0000001
 43
0.0000001
 44
0.0000000001
 40
0.0
 40
0.0
 40
0.0
 40
0.0
 40
0.1485068847
 40
0.2894923468
 40
0.4227495438
 40
0.5486541305
 40
0.6679983919
 40
0.7819414283
 40
0.8919904257
 40
1.0
 40
1.0
 40
1.0
 40
1.0
 10
26.9708413619
 20
38.9160779454
 30
0.0
 10
26.8992724744
 20
38.8747578756
 30
0.0
 10
26.7630162399
 20
38.7883525717
 30
0.0
 10
26.5766594808
 20
38.6441727861
 30
0.0
 10
26.4154727155
 20
38.4898785535
 30
0.0
 10
26.2810756723
 20
38.3269950129
 30
0.0
 10
26.1748742239
 20
38.1569105707
 30
0.0
 10
26.0979513896
 20
37.9812023221
 30
0.0
 10
26.0513621782
 20
37.8016060171
 30
0.0
 10
26.0409315417
 20
37.6800182777
 30
0.0
 10
26.0409254793
 20
37.6199135476
 30
0.0
  0
SPLINE
  5
242
100
AcDbEntity
  8
0
100
AcDbSpline
 62
7
  6
BYLAYER
 70
0
 71
3
 72
14
 73
10
 74
0
 42
0.0000001
 43
0.0000001
 44
0.0000000001
 40
0.0
 40
0.0
 40
0.0
 40
0.0
 40
0.2824351931
 40
0.4139546529
 40
0.5394115452
 40
0.6596063109
 40
0.7755748618
 40
0.888562831
 40
1.0
 40
1.0
 40
1.0
 40
1.0
 10
10.2996439673
 20
28.1802389391
 30
0.0
 10
10.1416645925
 20
28.0654709578
 30
0.0
 10
9.9222104399
 20
27.8785087699
 30
0.0
 10
9.677662067
 20
27.5962206458
 30
0.0
 10
9.5290830439
 20
27.3812085995
 30
0.0
 10
9.4121902517
 20
27.1594808115
 30
0.0
 10
9.3279389593
 20
26.9324859265
 30
0.0
 10
9.2769840834
 20
26.7019644713
 30
0.0
 10
9.265635702
 20
26.5465695327
 30
0.0
 10
9.2656377621
 20
26.4695253329
 30
0.0
  0
SPLINE
  5
243
100
AcDbEntity
  8
0
100
AcDbSpline
 62
7
  6
BYLAYER
 70
0
 71
3
 72
25
 73
21
 74
0
 42
0.0000001
 43
0.0000001
 44
0.0000000001
 40
0.0
 40
0.0
 40
0.0
 40
0.0
 40
0.021331914
 40
0.042892382
 40
0.064897878
 40
0.0875426993
 40
0.1353180121
 40
0.1872189314
 40
0.2436563312
 40
0.3046037858
 40
0.3696911147
 40
0.4382881541
 40
0.5095746075
 40
0.582598962
 40
0.6563309313
 40
0.7297071889
 40
0.8016840804
 40
0.8712747452
 40
0.9376191657
 40
1.0
 40
1.0
 40
1.0
 40
1.0
 10
47.45496715
 20
54.3375270726
 30
0.0
 10
47.4549660137
 20
54.4613899891
 30
0.0
 10
47.438944208
 20
54.7107270225
 30
0.0
 10
47.3673507369
 20
55.081635575
 30
0.0
 10
47.2484818133
 20
55.4482490087
 30
0.0
 10
47.0243186865
 20
55.9370018175
 30
0.0
 10
46.6220177979
 20
56.5289552454
 30
0.0
 10
45.9793890287
 20
57.1741549501
 30
0.0
 10
45.1829870129
 20
57.7561331843
 30
0.0
 10
44.2498854053
 20
58.2636247089
 30
0.0
 10
43.1995874111
 20
58.6867574742
 30
0.0
 10
42.0541666833
 20
59.0168645319
 30
0.0
 10
40.8378335825
 20
59.2470663914
 30
0.0
 10
39.5764287431
 20
59.3725029306
 30
0.0
 10
38.2968400601
 20
59.3904988755
 30
0.0
 10
37.0263498472
 20
59.3006946129
 30
0.0
 10
35.7920865925
 20
59.1049639457
 30
0.0
 10
34.6201649667
 20
58.8074918898
 30
0.0
 10
33.5357315774
 20
58.4145367993
 30
0.0
 10
32.863454668
 20
58.0830842753
 30
0.0
 10
32.5497695347
 20
57.9019791602
 30
0.0
  0
SPLINE
  5
244
100
AcDbEntity
  8
0
100
AcDbSpline
 62
7
  6
BYLAYER
 70
0
 71
3
 72
15
 73
11
 74
0
 42
0.0000001
 43
0.0000001
 44
0.0000000001
 40
0.0
 40
0.0
 40
0.0
 40
0.0
 40
0.1114041497
 40
0.2243532597
 40
0.3402932873
 40
0.4604651346
 40
0.5858830952
 40
0.717333287
 40
0.8553364167
 40
1.0
 40
1.0
 40
1.0
 40
1.0
 10
47.4549660181
 20
36.1907608323
 30
0.0
 10
47.4549718928
 20
36.0495142974
 30
0.0
 10
47.4340838012
 20
35.7646432299
 30
0.0
 10
47.3408104504
 20
35.3419917553
 30
0.0
 10
47.1862335118
 20
34.9258607006
 30
0.0
 10
46.9719555252
 20
34.519320045
 30
0.0
 10
46.6995733863
 20
34.1252067842
 30
0.0
 10
46.3712259838
 20
33.7460687128
 30
0.0
 10
45.9893349507
 20
33.3846533121
 30
0.0
 10
45.7076512922
 20
33.1622547938
 30
0.0
 10
45.559260363
 20
33.0544525735
 30
0.0
  0
SPLINE
  5
245
100
AcDbEntity
  8
0
100
AcDbSpline
 62
7
  6
BYLAYER
 70
0
 71
3
 72
14
 73
10
 74
0
 42
0.0000001
 43
0.0000001
 44
0.0000000001
 40
0.0
 40
0.0
 40
0.0
 40
0.0
 40
0.2892472794
 40
0.4225697556
 40
0.5485176896
 40
0.6678934903
 40
0.7818669701
 40
0.8919560431
 40
1.0
 40
1.0
 40
1.0
 40
1.0
 10
12.2320611058
 20
27.9925309445
 30
0.0
 10
12.1205810566
 20
27.9281682923
 30
0.0
 10
11.9644454907
 20
27.8206431712
 30
0.0
 10
11.7877690597
 20
27.6515889951
 30
0.0
 10
11.6802492749
 20
27.5212535847
 30
0.0
 10
11.5952741111
 20
27.3852027096
 30
0.0
 10
11.5337774042
 20
27.244622758
 30
0.0
 10
11.4964604327
 20
27.1009594417
 30
0.0
 10
11.4881368211
 20
27.0036830385
 30
0.0
 10
11.4881371882
 20
26.9555994281
 30
0.0
  0
SPLINE
  5
246
100
AcDbEntity
  8
0
100
AcDbSpline
 62
7
  6
BYLAYER
 70
0
 71
3
 72
15
 73
11
 74
0
 42
0.0000001
 43
0.0000001
 44
0.0000000001
 40
0.0
 40
0.0
 40
0.0
 40
0.0
 40
0.1080112531
 40
0.2180578143
 40
0.3319950645
 40
0.4513553711
 40
0.5772631512
 40
0.7104879617
 40
0.8514445399
 40
1.0
 40
1.0
 40
1.0
 40
1.0
 10
21.9655928447
 20
19.9885374167
 30
0.0
 10
21.9655931836
 20
19.8382727705
 30
0.0
 10
21.9395311612
 20
19.5342983903
 30
0.0
 10
21.8230283214
 20
19.0853273059
 30
0.0
 10
21.6307832145
 20
18.6460128809
 30
0.0
 10
21.3651679273
 20
18.2208448534
 30
0.0
 10
21.0292288392
 20
17.8136199879
 30
0.0
 10
20.6263194575
 20
17.4279370563
 30
0.0
 10
20.1604767972
 20
17.0674488662
 30
0.0
 10
19.8197845711
 20
16.8514607044
 30
0.0
 10
19.640803251
 20
16.7481264078
 30
0.0
  0
SPLINE
  5
247
100
AcDbEntity
  8
0
100
AcDbSpline
 62
7
  6
BYLAYER
 70
0
 71
3
 72
25
 73
21
 74
0
 42
0.0000001
 43
0.0000001
 44
0.0000000001
 40
0.0
 40
0.0
 40
0.0
 40
0.0
 40
0.062376388
 40
0.128725893
 40
0.1983135924
 40
0.2702911591
 40
0.3436671909
 40
0.4173994997
 40
0.4904249199
 40
0.5617122947
 40
0.6303105087
 40
0.69539879
 40
0.7563462937
 40
0.8127831795
 40
0.8646835278
 40
0.9124584012
 40
0.9351026577
 40
0.9571080704
 40
0.9786681319
 40
1.0
 40
1.0
 40
1.0
 40
1.0
 10
34.7723921782
 20
56.6187764086
 30
0.0
 10
34.9731362203
 20
56.7346753434
 30
0.0
 10
35.403400649
 20
56.9467936849
 30
0.0
 10
36.097421534
 20
57.198303518
 30
0.0
 10
36.8474649506
 20
57.3886737982
 30
0.0
 10
37.6373802901
 20
57.5139563667
 30
0.0
 10
38.4504967252
 20
57.5714372479
 30
0.0
 10
39.2694372872
 20
57.559910118
 30
0.0
 10
40.0767437531
 20
57.4796239673
 30
0.0
 10
40.8552072861
 20
57.3322902135
 30
0.0
 10
41.5882888463
 20
57.121026295
 30
0.0
 10
42.2604894317
 20
56.8502239887
 30
0.0
 10
42.8576714631
 20
56.5254208901
 30
0.0
 10
43.3673613502
 20
56.1529507138
 30
0.0
 10
43.7786316941
 20
55.7400230817
 30
0.0
 10
44.0361182392
 20
55.3611864616
 30
0.0
 10
44.1795544493
 20
55.048377036
 30
0.0
 10
44.2556490979
 20
54.8137555926
 30
0.0
 10
44.3014624524
 20
54.5763729092
 30
0.0
 10
44.3116983266
 20
54.4167990587
 30
0.0
 10
44.3117057209
 20
54.3375270157
 30
0.0
  0
SPLINE
  5
248
100
AcDbEntity
  8
0
100
AcDbSpline
 62
7
  6
BYLAYER
 70
0
 71
3
 72
26
 73
22
 74
0
 42
0.0000001
 43
0.0000001
 44
0.0000000001
 40
0.0
 40
0.0
 40
0.0
 40
0.0
 40
0.0653660753
 40
0.134044506
 40
0.2052600097
 40
0.2781700312
 40
0.3518379583
 40
0.4253069732
 40
0.4976225853
 40
0.5678786564
 40
0.6352566713
 40
0.6990693834
 40
0.758812112
 40
0.8142234676
 40
0.8653579241
 40
0.8894710858
 40
0.9127194045
 40
0.9352308396
 40
0.9571589319
 40
0.9786830931
 40
1.0
 40
1.0
 40
1.0
 40
1.0
 10
44.156101186
 20
38.7253310166
 30
0.0
 10
43.8276163393
 20
38.574611761
 30
0.0
 10
43.136360213
 20
38.3030099948
 30
0.0
 10
42.0434389919
 20
37.9916856309
 30
0.0
 10
40.8862010556
 20
37.7710063398
 30
0.0
 10
39.6872514383
 20
37.6451371243
 30
0.0
 10
38.4696154694
 20
37.6165807293
 30
0.0
 10
37.2569017908
 20
37.6858584314
 30
0.0
 10
36.0725584001
 20
37.8516498964
 30
0.0
 10
34.9394682244
 20
38.1107460466
 30
0.0
 10
33.8794322458
 20
38.4581968791
 30
0.0
 10
32.9127654944
 20
38.8874350802
 30
0.0
 10
32.057846882
 20
39.3906282819
 30
0.0
 10
31.3311195691
 20
39.9585869487
 30
0.0
 10
30.8344138665
 20
40.4884054525
 30
0.0
 10
30.5200384449
 20
40.9340019371
 30
0.0
 10
30.3290953108
 20
41.2706300311
 30
0.0
 10
30.1793559097
 20
41.6144144047
 30
0.0
 10
30.0717793738
 20
41.9637563461
 30
0.0
 10
30.0069637622
 20
42.3167703547
 30
0.0
 10
29.99247361
 20
42.5538866531
 30
0.0
 10
29.9924775261
 20
42.6717487791
 30
0.0
  0
SPLINE
  5
249
100
AcDbEntity
  8
0
100
AcDbSpline
 62
7
  6
BYLAYER
 70
0
 71
3
 72
14
 73
10
 74
0
 42
0.0000001
 43
0.0000001
 44
0.0000000001
 40
0.0
 40
0.0
 40
0.0
 40
0.0
 40
0.1080438442
 40
0.2181336328
 40
0.3321069993
 40
0.451483295
 40
0.5774324237
 40
0.7107564969
 40
1.0
 40
1.0
 40
1.0
 40
1.0
 10
16.5681010829
 20
26.4695253312
 30
0.0
 10
16.5681022435
 20
26.4214417969
 30
0.0
 10
16.5597789354
 20
26.324164903
 30
0.0
 10
16.5224589939
 20
26.1805024357
 30
0.0
 10
16.460966036
 20
26.0399204363
 30
0.0
 10
16.3759881898
 20
25.9038703045
 30
0.0
 10
16.268468453
 20
25.77353323
 30
0.0
 10
16.0917911038
 20
25.6044806931
 30
0.0
 10
15.935657043
 20
25.4969555934
 30
0.0
 10
15.8241785095
 20
25.4325938163
 30
0.0
  0
SPLINE
  5
24A
100
AcDbEntity
  8
0
100
AcDbSpline
 62
7
  6
BYLAYER
 70
0
 71
3
 72
24
 73
20
 74
0
 42
0.0000001
 43
0.0000001
 44
0.0000000001
 40
0.0
 40
0.0
 40
0.0
 40
0.0
 40
0.0623737077
 40
0.1287401357
 40
0.198330189
 40
0.2703133288
 40
0.3436956332
 40
0.4174306795
 40
0.4904614623
 40
0.5617540587
 40
0.6303571316
 40
0.6954511254
 40
0.7564033307
 40
0.8128443874
 40
0.8647495584
 40
0.9125281593
 40
0.957105235
 40
0.9786672281
 40
1.0
 40
1.0
 40
1.0
 40
1.0
 10
25.7809997682
 20
32.6069592415
 30
0.0
 10
25.6669543075
 20
32.5411154571
 30
0.0
 10
25.4224696225
 20
32.4206068688
 30
0.0
 10
25.0281467523
 20
32.2776776555
 30
0.0
 10
24.6019662267
 20
32.1695081611
 30
0.0
 10
24.1531534254
 20
32.0983397775
 30
0.0
 10
23.6911601627
 20
32.0656838135
 30
0.0
 10
23.2258587122
 20
32.0722294109
 30
0.0
 10
22.7671673519
 20
32.1178328457
 30
0.0
 10
22.324862429
 20
32.2015577191
 30
0.0
 10
21.9083404578
 20
32.3215988799
 30
0.0
 10
21.5264036498
 20
32.4754498383
 30
0.0
 10
21.1870942915
 20
32.6600125721
 30
0.0
 10
20.8975081764
 20
32.8716157049
 30
0.0
 10
20.6637954661
 20
33.1063313774
 30
0.0
 10
20.4913507512
 20
33.3598187796
 30
0.0
 10
20.4018431456
 20
33.5856819695
 30
0.0
 10
20.3667490783
 20
33.7674091044
 30
0.0
 10
20.3609345049
 20
33.8580842516
 30
0.0
 10
20.3609389725
 20
33.9031236366
 30
0.0
  0
SPLINE
  5
24B
100
AcDbEntity
  8
0
100
AcDbSpline
 62
7
  6
BYLAYER
 70
0
 71
3
 72
24
 73
20
 74
0
 42
0.0000001
 43
0.0000001
 44
0.0000000001
 40
0.0
 40
0.0
 40
0.0
 40
0.0
 40
0.0623737077
 40
0.1287401357
 40
0.198330189
 40
0.2703133288
 40
0.3436956332
 40
0.4174306795
 40
0.4904614623
 40
0.5617540587
 40
0.6303571316
 40
0.6954511254
 40
0.7564033307
 40
0.8128443874
 40
0.8647495584
 40
0.9125281593
 40
0.957105235
 40
0.9786672281
 40
1.0
 40
1.0
 40
1.0
 40
1.0
 10
31.4609881165
 20
35.8862824685
 30
0.0
 10
31.3469426559
 20
35.8204386841
 30
0.0
 10
31.1024579709
 20
35.6999300958
 30
0.0
 10
30.7081351006
 20
35.5570008825
 30
0.0
 10
30.281954575
 20
35.4488313882
 30
0.0
 10
29.8331417738
 20
35.3776630045
 30
0.0
 10
29.3711485111
 20
35.3450070406
 30
0.0
 10
28.9058470605
 20
35.3515526379
 30
0.0
 10
28.4471557002
 20
35.3971560727
 30
0.0
 10
28.0048507774
 20
35.4808809461
 30
0.0
 10
27.5883288061
 20
35.600922107
 30
0.0
 10
27.2063919982
 20
35.7547730653
 30
0.0
 10
26.8670826398
 20
35.9393357991
 30
0.0
 10
26.5774965248
 20
36.1509389319
 30
0.0
 10
26.3437838145
 20
36.3856546044
 30
0.0
 10
26.1713390996
 20
36.6391420066
 30
0.0
 10
26.081831494
 20
36.8650051965
 30
0.0
 10
26.0467374266
 20
37.0467323314
 30
0.0
 10
26.0409228533
 20
37.1374074786
 30
0.0
 10
26.0409273209
 20
37.1824468636
 30
0.0
  0
SPLINE
  5
24C
100
AcDbEntity
  8
0
100
AcDbSpline
 62
7
  6
BYLAYER
 70
0
 71
3
 72
15
 73
11
 74
0
 42
0.0000001
 43
0.0000001
 44
0.0000000001
 40
0.0
 40
0.0
 40
0.0
 40
0.0
 40
0.1485068847
 40
0.2894923468
 40
0.4227495438
 40
0.5486541305
 40
0.6679983919
 40
0.7819414283
 40
0.8919904257
 40
1.0
 40
1.0
 40
1.0
 40
1.0
 10
25.7809997682
 20
33.0444259271
 30
0.0
 10
25.8525686556
 20
33.085745997
 30
0.0
 10
25.9888248901
 20
33.1721513008
 30
0.0
 10
26.1751816492
 20
33.3163310864
 30
0.0
 10
26.3363684145
 20
33.470625319
 30
0.0
 10
26.4707654577
 20
33.6335088596
 30
0.0
 10
26.5769669061
 20
33.8035933018
 30
0.0
 10
26.6538897404
 20
33.9793015504
 30
0.0
 10
26.7004789518
 20
34.1588978554
 30
0.0
 10
26.7109095883
 20
34.2804855948
 30
0.0
 10
26.7109156507
 20
34.3405903249
 30
0.0
  0
SPLINE
  5
24D
100
AcDbEntity
  8
0
100
AcDbSpline
 62
7
  6
BYLAYER
 70
0
 71
3
 72
15
 73
11
 74
0
 42
0.0000001
 43
0.0000001
 44
0.0000000001
 40
0.0
 40
0.0
 40
0.0
 40
0.0
 40
0.1485068847
 40
0.2894923468
 40
0.4227495438
 40
0.5486541305
 40
0.6679983919
 40
0.7819414283
 40
0.8919904257
 40
1.0
 40
1.0
 40
1.0
 40
1.0
 10
31.4609881165
 20
36.3237491542
 30
0.0
 10
31.532557004
 20
36.365069224
 30
0.0
 10
31.6688132385
 20
36.4514745278
 30
0.0
 10
31.8551699976
 20
36.5956543134
 30
0.0
 10
32.0163567628
 20
36.7499485461
 30
0.0
 10
32.150753806
 20
36.9128320866
 30
0.0
 10
32.2569552545
 20
37.0829165288
 30
0.0
 10
32.3338780888
 20
37.2586247774
 30
0.0
 10
32.3804673002
 20
37.4382210824
 30
0.0
 10
32.3908979366
 20
37.5598088218
 30
0.0
 10
32.3909039991
 20
37.6199135519
 30
0.0
  0
SPLINE
  5
24E
100
AcDbEntity
  8
0
100
AcDbSpline
 62
7
  6
BYLAYER
 70
0
 71
3
 72
24
 73
20
 74
0
 42
0.0000001
 43
0.0000001
 44
0.0000000001
 40
0.0
 40
0.0
 40
0.0
 40
0.0
 40
0.0653666612
 40
0.134065114
 40
0.2052865562
 40
0.2782062406
 40
0.3518841746
 40
0.4253603867
 40
0.4976858736
 40
0.5679511878
 40
0.6353374772
 40
0.6991585757
 40
0.7589085915
 40
0.8143261149
 40
0.8654671133
 40
0.9127779149
 40
0.9571533579
 40
0.9786801942
 40
1.0
 40
1.0
 40
1.0
 40
1.0
 10
16.9912360969
 20
23.0207362342
 30
0.0
 10
16.8120837639
 20
22.9385354674
 30
0.0
 10
16.4350177147
 20
22.7904053374
 30
0.0
 10
15.8388869403
 20
22.6205617966
 30
0.0
 10
15.2076393905
 20
22.5001894043
 30
0.0
 10
14.5536727501
 20
22.4315416151
 30
0.0
 10
13.88951088
 20
22.4159718451
 30
0.0
 10
13.2280342603
 20
22.4537643572
 30
0.0
 10
12.582029488
 20
22.5441749741
 30
0.0
 10
11.9639797907
 20
22.6855121286
 30
0.0
 10
11.3857821533
 20
22.8750368289
 30
0.0
 10
10.8585020575
 20
23.1091630402
 30
0.0
 10
10.3922013814
 20
23.3836140888
 30
0.0
 10
9.9957671484
 20
23.693486546
 30
0.0
 10
9.676905172
 20
24.0335358199
 30
0.0
 10
9.4423603233
 20
24.3979476708
 30
0.0
 10
9.3211024355
 20
24.720482328
 30
0.0
 10
9.2735154859
 20
24.9796898219
 30
0.0
 10
9.2656431596
 20
25.109038716
 30
0.0
 10
9.2656456803
 20
25.1733277002
 30
0.0
  0
SPLINE
  5
24F
100
AcDbEntity
  8
0
100
AcDbSpline
 62
7
  6
BYLAYER
 70
0
 71
3
 72
23
 73
19
 74
0
 42
0.0000001
 43
0.0000001
 44
0.0000000001
 40
0.0
 40
0.0
 40
0.0
 40
0.0
 40
0.0428115665
 40
0.0873927817
 40
0.1351757572
 40
0.1870835589
 40
0.2435305985
 40
0.3044881848
 40
0.3695847658
 40
0.4381934074
 40
0.5094910758
 40
0.5825258612
 40
0.6562678793
 40
0.7296588678
 40
0.8016475856
 40
0.871245664
 40
0.937627004
 40
1.0
 40
1.0
 40
1.0
 40
1.0
 10
11.4881371882
 20
26.9555994281
 30
0.0
 10
11.4881377403
 20
26.883296018
 30
0.0
 10
11.5074591899
 20
26.7350713262
 30
0.0
 10
11.5924678371
 20
26.5210436125
 30
0.0
 10
11.7304241932
 20
26.3181606296
 30
0.0
 10
11.9173699621
 20
26.1303946916
 30
0.0
 10
12.1490481852
 20
25.9611134274
 30
0.0
 10
12.4205003285
 20
25.8134849018
 30
0.0
 10
12.7260318696
 20
25.6903747663
 30
0.0
 10
13.0592457751
 20
25.5943504749
 30
0.0
 10
13.4130857659
 20
25.5273896161
 30
0.0
 10
13.7800308572
 20
25.4908785487
 30
0.0
 10
14.1522744813
 20
25.4856432321
 30
0.0
 10
14.5218708863
 20
25.511786305
 30
0.0
 10
14.8809311768
 20
25.5686948734
 30
0.0
 10
15.2218937159
 20
25.6552373658
 30
0.0
 10
15.5373531807
 20
25.7696005183
 30
0.0
 10
15.7329510574
 20
25.8659980319
 30
0.0
 10
15.8241785095
 20
25.9186679115
 30
0.0
  0
SPLINE
  5
250
100
AcDbEntity
  8
0
100
AcDbSpline
 62
7
  6
BYLAYER
 70
0
 71
3
 72
15
 73
11
 74
0
 42
0.0000001
 43
0.0000001
 44
0.0000000001
 40
0.0
 40
0.0
 40
0.0
 40
0.0
 40
0.1080089241
 40
0.2180580889
 40
0.3320009771
 40
0.4513451002
 40
0.5772504115
 40
0.7105092613
 40
0.8514950989
 40
1.0
 40
1.0
 40
1.0
 40
1.0
 10
32.3909021575
 20
37.1824468646
 30
0.0
 10
32.3908961956
 20
37.1223425229
 30
0.0
 10
32.3804685432
 20
37.0007546968
 30
0.0
 10
32.3338752033
 20
36.8211598633
 30
0.0
 10
32.2569560359
 20
36.6454504086
 30
0.0
 10
32.1507535312
 20
36.4753662054
 30
0.0
 10
32.0163563736
 20
36.3124813728
 30
0.0
 10
31.8551679931
 20
36.1581866511
 30
0.0
 10
31.6688112161
 20
36.0140071076
 30
0.0
 10
31.5325560164
 20
35.9276019681
 30
0.0
 10
31.4609881165
 20
35.8862824685
 30
0.0
  0
SPLINE
  5
251
100
AcDbEntity
  8
0
100
AcDbSpline
 62
7
  6
BYLAYER
 70
0
 71
3
 72
25
 73
21
 74
0
 42
0.0000001
 43
0.0000001
 44
0.0000000001
 40
0.0
 40
0.0
 40
0.0
 40
0.0
 40
0.0213308966
 40
0.0428911141
 40
0.0648959602
 40
0.0875403168
 40
0.1353154354
 40
0.1872169271
 40
0.2436536784
 40
0.3046007282
 40
0.3696888652
 40
0.4382855143
 40
0.5095714039
 40
0.5825958807
 40
0.6563254302
 40
0.7297030392
 40
0.8016818119
 40
0.8712678332
 40
0.9376307435
 40
1.0
 40
1.0
 40
1.0
 40
1.0
 10
20.3609371309
 20
34.3405903206
 30
0.0
 10
20.360932588
 20
34.2955514925
 30
0.0
 10
20.3667415147
 20
34.2048835432
 30
0.0
 10
20.392816382
 20
34.0700204688
 30
0.0
 10
20.4360077264
 20
33.9367002924
 30
0.0
 10
20.517528999
 20
33.7589771367
 30
0.0
 10
20.6638063846
 20
33.5437140934
 30
0.0
 10
20.8975028776
 20
33.3091089126
 30
0.0
 10
21.1870940295
 20
33.0974734039
 30
0.0
 10
21.5263982962
 20
32.9129211586
 30
0.0
 10
21.9083298116
 20
32.759068292
 30
0.0
 10
22.324844433
 20
32.6390296562
 30
0.0
 10
22.7671420948
 20
32.5553045719
 30
0.0
 10
23.2258287193
 20
32.5096971767
 30
0.0
 10
23.6911305258
 20
32.5031502913
 30
0.0
 10
24.1531279963
 20
32.5358051577
 30
0.0
 10
24.601948053
 20
32.6069703211
 30
0.0
 10
25.028136622
 20
32.7151411479
 30
0.0
 10
25.4224653887
 20
32.8580724701
 30
0.0
 10
25.6669538305
 20
32.9785818674
 30
0.0
 10
25.7809997682
 20
33.0444259271
 30
0.0
  0
SPLINE
  5
252
100
AcDbEntity
  8
0
100
AcDbSpline
 62
7
  6
BYLAYER
 70
0
 71
3
 72
23
 73
19
 74
0
 42
0.0000001
 43
0.0000001
 44
0.0000000001
 40
0.0
 40
0.0
 40
0.0
 40
0.0
 40
0.0623729551
 40
0.1287527336
 40
0.1983489782
 40
0.2703361966
 40
0.3437256319
 40
0.4174668489
 40
0.4905021795
 40
0.5618009672
 40
0.6304112336
 40
0.6955090587
 40
0.7564672687
 40
0.8129148074
 40
0.8648226831
 40
0.9126056332
 40
0.9571874352
 40
1.0
 40
1.0
 40
1.0
 40
1.0
 10
15.8241785095
 20
25.4325938163
 30
0.0
 10
15.7329511208
 20
25.3799239733
 30
0.0
 10
15.537356007
 20
25.2835270174
 30
0.0
 10
15.2219019603
 20
25.1691659066
 30
0.0
 10
14.8809477691
 20
25.0826247127
 30
0.0
 10
14.5218962658
 20
25.0257133055
 30
0.0
 10
14.1523063657
 20
24.9995706749
 30
0.0
 10
13.780065862
 20
25.0048013633
 30
0.0
 10
13.4131188569
 20
25.0413092277
 30
0.0
 10
13.0592734438
 20
25.1082709105
 30
0.0
 10
12.7260517522
 20
25.2042923126
 30
0.0
 10
12.4205140803
 20
25.3274035078
 30
0.0
 10
12.1490588128
 20
25.4750344284
 30
0.0
 10
11.9173767659
 20
25.6443135941
 30
0.0
 10
11.7304290788
 20
25.8320796432
 30
0.0
 10
11.5924748165
 20
26.0349645292
 30
0.0
 10
11.5074575546
 20
26.2489921565
 30
0.0
 10
11.4881402775
 20
26.3972202413
 30
0.0
 10
11.4881385324
 20
26.4695253344
 30
0.0
  0
SPLINE
  5
253
100
AcDbEntity
  8
0
100
AcDbSpline
 62
7
  6
BYLAYER
 70
0
 71
3
 72
25
 73
21
 74
0
 42
0.0000001
 43
0.0000001
 44
0.0000000001
 40
0.0
 40
0.0
 40
0.0
 40
0.0
 40
0.0213308966
 40
0.0428911141
 40
0.0648959602
 40
0.0875403168
 40
0.1353154354
 40
0.1872169271
 40
0.2436536784
 40
0.3046007282
 40
0.3696888652
 40
0.4382855143
 40
0.5095714039
 40
0.5825958807
 40
0.6563254302
 40
0.7297030392
 40
0.8016818119
 40
0.8712678332
 40
0.9376307435
 40
1.0
 40
1.0
 40
1.0
 40
1.0
 10
26.0409254793
 20
37.6199135476
 30
0.0
 10
26.0409209364
 20
37.5748747195
 30
0.0
 10
26.0467298631
 20
37.4842067702
 30
0.0
 10
26.0728047304
 20
37.3493436958
 30
0.0
 10
26.1159960748
 20
37.2160235194
 30
0.0
 10
26.1975173474
 20
37.0383003637
 30
0.0
 10
26.3437947329
 20
36.8230373204
 30
0.0
 10
26.577491226
 20
36.5884321397
 30
0.0
 10
26.8670823779
 20
36.376796631
 30
0.0
 10
27.2063866446
 20
36.1922443856
 30
0.0
 10
27.58831816
 20
36.038391519
 30
0.0
 10
28.0048327814
 20
35.9183528832
 30
0.0
 10
28.4471304432
 20
35.8346277989
 30
0.0
 10
28.9058170677
 20
35.7890204037
 30
0.0
 10
29.3711188742
 20
35.7824735184
 30
0.0
 10
29.8331163447
 20
35.8151283847
 30
0.0
 10
30.2819364014
 20
35.8862935481
 30
0.0
 10
30.7081249703
 20
35.9944643749
 30
0.0
 10
31.1024537371
 20
36.1373956971
 30
0.0
 10
31.3469421789
 20
36.2579050944
 30
0.0
 10
31.4609881165
 20
36.3237491542
 30
0.0
  0
SPLINE
  5
254
100
AcDbEntity
  8
0
100
AcDbSpline
 62
7
  6
BYLAYER
 70
0
 71
3
 72
14
 73
10
 74
0
 42
0.0000001
 43
0.0000001
 44
0.0000000001
 40
0.0
 40
0.0
 40
0.0
 40
0.0
 40
0.2892472794
 40
0.4225697556
 40
0.5485176896
 40
0.6678934903
 40
0.7818669701
 40
0.8919560431
 40
1.0
 40
1.0
 40
1.0
 40
1.0
 10
15.8241785095
 20
25.9186679115
 30
0.0
 10
15.9356585587
 20
25.9830305638
 30
0.0
 10
16.0917941246
 20
26.0905556848
 30
0.0
 10
16.2684705556
 20
26.2596098609
 30
0.0
 10
16.3759903404
 20
26.3899452713
 30
0.0
 10
16.4609655042
 20
26.5259961464
 30
0.0
 10
16.5224622111
 20
26.666576098
 30
0.0
 10
16.5597791826
 20
26.8102394143
 30
0.0
 10
16.5681027942
 20
26.9075158175
 30
0.0
 10
16.5681024271
 20
26.9555994279
 30
0.0
  0
SPLINE
  5
255
100
AcDbEntity
  8
0
100
AcDbSpline
 62
7
  6
BYLAYER
 70
0
 71
3
 72
26
 73
22
 74
0
 42
0.0000001
 43
0.0000001
 44
0.0000000001
 40
0.0
 40
0.0
 40
0.0
 40
0.0
 40
0.0213974555
 40
0.0430464205
 40
0.0651843044
 40
0.0880211379
 40
0.1117341463
 40
0.1364605163
 40
0.1892643765
 40
0.2468632672
 40
0.3091377648
 40
0.3755959369
 40
0.4454703046
 40
0.5177979656
 40
0.5914884328
 40
0.6653843872
 40
0.73831736
 40
0.8091672344
 40
0.8769188694
 40
0.9407317612
 40
1.0
 40
1.0
 40
1.0
 40
1.0
 10
29.9924765481
 20
54.3375271059
 30
0.0
 10
29.9924823906
 20
54.2076625009
 30
0.0
 10
30.0101008539
 20
53.9460810089
 30
0.0
 10
30.0888470632
 20
53.5572886696
 30
0.0
 10
30.219518536
 20
53.1735070134
 30
0.0
 10
30.4009626224
 20
52.7971381045
 30
0.0
 10
30.6320749501
 20
52.4304387426
 30
0.0
 10
31.0124957283
 20
51.9467066403
 30
0.0
 10
31.6112276526
 20
51.3793752594
 30
0.0
 10
32.4792100176
 20
50.7859113773
 30
0.0
 10
33.4923471095
 20
50.2768279708
 30
0.0
 10
34.6271589745
 20
49.8634400278
 30
0.0
 10
35.857544594
 20
49.5549550775
 30
0.0
 10
37.1549091253
 20
49.3584843826
 30
0.0
 10
38.48898566
 20
49.2785844336
 30
0.0
 10
39.828555264
 20
49.3171306454
 30
0.0
 10
41.1422757311
 20
49.4732104929
 30
0.0
 10
42.3994176254
 20
49.743199004
 30
0.0
 10
43.5708558121
 20
50.1208867038
 30
0.0
 10
44.6291403686
 20
50.5975395915
 30
0.0
 10
45.2682406618
 20
50.9898004135
 30
0.0
 10
45.559260363
 20
51.2012187942
 30
0.0
  0
SPLINE
  5
256
100
AcDbEntity
  8
0
100
AcDbSpline
 62
7
  6
BYLAYER
 70
0
 71
3
 72
15
 73
11
 74
0
 42
0.0000001
 43
0.0000001
 44
0.0000000001
 40
0.0
 40
0.0
 40
0.0
 40
0.0
 40
0.1080089241
 40
0.2180580889
 40
0.3320009771
 40
0.4513451002
 40
0.5772504115
 40
0.7105092613
 40
0.8514950989
 40
1.0
 40
1.0
 40
1.0
 40
1.0
 10
26.7109138091
 20
33.9031236376
 30
0.0
 10
26.7109078472
 20
33.8430192959
 30
0.0
 10
26.7004801948
 20
33.7214314698
 30
0.0
 10
26.653886855
 20
33.5418366363
 30
0.0
 10
26.5769676875
 20
33.3661271816
 30
0.0
 10
26.4707651828
 20
33.1960429784
 30
0.0
 10
26.3363680252
 20
33.0331581458
 30
0.0
 10
26.1751796447
 20
32.8788634241
 30
0.0
 10
25.9888228677
 20
32.7346838806
 30
0.0
 10
25.8525676681
 20
32.6482787411
 30
0.0
 10
25.7809997682
 20
32.6069592415
 30
0.0
  0
SPLINE
  5
257
100
AcDbEntity
  8
0
100
AcDbSpline
 62
7
  6
BYLAYER
 70
0
 71
3
 72
10
 73
6
 74
0
 42
0.0000001
 43
0.0000001
 44
0.0000000001
 40
0.0
 40
0.0
 40
0.0
 40
0.0
 40
0.4712752914
 40
0.7288703386
 40
1.0
 40
1.0
 40
1.0
 40
1.0
 10
18.2582941496
 20
23.9101593794
 30
0.0
 10
18.0951198052
 20
23.7279761032
 30
0.0
 10
17.8040242581
 20
23.4797638015
 30
0.0
 10
17.3641575493
 20
23.2039788032
 30
0.0
 10
17.1191230135
 20
23.0794148035
 30
0.0
 10
16.9912360969
 20
23.0207362342
 30
0.0
  0
SPLINE
  5
258
100
AcDbEntity
  8
0
100
AcDbSpline
 62
7
  6
BYLAYER
 70
0
 71
3
 72
15
 73
11
 74
0
 42
0.0000001
 43
0.0000001
 44
0.0000000001
 40
0.0
 40
0.0
 40
0.0
 40
0.0
 40
0.1080096836
 40
0.2180559142
 40
0.331996611
 40
0.4513535188
 40
0.5772591934
 40
0.7104909639
 40
0.8514574033
 40
1.0
 40
1.0
 40
1.0
 40
1.0
 10
33.1357369238
 20
54.3375271289
 30
0.0
 10
33.1357270565
 20
54.4433118131
 30
0.0
 10
33.1541138735
 20
54.6573039872
 30
0.0
 10
33.2360863307
 20
54.9733916401
 30
0.0
 10
33.371469584
 20
55.2826512378
 30
0.0
 10
33.5584245704
 20
55.5819881255
 30
0.0
 10
33.7949434393
 20
55.8686638519
 30
0.0
 10
34.0785948393
 20
56.1402004646
 30
0.0
 10
34.406561725
 20
56.3939729438
 30
0.0
 10
34.6464003455
 20
56.5460354242
 30
0.0
 10
34.7723921782
 20
56.6187764086
 30
0.0
  0
SPLINE
  5
259
100
AcDbEntity
  8
0
100
AcDbSpline
 62
7
  6
BYLAYER
 70
0
 71
3
 72
26
 73
22
 74
0
 42
0.0000001
 43
0.0000001
 44
0.0000000001
 40
0.0
 40
0.0
 40
0.0
 40
0.0
 40
0.02133087
 40
0.0428901744
 40
0.0648942318
 40
0.087537483
 40
0.1109859002
 40
0.1353708921
 40
0.1872687438
 40
0.2437029283
 40
0.3046467288
 40
0.3697298703
 40
0.4383223418
 40
0.5096041111
 40
0.5826240562
 40
0.6563517377
 40
0.7297231751
 40
0.80169593
 40
0.8712814146
 40
0.9376241757
 40
1.0
 40
1.0
 40
1.0
 40
1.0
 10
6.090646947
 20
25.1733277014
 30
0.0
 10
6.0906470408
 20
25.0607236699
 30
0.0
 10
6.105147609
 20
24.8340463819
 30
0.0
 10
6.1703092685
 20
24.4968637803
 30
0.0
 10
6.2783239906
 20
24.1635833713
 30
0.0
 10
6.4285232305
 20
23.8361568409
 30
0.0
 10
6.6199809196
 20
23.5163454255
 30
0.0
 10
6.9350998492
 20
23.0936424564
 30
0.0
 10
7.4321522752
 20
22.594415067
 30
0.0
 10
8.1560315867
 20
22.0655500754
 30
0.0
 10
9.0043490353
 20
21.6041410791
 30
0.0
 10
9.9591522099
 20
21.2194962306
 30
0.0
 10
11.000441549
 20
20.9193923192
 30
0.0
 10
12.1061928244
 20
20.7101105346
 30
0.0
 10
13.2529243181
 20
20.5960717348
 30
0.0
 10
14.4161864817
 20
20.5797139286
 30
0.0
 10
15.5711786159
 20
20.6613551678
 30
0.0
 10
16.6932293327
 20
20.8392992479
 30
0.0
 10
17.7586245968
 20
21.1097194449
 30
0.0
 10
18.7444708545
 20
21.4669623076
 30
0.0
 10
19.3556404
 20
21.7682788906
 30
0.0
 10
19.640803251
 20
21.9329167566
 30
0.0
  0
SPLINE
  5
25A
100
AcDbEntity
  8
0
100
AcDbSpline
 62
7
  6
BYLAYER
 70
0
 71
3
 72
15
 73
11
 74
0
 42
0.0000001
 43
0.0000001
 44
0.0000000001
 40
0.0
 40
0.0
 40
0.0
 40
0.0
 40
0.1446597724
 40
0.2826629984
 40
0.4141143845
 40
0.5395322468
 40
0.6597034188
 40
0.7756443616
 40
0.8885946157
 40
1.0
 40
1.0
 40
1.0
 40
1.0
 10
45.559260363
 20
51.2012187942
 30
0.0
 10
45.7076473686
 20
51.3090181641
 30
0.0
 10
45.9893262069
 20
51.5314150062
 30
0.0
 10
46.3712170286
 20
51.8928258777
 30
0.0
 10
46.6995660423
 20
52.2719643608
 30
0.0
 10
46.9719522688
 20
52.6660756532
 30
0.0
 10
47.186226164
 20
53.0726185553
 30
0.0
 10
47.3408086017
 20
53.4887491376
 30
0.0
 10
47.4340824368
 20
53.9114053473
 30
0.0
 10
47.4549684459
 20
54.196278986
 30
0.0
 10
47.45496715
 20
54.3375270726
 30
0.0
  0
SPLINE
  5
25B
100
AcDbEntity
  8
0
100
AcDbSpline
 62
7
  6
BYLAYER
 70
0
 71
3
 72
15
 73
11
 74
0
 42
0.0000001
 43
0.0000001
 44
0.0000000001
 40
0.0
 40
0.0
 40
0.0
 40
0.0
 40
0.1485547696
 40
0.2895089085
 40
0.4227326371
 40
0.548640667
 40
0.6680016089
 40
0.7819395144
 40
0.8919872367
 40
1.0
 40
1.0
 40
1.0
 40
1.0
 10
19.640803251
 20
21.9329167566
 30
0.0
 10
19.8197837561
 20
22.0362505826
 30
0.0
 10
20.1604733741
 20
22.2522348837
 30
0.0
 10
20.6263104564
 20
22.6127206994
 30
0.0
 10
21.0292186569
 20
22.9983983567
 30
0.0
 10
21.3651577791
 20
23.4056227358
 30
0.0
 10
21.6307788721
 20
23.8307898526
 30
0.0
 10
21.8230242405
 20
24.2701079562
 30
0.0
 10
21.9395317951
 20
24.7190826708
 30
0.0
 10
21.9655927936
 20
25.0230610284
 30
0.0
 10
21.9655926683
 20
25.1733277898
 30
0.0
  0
SPLINE
  5
25C
100
AcDbEntity
  8
0
100
AcDbSpline
 62
7
  6
BYLAYER
 70
0
 71
3
 72
24
 73
20
 74
0
 42
0.0000001
 43
0.0000001
 44
0.0000000001
 40
0.0
 40
0.0
 40
0.0
 40
0.0
 40
0.0213192515
 40
0.0428455981
 40
0.0872216018
 40
0.1345329445
 40
0.1856741937
 40
0.2410921019
 40
0.3008422717
 40
0.3646624827
 40
0.4320477059
 40
0.5023119399
 40
0.5746362629
 40
0.6481122297
 40
0.7217905431
 40
0.7947109853
 40
0.8659333612
 40
0.9346320953
 40
1.0
 40
1.0
 40
1.0
 40
1.0
 10
9.2656377621
 20
26.4695253329
 30
0.0
 10
9.265639481
 20
26.405238008
 30
0.0
 10
9.2735202987
 20
26.2758935167
 30
0.0
 10
9.3210863994
 20
26.0166836738
 30
0.0
 10
9.4423626109
 20
25.6941515278
 30
0.0
 10
9.6769054818
 20
25.3297361777
 30
0.0
 10
9.9957658184
 20
24.9896794303
 30
0.0
 10
10.3922024644
 20
24.6798053483
 30
0.0
 10
10.8585073776
 20
24.4053636103
 30
0.0
 10
11.3857799506
 20
24.1712346848
 30
0.0
 10
11.9639684354
 20
23.9817100241
 30
0.0
 10
12.5820091344
 20
23.8403780002
 30
0.0
 10
13.228006096
 20
23.7499658279
 30
0.0
 10
13.8894795438
 20
23.7121701642
 30
0.0
 10
14.5536443848
 20
23.7277362669
 30
0.0
 10
15.20761738
 20
23.7963849201
 30
0.0
 10
15.8388712534
 20
23.9167560666
 30
0.0
 10
16.4350102062
 20
24.0865987517
 30
0.0
 10
16.8120803218
 20
24.2347314752
 30
0.0
 10
16.9912360969
 20
24.3169338214
 30
0.0
  0
ENDSEC
  0
SECTION
  2
OBJECTS
  0
DICTIONARY
  5
C
100
AcDbDictionary
280
0
281
1
  3
ACAD_GROUP
350
D
  3
ACAD_MLINESTYLE
350
17
  3
ACAD_LAYOUT
350
1A
  3
ACAD_PLOTSETTINGS
350
19
  3
ACAD_PLOTSTYLENAME
350
E
  0
DICTIONARY
  5
D
102
{ACAD_REACTORS
330
C
102
}
100
AcDbDictionary
280
0
281
1
  0
ACDBDICTIONARYWDFLT
  5
E
102
{ACAD_REACTORS
330
C
102
}
100
AcDbDictionary
281
1
  3
Normal
350
F
100
AcDbDictionaryWithDefault
340
F
  0
DICTIONARY
  5
17
102
{ACAD_REACTORS
330
C
102
}
100
AcDbDictionary
280
0
281
1
  3
Standard
350
18
  0
DICTIONARY
  5
19
102
{ACAD_REACTORS
330
C
102
}
100
AcDbDictionary
281
1
  0
DICTIONARY
  5
1A
102
{ACAD_REACTORS
330
C
102
}
100
AcDbDictionary
281
1
  3
Model
350
25D
  3
Layout1
350
25E
  0
ACDBPLACEHOLDER
  5
F
102
{ACAD_REACTORS
330
E
102
}
  0
MLINESTYLE
  5
18
102
{ACAD_REACTORS
330
17
102
}
100
AcDbMlineStyle
  2
STANDARD
 70
0
  3

 62
256
 51
90.0
 52
90.0
 71
2
 49
0.5
 62
256
  6
BYLAYER
 49
-0.5
 62
256
  6
BYLAYER
  0
LAYOUT
  5
25D
102
{ACAD_REACTORS
330
1A
102
}
100
AcDbPlotSettings
  1

  2
none_device
  4

  6

 40
0.0
 41
0.0
 42
0.0
 43
0.0
 44
210.0
 45
297.0
 46
0.0
 47
0.0
 48
0.0
 49
0.0
140
0.0
141
0.0
142
1.0
143
1.0
 70
1024
 72
1
 73
0
 74
0
  7

 75
0
147
1.0
148
0.0
149
0.0
100
AcDbLayout
  1
Model
 70
0
 71
0
 10
0.0
 20
0.0
 11
210.0
 21
297.0
 12
0.0
 22
0.0
 32
0.0
 14
0.0
 24
0.0
 34
0.0
 15
0.0
 25
0.0
 35
0.0
146
0.0
 13
0.0
 23
0.0
 33
0.0
 16
1.0
 26
0.0
 36
0.0
 17
0.0
 27
1.0
 37
0.0
 76
0
330
210
345
0
346
0
  0
LAYOUT
  5
25E
102
{ACAD_REACTORS
330
1A
102
}
100
AcDbPlotSettings
  1

  2
none_device
  4

  6

 40
0.0
 41
0.0
 42
0.0
 43
0.0
 44
210.0
 45
297.0
 46
0.0
 47
0.0
 48
0.0
 49
0.0
140
0.0
141
0.0
142
1.0
143
1.0
 70
0
 72
1
 73
0
 74
0
  7

 75
0
147
1.0
148
0.0
149
0.0
100
AcDbLayout
  1
Layout1
 70
0
 71
1
 10
0.0
 20
0.0
 11
210.0
 21
297.0
 12
0.0
 22
0.0
 32
0.0
 14
0.0
 24
0.0
 34
0.0
 15
0.0
 25
0.0
 35
0.0
146
0.0
 13
0.0
 23
0.0
 33
0.0
 16
1.0
 26
0.0
 36
0.0
 17
0.0
 27
1.0
 37
0.0
 76
0
330
211
345
0
346
0
  0
ENDSEC
  0
EOF
