999
DXF file: C:\Users\sesa63760\Dev\_Creo\CAD\MCADID0002499_3D-CAD\drw0001_1.dxf
999
Pro/ENGINEER 2019471 by Parametric Technology Corporation
  0
SECTION
  2
HEADER
  9
$ACADVER
  1
AC1024
  9
$DWGCODEPAGE
  3
ANSI_1252
  9
$EXTMAX
 10
79.6632597288
 20
112.6666101878
 30
0.0
  9
$EXTMIN
 10
0.0
 20
0.0
 30
0.0
  9
$LIMMIN
 10
0.0
 20
0.0
  9
$LIMMAX
 10
79.6632597288
 20
112.6666101878
  9
$VIEWCTR
 10
39.8316298644
 20
56.3333050939
  9
$VIEWSIZE
 40
112.6666101878
  9
$CLAYER
  8
0
  9
$LTSCALE
 40
7.3441938493
  9
$CELTYPE
  6
BYLAYER
  9
$DIMSCALE
 40
1.0
  9
$DIMASZ
 40
0.9483721396
  9
$DIMEXO
 40
1.0
  9
$DIMDLI
 40
5.0741702959
  9
$DIMEXE
 40
1.0
  9
$DIMCEN
 40
1.2017771753
  9
$DIMLFAC
 40
1.0
  9
$DIMBLK
  1
_FILLED
  9
$DIMALT
 70
0
  9
$DIMALTF
 40
0.0393700787
  9
$DIMTXT
 40
1.3277209955
  9
$DIMTOL
 70
1
  9
$DIMLIM
 70
0
  9
$DIMTFAC
 40
1.0
  9
$DIMTP
 40
0.01
  9
$DIMTM
 40
0.01
  9
$DIMGAP
 40
0.625
  9
$DIMDSEP
 70
46
  9
$AUNITS
 70
0
  9
$PDMODE
 70
3
  9
$PDSIZE
 40
0.3125
  9
$HANDSEED
  5
254
  9
$TILEMODE
 70
1
  9
$MEASUREMENT
 70
1
  9
$INSUNITS
 70
4
  0
ENDSEC
  0
SECTION
  2
CLASSES
  0
CLASS
  1
ACDBDICTIONARYWDFLT
  2
AcDbDictionaryWithDefault
  3
AutoCAD 2000
 90
0
 91
1
280
0
281
0
  0
CLASS
  1
ACDBPLACEHOLDER
  2
AcDbPlaceHolder
  3
AutoCAD 2000
 90
0
 91
1
280
0
281
0
  0
CLASS
  1
LAYOUT
  2
AcDbLayout
  3
AutoCAD 2000
 90
0
 91
0
280
0
281
0
  0
ENDSEC
  0
SECTION
  2
TABLES
  0
TABLE
  2
VPORT
  5
8
100
AcDbSymbolTable
 70
2
  0
VPORT
  5
1F4
100
AcDbSymbolTableRecord
100
AcDbViewportTableRecord
  2
*ACTIVE
 70
0
 10
0.0
 20
0.0
 11
1.0
 21
1.0
 12
39.8316298644
 22
56.3333050939
 13
0.0
 23
0.0
 14
1.0
 24
1.0
 15
0.0
 25
0.0
 16
0.0
 26
0.0
 36
1.0
 17
0.0
 27
0.0
 37
0.0
 40
112.6666101878
 41
0.7070707071
 42
50.0
 43
0.0
 44
0.0
 50
0.0
 51
0.0
 71
0
 72
100
 73
1
 74
1
 75
0
 76
0
 77
0
 78
0
  0
ENDTAB
  0
TABLE
  2
LTYPE
  5
5
100
AcDbSymbolTable
 70
6
  0
LTYPE
  5
14
100
AcDbSymbolTableRecord
100
AcDbLinetypeTableRecord
  2
BYBLOCK
 70
0
  3

 72
65
 73
0
 40
0.0
  0
LTYPE
  5
15
100
AcDbSymbolTableRecord
100
AcDbLinetypeTableRecord
  2
BYLAYER
 70
0
  3

 72
65
 73
0
 40
0.0
  0
LTYPE
  5
16
100
AcDbSymbolTableRecord
100
AcDbLinetypeTableRecord
  2
CONTINUOUS
 70
64
  3
Solid line
 72
65
 73
0
 40
0.0
  0
LTYPE
  5
1F5
100
AcDbSymbolTableRecord
100
AcDbLinetypeTableRecord
  2
CENTER
 70
64
  3
____ _ ____ _ ____ _ ____ _ ____ _ ____ _ ____
 72
65
 73
4
 40
0.6
 49
0.375
 74
0
 49
-0.075
 74
0
 49
0.075
 74
0
 49
-0.075
 74
0
  0
LTYPE
  5
1F6
100
AcDbSymbolTableRecord
100
AcDbLinetypeTableRecord
  2
HIDDEN
 70
64
  3
- - - - - - - - - - - - - - - - - - - -
 72
65
 73
2
 40
0.2
 49
0.1
 74
0
 49
-0.1
 74
0
  0
LTYPE
  5
1F7
100
AcDbSymbolTableRecord
100
AcDbLinetypeTableRecord
  2
PHANTOM
 70
64
  3
_____ _ _ _____ _ _ _____ _ _ _____
 72
65
 73
6
 40
0.8
 49
0.45
 74
0
 49
-0.05
 74
0
 49
0.1
 74
0
 49
-0.05
 74
0
 49
0.1
 74
0
 49
-0.05
 74
0
  0
LTYPE
  5
1F8
100
AcDbSymbolTableRecord
100
AcDbLinetypeTableRecord
  2
DOT
 70
64
  3
. . . . . . . . . . . . . . . . . . . .
 72
65
 73
2
 40
0.2
 49
0.1
 74
0
 49
-0.1
 74
0
  0
LTYPE
  5
1F9
100
AcDbSymbolTableRecord
100
AcDbLinetypeTableRecord
  2
DASHED
 70
64
  3
- - - - - - - - - - - - - - - - - - - -
 72
65
 73
2
 40
0.2
 49
0.1
 74
0
 49
-0.1
 74
0
  0
ENDTAB
  0
TABLE
  2
LAYER
  5
2
100
AcDbSymbolTable
 70
36
  0
LAYER
  5
10
100
AcDbSymbolTableRecord
100
AcDbLayerTableRecord
  2
0
 70
0
 62
7
  6
CONTINUOUS
370
-3
390
F
  0
LAYER
  5
1FA
100
AcDbSymbolTableRecord
100
AcDbLayerTableRecord
  2
DEFAULT_1
 70
0
 62
7
  6
CENTER
370
-3
390
F
  0
LAYER
  5
1FB
100
AcDbSymbolTableRecord
100
AcDbLayerTableRecord
  2
DEFAULT_2
 70
0
 62
7
  6
HIDDEN
370
-3
390
F
  0
LAYER
  5
1FC
100
AcDbSymbolTableRecord
100
AcDbLayerTableRecord
  2
DEFAULT_3
 70
0
 62
7
  6
PHANTOM
370
-3
390
F
  0
LAYER
  5
1FD
100
AcDbSymbolTableRecord
100
AcDbLayerTableRecord
  2
00_COMPONENTS
 70
0
 62
7
  6
CONTINUOUS
370
-3
390
F
  0
LAYER
  5
1FE
100
AcDbSymbolTableRecord
100
AcDbLayerTableRecord
  2
01_1_DEFAULT_DATUMS
 70
0
 62
7
  6
CONTINUOUS
370
-3
390
F
  0
LAYER
  5
1FF
100
AcDbSymbolTableRecord
100
AcDbLayerTableRecord
  2
01_PLANES
 70
0
 62
7
  6
CONTINUOUS
370
-3
390
F
  0
LAYER
  5
200
100
AcDbSymbolTableRecord
100
AcDbLayerTableRecord
  2
02_COORD_SYS
 70
0
 62
7
  6
CONTINUOUS
370
-3
390
F
  0
LAYER
  5
201
100
AcDbSymbolTableRecord
100
AcDbLayerTableRecord
  2
03_AXES
 70
0
 62
7
  6
CONTINUOUS
370
-3
390
F
  0
LAYER
  5
202
100
AcDbSymbolTableRecord
100
AcDbLayerTableRecord
  2
04_POINTS
 70
0
 62
7
  6
CONTINUOUS
370
-3
390
F
  0
LAYER
  5
203
100
AcDbSymbolTableRecord
100
AcDbLayerTableRecord
  2
05_CURVES
 70
0
 62
7
  6
CONTINUOUS
370
-3
390
F
  0
LAYER
  5
204
100
AcDbSymbolTableRecord
100
AcDbLayerTableRecord
  2
06_SURFS
 70
0
 62
7
  6
CONTINUOUS
370
-3
390
F
  0
LAYER
  5
205
100
AcDbSymbolTableRecord
100
AcDbLayerTableRecord
  2
07_COSMETICS
 70
0
 62
7
  6
CONTINUOUS
370
-3
390
F
  0
LAYER
  5
206
100
AcDbSymbolTableRecord
100
AcDbLayerTableRecord
  2
10_NOTES
 70
0
 62
7
  6
CONTINUOUS
370
-3
390
F
  0
LAYER
  5
207
100
AcDbSymbolTableRecord
100
AcDbLayerTableRecord
  2
11_NOTES_PUB
 70
0
 62
7
  6
CONTINUOUS
370
-3
390
F
  0
LAYER
  5
208
100
AcDbSymbolTableRecord
100
AcDbLayerTableRecord
  2
13_REF_GTOL
 70
0
 62
7
  6
CONTINUOUS
370
-3
390
F
  0
LAYER
  5
209
100
AcDbSymbolTableRecord
100
AcDbLayerTableRecord
  2
16_MISC
 70
0
 62
7
  6
CONTINUOUS
370
-3
390
F
  0
LAYER
  5
20A
100
AcDbSymbolTableRecord
100
AcDbLayerTableRecord
  2
17_NO_PRINT
 70
0
 62
7
  6
CONTINUOUS
370
-3
390
F
  0
LAYER
  5
20B
100
AcDbSymbolTableRecord
100
AcDbLayerTableRecord
  2
18_DATUM_CAMS_JOINTS
 70
0
 62
7
  6
CONTINUOUS
370
-3
390
F
  0
LAYER
  5
20C
100
AcDbSymbolTableRecord
100
AcDbLayerTableRecord
  2
19_DATUM_FUNCTIONAL
 70
0
 62
7
  6
CONTINUOUS
370
-3
390
F
  0
LAYER
  5
20D
100
AcDbSymbolTableRecord
100
AcDbLayerTableRecord
  2
20_DATUM_KINEMATIC_SCHEME
 70
0
 62
7
  6
CONTINUOUS
370
-3
390
F
  0
ENDTAB
  0
TABLE
  2
STYLE
  5
3
100
AcDbSymbolTable
 70
1
  0
STYLE
  5
11
100
AcDbSymbolTableRecord
100
AcDbTextStyleTableRecord
  2
STANDARD
 70
0
 40
0.0
 41
1.0
 50
0.0
 71
0
 42
0.2
  3
ARIAL.TTF
  4

  0
STYLE
  5
20E
100
AcDbSymbolTableRecord
100
AcDbTextStyleTableRecord
  2
TEXTSTYLE_1
 70
0
 40
0.0
 41
0.8
 50
0.0
 71
0
 42
0.2
  3
gdt
  4

  0
ENDTAB
  0
TABLE
  2
VIEW
  5
6
100
AcDbSymbolTable
 70
0
  0
ENDTAB
  0
TABLE
  2
UCS
  5
7
100
AcDbSymbolTable
 70
0
  0
ENDTAB
  0
TABLE
  2
APPID
  5
9
100
AcDbSymbolTable
 70
1
  0
APPID
  5
20F
100
AcDbSymbolTableRecord
100
AcDbRegAppTableRecord
  2
ACAD
 70
0
  0
ENDTAB
  0
TABLE
  2
BLOCK_RECORD
  5
1
100
AcDbSymbolTable
 70
0
  0
BLOCK_RECORD
  5
210
100
AcDbSymbolTableRecord
100
AcDbBlockTableRecord
  2
*Model_Space
  0
BLOCK_RECORD
  5
211
100
AcDbSymbolTableRecord
100
AcDbBlockTableRecord
  2
*Paper_Space
  0
BLOCK_RECORD
  5
212
100
AcDbSymbolTableRecord
100
AcDbBlockTableRecord
  2
_FILLED
  0
ENDTAB
  0
TABLE
  2
DIMSTYLE
  5
A
100
AcDbSymbolTable
 70
1
100
AcDbDimStyleTable
 71
0
  0
DIMSTYLE
105
213
100
AcDbSymbolTableRecord
100
AcDbDimStyleTableRecord
  2
STANDARD
 70
0
  3

  4

 40
1.0
 41
0.9483721396
 42
1.0
 43
0.38
 44
1.0
 45
0.0
 46
0.0
 47
0.01
 48
0.01
140
1.3277209955
141
0.09
142
0.0
143
25.4
144
1.0
145
0.0
146
1.0
147
0.625
 71
1
 72
0
 73
0
 74
0
 75
0
 76
0
 77
1
 78
8
 79
2
170
0
171
1
172
0
173
0
174
0
175
0
176
0
177
0
178
0
270
2
179
2
271
2
272
2
273
2
274
2
275
0
280
0
281
0
282
0
283
1
284
8
285
0
286
0
287
3
288
0
340
11
278
46
341
212
342
212
343
212
344
212
  0
ENDTAB
  0
ENDSEC
  0
SECTION
  2
BLOCKS
  0
BLOCK
  5
20
100
AcDbEntity
  8
0
100
AcDbBlockBegin
  2
*Model_Space
 70
0
 10
0.0
 20
0.0
 30
0.0
  3
*Model_Space
  1

  0
ENDBLK
  5
21
100
AcDbEntity
  8
0
100
AcDbBlockEnd
  0
BLOCK
  5
1C
100
AcDbEntity
  8
0
100
AcDbBlockBegin
  2
*Paper_Space
 70
0
 10
0.0
 20
0.0
 30
0.0
  3
*Paper_Space
  1

  0
ENDBLK
  5
1D
100
AcDbEntity
  8
0
100
AcDbBlockEnd
  0
BLOCK
  5
214
100
AcDbEntity
  8
0
100
AcDbBlockBegin
  2
_FILLED
 70
64
 10
0.0
 20
0.0
  3
_FILLED
  1

  0
SOLID
  5
215
100
AcDbEntity
  8
0
  6
BYBLOCK
 62
0
100
AcDbTrace
 10
0.0
 20
0.0
 11
-1.0
 21
0.25
 12
-1.0
 22
-0.25
 13
-1.0
 23
-0.25
  0
ENDBLK
  5
216
100
AcDbEntity
  8
0
  6
BYBLOCK
 62
0
100
AcDbBlockEnd
  0
ENDSEC
  0
SECTION
  2
ENTITIES
  0
LINE
  5
217
100
AcDbEntity
  8
0
100
AcDbLine
 62
7
  6
BYLAYER
 10
9.1984723155
 20
67.0328056365
 11
9.1984723155
 21
79.8910857015
  0
LINE
  5
218
100
AcDbEntity
  8
0
100
AcDbLine
 62
7
  6
BYLAYER
 10
12.5462754525
 20
62.3665749578
 11
12.5462754525
 21
75.2248550227
  0
LINE
  5
219
100
AcDbEntity
  8
0
100
AcDbLine
 62
7
  6
BYLAYER
 10
36.8471916908
 20
77.8485701468
 11
30.9558061088
 21
74.4471973986
  0
LINE
  5
21A
100
AcDbEntity
  8
0
100
AcDbLine
 62
7
  6
BYLAYER
 10
17.8255412215
 20
64.8367431357
 11
20.5196068413
 21
66.3921533619
  0
LINE
  5
21B
100
AcDbEntity
  8
0
100
AcDbLine
 62
7
  6
BYLAYER
 10
32.334685441
 20
72.6141875381
 11
24.7014995183
 21
68.2071918971
  0
LINE
  5
21C
100
AcDbEntity
  8
0
100
AcDbLine
 62
7
  6
BYLAYER
 10
26.1383464798
 20
65.7185137723
 11
33.7715324025
 21
70.1255094133
  0
LINE
  5
21D
100
AcDbEntity
  8
0
100
AcDbLine
 62
7
  6
BYLAYER
 10
27.3476319599
 20
75.4933990714
 11
27.3476319599
 21
76.5303305879
  0
LINE
  5
21E
100
AcDbEntity
  8
0
100
AcDbLine
 62
7
  6
BYLAYER
 10
21.6355241646
 20
58.2376197111
 11
24.3295897844
 21
59.7930299373
  0
LINE
  5
21F
100
AcDbEntity
  8
0
100
AcDbLine
 62
7
  6
BYLAYER
 10
24.7014995183
 20
55.3489118321
 11
12.546275473
 21
62.366574946
  0
LINE
  5
220
100
AcDbEntity
  8
0
100
AcDbLine
 62
7
  6
BYLAYER
 10
24.7014995183
 20
55.3489118321
 11
26.1383464798
 21
56.1784995305
  0
LINE
  5
221
100
AcDbEntity
  8
0
100
AcDbLine
 62
7
  6
BYLAYER
 10
51.0052042732
 20
41.8219372784
 11
26.1383464798
 21
56.1784995305
  0
LINE
  5
222
100
AcDbEntity
  8
0
100
AcDbLine
 62
7
  6
BYLAYER
 10
26.1383464798
 20
65.7185137723
 11
24.7014995183
 21
68.2071918971
  0
LINE
  5
223
100
AcDbEntity
  8
0
100
AcDbLine
 62
7
  6
BYLAYER
 10
26.1383464798
 20
65.7185137723
 11
51.7291396882
 21
50.9439966689
  0
LINE
  5
224
100
AcDbEntity
  8
0
100
AcDbLine
 62
7
  6
BYLAYER
 10
12.546275473
 20
75.2248550109
 11
24.7014995183
 21
68.2071918971
  0
LINE
  5
225
100
AcDbEntity
  8
0
100
AcDbLine
 62
7
  6
BYLAYER
 10
32.334685441
 20
72.6141875381
 11
33.7715324025
 21
70.1255094133
  0
LWPOLYLINE
  5
226
100
AcDbEntity
  8
0
100
AcDbPolyline
 62
7
  6
BYLAYER
 90
4
 70
0
 10
35.3640344689
 20
69.2060987165
 10
34.8996794612
 20
70.2792586651
 10
33.097591613
 20
72.7159530845
 10
30.9558061088
 20
74.4471973986
  0
LINE
  5
227
100
AcDbEntity
  8
0
100
AcDbLine
 62
7
  6
BYLAYER
 10
46.3062042732
 20
38.9654325781
 11
46.3062042732
 21
33.7806422293
  0
LINE
  5
228
100
AcDbEntity
  8
0
100
AcDbLine
 62
7
  6
BYLAYER
 10
64.6637420748
 20
52.2902873298
 11
33.7715324025
 21
70.1255094133
  0
LINE
  5
229
100
AcDbEntity
  8
0
100
AcDbLine
 62
7
  6
BYLAYER
 10
51.0052042732
 20
49.0239258547
 11
51.0052042732
 21
39.483911613
  0
LINE
  5
22A
100
AcDbEntity
  8
0
100
AcDbLine
 62
7
  6
BYLAYER
 10
26.4496100867
 20
76.0118605125
 11
32.334685441
 21
72.6141875381
  0
LINE
  5
22B
100
AcDbEntity
  8
0
100
AcDbLine
 62
7
  6
BYLAYER
 10
30.9558061088
 20
74.4471973986
 11
27.3476319599
 21
76.5303305879
  0
LINE
  5
22C
100
AcDbEntity
  8
0
100
AcDbLine
 62
7
  6
BYLAYER
 10
36.8471916908
 20
77.8485701468
 11
28.7106691769
 21
84.5573163756
  0
LINE
  5
22D
100
AcDbEntity
  8
0
100
AcDbLine
 62
7
  6
BYLAYER
 10
55.8312042732
 20
49.0239258547
 11
55.8312042732
 21
49.6461006966
  0
LWPOLYLINE
  5
22E
100
AcDbEntity
  8
0
100
AcDbPolyline
 62
7
  6
BYLAYER
 90
4
 70
0
 10
48.7686269374
 20
43.1131965932
 10
47.4950291646
 20
42.0628487639
 10
46.3549118556
 20
39.6069365124
 10
46.3068797978
 20
38.9654325073
  0
LINE
  5
22F
100
AcDbEntity
  8
0
100
AcDbLine
 62
7
  6
BYLAYER
 10
62.1812042732
 20
49.0239258547
 11
62.1812042732
 21
49.6461006966
  0
LINE
  5
230
100
AcDbEntity
  8
0
100
AcDbLine
 62
7
  6
BYLAYER
 10
67.0072042732
 20
49.0239258547
 11
67.0072042732
 21
39.483911613
  0
LWPOLYLINE
  5
231
100
AcDbEntity
  8
0
100
AcDbPolyline
 62
7
  6
BYLAYER
 90
4
 70
0
 10
71.7055287486
 20
38.9654326489
 10
71.2686844479
 20
40.8733932852
 10
69.3961299207
 20
43.1819687128
 10
67.0072042732
 20
44.5576461768
  0
LINE
  5
232
100
AcDbEntity
  8
0
100
AcDbLine
 62
7
  6
BYLAYER
 10
71.7062042732
 20
38.9654325781
 11
71.7062042732
 21
33.7806422293
  0
SPLINE
  5
233
100
AcDbEntity
  8
0
100
AcDbSpline
 62
7
  6
BYLAYER
 70
0
 71
3
 72
13
 73
9
 74
0
 42
0.0000001
 43
0.0000001
 44
0.0000000001
 40
0.0
 40
0.0
 40
0.0
 40
0.0
 40
0.1080927512
 40
0.2182325138
 40
0.332257436
 40
0.4516874387
 40
0.7106272218
 40
1.0
 40
1.0
 40
1.0
 40
1.0
 10
17.8255552321
 20
64.8367188669
 30
0.0
 10
17.7630894982
 20
64.8006565415
 30
0.0
 10
17.6429604247
 20
64.7168833226
 30
0.0
 10
17.4843217796
 20
64.5606523456
 30
0.0
 10
17.3478090051
 20
64.3753232448
 30
0.0
 10
17.1930347142
 20
64.0843559416
 30
0.0
 10
17.0655526509
 20
63.6526451027
 30
0.0
 10
17.0364446403
 20
63.2856712163
 30
0.0
 10
17.0364446403
 20
63.0925786981
 30
0.0
  0
SPLINE
  5
234
100
AcDbEntity
  8
0
100
AcDbSpline
 62
7
  6
BYLAYER
 70
0
 71
3
 72
25
 73
21
 74
0
 42
0.0000001
 43
0.0000001
 44
0.0000000001
 40
0.0
 40
0.0
 40
0.0
 40
0.0
 40
0.0623789378
 40
0.1287247824
 40
0.198314429
 40
0.2702917604
 40
0.3436683684
 40
0.4174016445
 40
0.4904272669
 40
0.5617144726
 40
0.6303118698
 40
0.6953992928
 40
0.7563467142
 40
0.8127838925
 40
0.8646841948
 40
0.9124584951
 40
0.9351027549
 40
0.9571077944
 40
0.9786680949
 40
1.0
 40
1.0
 40
1.0
 40
1.0
 10
67.9864977826
 20
28.5959846469
 30
0.0
 10
67.5302423715
 20
28.3325670349
 30
0.0
 10
66.5523853292
 20
27.8504638773
 30
0.0
 10
64.975045577
 20
27.2788800856
 30
0.0
 10
63.2704220697
 20
26.8462039629
 30
0.0
 10
61.4751348754
 20
26.5614901358
 30
0.0
 10
59.6271313876
 20
26.4308603917
 30
0.0
 10
57.7658865965
 20
26.4570320254
 30
0.0
 10
55.9310884188
 20
26.6394983682
 30
0.0
 10
54.1618607653
 20
26.9743614682
 30
0.0
 10
52.4957878613
 20
27.4545307787
 30
0.0
 10
50.9680801581
 20
28.0700011577
 30
0.0
 10
49.6108405572
 20
28.8081666861
 30
0.0
 10
48.4524429161
 20
29.6546730318
 30
0.0
 10
47.5177160215
 20
30.5931352101
 30
0.0
 10
46.9326004053
 20
31.4541641758
 30
0.0
 10
46.6065341927
 20
32.1650575036
 30
0.0
 10
46.4336995657
 20
32.6983190612
 30
0.0
 10
46.3294498365
 20
33.2377983175
 30
0.0
 10
46.3062478764
 20
33.6004780311
 30
0.0
 10
46.306247464
 20
33.7806421973
 30
0.0
  0
SPLINE
  5
235
100
AcDbEntity
  8
0
100
AcDbSpline
 62
7
  6
BYLAYER
 70
0
 71
3
 72
24
 73
20
 74
0
 42
0.0000001
 43
0.0000001
 44
0.0000000001
 40
0.0
 40
0.0
 40
0.0
 40
0.0
 40
0.0623812357
 40
0.1287364239
 40
0.1983291316
 40
0.2703121174
 40
0.3436935293
 40
0.4174306314
 40
0.4904609397
 40
0.561753346
 40
0.6303565395
 40
0.6954496405
 40
0.7564018056
 40
0.81284321
 40
0.8647478407
 40
0.9125263675
 40
0.9571036552
 40
0.978665928
 40
1.0
 40
1.0
 40
1.0
 40
1.0
 10
64.6637891841
 20
36.217577336
 30
0.0
 10
64.3763595211
 20
36.0516307333
 30
0.0
 10
63.7602939669
 20
35.7479162124
 30
0.0
 10
62.7665800125
 20
35.3877966763
 30
0.0
 10
61.6926511618
 20
35.115222931
 30
0.0
 10
60.5616380943
 20
34.9358412109
 30
0.0
 10
59.3974078258
 20
34.8535410147
 30
0.0
 10
58.2248420072
 20
34.870046807
 30
0.0
 10
57.0689348717
 20
34.9849999515
 30
0.0
 10
55.9543222125
 20
35.1959504933
 30
0.0
 10
54.9046843451
 20
35.4984401766
 30
0.0
 10
53.9422178345
 20
35.8861717228
 30
0.0
 10
53.0871541075
 20
36.3512550953
 30
0.0
 10
52.3573849224
 20
36.8844802367
 30
0.0
 10
51.7684472699
 20
37.4759876738
 30
0.0
 10
51.3338958876
 20
38.1147636442
 30
0.0
 10
51.1082231371
 20
38.6839113861
 30
0.0
 10
51.0199086302
 20
39.1419006855
 30
0.0
 10
51.0052487028
 20
39.3704053738
 30
0.0
 10
51.0052371258
 20
39.4839117053
 30
0.0
  0
SPLINE
  5
236
100
AcDbEntity
  8
0
100
AcDbSpline
 62
7
  6
BYLAYER
 70
0
 71
3
 72
20
 73
16
 74
0
 42
0.0000001
 43
0.0000001
 44
0.0000000001
 40
0.0
 40
0.0
 40
0.0
 40
0.0
 40
0.0428301303
 40
0.0874299331
 40
0.1352306241
 40
0.1871624674
 40
0.2436311466
 40
0.3046120757
 40
0.3697374538
 40
0.4383724707
 40
0.5826244142
 40
0.729691062
 40
0.8711895582
 40
0.9376088332
 40
1.0
 40
1.0
 40
1.0
 40
1.0
 10
62.1811858422
 20
49.6461006972
 30
0.0
 10
62.1811704335
 20
49.7364805199
 30
0.0
 10
62.1570482476
 20
49.9217659882
 30
0.0
 10
62.0507270154
 20
50.1892688845
 30
0.0
 10
61.8783594241
 20
50.4429185216
 30
0.0
 10
61.6446293633
 20
50.6775776046
 30
0.0
 10
61.3550526027
 20
50.8891860541
 30
0.0
 10
61.0157668232
 20
51.0737539586
 30
0.0
 10
60.6338228918
 20
51.2275999697
 30
0.0
 10
60.0693197833
 20
51.3902732877
 30
0.0
 10
59.3127268889
 20
51.4963722076
 30
0.0
 10
58.3959582107
 20
51.4710714149
 30
0.0
 10
57.6567313741
 20
51.3232553438
 30
0.0
 10
57.1196677505
 20
51.1285879148
 30
0.0
 10
56.8751497005
 20
51.0080934868
 30
0.0
 10
56.7611308959
 20
50.9422650922
 30
0.0
  0
SPLINE
  5
237
100
AcDbEntity
  8
0
100
AcDbSpline
 62
7
  6
BYLAYER
 70
0
 71
3
 72
11
 73
7
 74
0
 42
0.0000001
 43
0.0000001
 44
0.0000000001
 40
0.0
 40
0.0
 40
0.0
 40
0.0
 40
0.2666481234
 40
0.519664474
 40
0.7624979158
 40
1.0
 40
1.0
 40
1.0
 40
1.0
 10
51.7291396882
 20
50.9439966689
 30
0.0
 10
51.6138896284
 20
50.7984016655
 30
0.0
 10
51.4079405204
 20
50.4990231528
 30
0.0
 10
51.1769158227
 20
50.018357937
 30
0.0
 10
51.0366852419
 20
49.5246070149
 30
0.0
 10
51.0052208411
 20
49.1893183329
 30
0.0
 10
51.0052367541
 20
49.0239259321
 30
0.0
  0
SPLINE
  5
238
100
AcDbEntity
  8
0
100
AcDbSpline
 62
7
  6
BYLAYER
 70
0
 71
3
 72
15
 73
11
 74
0
 42
0.0000001
 43
0.0000001
 44
0.0000000001
 40
0.0
 40
0.0
 40
0.0
 40
0.0
 40
0.1485552698
 40
0.2895102443
 40
0.4227336065
 40
0.5486407192
 40
0.6680011625
 40
0.7819397656
 40
0.8919883364
 40
1.0
 40
1.0
 40
1.0
 40
1.0
 10
12.5462081553
 20
84.5572775246
 30
0.0
 10
12.2884755366
 20
84.408476416
 30
0.0
 10
11.7978814104
 20
84.0974564776
 30
0.0
 10
11.1270748038
 20
83.5783562236
 30
0.0
 10
10.5468896994
 20
83.0229795775
 30
0.0
 10
10.0631408988
 20
82.4365790449
 30
0.0
 10
9.6806473048
 20
81.8243400398
 30
0.0
 10
9.4038167362
 20
81.1917189713
 30
0.0
 10
9.2360450259
 20
80.5451954051
 30
0.0
 10
9.1985154339
 20
80.1074674866
 30
0.0
 10
9.1985154334
 20
79.8910857015
 30
0.0
  0
SPLINE
  5
239
100
AcDbEntity
  8
0
100
AcDbSpline
 62
7
  6
BYLAYER
 70
0
 71
3
 72
17
 73
13
 74
0
 42
0.0000001
 43
0.0000001
 44
0.0000000001
 40
0.0
 40
0.0
 40
0.0
 40
0.0
 40
0.0558415896
 40
0.1142241426
 40
0.2373703933
 40
0.3669996141
 40
0.5000005109
 40
0.6330013366
 40
0.7626303499
 40
0.8857762737
 40
0.9441586288
 40
1.0
 40
1.0
 40
1.0
 40
1.0
 10
28.7106691769
 20
84.5573163756
 30
0.0
 10
28.4399651213
 20
84.7136038992
 30
0.0
 10
27.8721118772
 20
85.0093183721
 30
0.0
 10
26.6489654938
 20
85.530924877
 30
0.0
 10
24.9769456068
 20
86.0390152361
 30
0.0
 10
22.8443028912
 20
86.4075213749
 30
0.0
 10
20.6284251958
 20
86.53189199
 30
0.0
 10
18.4125492431
 20
86.4075108933
 30
0.0
 10
16.2799116928
 20
86.0389946501
 30
0.0
 10
14.6078984894
 20
85.5308962138
 30
0.0
 10
13.3847591929
 20
85.0092836656
 30
0.0
 10
12.8169100249
 20
84.7135663889
 30
0.0
 10
12.5462081553
 20
84.5572775246
 30
0.0
  0
SPLINE
  5
23A
100
AcDbEntity
  8
0
100
AcDbSpline
 62
7
  6
BYLAYER
 70
0
 71
3
 72
23
 73
19
 74
0
 42
0.0000001
 43
0.0000001
 44
0.0000000001
 40
0.0
 40
0.0
 40
0.0
 40
0.0
 40
0.0642793887
 40
0.1321349331
 40
0.2027801868
 40
0.275378566
 40
0.3489680815
 40
0.422557292
 40
0.4951542111
 40
0.565804863
 40
0.6336409133
 40
0.69792709
 40
0.758114103
 40
0.8139010512
 40
0.8653126886
 40
0.9127846059
 40
0.9572249029
 40
1.0
 40
1.0
 40
1.0
 40
1.0
 10
26.4496100867
 20
76.0118605125
 30
0.0
 10
26.1198867665
 20
75.8469384036
 30
0.0
 10
25.4215946681
 20
75.5479175018
 30
0.0
 10
24.309986096
 20
75.200265964
 30
0.0
 10
23.1243615519
 20
74.9469445546
 30
0.0
 10
21.888834796
 20
74.7928623045
 30
0.0
 10
20.6279510832
 20
74.7412146182
 30
0.0
 10
19.3670873442
 20
74.7929844156
 30
0.0
 10
18.1315318622
 20
74.9470999192
 30
0.0
 10
16.9460594004
 20
75.2005250409
 30
0.0
 10
15.8343772917
 20
75.5482499512
 30
0.0
 10
14.8185725442
 20
75.9834194175
 30
0.0
 10
13.9187131753
 20
76.49768894
 30
0.0
 10
13.152577299
 20
77.0815941496
 30
0.0
 10
12.5356326436
 20
77.7248071306
 30
0.0
 10
12.0813617177
 20
78.4164738154
 30
0.0
 10
11.8019105917
 20
79.1435180384
 30
0.0
 10
11.7385059394
 20
79.645752847
 30
0.0
 10
11.7384862189
 20
79.8910857438
 30
0.0
  0
SPLINE
  5
23B
100
AcDbEntity
  8
0
100
AcDbSpline
 62
7
  6
BYLAYER
 70
0
 71
3
 72
14
 73
10
 74
0
 42
0.0000001
 43
0.0000001
 44
0.0000000001
 40
0.0
 40
0.0
 40
0.0
 40
0.0
 40
0.1101655061
 40
0.2220570993
 40
0.3372669218
 40
0.4571378634
 40
0.5827556874
 40
0.7149251261
 40
1.0
 40
1.0
 40
1.0
 40
1.0
 10
29.5184469644
 20
79.891085705
 30
0.0
 10
29.5184360077
 20
79.7381637376
 30
0.0
 10
29.4944096445
 20
79.4294074294
 30
0.0
 10
29.3868579404
 20
78.9720453276
 30
0.0
 10
29.2089665595
 20
78.5227189975
 30
0.0
 10
28.9626821677
 20
78.0851889343
 30
0.0
 10
28.6500709298
 20
77.6627831906
 30
0.0
 10
28.1358222237
 20
77.1103575269
 30
0.0
 10
27.6769255754
 20
76.7497766189
 30
0.0
 10
27.3476319599
 20
76.5303305879
 30
0.0
  0
SPLINE
  5
23C
100
AcDbEntity
  8
0
100
AcDbSpline
 62
7
  6
BYLAYER
 70
0
 71
3
 72
15
 73
11
 74
0
 42
0.0000001
 43
0.0000001
 44
0.0000000001
 40
0.0
 40
0.0
 40
0.0
 40
0.0
 40
0.1485555334
 40
0.2895107144
 40
0.4227342069
 40
0.5486413619
 40
0.6680017541
 40
0.7819402176
 40
0.8919885811
 40
1.0
 40
1.0
 40
1.0
 40
1.0
 10
12.546275473
 20
62.366574946
 30
0.0
 10
12.2885379955
 20
62.5153763817
 30
0.0
 10
11.7979345162
 20
62.8263973477
 30
0.0
 10
11.1271147165
 20
63.3455004333
 30
0.0
 10
10.5469179295
 20
63.900880995
 30
0.0
 10
10.0631591972
 20
64.487286403
 30
0.0
 10
9.6806575946
 20
65.0995310835
 30
0.0
 10
9.4038211609
 20
65.7321584959
 30
0.0
 10
9.2360458357
 20
66.3786888644
 30
0.0
 10
9.1985154381
 20
66.8164215472
 30
0.0
 10
9.1985154334
 20
67.0328056366
 30
0.0
  0
SPLINE
  5
23D
100
AcDbEntity
  8
0
100
AcDbSpline
 62
7
  6
BYLAYER
 70
0
 71
3
 72
15
 73
11
 74
0
 42
0.0000001
 43
0.0000001
 44
0.0000000001
 40
0.0
 40
0.0
 40
0.0
 40
0.0
 40
0.1080114032
 40
0.218059741
 40
0.3320033963
 40
0.4513537743
 40
0.5772571051
 40
0.7104978997
 40
0.8514734068
 40
1.0
 40
1.0
 40
1.0
 40
1.0
 10
67.0071906139
 20
39.483911613
 30
0.0
 10
67.0071906174
 20
39.3324450274
 30
0.0
 10
66.9808297673
 20
39.0260489422
 30
0.0
 10
66.8635089645
 20
38.5734461263
 30
0.0
 10
66.6696146657
 20
38.1306667447
 30
0.0
 10
66.4019794381
 20
37.7020529331
 30
0.0
 10
66.0633058857
 20
37.2916007704
 30
0.0
 10
65.6571579687
 20
36.9027916976
 30
0.0
 10
65.1875538824
 20
36.5394517827
 30
0.0
 10
64.8441668349
 20
36.3217177996
 30
0.0
 10
64.6637891841
 20
36.217577336
 30
0.0
  0
SPLINE
  5
23E
100
AcDbEntity
  8
0
100
AcDbSpline
 62
7
  6
BYLAYER
 70
0
 71
3
 72
15
 73
11
 74
0
 42
0.0000001
 43
0.0000001
 44
0.0000000001
 40
0.0
 40
0.0
 40
0.0
 40
0.0
 40
0.1080111582
 40
0.2180592886
 40
0.3320028048
 40
0.451353132
 40
0.5772565046
 40
0.7104974287
 40
0.851473143
 40
1.0
 40
1.0
 40
1.0
 40
1.0
 10
67.0071906139
 20
49.0239258547
 30
0.0
 10
67.007190624
 20
49.1753940523
 30
0.0
 10
66.9808291929
 20
49.4817934702
 30
0.0
 10
66.8635058743
 20
49.9344010489
 30
0.0
 10
66.6696074607
 20
50.3771848665
 30
0.0
 10
66.4019666348
 20
50.8058026534
 30
0.0
 10
66.0632861302
 20
51.2162582247
 30
0.0
 10
65.6571300407
 20
51.6050700401
 30
0.0
 10
65.1875167195
 20
51.9684119342
 30
0.0
 10
64.8441231258
 20
52.1861466374
 30
0.0
 10
64.6637420748
 20
52.2902873298
 30
0.0
  0
SPLINE
  5
23F
100
AcDbEntity
  8
0
100
AcDbSpline
 62
7
  6
BYLAYER
 70
0
 71
3
 72
13
 73
9
 74
0
 42
0.0000001
 43
0.0000001
 44
0.0000000001
 40
0.0
 40
0.0
 40
0.0
 40
0.0
 40
0.2893485433
 40
0.5483242226
 40
0.6677501033
 40
0.7817642086
 40
0.8919052587
 40
1.0
 40
1.0
 40
1.0
 40
1.0
 10
56.7611308959
 20
50.9422650922
 30
0.0
 10
56.6217953028
 20
50.8618201302
 30
0.0
 10
56.3690958395
 20
50.6878977157
 30
0.0
 10
56.1106558507
 20
50.4160342137
 30
0.0
 10
55.9651265799
 20
50.1831151101
 30
0.0
 10
55.8882964765
 20
50.0073722507
 30
0.0
 10
55.8416558552
 20
49.8278029303
 30
0.0
 10
55.8312124569
 20
49.7062061733
 30
0.0
 10
55.8312227042
 20
49.6461006959
 30
0.0
  0
SPLINE
  5
240
100
AcDbEntity
  8
0
100
AcDbSpline
 62
7
  6
BYLAYER
 70
0
 71
3
 72
20
 73
16
 74
0
 42
0.0000001
 43
0.0000001
 44
0.0000000001
 40
0.0
 40
0.0
 40
0.0
 40
0.0
 40
0.0624000817
 40
0.128808552
 40
0.2703016673
 40
0.4173598387
 40
0.5616123323
 40
0.6302514659
 40
0.6953769248
 40
0.7563612015
 40
0.8128330365
 40
0.8647633693
 40
0.9125671334
 40
0.9571685044
 40
1.0
 40
1.0
 40
1.0
 40
1.0
 10
17.0364446403
 20
63.0925786981
 30
0.0
 10
17.0364446403
 20
62.9345669291
 30
0.0
 10
17.0579065445
 20
62.6081611304
 30
0.0
 10
17.1778901947
 20
61.9332528361
 30
0.0
 10
17.4677428093
 20
61.0763850095
 30
0.0
 10
17.991478634
 20
60.1084779523
 30
0.0
 10
18.5557267009
 20
59.3859070806
 30
0.0
 10
19.0634388387
 20
58.8967924719
 30
0.0
 10
19.4525491069
 20
58.5922181468
 30
0.0
 10
19.8479156549
 20
58.3503164481
 30
0.0
 10
20.2415832015
 20
58.1763160214
 30
0.0
 10
20.6257132406
 20
58.0742933949
 30
0.0
 10
20.9927383318
 20
58.0472539016
 30
0.0
 10
21.334535315
 20
58.0973379411
 30
0.0
 10
21.5415800031
 20
58.1834168146
 30
0.0
 10
21.635510154
 20
58.2376439798
 30
0.0
  0
SPLINE
  5
241
100
AcDbEntity
  8
0
100
AcDbSpline
 62
7
  6
BYLAYER
 70
0
 71
3
 72
15
 73
11
 74
0
 42
0.0000001
 43
0.0000001
 44
0.0000000001
 40
0.0
 40
0.0
 40
0.0
 40
0.0
 40
0.1080112682
 40
0.2180578121
 40
0.3319950326
 40
0.4513553079
 40
0.5772630734
 40
0.7104879025
 40
0.8514445261
 40
1.0
 40
1.0
 40
1.0
 40
1.0
 10
71.7061610825
 20
33.7806422613
 30
0.0
 10
71.7061616328
 20
33.5402187939
 30
0.0
 10
71.6644624485
 20
33.053859787
 30
0.0
 10
71.4780579357
 20
32.3355061113
 30
0.0
 10
71.1704657767
 20
31.6326032234
 30
0.0
 10
70.7454815149
 20
30.9523344584
 30
0.0
 10
70.2079790081
 20
30.3007747223
 30
0.0
 10
69.5633239838
 20
29.6836818883
 30
0.0
 10
68.8179755643
 20
29.1069007098
 30
0.0
 10
68.2728679213
 20
28.7613195366
 30
0.0
 10
67.9864977826
 20
28.5959846469
 30
0.0
  0
SPLINE
  5
242
100
AcDbEntity
  8
0
100
AcDbSpline
 62
7
  6
BYLAYER
 70
0
 71
3
 72
15
 73
11
 74
0
 42
0.0000001
 43
0.0000001
 44
0.0000000001
 40
0.0
 40
0.0
 40
0.0
 40
0.0
 40
0.1485265902
 40
0.2895021089
 40
0.4227429133
 40
0.5486462437
 40
0.6679966168
 40
0.7819402693
 40
0.8919886027
 40
1.0
 40
1.0
 40
1.0
 40
1.0
 10
64.6637891841
 20
45.7575915778
 30
0.0
 10
64.8441668311
 20
45.8617320392
 30
0.0
 10
65.1875538819
 20
46.0794660388
 30
0.0
 10
65.6571579917
 20
46.4428059641
 30
0.0
 10
66.0633059275
 20
46.8316150592
 30
0.0
 10
66.4019794803
 20
47.2420672297
 30
0.0
 10
66.6696146822
 20
47.6706810434
 30
0.0
 10
66.8635089704
 20
48.1134604089
 30
0.0
 10
66.9808297752
 20
48.5660632072
 30
0.0
 10
67.0071906037
 20
48.8724592776
 30
0.0
 10
67.0071906139
 20
49.0239258547
 30
0.0
  0
SPLINE
  5
243
100
AcDbEntity
  8
0
100
AcDbSpline
 62
7
  6
BYLAYER
 70
0
 71
3
 72
15
 73
11
 74
0
 42
0.0000001
 43
0.0000001
 44
0.0000000001
 40
0.0
 40
0.0
 40
0.0
 40
0.0
 40
0.1080094775
 40
0.218055576
 40
0.3319981884
 40
0.4513513928
 40
0.5772563467
 40
0.7104945654
 40
0.8514674335
 40
1.0
 40
1.0
 40
1.0
 40
1.0
 10
11.7384862189
 20
79.8910857438
 30
0.0
 10
11.738472691
 20
80.0593791571
 30
0.0
 10
11.7677610204
 20
80.3998154726
 30
0.0
 10
11.89812555
 20
80.9026962732
 30
0.0
 10
12.113550797
 20
81.3946791196
 30
0.0
 10
12.4109371869
 20
81.8709156649
 30
0.0
 10
12.7872376426
 20
82.3269804546
 30
0.0
 10
13.2385096196
 20
82.7589874279
 30
0.0
 10
13.7602891628
 20
83.1627054402
 30
0.0
 10
14.1418389351
 20
83.4046295862
 30
0.0
 10
14.3422668553
 20
83.5203460092
 30
0.0
  0
SPLINE
  5
244
100
AcDbEntity
  8
0
100
AcDbSpline
 62
7
  6
BYLAYER
 70
0
 71
3
 72
15
 73
11
 74
0
 42
0.0000001
 43
0.0000001
 44
0.0000000001
 40
0.0
 40
0.0
 40
0.0
 40
0.0
 40
0.1080114152
 40
0.2180597761
 40
0.3319982387
 40
0.4513586288
 40
0.5772657827
 40
0.7104892788
 40
0.8514444676
 40
1.0
 40
1.0
 40
1.0
 40
1.0
 10
9.1985154334
 20
79.8910857015
 30
0.0
 10
9.1985154329
 20
79.6747016196
 30
0.0
 10
9.2360458437
 20
79.2369689509
 30
0.0
 10
9.4038211434
 20
78.5904385914
 30
0.0
 10
9.6806575901
 20
77.9578111972
 30
0.0
 10
10.0631591607
 20
77.3455665081
 30
0.0
 10
10.5469178983
 20
76.7591611022
 30
0.0
 10
11.1271146895
 20
76.2037805165
 30
0.0
 10
11.7979345129
 20
75.6846774275
 30
0.0
 10
12.2885379973
 20
75.3736564456
 30
0.0
 10
12.546275473
 20
75.2248550109
 30
0.0
  0
SPLINE
  5
245
100
AcDbEntity
  8
0
100
AcDbSpline
 62
7
  6
BYLAYER
 70
0
 71
3
 72
20
 73
16
 74
0
 42
0.0000001
 43
0.0000001
 44
0.0000000001
 40
0.0
 40
0.0
 40
0.0
 40
0.0
 40
0.0623914265
 40
0.1288091637
 40
0.2703028988
 40
0.4173653089
 40
0.5616181183
 40
0.6302547837
 40
0.695381641
 40
0.7563640347
 40
0.8128331942
 40
0.8647656889
 40
0.9125671308
 40
0.9571679159
 40
1.0
 40
1.0
 40
1.0
 40
1.0
 10
61.2512776506
 20
47.7277614591
 30
0.0
 10
61.1372583767
 20
47.6619327936
 30
0.0
 10
60.8927430877
 20
47.5414388768
 30
0.0
 10
60.3556913791
 20
47.3467761512
 30
0.0
 10
59.616487916
 20
47.1989594791
 30
0.0
 10
58.6997369836
 20
47.1736497353
 30
0.0
 10
57.9431462087
 20
47.2797379583
 30
0.0
 10
57.3786336326
 20
47.4424095886
 30
0.0
 10
56.9966801769
 20
47.5962568982
 30
0.0
 10
56.6573827091
 20
47.7808191319
 30
0.0
 10
56.3678034332
 20
47.9924333111
 30
0.0
 10
56.1340639748
 20
48.2270880536
 30
0.0
 10
55.9616903349
 20
48.4807406839
 30
0.0
 10
55.8553684597
 20
48.7482510874
 30
0.0
 10
55.8312392095
 20
48.93354191
 30
0.0
 10
55.8312232262
 20
49.0239258513
 30
0.0
  0
SPLINE
  5
246
100
AcDbEntity
  8
0
100
AcDbSpline
 62
7
  6
BYLAYER
 70
0
 71
3
 72
13
 73
9
 74
0
 42
0.0000001
 43
0.0000001
 44
0.0000000001
 40
0.0
 40
0.0
 40
0.0
 40
0.0
 40
0.1080927512
 40
0.2182325138
 40
0.332257436
 40
0.4516874387
 40
0.7106272218
 40
1.0
 40
1.0
 40
1.0
 40
1.0
 10
21.635510154
 20
58.2376439798
 30
0.0
 10
21.697975888
 20
58.2737063053
 30
0.0
 10
21.8181049614
 20
58.3574795242
 30
0.0
 10
21.9767436066
 20
58.5137105011
 30
0.0
 10
22.113256381
 20
58.6990396019
 30
0.0
 10
22.268030672
 20
58.9900069051
 30
0.0
 10
22.3955127352
 20
59.421717744
 30
0.0
 10
22.4246207459
 20
59.7886916305
 30
0.0
 10
22.4246207459
 20
59.9817841486
 30
0.0
  0
SPLINE
  5
247
100
AcDbEntity
  8
0
100
AcDbSpline
 62
7
  6
BYLAYER
 70
0
 71
3
 72
13
 73
9
 74
0
 42
0.0000001
 43
0.0000001
 44
0.0000000001
 40
0.0
 40
0.0
 40
0.0
 40
0.0
 40
0.1080957155
 40
0.2182376517
 40
0.3322520747
 40
0.4516794805
 40
0.7106580829
 40
1.0
 40
1.0
 40
1.0
 40
1.0
 10
62.1811853202
 20
49.0239258581
 30
0.0
 10
62.1811959492
 20
48.9638198918
 30
0.0
 10
62.1707454992
 20
48.8422228143
 30
0.0
 10
62.1241098395
 20
48.6626517519
 30
0.0
 10
62.0472802594
 20
48.4869066629
 30
0.0
 10
61.9017461487
 20
48.2539877845
 30
0.0
 10
61.6433076499
 20
47.9821254859
 30
0.0
 10
61.3906099307
 20
47.8082045084
 30
0.0
 10
61.2512776506
 20
47.7277614591
 30
0.0
  0
SPLINE
  5
248
100
AcDbEntity
  8
0
100
AcDbSpline
 62
7
  6
BYLAYER
 70
0
 71
3
 72
24
 73
20
 74
0
 42
0.0000001
 43
0.0000001
 44
0.0000000001
 40
0.0
 40
0.0
 40
0.0
 40
0.0
 40
0.0213337548
 40
0.0428957077
 40
0.087472437
 40
0.1352507373
 40
0.1871554463
 40
0.2435970143
 40
0.3045491944
 40
0.3696420575
 40
0.438244756
 40
0.5095364607
 40
0.5825661408
 40
0.6563030359
 40
0.7296849058
 40
0.8016686953
 40
0.8712621872
 40
0.9376184489
 40
1.0
 40
1.0
 40
1.0
 40
1.0
 10
51.0052367541
 20
49.0239259321
 30
0.0
 10
51.0052476748
 20
48.910421283
 30
0.0
 10
51.0199045123
 20
48.6819196633
 30
0.0
 10
51.1082216451
 20
48.2239373095
 30
0.0
 10
51.3338849541
 20
47.6547929368
 30
0.0
 10
51.7684317325
 20
47.0160175716
 30
0.0
 10
52.3573680213
 20
46.424508764
 30
0.0
 10
53.0871368703
 20
45.8912807202
 30
0.0
 10
53.9421990829
 20
45.4261951675
 30
0.0
 10
54.9046608656
 20
45.0384619556
 30
0.0
 10
55.9542908054
 20
44.7359721188
 30
0.0
 10
57.0688934504
 20
44.5250206571
 30
0.0
 10
58.2247921967
 20
44.4100657164
 30
0.0
 10
59.3973559207
 20
44.393554547
 30
0.0
 10
60.561592291
 20
44.4758498547
 30
0.0
 10
61.6926166448
 20
44.6552304269
 30
0.0
 10
62.7665601438
 20
44.9278044978
 30
0.0
 10
63.7602852482
 20
45.2879274738
 30
0.0
 10
64.3763580541
 20
45.5916441281
 30
0.0
 10
64.6637891841
 20
45.7575915778
 30
0.0
  0
SPLINE
  5
249
100
AcDbEntity
  8
0
100
AcDbSpline
 62
7
  6
BYLAYER
 70
0
 71
3
 72
20
 73
16
 74
0
 42
0.0000001
 43
0.0000001
 44
0.0000000001
 40
0.0
 40
0.0
 40
0.0
 40
0.0
 40
0.0428301303
 40
0.0874299331
 40
0.1352306241
 40
0.1871624674
 40
0.2436311466
 40
0.3046120757
 40
0.3697374538
 40
0.4383724707
 40
0.5826244142
 40
0.729691062
 40
0.8711895582
 40
0.9376088332
 40
1.0
 40
1.0
 40
1.0
 40
1.0
 10
55.8312227042
 20
49.6461006959
 30
0.0
 10
55.831238113
 20
49.5557208732
 30
0.0
 10
55.8553602989
 20
49.3704354049
 30
0.0
 10
55.961681531
 20
49.1029325087
 30
0.0
 10
56.1340491223
 20
48.8492828715
 30
0.0
 10
56.3677791831
 20
48.6146237885
 30
0.0
 10
56.6573559437
 20
48.4030153391
 30
0.0
 10
56.9966417232
 20
48.2184474346
 30
0.0
 10
57.3785856547
 20
48.0646014234
 30
0.0
 10
57.9430887632
 20
47.9019281054
 30
0.0
 10
58.6996816576
 20
47.7958291855
 30
0.0
 10
59.6164503357
 20
47.8211299782
 30
0.0
 10
60.3556771723
 20
47.9689460493
 30
0.0
 10
60.8927407959
 20
48.1636134783
 30
0.0
 10
61.1372588459
 20
48.2841079063
 30
0.0
 10
61.2512776506
 20
48.349936301
 30
0.0
  0
SPLINE
  5
24A
100
AcDbEntity
  8
0
100
AcDbSpline
 62
7
  6
BYLAYER
 70
0
 71
3
 72
13
 73
9
 74
0
 42
0.0000001
 43
0.0000001
 44
0.0000000001
 40
0.0
 40
0.0
 40
0.0
 40
0.0
 40
0.2893485433
 40
0.5483242226
 40
0.6677501033
 40
0.7817642086
 40
0.8919052587
 40
1.0
 40
1.0
 40
1.0
 40
1.0
 10
61.2512776506
 20
48.349936301
 30
0.0
 10
61.3906132436
 20
48.4303812629
 30
0.0
 10
61.643312707
 20
48.6043036774
 30
0.0
 10
61.9017526957
 20
48.8761671794
 30
0.0
 10
62.0472819665
 20
49.109086283
 30
0.0
 10
62.1241120699
 20
49.2848291425
 30
0.0
 10
62.1707526912
 20
49.4643984629
 30
0.0
 10
62.1811960895
 20
49.5859952198
 30
0.0
 10
62.1811858422
 20
49.6461006972
 30
0.0
  0
SPLINE
  5
24B
100
AcDbEntity
  8
0
100
AcDbSpline
 62
7
  6
BYLAYER
 70
0
 71
3
 72
20
 73
16
 74
0
 42
0.0000001
 43
0.0000001
 44
0.0000000001
 40
0.0
 40
0.0
 40
0.0
 40
0.0
 40
0.0624000817
 40
0.128808552
 40
0.2703016673
 40
0.4173598387
 40
0.5616123323
 40
0.6302514659
 40
0.6953769248
 40
0.7563612015
 40
0.8128330365
 40
0.8647633693
 40
0.9125671334
 40
0.9571685044
 40
1.0
 40
1.0
 40
1.0
 40
1.0
 10
22.4246207459
 20
59.9817841486
 30
0.0
 10
22.4246207459
 20
60.1397959176
 30
0.0
 10
22.4031588416
 20
60.4662017163
 30
0.0
 10
22.2831751915
 20
61.1411100106
 30
0.0
 10
21.9933225769
 20
61.9979778372
 30
0.0
 10
21.4695867521
 20
62.9658848945
 30
0.0
 10
20.9053386852
 20
63.6884557661
 30
0.0
 10
20.3976265474
 20
64.1775703748
 30
0.0
 10
20.0085162792
 20
64.4821447
 30
0.0
 10
19.6131497312
 20
64.7240463987
 30
0.0
 10
19.2194821847
 20
64.8980468253
 30
0.0
 10
18.8353521455
 20
65.0000694519
 30
0.0
 10
18.4683270543
 20
65.0271089451
 30
0.0
 10
18.1265300712
 20
64.9770249056
 30
0.0
 10
17.919485383
 20
64.8909460321
 30
0.0
 10
17.8255552321
 20
64.8367188669
 30
0.0
  0
SPLINE
  5
24C
100
AcDbEntity
  8
0
100
AcDbSpline
 62
7
  6
BYLAYER
 70
0
 71
3
 72
15
 73
11
 74
0
 42
0.0000001
 43
0.0000001
 44
0.0000000001
 40
0.0
 40
0.0
 40
0.0
 40
0.0
 40
0.1485547616
 40
0.2895089279
 40
0.4227326735
 40
0.5486406941
 40
0.6680016123
 40
0.7819394995
 40
0.8919872148
 40
1.0
 40
1.0
 40
1.0
 40
1.0
 10
67.9864977826
 20
33.7807749957
 30
0.0
 10
68.2728665746
 20
33.9461091079
 30
0.0
 10
68.8179699769
 20
34.291684043
 30
0.0
 10
69.5633094022
 20
34.868461359
 30
0.0
 10
70.2079625275
 20
35.4855457122
 30
0.0
 10
70.7454651413
 20
36.1371046597
 30
0.0
 10
71.1704587131
 20
36.8173720152
 30
0.0
 10
71.4780513666
 20
37.5202808273
 30
0.0
 10
71.66446342
 20
38.2386403757
 30
0.0
 10
71.7061609998
 20
38.7250057828
 30
0.0
 10
71.7061607677
 20
38.9654326491
 30
0.0
  0
SPLINE
  5
24D
100
AcDbEntity
  8
0
100
AcDbSpline
 62
7
  6
BYLAYER
 70
0
 71
3
 72
20
 73
16
 74
0
 42
0.0000001
 43
0.0000001
 44
0.0000000001
 40
0.0
 40
0.0
 40
0.0
 40
0.0
 40
0.0428303784
 40
0.0874310399
 40
0.1352347468
 40
0.1871649371
 40
0.2436361971
 40
0.3046198124
 40
0.3697439858
 40
0.4383814853
 40
0.5826325242
 40
0.7296933355
 40
0.8711899199
 40
0.9375999277
 40
1.0
 40
1.0
 40
1.0
 40
1.0
 10
20.5196197925
 20
66.3921309305
 30
0.0
 10
20.6135465668
 20
66.4463582907
 30
0.0
 10
20.8205894718
 20
66.532428728
 30
0.0
 10
21.1623791159
 20
66.5825247586
 30
0.0
 10
21.5294026706
 20
66.5554812949
 30
0.0
 10
21.9135305906
 20
66.4534615228
 30
0.0
 10
22.3071979518
 20
66.2794686585
 30
0.0
 10
22.7025587321
 20
66.0375694595
 30
0.0
 10
23.0916632472
 20
65.7330029469
 30
0.0
 10
23.5993742064
 20
65.2439029948
 30
0.0
 10
24.1636241021
 20
64.5213345369
 30
0.0
 10
24.6873723465
 20
63.5534211955
 30
0.0
 10
24.9772378038
 20
62.6965366128
 30
0.0
 10
25.0972231417
 20
62.0216157123
 30
0.0
 10
25.1186863657
 20
61.6952061232
 30
0.0
 10
25.1186863657
 20
61.5371943749
 30
0.0
  0
SPLINE
  5
24E
100
AcDbEntity
  8
0
100
AcDbSpline
 62
7
  6
BYLAYER
 70
0
 71
3
 72
25
 73
21
 74
0
 42
0.0000001
 43
0.0000001
 44
0.0000000001
 40
0.0
 40
0.0
 40
0.0
 40
0.0
 40
0.062374572
 40
0.1287275186
 40
0.1983143438
 40
0.2702923247
 40
0.3436688691
 40
0.4174008415
 40
0.4904263199
 40
0.5617138287
 40
0.6303118322
 40
0.6953991453
 40
0.7563462849
 40
0.8127836501
 40
0.8646843739
 40
0.9124586546
 40
0.9351032506
 40
0.9571082603
 40
0.9786686892
 40
1.0
 40
1.0
 40
1.0
 40
1.0
 10
14.3422668553
 20
83.5203460092
 30
0.0
 10
14.6616230421
 20
83.704725289
 30
0.0
 10
15.3461485798
 20
84.0421786985
 30
0.0
 10
16.4502704282
 20
84.4423261806
 30
0.0
 10
17.6435404805
 20
84.7451852993
 30
0.0
 10
18.9002230677
 20
84.9445042498
 30
0.0
 10
20.1938222077
 20
85.0359390121
 30
0.0
 10
21.4966827003
 20
85.0175869337
 30
0.0
 10
22.7810334953
 20
84.889870122
 30
0.0
 10
24.019500594
 20
84.655488022
 30
0.0
 10
25.1857592691
 20
84.3193787728
 30
0.0
 10
26.2551483937
 20
83.8885321076
 30
0.0
 10
27.2052093971
 20
83.3718083819
 30
0.0
 10
28.0160890174
 20
82.7792578271
 30
0.0
 10
28.6704194294
 20
82.1223460192
 30
0.0
 10
29.0799719102
 20
81.5196064162
 30
0.0
 10
29.3082543551
 20
81.0219947574
 30
0.0
 10
29.4291970501
 20
80.6486952475
 30
0.0
 10
29.5021947505
 20
80.2710707339
 30
0.0
 10
29.5184560001
 20
80.0171970095
 30
0.0
 10
29.5184469644
 20
79.891085705
 30
0.0
  0
SPLINE
  5
24F
100
AcDbEntity
  8
0
100
AcDbSpline
 62
7
  6
BYLAYER
 70
0
 71
3
 72
25
 73
21
 74
0
 42
0.0000001
 43
0.0000001
 44
0.0000000001
 40
0.0
 40
0.0
 40
0.0
 40
0.0
 40
0.0213321853
 40
0.0428928125
 40
0.0648982161
 40
0.0875428505
 40
0.1353179544
 40
0.18721898
 40
0.243656617
 40
0.304604146
 40
0.369691267
 40
0.4382879298
 40
0.5095740505
 40
0.5825984546
 40
0.6563306685
 40
0.7297065997
 40
0.8016837498
 40
0.8712734933
 40
0.9376203391
 40
1.0
 40
1.0
 40
1.0
 40
1.0
 10
46.3062477787
 20
38.9654325071
 30
0.0
 10
46.3062479527
 20
38.7852659788
 30
0.0
 10
46.3294498045
 20
38.4225810333
 30
0.0
 10
46.4337040349
 20
37.8830941946
 30
0.0
 10
46.6065440959
 20
37.3498249974
 30
0.0
 10
46.9326182555
 20
36.6389209331
 30
0.0
 10
47.5177503325
 20
35.7778831819
 30
0.0
 10
48.452497948
 20
34.8394180619
 30
0.0
 10
49.6109107885
 20
33.9929142742
 30
0.0
 10
50.9681567216
 20
33.2547559825
 30
0.0
 10
52.4958599514
 20
32.6392958307
 30
0.0
 10
54.1619173517
 20
32.1591378573
 30
0.0
 10
55.9311206062
 20
31.8242846562
 30
0.0
 10
57.7658905037
 20
31.6418231387
 30
0.0
 10
59.6271101395
 20
31.6156504353
 30
0.0
 10
61.4750975945
 20
31.7462763505
 30
0.0
 10
63.27037865
 20
32.0309868209
 30
0.0
 10
64.9750111672
 20
32.4636590548
 30
0.0
 10
66.5523654921
 20
33.0352477114
 30
0.0
 10
67.5302370946
 20
33.5173543371
 30
0.0
 10
67.9864977826
 20
33.7807749957
 30
0.0
  0
SPLINE
  5
250
100
AcDbEntity
  8
0
100
AcDbSpline
 62
7
  6
BYLAYER
 70
0
 71
3
 72
13
 73
9
 74
0
 42
0.0000001
 43
0.0000001
 44
0.0000000001
 40
0.0
 40
0.0
 40
0.0
 40
0.0
 40
0.2893769363
 40
0.5483140187
 40
0.6677434494
 40
0.7817683954
 40
0.8919072965
 40
1.0
 40
1.0
 40
1.0
 40
1.0
 10
25.1186863657
 20
61.5371943749
 30
0.0
 10
25.1186863657
 20
61.3440989675
 30
0.0
 10
25.0895782143
 20
60.9771241265
 30
0.0
 10
24.9620966805
 20
60.5454115116
 30
0.0
 10
24.8073191643
 20
60.2544486123
 30
0.0
 10
24.6708118868
 20
60.0691163684
 30
0.0
 10
24.5121699977
 20
59.9128888968
 30
0.0
 10
24.3920419592
 20
59.8291157693
 30
0.0
 10
24.3295768332
 20
59.7930523687
 30
0.0
  0
ELLIPSE
  5
251
100
AcDbEntity
  8
0
100
AcDbEllipse
 62
7
  6
BYLAYER
 10
36.8471916908
 20
71.4194301143
 30
0.0
 11
-3.0376188318
 21
7.3211934008
 31
0.0
 40
0.46929334
 41
3.6673594868
 42
5.5592180927
  0
ENDSEC
  0
SECTION
  2
OBJECTS
  0
DICTIONARY
  5
C
100
AcDbDictionary
280
0
281
1
  3
ACAD_GROUP
350
D
  3
ACAD_MLINESTYLE
350
17
  3
ACAD_LAYOUT
350
1A
  3
ACAD_PLOTSETTINGS
350
19
  3
ACAD_PLOTSTYLENAME
350
E
  0
DICTIONARY
  5
D
102
{ACAD_REACTORS
330
C
102
}
100
AcDbDictionary
280
0
281
1
  0
ACDBDICTIONARYWDFLT
  5
E
102
{ACAD_REACTORS
330
C
102
}
100
AcDbDictionary
281
1
  3
Normal
350
F
100
AcDbDictionaryWithDefault
340
F
  0
DICTIONARY
  5
17
102
{ACAD_REACTORS
330
C
102
}
100
AcDbDictionary
280
0
281
1
  3
Standard
350
18
  0
DICTIONARY
  5
19
102
{ACAD_REACTORS
330
C
102
}
100
AcDbDictionary
281
1
  0
DICTIONARY
  5
1A
102
{ACAD_REACTORS
330
C
102
}
100
AcDbDictionary
281
1
  3
Model
350
252
  3
Layout1
350
253
  0
ACDBPLACEHOLDER
  5
F
102
{ACAD_REACTORS
330
E
102
}
  0
MLINESTYLE
  5
18
102
{ACAD_REACTORS
330
17
102
}
100
AcDbMlineStyle
  2
STANDARD
 70
0
  3

 62
256
 51
90.0
 52
90.0
 71
2
 49
0.5
 62
256
  6
BYLAYER
 49
-0.5
 62
256
  6
BYLAYER
  0
LAYOUT
  5
252
102
{ACAD_REACTORS
330
1A
102
}
100
AcDbPlotSettings
  1

  2
none_device
  4

  6

 40
0.0
 41
0.0
 42
0.0
 43
0.0
 44
210.0
 45
297.0
 46
0.0
 47
0.0
 48
0.0
 49
0.0
140
0.0
141
0.0
142
1.0
143
1.0
 70
1024
 72
1
 73
0
 74
0
  7

 75
0
147
1.0
148
0.0
149
0.0
100
AcDbLayout
  1
Model
 70
0
 71
0
 10
0.0
 20
0.0
 11
210.0
 21
297.0
 12
0.0
 22
0.0
 32
0.0
 14
0.0
 24
0.0
 34
0.0
 15
0.0
 25
0.0
 35
0.0
146
0.0
 13
0.0
 23
0.0
 33
0.0
 16
1.0
 26
0.0
 36
0.0
 17
0.0
 27
1.0
 37
0.0
 76
0
330
210
345
0
346
0
  0
LAYOUT
  5
253
102
{ACAD_REACTORS
330
1A
102
}
100
AcDbPlotSettings
  1

  2
none_device
  4

  6

 40
0.0
 41
0.0
 42
0.0
 43
0.0
 44
210.0
 45
297.0
 46
0.0
 47
0.0
 48
0.0
 49
0.0
140
0.0
141
0.0
142
1.0
143
1.0
 70
0
 72
1
 73
0
 74
0
  7

 75
0
147
1.0
148
0.0
149
0.0
100
AcDbLayout
  1
Layout1
 70
0
 71
1
 10
0.0
 20
0.0
 11
210.0
 21
297.0
 12
0.0
 22
0.0
 32
0.0
 14
0.0
 24
0.0
 34
0.0
 15
0.0
 25
0.0
 35
0.0
146
0.0
 13
0.0
 23
0.0
 33
0.0
 16
1.0
 26
0.0
 36
0.0
 17
0.0
 27
1.0
 37
0.0
 76
0
330
211
345
0
346
0
  0
ENDSEC
  0
EOF
