999
DXF file: C:\Users\sesa63760\Dev\_Creo\CAD\MCADID0002478_3D-CAD\drw0001_1.dxf
999
Pro/ENGINEER 2019471 by Parametric Technology Corporation
  0
SECTION
  2
HEADER
  9
$ACADVER
  1
AC1024
  9
$DWGCODEPAGE
  3
ANSI_1252
  9
$EXTMAX
 10
73.1020996998
 20
103.3872552898
 30
0.0
  9
$EXTMIN
 10
0.0
 20
0.0
 30
0.0
  9
$LIMMIN
 10
0.0
 20
0.0
  9
$LIMMAX
 10
73.1020996998
 20
103.3872552898
  9
$VIEWCTR
 10
36.5510498499
 20
51.6936276449
  9
$VIEWSIZE
 40
103.3872552898
  9
$CLAYER
  8
0
  9
$LTSCALE
 40
6.7393173819
  9
$CELTYPE
  6
BYLAYER
  9
$DIMSCALE
 40
1.0
  9
$DIMASZ
 40
0.8702630917
  9
$DIMEXO
 40
1.0
  9
$DIMDLI
 40
4.6562556456
  9
$DIMEXE
 40
1.0
  9
$DIMCEN
 40
1.1027973898
  9
$DIMLFAC
 40
1.0
  9
$DIMBLK
  1
_FILLED
  9
$DIMALT
 70
0
  9
$DIMALTF
 40
0.0393700787
  9
$DIMTXT
 40
1.2183683283
  9
$DIMTOL
 70
1
  9
$DIMLIM
 70
0
  9
$DIMTFAC
 40
1.0
  9
$DIMTP
 40
0.01
  9
$DIMTM
 40
0.01
  9
$DIMGAP
 40
0.625
  9
$DIMDSEP
 70
46
  9
$AUNITS
 70
0
  9
$PDMODE
 70
3
  9
$PDSIZE
 40
0.3125
  9
$HANDSEED
  5
2F5
  9
$TILEMODE
 70
1
  9
$MEASUREMENT
 70
1
  9
$INSUNITS
 70
4
  0
ENDSEC
  0
SECTION
  2
CLASSES
  0
CLASS
  1
ACDBDICTIONARYWDFLT
  2
AcDbDictionaryWithDefault
  3
AutoCAD 2000
 90
0
 91
1
280
0
281
0
  0
CLASS
  1
ACDBPLACEHOLDER
  2
AcDbPlaceHolder
  3
AutoCAD 2000
 90
0
 91
1
280
0
281
0
  0
CLASS
  1
LAYOUT
  2
AcDbLayout
  3
AutoCAD 2000
 90
0
 91
0
280
0
281
0
  0
ENDSEC
  0
SECTION
  2
TABLES
  0
TABLE
  2
VPORT
  5
8
100
AcDbSymbolTable
 70
2
  0
VPORT
  5
1F4
100
AcDbSymbolTableRecord
100
AcDbViewportTableRecord
  2
*ACTIVE
 70
0
 10
0.0
 20
0.0
 11
1.0
 21
1.0
 12
36.5510498499
 22
51.6936276449
 13
0.0
 23
0.0
 14
1.0
 24
1.0
 15
0.0
 25
0.0
 16
0.0
 26
0.0
 36
1.0
 17
0.0
 27
0.0
 37
0.0
 40
103.3872552898
 41
0.7070707071
 42
50.0
 43
0.0
 44
0.0
 50
0.0
 51
0.0
 71
0
 72
100
 73
1
 74
1
 75
0
 76
0
 77
0
 78
0
  0
ENDTAB
  0
TABLE
  2
LTYPE
  5
5
100
AcDbSymbolTable
 70
6
  0
LTYPE
  5
14
100
AcDbSymbolTableRecord
100
AcDbLinetypeTableRecord
  2
BYBLOCK
 70
0
  3

 72
65
 73
0
 40
0.0
  0
LTYPE
  5
15
100
AcDbSymbolTableRecord
100
AcDbLinetypeTableRecord
  2
BYLAYER
 70
0
  3

 72
65
 73
0
 40
0.0
  0
LTYPE
  5
16
100
AcDbSymbolTableRecord
100
AcDbLinetypeTableRecord
  2
CONTINUOUS
 70
64
  3
Solid line
 72
65
 73
0
 40
0.0
  0
LTYPE
  5
1F5
100
AcDbSymbolTableRecord
100
AcDbLinetypeTableRecord
  2
CENTER
 70
64
  3
____ _ ____ _ ____ _ ____ _ ____ _ ____ _ ____
 72
65
 73
4
 40
0.6
 49
0.375
 74
0
 49
-0.075
 74
0
 49
0.075
 74
0
 49
-0.075
 74
0
  0
LTYPE
  5
1F6
100
AcDbSymbolTableRecord
100
AcDbLinetypeTableRecord
  2
HIDDEN
 70
64
  3
- - - - - - - - - - - - - - - - - - - -
 72
65
 73
2
 40
0.2
 49
0.1
 74
0
 49
-0.1
 74
0
  0
LTYPE
  5
1F7
100
AcDbSymbolTableRecord
100
AcDbLinetypeTableRecord
  2
PHANTOM
 70
64
  3
_____ _ _ _____ _ _ _____ _ _ _____
 72
65
 73
6
 40
0.8
 49
0.45
 74
0
 49
-0.05
 74
0
 49
0.1
 74
0
 49
-0.05
 74
0
 49
0.1
 74
0
 49
-0.05
 74
0
  0
LTYPE
  5
1F8
100
AcDbSymbolTableRecord
100
AcDbLinetypeTableRecord
  2
DOT
 70
64
  3
. . . . . . . . . . . . . . . . . . . .
 72
65
 73
2
 40
0.2
 49
0.1
 74
0
 49
-0.1
 74
0
  0
LTYPE
  5
1F9
100
AcDbSymbolTableRecord
100
AcDbLinetypeTableRecord
  2
DASHED
 70
64
  3
- - - - - - - - - - - - - - - - - - - -
 72
65
 73
2
 40
0.2
 49
0.1
 74
0
 49
-0.1
 74
0
  0
ENDTAB
  0
TABLE
  2
LAYER
  5
2
100
AcDbSymbolTable
 70
36
  0
LAYER
  5
10
100
AcDbSymbolTableRecord
100
AcDbLayerTableRecord
  2
0
 70
0
 62
7
  6
CONTINUOUS
370
-3
390
F
  0
LAYER
  5
1FA
100
AcDbSymbolTableRecord
100
AcDbLayerTableRecord
  2
DEFAULT_1
 70
0
 62
7
  6
CENTER
370
-3
390
F
  0
LAYER
  5
1FB
100
AcDbSymbolTableRecord
100
AcDbLayerTableRecord
  2
DEFAULT_2
 70
0
 62
7
  6
HIDDEN
370
-3
390
F
  0
LAYER
  5
1FC
100
AcDbSymbolTableRecord
100
AcDbLayerTableRecord
  2
DEFAULT_3
 70
0
 62
7
  6
PHANTOM
370
-3
390
F
  0
LAYER
  5
1FD
100
AcDbSymbolTableRecord
100
AcDbLayerTableRecord
  2
00_COMPONENTS
 70
0
 62
7
  6
CONTINUOUS
370
-3
390
F
  0
LAYER
  5
1FE
100
AcDbSymbolTableRecord
100
AcDbLayerTableRecord
  2
01_1_DEFAULT_DATUMS
 70
0
 62
7
  6
CONTINUOUS
370
-3
390
F
  0
LAYER
  5
1FF
100
AcDbSymbolTableRecord
100
AcDbLayerTableRecord
  2
01_PLANES
 70
0
 62
7
  6
CONTINUOUS
370
-3
390
F
  0
LAYER
  5
200
100
AcDbSymbolTableRecord
100
AcDbLayerTableRecord
  2
02_COORD_SYS
 70
0
 62
7
  6
CONTINUOUS
370
-3
390
F
  0
LAYER
  5
201
100
AcDbSymbolTableRecord
100
AcDbLayerTableRecord
  2
03_AXES
 70
0
 62
7
  6
CONTINUOUS
370
-3
390
F
  0
LAYER
  5
202
100
AcDbSymbolTableRecord
100
AcDbLayerTableRecord
  2
04_POINTS
 70
0
 62
7
  6
CONTINUOUS
370
-3
390
F
  0
LAYER
  5
203
100
AcDbSymbolTableRecord
100
AcDbLayerTableRecord
  2
05_CURVES
 70
0
 62
7
  6
CONTINUOUS
370
-3
390
F
  0
LAYER
  5
204
100
AcDbSymbolTableRecord
100
AcDbLayerTableRecord
  2
06_SURFS
 70
0
 62
7
  6
CONTINUOUS
370
-3
390
F
  0
LAYER
  5
205
100
AcDbSymbolTableRecord
100
AcDbLayerTableRecord
  2
07_COSMETICS
 70
0
 62
7
  6
CONTINUOUS
370
-3
390
F
  0
LAYER
  5
206
100
AcDbSymbolTableRecord
100
AcDbLayerTableRecord
  2
10_NOTES
 70
0
 62
7
  6
CONTINUOUS
370
-3
390
F
  0
LAYER
  5
207
100
AcDbSymbolTableRecord
100
AcDbLayerTableRecord
  2
11_NOTES_PUB
 70
0
 62
7
  6
CONTINUOUS
370
-3
390
F
  0
LAYER
  5
208
100
AcDbSymbolTableRecord
100
AcDbLayerTableRecord
  2
13_REF_GTOL
 70
0
 62
7
  6
CONTINUOUS
370
-3
390
F
  0
LAYER
  5
209
100
AcDbSymbolTableRecord
100
AcDbLayerTableRecord
  2
16_MISC
 70
0
 62
7
  6
CONTINUOUS
370
-3
390
F
  0
LAYER
  5
20A
100
AcDbSymbolTableRecord
100
AcDbLayerTableRecord
  2
17_NO_PRINT
 70
0
 62
7
  6
CONTINUOUS
370
-3
390
F
  0
LAYER
  5
20B
100
AcDbSymbolTableRecord
100
AcDbLayerTableRecord
  2
18_DATUM_CAMS_JOINTS
 70
0
 62
7
  6
CONTINUOUS
370
-3
390
F
  0
LAYER
  5
20C
100
AcDbSymbolTableRecord
100
AcDbLayerTableRecord
  2
19_DATUM_FUNCTIONAL
 70
0
 62
7
  6
CONTINUOUS
370
-3
390
F
  0
LAYER
  5
20D
100
AcDbSymbolTableRecord
100
AcDbLayerTableRecord
  2
20_DATUM_KINEMATIC_SCHEME
 70
0
 62
7
  6
CONTINUOUS
370
-3
390
F
  0
ENDTAB
  0
TABLE
  2
STYLE
  5
3
100
AcDbSymbolTable
 70
1
  0
STYLE
  5
11
100
AcDbSymbolTableRecord
100
AcDbTextStyleTableRecord
  2
STANDARD
 70
0
 40
0.0
 41
1.0
 50
0.0
 71
0
 42
0.2
  3
ARIAL.TTF
  4

  0
STYLE
  5
20E
100
AcDbSymbolTableRecord
100
AcDbTextStyleTableRecord
  2
TEXTSTYLE_1
 70
0
 40
0.0
 41
0.8
 50
0.0
 71
0
 42
0.2
  3
gdt
  4

  0
ENDTAB
  0
TABLE
  2
VIEW
  5
6
100
AcDbSymbolTable
 70
0
  0
ENDTAB
  0
TABLE
  2
UCS
  5
7
100
AcDbSymbolTable
 70
0
  0
ENDTAB
  0
TABLE
  2
APPID
  5
9
100
AcDbSymbolTable
 70
1
  0
APPID
  5
20F
100
AcDbSymbolTableRecord
100
AcDbRegAppTableRecord
  2
ACAD
 70
0
  0
ENDTAB
  0
TABLE
  2
BLOCK_RECORD
  5
1
100
AcDbSymbolTable
 70
0
  0
BLOCK_RECORD
  5
210
100
AcDbSymbolTableRecord
100
AcDbBlockTableRecord
  2
*Model_Space
  0
BLOCK_RECORD
  5
211
100
AcDbSymbolTableRecord
100
AcDbBlockTableRecord
  2
*Paper_Space
  0
BLOCK_RECORD
  5
212
100
AcDbSymbolTableRecord
100
AcDbBlockTableRecord
  2
_FILLED
  0
ENDTAB
  0
TABLE
  2
DIMSTYLE
  5
A
100
AcDbSymbolTable
 70
1
100
AcDbDimStyleTable
 71
0
  0
DIMSTYLE
105
213
100
AcDbSymbolTableRecord
100
AcDbDimStyleTableRecord
  2
STANDARD
 70
0
  3

  4

 40
1.0
 41
0.8702630917
 42
1.0
 43
0.38
 44
1.0
 45
0.0
 46
0.0
 47
0.01
 48
0.01
140
1.2183683283
141
0.09
142
0.0
143
25.4
144
1.0
145
0.0
146
1.0
147
0.625
 71
1
 72
0
 73
0
 74
0
 75
0
 76
0
 77
1
 78
8
 79
2
170
0
171
1
172
0
173
0
174
0
175
0
176
0
177
0
178
0
270
2
179
2
271
2
272
2
273
2
274
2
275
0
280
0
281
0
282
0
283
1
284
8
285
0
286
0
287
3
288
0
340
11
278
46
341
212
342
212
343
212
344
212
  0
ENDTAB
  0
ENDSEC
  0
SECTION
  2
BLOCKS
  0
BLOCK
  5
20
100
AcDbEntity
  8
0
100
AcDbBlockBegin
  2
*Model_Space
 70
0
 10
0.0
 20
0.0
 30
0.0
  3
*Model_Space
  1

  0
ENDBLK
  5
21
100
AcDbEntity
  8
0
100
AcDbBlockEnd
  0
BLOCK
  5
1C
100
AcDbEntity
  8
0
100
AcDbBlockBegin
  2
*Paper_Space
 70
0
 10
0.0
 20
0.0
 30
0.0
  3
*Paper_Space
  1

  0
ENDBLK
  5
1D
100
AcDbEntity
  8
0
100
AcDbBlockEnd
  0
BLOCK
  5
214
100
AcDbEntity
  8
0
100
AcDbBlockBegin
  2
_FILLED
 70
64
 10
0.0
 20
0.0
  3
_FILLED
  1

  0
SOLID
  5
215
100
AcDbEntity
  8
0
  6
BYBLOCK
 62
0
100
AcDbTrace
 10
0.0
 20
0.0
 11
-1.0
 21
0.25
 12
-1.0
 22
-0.25
 13
-1.0
 23
-0.25
  0
ENDBLK
  5
216
100
AcDbEntity
  8
0
  6
BYBLOCK
 62
0
100
AcDbBlockEnd
  0
ENDSEC
  0
SECTION
  2
ENTITIES
  0
LINE
  5
217
100
AcDbEntity
  8
0
100
AcDbLine
 62
7
  6
BYLAYER
 10
8.4806846248
 20
56.2213811256
 11
8.4806846248
 21
67.213136665
  0
LINE
  5
218
100
AcDbEntity
  8
0
100
AcDbLine
 62
7
  6
BYLAYER
 10
9.7916113533
 20
49.7874962428
 11
9.7916113533
 21
65.7151721942
  0
LINE
  5
219
100
AcDbEntity
  8
0
100
AcDbLine
 62
7
  6
BYLAYER
 10
9.2697812061
 20
68.9573011026
 11
10.1498424941
 21
69.4654013287
  0
LINE
  5
21A
100
AcDbEntity
  8
0
100
AcDbLine
 62
7
  6
BYLAYER
 10
10.2188111518
 20
69.4966299755
 11
14.4730474289
 21
71.952799774
  0
LINE
  5
21B
100
AcDbEntity
  8
0
100
AcDbLine
 62
7
  6
BYLAYER
 10
10.736298869
 20
68.9802825213
 11
11.2751119929
 21
69.2913645665
  0
LINE
  5
21C
100
AcDbEntity
  8
0
100
AcDbLine
 62
7
  6
BYLAYER
 10
11.6956252146
 20
69.0693257986
 11
16.3653389555
 21
71.7653701907
  0
LINE
  5
21D
100
AcDbEntity
  8
0
100
AcDbLine
 62
7
  6
BYLAYER
 10
11.4905344324
 20
63.1380579977
 11
11.4905344324
 21
62.5158831558
  0
LINE
  5
21E
100
AcDbEntity
  8
0
100
AcDbLine
 62
7
  6
BYLAYER
 10
11.4905344324
 20
46.5882072044
 11
11.4905344324
 21
45.9660323625
  0
LINE
  5
21F
100
AcDbEntity
  8
0
100
AcDbLine
 62
7
  6
BYLAYER
 10
12.2344906822
 20
44.9290922117
 11
12.2344906822
 21
45.5512670535
  0
LINE
  5
220
100
AcDbEntity
  8
0
100
AcDbLine
 62
7
  6
BYLAYER
 10
12.2344906822
 20
61.478943005
 11
12.2344906822
 21
62.1011178468
  0
LINE
  5
221
100
AcDbEntity
  8
0
100
AcDbLine
 62
7
  6
BYLAYER
 10
8.9497135763
 20
63.8705955854
 11
9.3089223256
 21
64.0779836155
  0
LINE
  5
222
100
AcDbEntity
  8
0
100
AcDbLine
 62
7
  6
BYLAYER
 10
10.3753351797
 20
65.9979581174
 11
9.7916113533
 21
65.7151721942
  0
LINE
  5
223
100
AcDbEntity
  8
0
100
AcDbLine
 62
7
  6
BYLAYER
 10
15.6469588453
 20
66.1451758007
 11
12.2344757428
 21
64.1749895233
  0
LINE
  5
224
100
AcDbEntity
  8
0
100
AcDbLine
 62
7
  6
BYLAYER
 10
20.996812631
 20
69.0914481097
 11
31.3432065602
 21
75.0649057731
  0
LINE
  5
225
100
AcDbEntity
  8
0
100
AcDbLine
 62
7
  6
BYLAYER
 10
22.1127268015
 20
68.447189338
 11
33.24819803
 21
74.8762182732
  0
LINE
  5
226
100
AcDbEntity
  8
0
100
AcDbLine
 62
7
  6
BYLAYER
 10
15.826608086
 20
60.0272548139
 11
15.826608086
 21
59.405079972
  0
LINE
  5
227
100
AcDbEntity
  8
0
100
AcDbLine
 62
7
  6
BYLAYER
 10
15.826608086
 20
43.4774040206
 11
15.826608086
 21
42.8552291787
  0
LINE
  5
228
100
AcDbEntity
  8
0
100
AcDbLine
 62
7
  6
BYLAYER
 10
8.949715771
 20
58.7379162719
 11
9.3089245203
 21
58.9453043021
  0
LINE
  5
229
100
AcDbEntity
  8
0
100
AcDbLine
 62
7
  6
BYLAYER
 10
9.4577156913
 20
58.4446264821
 11
9.7916113533
 21
58.6374000817
  0
LINE
  5
22A
100
AcDbEntity
  8
0
100
AcDbLine
 62
7
  6
BYLAYER
 10
19.4187105344
 20
42.8552378131
 11
19.4187105344
 21
43.4774126549
  0
LINE
  5
22B
100
AcDbEntity
  8
0
100
AcDbLine
 62
7
  6
BYLAYER
 10
19.4187105344
 20
59.4050886064
 11
19.4187105344
 21
60.0272634482
  0
LINE
  5
22C
100
AcDbEntity
  8
0
100
AcDbLine
 62
7
  6
BYLAYER
 10
20.1371056
 20
63.5528470095
 11
20.1371056
 21
62.9306721677
  0
LINE
  5
22D
100
AcDbEntity
  8
0
100
AcDbLine
 62
7
  6
BYLAYER
 10
20.137128033
 20
60.4420395085
 11
20.137128033
 21
59.8198646667
  0
LINE
  5
22E
100
AcDbEntity
  8
0
100
AcDbLine
 62
7
  6
BYLAYER
 10
20.137128033
 20
43.8921887153
 11
20.137128033
 21
43.2700138734
  0
LINE
  5
22F
100
AcDbEntity
  8
0
100
AcDbLine
 62
7
  6
BYLAYER
 10
20.1371056
 20
63.5528470095
 11
17.4430399802
 21
61.9974367833
  0
LINE
  5
230
100
AcDbEntity
  8
0
100
AcDbLine
 62
7
  6
BYLAYER
 10
20.1371056
 20
62.9306721677
 11
17.9818669018
 21
61.6863519527
  0
LINE
  5
231
100
AcDbEntity
  8
0
100
AcDbLine
 62
7
  6
BYLAYER
 10
15.8266080701
 20
42.8552291879
 11
12.2344906981
 21
44.9290922025
  0
LINE
  5
232
100
AcDbEntity
  8
0
100
AcDbLine
 62
7
  6
BYLAYER
 10
12.2344906981
 20
45.5512670444
 11
15.8266080701
 21
43.4774040297
  0
LINE
  5
233
100
AcDbEntity
  8
0
100
AcDbLine
 62
7
  6
BYLAYER
 10
13.8189685312
 20
47.0164988976
 11
9.7916113533
 21
49.7874962428
  0
LINE
  5
234
100
AcDbEntity
  8
0
100
AcDbLine
 62
7
  6
BYLAYER
 10
22.4990187683
 20
34.1766780668
 11
22.4990187683
 21
38.7392935737
  0
LINE
  5
235
100
AcDbEntity
  8
0
100
AcDbLine
 62
7
  6
BYLAYER
 10
19.4187105502
 20
60.0272634574
 11
20.137128033
 21
60.4420395085
  0
LINE
  5
236
100
AcDbEntity
  8
0
100
AcDbLine
 62
7
  6
BYLAYER
 10
20.137128033
 20
59.8198646667
 11
19.4187105502
 21
59.4050886155
  0
LINE
  5
237
100
AcDbEntity
  8
0
100
AcDbLine
 62
7
  6
BYLAYER
 10
20.137128033
 20
43.8921887153
 11
17.4430399802
 21
45.44758599
  0
LINE
  5
238
100
AcDbEntity
  8
0
100
AcDbLine
 62
7
  6
BYLAYER
 10
23.7690187718
 20
38.7392935735
 11
23.7690187718
 21
39.3614684154
  0
LINE
  5
239
100
AcDbEntity
  8
0
100
AcDbLine
 62
7
  6
BYLAYER
 10
25.9378307135
 20
41.9502753464
 11
13.8189685312
 21
47.0164988976
  0
LINE
  5
23A
100
AcDbEntity
  8
0
100
AcDbLine
 62
7
  6
BYLAYER
 10
39.6755653253
 20
35.1005415864
 11
50.6521429448
 21
28.7633549094
  0
LINE
  5
23B
100
AcDbEntity
  8
0
100
AcDbLine
 62
7
  6
BYLAYER
 10
39.0918414989
 20
35.3101905327
 11
35.2004689659
 21
37.9876245129
  0
LINE
  5
23C
100
AcDbEntity
  8
0
100
AcDbLine
 62
7
  6
BYLAYER
 10
27.5790187683
 20
39.3614684156
 11
27.5790187683
 21
39.382207577
  0
LINE
  5
23D
100
AcDbEntity
  8
0
100
AcDbLine
 62
7
  6
BYLAYER
 10
43.6653385008
 20
68.8620154776
 11
45.4613822473
 21
69.8989556284
  0
LINE
  5
23E
100
AcDbEntity
  8
0
100
AcDbLine
 62
7
  6
BYLAYER
 10
12.6150383623
 20
47.8448553493
 11
12.2344757428
 21
47.62513873
  0
LINE
  5
23F
100
AcDbEntity
  8
0
100
AcDbLine
 62
7
  6
BYLAYER
 10
49.4127113915
 20
67.6177062921
 11
47.6166676449
 21
66.5807661413
  0
LINE
  5
240
100
AcDbEntity
  8
0
100
AcDbLine
 62
7
  6
BYLAYER
 10
39.6755653253
 20
40.7777668047
 11
33.1448108072
 21
45.2712106768
  0
LINE
  5
241
100
AcDbEntity
  8
0
100
AcDbLine
 62
7
  6
BYLAYER
 10
32.5610869808
 20
44.9884247536
 11
17.9438477365
 21
58.9923643648
  0
LINE
  5
242
100
AcDbEntity
  8
0
100
AcDbLine
 62
7
  6
BYLAYER
 10
18.669999304
 20
59.138698428
 11
33.1448108072
 21
45.2712106768
  0
LINE
  5
243
100
AcDbEntity
  8
0
100
AcDbLine
 62
7
  6
BYLAYER
 10
30.1190187683
 20
39.3614684156
 11
30.1190187683
 21
39.382207577
  0
LINE
  5
244
100
AcDbEntity
  8
0
100
AcDbLine
 62
7
  6
BYLAYER
 10
32.1143960273
 20
36.4925716376
 11
32.1143960273
 21
37.1147464795
  0
LINE
  5
245
100
AcDbEntity
  8
0
100
AcDbLine
 62
7
  6
BYLAYER
 10
17.4430399802
 20
45.44758599
 11
17.4971793012
 21
45.4788431549
  0
LINE
  5
246
100
AcDbEntity
  8
0
100
AcDbLine
 62
7
  6
BYLAYER
 10
17.9818669018
 20
45.1365011594
 11
18.1222348288
 21
45.2175421361
  0
LINE
  5
247
100
AcDbEntity
  8
0
100
AcDbLine
 62
7
  6
BYLAYER
 10
29.8647780422
 20
51.8059618986
 11
27.655345434
 21
50.5303530018
  0
LINE
  5
248
100
AcDbEntity
  8
0
100
AcDbLine
 62
7
  6
BYLAYER
 10
15.8266080701
 20
59.4050799812
 11
12.2344906981
 21
61.4789429958
  0
LINE
  5
249
100
AcDbEntity
  8
0
100
AcDbLine
 62
7
  6
BYLAYER
 10
12.2344906981
 20
62.1011178377
 11
15.8266080701
 21
60.027254823
  0
LINE
  5
24A
100
AcDbEntity
  8
0
100
AcDbLine
 62
7
  6
BYLAYER
 10
9.7916113533
 20
65.7151721942
 11
12.1349494932
 21
64.1028533762
  0
LINE
  5
24B
100
AcDbEntity
  8
0
100
AcDbLine
 62
7
  6
BYLAYER
 10
12.664223598
 20
64.4231030822
 11
10.3753351797
 21
65.9979581174
  0
LINE
  5
24C
100
AcDbEntity
  8
0
100
AcDbLine
 62
7
  6
BYLAYER
 10
35.1990187683
 20
34.1766780668
 11
35.1990187683
 21
37.9869219623
  0
LINE
  5
24D
100
AcDbEntity
  8
0
100
AcDbLine
 62
7
  6
BYLAYER
 10
19.4187105502
 20
43.4774126641
 11
20.137128033
 21
43.8921887153
  0
LINE
  5
24E
100
AcDbEntity
  8
0
100
AcDbLine
 62
7
  6
BYLAYER
 10
20.137128033
 20
43.2700138734
 11
19.4187105502
 21
42.8552378222
  0
LINE
  5
24F
100
AcDbEntity
  8
0
100
AcDbLine
 62
7
  6
BYLAYER
 10
17.4430399802
 20
61.9974367833
 11
20.137128033
 21
60.4420395085
  0
LINE
  5
250
100
AcDbEntity
  8
0
100
AcDbLine
 62
7
  6
BYLAYER
 10
39.0918414989
 20
35.3101905327
 11
39.0918414989
 21
39.8728060396
  0
LINE
  5
251
100
AcDbEntity
  8
0
100
AcDbLine
 62
7
  6
BYLAYER
 10
39.6755653253
 20
34.9708016141
 11
39.6755653253
 21
40.7777668047
  0
LINE
  5
252
100
AcDbEntity
  8
0
100
AcDbLine
 62
7
  6
BYLAYER
 10
35.1989617146
 20
34.1766780521
 11
35.0330151593
 21
33.3438857467
  0
LINE
  5
253
100
AcDbEntity
  8
0
100
AcDbLine
 62
7
  6
BYLAYER
 10
33.0397638281
 20
46.3066923781
 11
32.4309006158
 21
45.9551671368
  0
LINE
  5
254
100
AcDbEntity
  8
0
100
AcDbLine
 62
7
  6
BYLAYER
 10
10.736298869
 20
68.9802825213
 11
15.6469588453
 21
66.1451758007
  0
LINE
  5
255
100
AcDbEntity
  8
0
100
AcDbLine
 62
7
  6
BYLAYER
 10
20.1371056
 20
63.5528470095
 11
51.0906167535
 21
45.6822333
  0
LINE
  5
256
100
AcDbEntity
  8
0
100
AcDbLine
 62
7
  6
BYLAYER
 10
51.6294298774
 20
45.9933153452
 11
11.2751119929
 21
69.2913645665
  0
LINE
  5
257
100
AcDbEntity
  8
0
100
AcDbLine
 62
7
  6
BYLAYER
 10
51.2089165589
 20
46.2568324919
 11
11.6956253078
 21
69.0693257447
  0
LINE
  5
258
100
AcDbEntity
  8
0
100
AcDbLine
 62
7
  6
BYLAYER
 10
33.1448108072
 20
45.2712106768
 11
25.5836415289
 21
41.6081903612
  0
LINE
  5
259
100
AcDbEntity
  8
0
100
AcDbLine
 62
7
  6
BYLAYER
 10
61.2667137792
 20
58.7000866161
 11
50.1312425507
 21
52.2710576809
  0
LINE
  5
25A
100
AcDbEntity
  8
0
100
AcDbLine
 62
7
  6
BYLAYER
 10
16.3653389714
 20
71.7653701816
 11
22.1127268174
 21
68.4471893288
  0
LINE
  5
25B
100
AcDbEntity
  8
0
100
AcDbLine
 62
7
  6
BYLAYER
 10
50.1312425313
 20
52.2710576921
 11
55.8786303773
 21
48.9528768394
  0
LINE
  5
25C
100
AcDbEntity
  8
0
100
AcDbLine
 62
7
  6
BYLAYER
 10
49.4127113915
 20
65.5438432591
 11
49.4127113915
 21
67.6177062921
  0
LINE
  5
25D
100
AcDbEntity
  8
0
100
AcDbLine
 62
7
  6
BYLAYER
 10
55.5194652117
 20
49.1602362533
 11
63.960801832
 21
54.0338151321
  0
LINE
  5
25E
100
AcDbEntity
  8
0
100
AcDbLine
 62
7
  6
BYLAYER
 10
55.8786303967
 20
48.9528768281
 11
51.2089166558
 21
46.256832436
  0
LINE
  5
25F
100
AcDbEntity
  8
0
100
AcDbLine
 62
7
  6
BYLAYER
 10
51.6294298774
 20
45.9933153452
 11
51.0906167535
 21
45.6822333
  0
LINE
  5
260
100
AcDbEntity
  8
0
100
AcDbLine
 62
7
  6
BYLAYER
 10
32.114396047
 20
37.114746489
 11
39.6755653253
 21
40.7777668047
  0
LINE
  5
261
100
AcDbEntity
  8
0
100
AcDbLine
 62
7
  6
BYLAYER
 10
39.0918414989
 20
39.8728060396
 11
32.114396047
 21
36.4925716472
  0
LINE
  5
262
100
AcDbEntity
  8
0
100
AcDbLine
 62
7
  6
BYLAYER
 10
47.2057639262
 20
41.7839542843
 11
47.5649726755
 21
41.9913423145
  0
LINE
  5
263
100
AcDbEntity
  8
0
100
AcDbLine
 62
7
  6
BYLAYER
 10
65.7568455785
 20
50.6636834864
 11
63.960801832
 21
51.7006063686
  0
LINE
  5
264
100
AcDbEntity
  8
0
100
AcDbLine
 62
7
  6
BYLAYER
 10
53.3462309976
 20
30.3188318439
 11
53.3462309976
 21
41.3105873833
  0
LINE
  5
265
100
AcDbEntity
  8
0
100
AcDbLine
 62
7
  6
BYLAYER
 10
53.8850441216
 20
41.6216694285
 11
53.8850441216
 21
30.6299138892
  0
LINE
  5
266
100
AcDbEntity
  8
0
100
AcDbLine
 62
7
  6
BYLAYER
 10
53.9030047086
 20
30.5988054351
 11
53.9030047086
 21
41.5905609311
  0
LINE
  5
267
100
AcDbEntity
  8
0
100
AcDbLine
 62
7
  6
BYLAYER
 10
54.2622134579
 20
41.7979489638
 11
54.2622134579
 21
30.8061934652
  0
LINE
  5
268
100
AcDbEntity
  8
0
100
AcDbLine
 62
7
  6
BYLAYER
 10
63.960801832
 20
49.6267433356
 11
65.7568455785
 21
50.6636834864
  0
LINE
  5
269
100
AcDbEntity
  8
0
100
AcDbLine
 62
7
  6
BYLAYER
 10
48.0947813439
 20
40.2441711726
 11
48.4539900932
 21
40.4515592028
  0
LINE
  5
26A
100
AcDbEntity
  8
0
100
AcDbLine
 62
7
  6
BYLAYER
 10
65.7568455785
 20
48.48607154
 11
63.960801832
 21
47.4491313891
  0
LINE
  5
26B
100
AcDbEntity
  8
0
100
AcDbLine
 62
7
  6
BYLAYER
 10
53.3462309976
 20
41.3105873833
 11
53.8850441216
 21
41.6216694285
  0
LINE
  5
26C
100
AcDbEntity
  8
0
100
AcDbLine
 62
7
  6
BYLAYER
 10
54.258559681
 20
41.8373174501
 11
58.5547578625
 21
44.3177138207
  0
LINE
  5
26D
100
AcDbEntity
  8
0
100
AcDbLine
 62
7
  6
BYLAYER
 10
53.9030047086
 20
41.590560952
 11
54.2622134579
 21
41.7979489822
  0
LINE
  5
26E
100
AcDbEntity
  8
0
100
AcDbLine
 62
7
  6
BYLAYER
 10
35.0330151593
 20
33.3438857467
 11
39.0918414989
 21
35.3101905327
  0
LINE
  5
26F
100
AcDbEntity
  8
0
100
AcDbLine
 62
7
  6
BYLAYER
 10
39.6755653253
 20
34.9708016141
 11
34.3566940624
 21
32.3940660887
  0
LINE
  5
270
100
AcDbEntity
  8
0
100
AcDbLine
 62
7
  6
BYLAYER
 10
47.2057661209
 20
36.6512749709
 11
47.5649748702
 21
36.858663001
  0
LINE
  5
271
100
AcDbEntity
  8
0
100
AcDbLine
 62
7
  6
BYLAYER
 10
52.1587845475
 20
38.9243911873
 11
52.5179932968
 21
39.1317792174
  0
LINE
  5
272
100
AcDbEntity
  8
0
100
AcDbLine
 62
7
  6
BYLAYER
 10
47.7137660412
 20
36.357985181
 11
48.0729747905
 21
36.5653732112
  0
LINE
  5
273
100
AcDbEntity
  8
0
100
AcDbLine
 62
7
  6
BYLAYER
 10
52.1587823529
 20
38.3377978538
 11
52.5179911022
 21
38.545185884
  0
LINE
  5
274
100
AcDbEntity
  8
0
100
AcDbLine
 62
7
  6
BYLAYER
 10
33.2481980458
 20
74.876218264
 11
43.6653385008
 21
68.8620154776
  0
LINE
  5
275
100
AcDbEntity
  8
0
100
AcDbLine
 62
7
  6
BYLAYER
 10
47.6166676449
 20
66.5807661413
 11
61.2667137597
 21
58.7000866273
  0
LINE
  5
276
100
AcDbEntity
  8
0
100
AcDbLine
 62
7
  6
BYLAYER
 10
45.4613822473
 20
69.8989556284
 11
49.4127113915
 21
67.6177062921
  0
LINE
  5
277
100
AcDbEntity
  8
0
100
AcDbLine
 62
7
  6
BYLAYER
 10
58.5547578625
 20
44.3177138024
 11
58.5547578625
 21
33.3259583038
  0
LINE
  5
278
100
AcDbEntity
  8
0
100
AcDbLine
 62
7
  6
BYLAYER
 10
63.960801832
 20
43.0420595927
 11
58.5547578625
 21
39.9208972825
  0
LINE
  5
279
100
AcDbEntity
  8
0
100
AcDbLine
 62
7
  6
BYLAYER
 10
51.2697671298
 20
34.7449016521
 11
51.6289758791
 21
34.9522896823
  0
LINE
  5
27A
100
AcDbEntity
  8
0
100
AcDbLine
 62
7
  6
BYLAYER
 10
58.5547578625
 20
38.6323152532
 11
63.1717052489
 21
41.2978951582
  0
LINE
  5
27B
100
AcDbEntity
  8
0
100
AcDbLine
 62
7
  6
BYLAYER
 10
51.6507824325
 20
34.0849991295
 11
52.0099911818
 21
34.2923871597
  0
LINE
  5
27C
100
AcDbEntity
  8
0
100
AcDbLine
 62
7
  6
BYLAYER
 10
52.1587845475
 20
33.2051185404
 11
52.5179932968
 21
33.4125065706
  0
LINE
  5
27D
100
AcDbEntity
  8
0
100
AcDbLine
 62
7
  6
BYLAYER
 10
63.960801832
 20
54.0338151138
 11
63.960801832
 21
49.6267433356
  0
LINE
  5
27E
100
AcDbEntity
  8
0
100
AcDbLine
 62
7
  6
BYLAYER
 10
63.960801832
 20
47.4491313891
 11
63.960801832
 21
43.0420596151
  0
LINE
  5
27F
100
AcDbEntity
  8
0
100
AcDbLine
 62
7
  6
BYLAYER
 10
58.5547578625
 20
33.3259582813
 11
54.2622134579
 21
30.8476714072
  0
LINE
  5
280
100
AcDbEntity
  8
0
100
AcDbLine
 62
7
  6
BYLAYER
 10
53.8850441216
 20
30.6299138892
 11
53.3462309976
 21
30.3188318439
  0
LINE
  5
281
100
AcDbEntity
  8
0
100
AcDbLine
 62
7
  6
BYLAYER
 10
54.2622134579
 20
30.8061934428
 11
53.9030047086
 21
30.5988054126
  0
LINE
  5
282
100
AcDbEntity
  8
0
100
AcDbLine
 62
7
  6
BYLAYER
 10
65.7568455785
 20
50.6636834864
 11
65.7568455785
 21
48.48607154
  0
LINE
  5
283
100
AcDbEntity
  8
0
100
AcDbLine
 62
7
  6
BYLAYER
 10
53.6919561662
 20
29.2384436892
 11
57.7709219233
 21
31.5934216098
  0
LINE
  5
284
100
AcDbEntity
  8
0
100
AcDbLine
 62
7
  6
BYLAYER
 10
52.5571344163
 20
28.5746674063
 11
53.0959475403
 21
28.8857494516
  0
LINE
  5
285
100
AcDbEntity
  8
0
100
AcDbLine
 62
7
  6
BYLAYER
 10
53.1139081255
 20
28.8546409781
 11
53.4731168748
 21
29.0620290083
  0
ARC
  5
286
100
AcDbEntity
  8
0
100
AcDbCircle
 62
7
  6
BYLAYER
 10
15.3243370776
 20
61.8312053689
 40
6.7739326131
100
AcDbArc
 50
209.9962162315
 51
215.1047982219
  0
ARC
  5
287
100
AcDbEntity
  8
0
100
AcDbCircle
 62
7
  6
BYLAYER
 10
50.6703810716
 20
41.7979054601
 40
3.5918323866
100
AcDbArc
 50
0.0006939578
 51
0.4930374711
  0
ARC
  5
288
100
AcDbEntity
  8
0
100
AcDbCircle
 62
7
  6
BYLAYER
 10
28.9497610522
 20
53.402979378
 40
2.6047104375
100
AcDbArc
 50
125.913723108
 51
133.0852823549
  0
ARC
  5
289
100
AcDbEntity
  8
0
100
AcDbCircle
 62
7
  6
BYLAYER
 10
10.4852469482
 20
68.0396037976
 40
1.4058019142
100
AcDbArc
 50
100.2803762464
 51
102.9828657953
  0
ARC
  5
28A
100
AcDbEntity
  8
0
100
AcDbCircle
 62
7
  6
BYLAYER
 10
52.4156488531
 20
30.0414352024
 40
1.3419924314
100
AcDbArc
 50
311.025772037
 51
315.4523431681
  0
ARC
  5
28B
100
AcDbEntity
  8
0
100
AcDbCircle
 62
7
  6
BYLAYER
 10
52.4697125309
 20
29.9725633039
 40
1.2902193692
100
AcDbArc
 50
288.0555144077
 51
299.9524209275
  0
ARC
  5
28C
100
AcDbEntity
  8
0
100
AcDbCircle
 62
7
  6
BYLAYER
 10
52.4514523411
 20
30.0003818814
 40
1.2875198626
100
AcDbArc
 50
300.0370692559
 51
311.022953736
  0
ARC
  5
28D
100
AcDbEntity
  8
0
100
AcDbCircle
 62
7
  6
BYLAYER
 10
52.8369378536
 20
30.1639295347
 40
1.2723353524
100
AcDbArc
 50
299.9998617793
 51
300.6479438373
  0
ARC
  5
28E
100
AcDbEntity
  8
0
100
AcDbCircle
 62
7
  6
BYLAYER
 10
10.7860096445
 20
68.3635208285
 40
1.2723120738
100
AcDbArc
 50
116.6031181236
 51
119.9998497366
  0
SPLINE
  5
28F
100
AcDbEntity
  8
0
100
AcDbSpline
 62
7
  6
BYLAYER
 70
0
 71
3
 72
17
 73
13
 74
0
 42
0.0000001
 43
0.0000001
 44
0.0000000001
 40
0.0
 40
0.0
 40
0.0
 40
0.0
 40
0.0428129323
 40
0.087267925
 40
0.1347285051
 40
0.1860848391
 40
0.3016126148
 40
0.4333499509
 40
0.5763586213
 40
0.7235598545
 40
0.8671745736
 40
1.0
 40
1.0
 40
1.0
 40
1.0
 10
30.1190122859
 20
39.3822075701
 30
0.0
 10
30.119008584
 20
39.4170094375
 30
0.0
 10
30.1100508764
 20
39.4882246363
 30
0.0
 10
30.0707387572
 20
39.5914040771
 30
0.0
 10
30.0066893538
 20
39.6896046706
 30
0.0
 10
29.8860661044
 20
39.8164204875
 30
0.0
 10
29.679258707
 20
39.9496749139
 30
0.0
 10
29.3794540973
 20
40.0588830476
 30
0.0
 10
29.0396575962
 20
40.1167861773
 30
0.0
 10
28.6854714036
 20
40.1189400402
 30
0.0
 10
28.3438196133
 20
40.0653327427
 30
0.0
 10
28.1298437918
 20
39.9909618993
 30
0.0
 10
28.0326744535
 20
39.943888061
 30
0.0
  0
SPLINE
  5
290
100
AcDbEntity
  8
0
100
AcDbSpline
 62
7
  6
BYLAYER
 70
0
 71
3
 72
9
 73
5
 74
0
 42
0.0000001
 43
0.0000001
 44
0.0000000001
 40
0.0
 40
0.0
 40
0.0
 40
0.0
 40
0.2444713154
 40
1.0
 40
1.0
 40
1.0
 40
1.0
 10
32.9307403421
 20
31.3682756467
 30
0.0
 10
32.8750082339
 20
31.3412761395
 30
0.0
 10
32.6455216481
 20
31.2339820612
 30
0.0
 10
32.4103403317
 20
31.1389692584
 30
0.0
 10
32.2304586667
 20
31.073617641
 30
0.0
  0
SPLINE
  5
291
100
AcDbEntity
  8
0
100
AcDbSpline
 62
7
  6
BYLAYER
 70
0
 71
3
 72
23
 73
19
 74
0
 42
0.0000001
 43
0.0000001
 44
0.0000000001
 40
0.0
 40
0.0
 40
0.0
 40
0.0
 40
0.0681181971
 40
0.1388390435
 40
0.2114439009
 40
0.2850993083
 40
0.3589393763
 40
0.4320971473
 40
0.5037239214
 40
0.5730309387
 40
0.6393191727
 40
0.7020198804
 40
0.7607412646
 40
0.8153152096
 40
0.865862317
 40
0.9128561003
 40
0.9571588194
 40
1.0
 40
1.0
 40
1.0
 40
1.0
 10
32.2304586667
 20
31.073617641
 30
0.0
 10
31.9861745075
 20
30.9848683796
 30
0.0
 10
31.4792865313
 20
30.8279943556
 30
0.0
 10
30.6900056247
 20
30.6567530349
 30
0.0
 10
29.8684980671
 20
30.5472072381
 30
0.0
 10
29.0291319294
 20
30.5012590618
 30
0.0
 10
28.1866012852
 20
30.5197191711
 30
0.0
 10
27.355679961
 20
30.6022958325
 30
0.0
 10
26.5509078061
 20
30.7475300355
 30
0.0
 10
25.7863444902
 20
30.9528557541
 30
0.0
 10
25.0753185239
 20
31.2147884843
 30
0.0
 10
24.4301541873
 20
31.528860891
 30
0.0
 10
23.8619592413
 20
31.8898001952
 30
0.0
 10
23.3805998197
 20
32.2918630458
 30
0.0
 10
22.9946733606
 20
32.7287951129
 30
0.0
 10
22.7116485311
 20
33.193980105
 30
0.0
 10
22.5382393789
 20
33.6795293963
 30
0.0
 10
22.4990595151
 20
34.0132168706
 30
0.0
 10
22.4990533336
 20
34.1766781002
 30
0.0
  0
SPLINE
  5
292
100
AcDbEntity
  8
0
100
AcDbSpline
 62
7
  6
BYLAYER
 70
0
 71
3
 72
11
 73
7
 74
0
 42
0.0000001
 43
0.0000001
 44
0.0000000001
 40
0.0
 40
0.0
 40
0.0
 40
0.0
 40
0.2178467895
 40
0.4554942644
 40
0.7160992954
 40
1.0
 40
1.0
 40
1.0
 40
1.0
 10
35.0330151593
 20
33.3438857467
 30
0.0
 10
34.9529109502
 20
33.1456170367
 30
0.0
 10
34.7302205763
 20
32.7522057869
 30
0.0
 10
34.2578113274
 20
32.2260603259
 30
0.0
 10
33.6491367253
 20
31.7526322103
 30
0.0
 10
33.1815376662
 20
31.4897748037
 30
0.0
 10
32.9307403421
 20
31.3682756467
 30
0.0
  0
SPLINE
  5
293
100
AcDbEntity
  8
0
100
AcDbSpline
 62
7
  6
BYLAYER
 70
0
 71
3
 72
15
 73
11
 74
0
 42
0.0000001
 43
0.0000001
 44
0.0000000001
 40
0.0
 40
0.0
 40
0.0
 40
0.0
 40
0.1080108207
 40
0.2180580354
 40
0.3319994311
 40
0.4513566558
 40
0.5772622117
 40
0.7104934117
 40
0.851458836
 40
1.0
 40
1.0
 40
1.0
 40
1.0
 10
27.1034855702
 20
55.3443501348
 30
0.0
 10
27.2284072466
 20
55.4164888039
 30
0.0
 10
27.4936613257
 20
55.5406810939
 30
0.0
 10
27.9228402109
 20
55.659394874
 30
0.0
 10
28.3803714571
 20
55.7103786649
 30
0.0
 10
28.8613465411
 20
55.6936942459
 30
0.0
 10
29.3611624926
 20
55.6098455115
 30
0.0
 10
29.875235224
 20
55.4600141706
 30
0.0
 10
30.3985440048
 20
55.2457371208
 30
0.0
 10
30.7416501375
 20
55.0661844742
 30
0.0
 10
30.9134578112
 20
54.9669935116
 30
0.0
  0
SPLINE
  5
294
100
AcDbEntity
  8
0
100
AcDbSpline
 62
7
  6
BYLAYER
 70
0
 71
3
 72
14
 73
10
 74
0
 42
0.0000001
 43
0.0000001
 44
0.0000000001
 40
0.0
 40
0.0
 40
0.0
 40
0.0
 40
0.1511663891
 40
0.2942928037
 40
0.5549175037
 40
0.6738646947
 40
0.7864724104
 40
0.8944591451
 40
1.0
 40
1.0
 40
1.0
 40
1.0
 10
25.5836415289
 20
41.6081903612
 30
0.0
 10
25.445841816
 20
41.5414330741
 30
0.0
 10
25.1828020749
 20
41.3999372199
 30
0.0
 10
24.7152071429
 20
41.0874187851
 30
0.0
 10
24.3214205303
 20
40.7238724578
 30
0.0
 10
24.0339862293
 20
40.3145109956
 30
0.0
 10
23.8820736003
 20
40.0041508664
 30
0.0
 10
23.7897529083
 20
39.685193116
 30
0.0
 10
23.7690425007
 20
39.4683722493
 30
0.0
 10
23.7690446526
 20
39.3614684277
 30
0.0
  0
SPLINE
  5
295
100
AcDbEntity
  8
0
100
AcDbSpline
 62
7
  6
BYLAYER
 70
0
 71
3
 72
13
 73
9
 74
0
 42
0.0000001
 43
0.0000001
 44
0.0000000001
 40
0.0
 40
0.0
 40
0.0
 40
0.0
 40
0.0908486811
 40
0.1881373159
 40
0.2962869128
 40
0.4171942003
 40
0.6936497206
 40
1.0
 40
1.0
 40
1.0
 40
1.0
 10
8.9497307238
 20
58.737890334
 30
0.0
 10
8.9329759308
 20
58.7282177358
 30
0.0
 10
8.9015925438
 20
58.7018895611
 30
0.0
 10
8.8682655649
 20
58.6473006147
 30
0.0
 10
8.8483929154
 20
58.5800447936
 30
0.0
 10
8.839886583
 20
58.4721353862
 30
0.0
 10
8.8665754565
 20
58.3223848964
 30
0.0
 10
8.9170945435
 20
58.2078204469
 30
0.0
 10
8.9497135763
 20
58.1513229385
 30
0.0
  0
SPLINE
  5
296
100
AcDbEntity
  8
0
100
AcDbSpline
 62
7
  6
BYLAYER
 70
0
 71
3
 72
13
 73
9
 74
0
 42
0.0000001
 43
0.0000001
 44
0.0000000001
 40
0.0
 40
0.0
 40
0.0
 40
0.0
 40
0.0908486811
 40
0.1881373159
 40
0.2962869128
 40
0.4171942003
 40
0.6936497206
 40
1.0
 40
1.0
 40
1.0
 40
1.0
 10
47.2057810737
 20
36.651249033
 30
0.0
 10
47.1890262807
 20
36.6415764347
 30
0.0
 10
47.1576428937
 20
36.6152482601
 30
0.0
 10
47.1243159148
 20
36.5606593137
 30
0.0
 10
47.1044432653
 20
36.4934034925
 30
0.0
 10
47.0959369329
 20
36.3854940852
 30
0.0
 10
47.1226258064
 20
36.2357435953
 30
0.0
 10
47.1731448934
 20
36.1211791459
 30
0.0
 10
47.2057639262
 20
36.0646816375
 30
0.0
  0
SPLINE
  5
297
100
AcDbEntity
  8
0
100
AcDbSpline
 62
7
  6
BYLAYER
 70
0
 71
3
 72
12
 73
8
 74
0
 42
0.0000001
 43
0.0000001
 44
0.0000000001
 40
0.0
 40
0.0
 40
0.0
 40
0.0
 40
0.2895581804
 40
0.5486557819
 40
0.7816338328
 40
0.8918399141
 40
1.0
 40
1.0
 40
1.0
 40
1.0
 10
12.2344906981
 20
61.4789429958
 30
0.0
 10
12.123008098
 20
61.543306049
 30
0.0
 10
11.9207845483
 20
61.6826076535
 30
0.0
 10
11.6791404913
 20
61.9363505614
 30
0.0
 10
11.5494744081
 20
62.1755150856
 30
0.0
 10
11.4988913664
 20
62.3705152991
 30
0.0
 10
11.490553104
 20
62.4677986467
 30
0.0
 10
11.4905531034
 20
62.5158831558
 30
0.0
  0
SPLINE
  5
298
100
AcDbEntity
  8
0
100
AcDbSpline
 62
7
  6
BYLAYER
 70
0
 71
3
 72
15
 73
11
 74
0
 42
0.0000001
 43
0.0000001
 44
0.0000000001
 40
0.0
 40
0.0
 40
0.0
 40
0.0
 40
0.1141464977
 40
0.237335278
 40
0.3669759337
 40
0.4999994786
 40
0.633023096
 40
0.7626639635
 40
0.8858530776
 40
1.0
 40
1.0
 40
1.0
 40
1.0
 10
19.4187105502
 20
59.4050886155
 30
0.0
 10
19.2957657226
 20
59.33410681
 30
0.0
 10
19.0268893704
 20
59.2089189988
 30
0.0
 10
18.5890730587
 20
59.0758208462
 30
0.0
 10
18.1150448425
 20
58.9939431723
 30
0.0
 10
17.6226623391
 20
58.966284049
 30
0.0
 10
17.1302794421
 20
58.9939408354
 30
0.0
 10
16.6562500631
 20
59.0758162585
 30
0.0
 10
16.2184318665
 20
59.2089123299
 30
0.0
 10
15.949553867
 20
59.3340987982
 30
0.0
 10
15.8266080701
 20
59.4050799812
 30
0.0
  0
SPLINE
  5
299
100
AcDbEntity
  8
0
100
AcDbSpline
 62
7
  6
BYLAYER
 70
0
 71
3
 72
12
 73
8
 74
0
 42
0.0000001
 43
0.0000001
 44
0.0000000001
 40
0.0
 40
0.0
 40
0.0
 40
0.0
 40
0.2895577051
 40
0.5486551373
 40
0.7816333829
 40
0.8918396706
 40
1.0
 40
1.0
 40
1.0
 40
1.0
 10
12.2344757428
 20
47.62513873
 30
0.0
 10
12.1229952274
 20
47.5607758085
 30
0.0
 10
11.9207755153
 20
47.4214747382
 30
0.0
 10
11.6791363666
 20
47.1677337032
 30
0.0
 10
11.5494731263
 20
46.9285715856
 30
0.0
 10
11.4988911847
 20
46.7335734915
 30
0.0
 10
11.4905531028
 20
46.6362912016
 30
0.0
 10
11.4905531034
 20
46.5882072044
 30
0.0
  0
SPLINE
  5
29A
100
AcDbEntity
  8
0
100
AcDbSpline
 62
7
  6
BYLAYER
 70
0
 71
3
 72
12
 73
8
 74
0
 42
0.0000001
 43
0.0000001
 44
0.0000000001
 40
0.0
 40
0.0
 40
0.0
 40
0.0
 40
0.1079007128
 40
0.2183334491
 40
0.4522922161
 40
0.7116877754
 40
1.0
 40
1.0
 40
1.0
 40
1.0
 10
9.7828140095
 20
62.2961483358
 30
0.0
 10
9.7347975722
 20
62.2643059449
 30
0.0
 10
9.642754971
 20
62.1917725909
 30
0.0
 10
9.4784031509
 20
62.0136698775
 30
0.0
 10
9.3164099769
 20
61.7297107664
 30
0.0
 10
9.2035796971
 20
61.3246793136
 30
0.0
 10
9.1811505096
 20
61.0312908473
 30
0.0
 10
9.1811505096
 20
60.877342109
 30
0.0
  0
SPLINE
  5
29B
100
AcDbEntity
  8
0
100
AcDbSpline
 62
7
  6
BYLAYER
 70
0
 71
3
 72
14
 73
10
 74
0
 42
0.0000001
 43
0.0000001
 44
0.0000000001
 40
0.0
 40
0.0
 40
0.0
 40
0.0
 40
0.2892465103
 40
0.4225697622
 40
0.5485168638
 40
0.6678914139
 40
0.7818640907
 40
0.891953856
 40
1.0
 40
1.0
 40
1.0
 40
1.0
 10
50.6521429448
 20
28.7633549094
 30
0.0
 10
50.8193645231
 20
28.6668116702
 30
0.0
 10
51.0761501612
 20
28.5446345927
 30
0.0
 10
51.4282686618
 20
28.4419193556
 30
0.0
 10
51.6782211999
 20
28.4000045163
 30
0.0
 10
51.9186877875
 20
28.3916600022
 30
0.0
 10
52.1474293438
 20
28.4172125192
 30
0.0
 10
52.362043868
 20
28.4764845236
 30
0.0
 10
52.4946561462
 20
28.5386281124
 30
0.0
 10
52.5571204131
 20
28.5746916607
 30
0.0
  0
SPLINE
  5
29C
100
AcDbEntity
  8
0
100
AcDbSpline
 62
7
  6
BYLAYER
 70
0
 71
3
 72
12
 73
8
 74
0
 42
0.0000001
 43
0.0000001
 44
0.0000000001
 40
0.0
 40
0.0
 40
0.0
 40
0.0
 40
0.1108597298
 40
0.228076066
 40
0.4771126092
 40
0.7380946033
 40
1.0
 40
1.0
 40
1.0
 40
1.0
 10
8.4806846248
 20
56.2213811256
 30
0.0
 10
8.4806846248
 20
56.0852654086
 30
0.0
 10
8.4966052381
 20
55.8050684628
 30
0.0
 10
8.5864603129
 20
55.225494004
 30
0.0
 10
8.8062609101
 20
54.4833108566
 30
0.0
 10
9.2106804319
 20
53.6228073096
 30
0.0
 10
9.5662467397
 20
53.0848765343
 30
0.0
 10
9.7635033501
 20
52.8309105824
 30
0.0
  0
SPLINE
  5
29D
100
AcDbEntity
  8
0
100
AcDbSpline
 62
7
  6
BYLAYER
 70
0
 71
3
 72
20
 73
16
 74
0
 42
0.0000001
 43
0.0000001
 44
0.0000000001
 40
0.0
 40
0.0
 40
0.0
 40
0.0
 40
0.0588765135
 40
0.1210208108
 40
0.1859376622
 40
0.2531100165
 40
0.3915582022
 40
0.5309571867
 40
0.5992860493
 40
0.6657732931
 40
0.7298172975
 40
0.7909049544
 40
0.8486376956
 40
0.9027712239
 40
1.0
 40
1.0
 40
1.0
 40
1.0
 10
30.9134578112
 20
54.9669935116
 30
0.0
 10
31.1427914654
 20
54.8345906599
 30
0.0
 10
31.5994130792
 20
54.5362796738
 30
0.0
 10
32.2538577038
 20
54.0139363272
 30
0.0
 10
32.8878669785
 20
53.4113896016
 30
0.0
 10
33.7008762371
 20
52.5046376584
 30
0.0
 10
34.6029316253
 20
51.2347757241
 30
0.0
 10
35.3200015025
 20
49.8463792723
 30
0.0
 10
35.7626795885
 20
48.6941465443
 30
0.0
 10
36.0187613182
 20
47.836178205
 30
0.0
 10
36.1972272121
 20
46.9919275951
 30
0.0
 10
36.295412442
 20
46.1742378327
 30
0.0
 10
36.3115066468
 20
45.3947114616
 30
0.0
 10
36.2266999258
 20
44.457575688
 30
0.0
 10
36.038855545
 20
43.7897537031
 30
0.0
 10
35.8474604075
 20
43.3965537516
 30
0.0
  0
SPLINE
  5
29E
100
AcDbEntity
  8
0
100
AcDbSpline
 62
7
  6
BYLAYER
 70
0
 71
3
 72
12
 73
8
 74
0
 42
0.0000001
 43
0.0000001
 44
0.0000000001
 40
0.0
 40
0.0
 40
0.0
 40
0.0
 40
0.2895577051
 40
0.5486551373
 40
0.7816333829
 40
0.8918396706
 40
1.0
 40
1.0
 40
1.0
 40
1.0
 10
12.2344757428
 20
64.1749895233
 30
0.0
 10
12.1229952274
 20
64.1106266018
 30
0.0
 10
11.9207755153
 20
63.9713255315
 30
0.0
 10
11.6791363666
 20
63.7175844965
 30
0.0
 10
11.5494731263
 20
63.4784223789
 30
0.0
 10
11.4988911847
 20
63.2834242848
 30
0.0
 10
11.4905531028
 20
63.1861419949
 30
0.0
 10
11.4905531034
 20
63.1380579977
 30
0.0
  0
SPLINE
  5
29F
100
AcDbEntity
  8
0
100
AcDbSpline
 62
7
  6
BYLAYER
 70
0
 71
3
 72
14
 73
10
 74
0
 42
0.0000001
 43
0.0000001
 44
0.0000000001
 40
0.0
 40
0.0
 40
0.0
 40
0.0
 40
0.1080461439
 40
0.2181359091
 40
0.3321085859
 40
0.451483136
 40
0.5774302377
 40
0.7107534897
 40
1.0
 40
1.0
 40
1.0
 40
1.0
 10
14.4730613388
 20
71.9527756813
 30
0.0
 10
14.5351091776
 20
71.9885988062
 30
0.0
 10
14.666837375
 20
72.0503281048
 30
0.0
 10
14.8800211373
 20
72.1092049625
 30
0.0
 10
15.1072377517
 20
72.134587129
 30
0.0
 10
15.3461012306
 20
72.1262982441
 30
0.0
 10
15.5943874203
 20
72.0846628356
 30
0.0
 10
15.9441584667
 20
71.9826323648
 30
0.0
 10
16.1992322023
 20
71.8612697997
 30
0.0
 10
16.3653389714
 20
71.7653701816
 30
0.0
  0
SPLINE
  5
2A0
100
AcDbEntity
  8
0
100
AcDbSpline
 62
7
  6
BYLAYER
 70
0
 71
3
 72
12
 73
8
 74
0
 42
0.0000001
 43
0.0000001
 44
0.0000000001
 40
0.0
 40
0.0
 40
0.0
 40
0.0
 40
0.2895581804
 40
0.5486557819
 40
0.7816338328
 40
0.8918399141
 40
1.0
 40
1.0
 40
1.0
 40
1.0
 10
12.2344906981
 20
44.9290922025
 30
0.0
 10
12.123008098
 20
44.9934552558
 30
0.0
 10
11.9207845483
 20
45.1327568603
 30
0.0
 10
11.6791404913
 20
45.3864997681
 30
0.0
 10
11.5494744081
 20
45.6256642923
 30
0.0
 10
11.4988913664
 20
45.8206645058
 30
0.0
 10
11.490553104
 20
45.9179478535
 30
0.0
 10
11.4905531034
 20
45.9660323625
 30
0.0
  0
SPLINE
  5
2A1
100
AcDbEntity
  8
0
100
AcDbSpline
 62
7
  6
BYLAYER
 70
0
 71
3
 72
15
 73
11
 74
0
 42
0.0000001
 43
0.0000001
 44
0.0000000001
 40
0.0
 40
0.0
 40
0.0
 40
0.0
 40
0.1141464977
 40
0.237335278
 40
0.3669759337
 40
0.4999994786
 40
0.633023096
 40
0.7626639635
 40
0.8858530776
 40
1.0
 40
1.0
 40
1.0
 40
1.0
 10
19.4187105502
 20
42.8552378222
 30
0.0
 10
19.2957657226
 20
42.7842560168
 30
0.0
 10
19.0268893704
 20
42.6590682055
 30
0.0
 10
18.5890730587
 20
42.5259700529
 30
0.0
 10
18.1150448425
 20
42.444092379
 30
0.0
 10
17.6226623391
 20
42.4164332558
 30
0.0
 10
17.1302794421
 20
42.4440900421
 30
0.0
 10
16.6562500631
 20
42.5259654652
 30
0.0
 10
16.2184318665
 20
42.6590615366
 30
0.0
 10
15.949553867
 20
42.7842480049
 30
0.0
 10
15.8266080701
 20
42.8552291879
 30
0.0
  0
SPLINE
  5
2A2
100
AcDbEntity
  8
0
100
AcDbSpline
 62
7
  6
BYLAYER
 70
0
 71
3
 72
13
 73
9
 74
0
 42
0.0000001
 43
0.0000001
 44
0.0000000001
 40
0.0
 40
0.0
 40
0.0
 40
0.0
 40
0.1080924405
 40
0.218232059
 40
0.3322568128
 40
0.4516866096
 40
0.7106267029
 40
1.0
 40
1.0
 40
1.0
 40
1.0
 10
48.0947929986
 20
40.2441509871
 30
0.0
 10
48.042738355
 20
40.2140991673
 30
0.0
 10
47.9426310453
 20
40.1442882209
 30
0.0
 10
47.8104325494
 20
40.0140959063
 30
0.0
 10
47.6966716898
 20
39.8596555297
 30
0.0
 10
47.5676929861
 20
39.6171828673
 30
0.0
 10
47.4614579553
 20
39.2574235052
 30
0.0
 10
47.4372008595
 20
38.9516115203
 30
0.0
 10
47.4372008595
 20
38.790700808
 30
0.0
  0
SPLINE
  5
2A3
100
AcDbEntity
  8
0
100
AcDbSpline
 62
7
  6
BYLAYER
 70
0
 71
3
 72
11
 73
7
 74
0
 42
0.0000001
 43
0.0000001
 44
0.0000000001
 40
0.0
 40
0.0
 40
0.0
 40
0.0
 40
0.2361105283
 40
0.4839938504
 40
0.739998583
 40
1.0
 40
1.0
 40
1.0
 40
1.0
 10
51.6294298774
 20
45.9933153452
 30
0.0
 10
51.7723031117
 20
45.8836159017
 30
0.0
 10
52.0518618587
 20
45.6410431694
 30
0.0
 10
52.4384278358
 20
45.2284134184
 30
0.0
 10
52.7947996504
 20
44.766260929
 30
0.0
 10
53.006212709
 20
44.4334387929
 30
0.0
 10
53.1049233163
 20
44.2613882019
 30
0.0
  0
SPLINE
  5
2A4
100
AcDbEntity
  8
0
100
AcDbSpline
 62
7
  6
BYLAYER
 70
0
 71
3
 72
12
 73
8
 74
0
 42
0.0000001
 43
0.0000001
 44
0.0000000001
 40
0.0
 40
0.0
 40
0.0
 40
0.0
 40
0.1081711684
 40
0.2183745344
 40
0.4513260781
 40
0.710516265
 40
1.0
 40
1.0
 40
1.0
 40
1.0
 10
48.6027844562
 20
39.3642787195
 30
0.0
 10
48.6381836401
 20
39.3847163103
 30
0.0
 10
48.7133678046
 20
39.4198655725
 30
0.0
 10
48.8783733132
 20
39.4655787404
 30
0.0
 10
49.1095717453
 20
39.4717533204
 30
0.0
 10
49.3990316101
 20
39.4016802067
 30
0.0
 10
49.5875398557
 20
39.3120588141
 30
0.0
 10
49.6822742369
 20
39.2573651309
 30
0.0
  0
SPLINE
  5
2A5
100
AcDbEntity
  8
0
100
AcDbSpline
 62
7
  6
BYLAYER
 70
0
 71
3
 72
14
 73
10
 74
0
 42
0.0000001
 43
0.0000001
 44
0.0000000001
 40
0.0
 40
0.0
 40
0.0
 40
0.0
 40
0.1080461439
 40
0.2181359091
 40
0.3321085859
 40
0.451483136
 40
0.5774302377
 40
0.7107534897
 40
1.0
 40
1.0
 40
1.0
 40
1.0
 10
31.3432205634
 20
75.0648815187
 30
0.0
 10
31.4056848307
 20
75.1009450672
 30
0.0
 10
31.5382971099
 20
75.1630886564
 30
0.0
 10
31.7529116357
 20
75.2223606609
 30
0.0
 10
31.9816531938
 20
75.2479131775
 30
0.0
 10
32.2221197833
 20
75.2395686624
 30
0.0
 10
32.4720723233
 20
75.1976538217
 30
0.0
 10
32.8241908263
 20
75.0949385826
 30
0.0
 10
33.0809764662
 20
74.9727615038
 30
0.0
 10
33.2481980458
 20
74.876218264
 30
0.0
  0
SPLINE
  5
2A6
100
AcDbEntity
  8
0
100
AcDbSpline
 62
7
  6
BYLAYER
 70
0
 71
3
 72
13
 73
9
 74
0
 42
0.0000001
 43
0.0000001
 44
0.0000000001
 40
0.0
 40
0.0
 40
0.0
 40
0.0
 40
0.1078509854
 40
0.2182113874
 40
0.33267151
 40
0.4525419591
 40
0.7117833532
 40
1.0
 40
1.0
 40
1.0
 40
1.0
 10
10.2163130331
 20
69.5011615597
 30
0.0
 10
10.2782455216
 20
69.5321798779
 30
0.0
 10
10.4089332774
 20
69.5847517826
 30
0.0
 10
10.6180535494
 20
69.6322760173
 30
0.0
 10
10.8395647574
 20
69.6489997444
 30
0.0
 10
11.1568039296
 20
69.6294743849
 30
0.0
 10
11.5757790204
 20
69.5222647859
 30
0.0
 10
11.8945287281
 20
69.3692640038
 30
0.0
 10
12.0548339639
 20
69.2767138267
 30
0.0
  0
SPLINE
  5
2A7
100
AcDbEntity
  8
0
100
AcDbSpline
 62
7
  6
BYLAYER
 70
0
 71
3
 72
9
 73
5
 74
0
 42
0.0000001
 43
0.0000001
 44
0.0000000001
 40
0.0
 40
0.0
 40
0.0
 40
0.0
 40
0.4959937522
 40
1.0
 40
1.0
 40
1.0
 40
1.0
 10
9.8085944584
 20
69.2683828413
 30
0.0
 10
9.864222683
 20
69.3004950134
 30
0.0
 10
9.9815086996
 20
69.3567097999
 30
0.0
 10
10.1058208144
 20
69.3947995116
 30
0.0
 10
10.1694199672
 20
69.4094696086
 30
0.0
  0
SPLINE
  5
2A8
100
AcDbEntity
  8
0
100
AcDbSpline
 62
7
  6
BYLAYER
 70
0
 71
3
 72
11
 73
7
 74
0
 42
0.0000001
 43
0.0000001
 44
0.0000000001
 40
0.0
 40
0.0
 40
0.0
 40
0.0
 40
0.2298414829
 40
0.4716674814
 40
0.728053862
 40
1.0
 40
1.0
 40
1.0
 40
1.0
 10
10.2343601934
 20
69.4228372769
 30
0.0
 10
10.3143702191
 20
69.4373574831
 30
0.0
 10
10.4813638988
 20
69.4530651826
 30
0.0
 10
10.7393414565
 20
69.4377255891
 30
0.0
 10
11.0073128541
 20
69.3844432168
 30
0.0
 10
11.1853794787
 20
69.3260789174
 30
0.0
 10
11.2751119929
 20
69.2913645665
 30
0.0
  0
SPLINE
  5
2A9
100
AcDbEntity
  8
0
100
AcDbSpline
 62
7
  6
BYLAYER
 70
0
 71
3
 72
14
 73
10
 74
0
 42
0.0000001
 43
0.0000001
 44
0.0000000001
 40
0.0
 40
0.0
 40
0.0
 40
0.0
 40
0.1080468932
 40
0.21813025
 40
0.3321103591
 40
0.4514960801
 40
0.5774393259
 40
0.7107283711
 40
1.0
 40
1.0
 40
1.0
 40
1.0
 10
9.2697846692
 20
68.9572951104
 30
0.0
 10
9.2073196928
 20
68.9212274237
 30
0.0
 10
9.0872295008
 20
68.8374108834
 30
0.0
 10
8.9285145478
 20
68.6812516323
 30
0.0
 10
8.7920742855
 20
68.4958639688
 30
0.0
 10
8.6790325283
 20
68.2834453097
 30
0.0
 10
8.5903848969
 20
68.046020922
 30
0.0
 10
8.5032345067
 20
67.6897299834
 30
0.0
 10
8.4806846248
 20
67.4062490336
 30
0.0
 10
8.4806846248
 20
67.213136665
 30
0.0
  0
SPLINE
  5
2AA
100
AcDbEntity
  8
0
100
AcDbSpline
 62
7
  6
BYLAYER
 70
0
 71
3
 72
14
 73
10
 74
0
 42
0.0000001
 43
0.0000001
 44
0.0000000001
 40
0.0
 40
0.0
 40
0.0
 40
0.0
 40
0.2892474877
 40
0.4225710071
 40
0.5485181945
 40
0.6678926383
 40
0.7818650295
 40
0.8919543639
 40
1.0
 40
1.0
 40
1.0
 40
1.0
 10
63.960801832
 20
43.0420596151
 30
0.0
 10
63.9608018319
 20
42.8489640336
 30
0.0
 10
63.9382194994
 20
42.5654839333
 30
0.0
 10
63.851114684
 20
42.2091715969
 30
0.0
 10
63.7624370307
 20
41.9717417485
 30
0.0
 10
63.6494285493
 20
41.7593131531
 30
0.0
 10
63.5129259344
 20
41.5739883925
 30
0.0
 10
63.3542839631
 20
41.4177590782
 30
0.0
 10
63.234156893
 20
41.3339837578
 30
0.0
 10
63.1716912457
 20
41.2979194126
 30
0.0
  0
SPLINE
  5
2AB
100
AcDbEntity
  8
0
100
AcDbSpline
 62
7
  6
BYLAYER
 70
0
 71
3
 72
11
 73
7
 74
0
 42
0.0000001
 43
0.0000001
 44
0.0000000001
 40
0.0
 40
0.0
 40
0.0
 40
0.0
 40
0.2944129729
 40
0.5557208397
 40
0.7869532652
 40
1.0
 40
1.0
 40
1.0
 40
1.0
 10
28.0326744535
 20
39.943888061
 30
0.0
 10
27.9657118934
 20
39.9114479437
 30
0.0
 10
27.8438550911
 20
39.8396996832
 30
0.0
 10
27.6962210294
 20
39.703615736
 30
0.0
 10
27.6015422046
 20
39.5491917673
 30
0.0
 10
27.5790195232
 20
39.4360506194
 30
0.0
 10
27.5790252506
 20
39.3822075838
 30
0.0
  0
SPLINE
  5
2AC
100
AcDbEntity
  8
0
100
AcDbSpline
 62
7
  6
BYLAYER
 70
0
 71
3
 72
9
 73
5
 74
0
 42
0.0000001
 43
0.0000001
 44
0.0000000001
 40
0.0
 40
0.0
 40
0.0
 40
0.0
 40
0.256077005
 40
1.0
 40
1.0
 40
1.0
 40
1.0
 10
26.7528085012
 20
42.1998947764
 30
0.0
 10
26.6416327666
 20
42.1774488328
 30
0.0
 10
26.2090599482
 20
42.0822788194
 30
0.0
 10
25.7829814184
 20
41.9566933194
 30
0.0
 10
25.4732088871
 20
41.8444209569
 30
0.0
  0
SPLINE
  5
2AD
100
AcDbEntity
  8
0
100
AcDbSpline
 62
7
  6
BYLAYER
 70
0
 71
3
 72
9
 73
5
 74
0
 42
0.0000001
 43
0.0000001
 44
0.0000000001
 40
0.0
 40
0.0
 40
0.0
 40
0.0
 40
0.2554013862
 40
1.0
 40
1.0
 40
1.0
 40
1.0
 10
25.4732088871
 20
41.8444209569
 30
0.0
 10
25.4119047491
 20
41.8222022005
 30
0.0
 10
25.1729477808
 20
41.7322896604
 30
0.0
 10
24.9383812107
 20
41.6305779138
 30
0.0
 10
24.7672971944
 20
41.5476959938
 30
0.0
  0
SPLINE
  5
2AE
100
AcDbEntity
  8
0
100
AcDbSpline
 62
7
  6
BYLAYER
 70
0
 71
3
 72
15
 73
11
 74
0
 42
0.0000001
 43
0.0000001
 44
0.0000000001
 40
0.0
 40
0.0
 40
0.0
 40
0.0
 40
0.1510915077
 40
0.2941465727
 40
0.4287438788
 40
0.5551370323
 40
0.6740264325
 40
0.7865779175
 40
0.8945100545
 40
1.0
 40
1.0
 40
1.0
 40
1.0
 10
24.7672971944
 20
41.5476959938
 30
0.0
 10
24.5950479039
 20
41.4642495549
 30
0.0
 10
24.2663606432
 20
41.2874610276
 30
0.0
 10
23.8140709063
 20
40.9851514256
 30
0.0
 10
23.4208923354
 20
40.6556896589
 30
0.0
 10
23.0916092776
 20
40.3029096289
 30
0.0
 10
22.830215011
 20
39.9305696787
 30
0.0
 10
22.6403324028
 20
39.5426546166
 30
0.0
 10
22.5249282721
 20
39.1439497677
 30
0.0
 10
22.499048876
 20
38.8729248197
 30
0.0
 10
22.4990530492
 20
38.7392935779
 30
0.0
  0
SPLINE
  5
2AF
100
AcDbEntity
  8
0
100
AcDbSpline
 62
7
  6
BYLAYER
 70
0
 71
3
 72
13
 73
9
 74
0
 42
0.0000001
 43
0.0000001
 44
0.0000000001
 40
0.0
 40
0.0
 40
0.0
 40
0.0
 40
0.2891669329
 40
0.5481713593
 40
0.6676856009
 40
0.7817907852
 40
0.8919651916
 40
1.0
 40
1.0
 40
1.0
 40
1.0
 10
54.2622134579
 20
30.8061934652
 30
0.0
 10
54.2622134578
 20
30.6146176595
 30
0.0
 10
54.2335357699
 20
30.2503824344
 30
0.0
 10
54.1081584411
 20
29.8215534591
 30
0.0
 10
53.955915583
 20
29.5317688221
 30
0.0
 10
53.8215902837
 20
29.346741363
 30
0.0
 10
53.6654517527
 20
29.1902301225
 30
0.0
 10
53.5471017219
 20
29.1058050678
 30
0.0
 10
53.4855254152
 20
29.0693193648
 30
0.0
  0
SPLINE
  5
2B0
100
AcDbEntity
  8
0
100
AcDbSpline
 62
7
  6
BYLAYER
 70
0
 71
3
 72
15
 73
11
 74
0
 42
0.0000001
 43
0.0000001
 44
0.0000000001
 40
0.0
 40
0.0
 40
0.0
 40
0.0
 40
0.1140233951
 40
0.2370401102
 40
0.3664975014
 40
0.4993761939
 40
0.6323404967
 40
0.7620503124
 40
0.8854576888
 40
1.0
 40
1.0
 40
1.0
 40
1.0
 10
51.5681254015
 20
46.4642204661
 30
0.0
 10
51.7513317743
 20
46.3584486102
 30
0.0
 10
52.1132845087
 20
46.1049994548
 30
0.0
 10
52.6117353438
 20
45.6399300388
 30
0.0
 10
53.0715185453
 20
45.0902058904
 30
0.0
 10
53.4756403284
 20
44.4763552629
 30
0.0
 10
53.8091391427
 20
43.8209227094
 30
0.0
 10
54.0598045585
 20
43.1481025254
 30
0.0
 10
54.2182415408
 20
42.4828453901
 30
0.0
 10
54.2602543864
 20
42.041315452
 30
0.0
 10
54.2620804746
 20
41.8288132533
 30
0.0
  0
SPLINE
  5
2B1
100
AcDbEntity
  8
0
100
AcDbSpline
 62
7
  6
BYLAYER
 70
0
 71
3
 72
14
 73
10
 74
0
 42
0.0000001
 43
0.0000001
 44
0.0000000001
 40
0.0
 40
0.0
 40
0.0
 40
0.0
 40
0.2892474877
 40
0.4225710071
 40
0.5485181945
 40
0.6678926383
 40
0.7818650296
 40
0.8919543639
 40
1.0
 40
1.0
 40
1.0
 40
1.0
 10
58.5547578625
 20
33.3259583038
 30
0.0
 10
58.5547578624
 20
33.1341500261
 30
0.0
 10
58.5323260788
 20
32.8525597932
 30
0.0
 10
58.4458019622
 20
32.4986228723
 30
0.0
 10
58.3577154932
 20
32.2627758895
 30
0.0
 10
58.2454604017
 20
32.0517634848
 30
0.0
 10
58.1098678042
 20
31.8676742226
 30
0.0
 10
57.9522834461
 20
31.712486437
 30
0.0
 10
57.8329572231
 20
31.6292696187
 30
0.0
 10
57.7709080135
 20
31.5934457024
 30
0.0
  0
SPLINE
  5
2B2
100
AcDbEntity
  8
0
100
AcDbSpline
 62
7
  6
BYLAYER
 70
0
 71
3
 72
15
 73
11
 74
0
 42
0.0000001
 43
0.0000001
 44
0.0000000001
 40
0.0
 40
0.0
 40
0.0
 40
0.0
 40
0.1141465952
 40
0.2373352438
 40
0.3669756459
 40
0.499998918
 40
0.6330223406
 40
0.7626631822
 40
0.8858525235
 40
1.0
 40
1.0
 40
1.0
 40
1.0
 10
55.8786303773
 20
48.9528768394
 30
0.0
 10
56.0618194261
 20
48.8471149853
 30
0.0
 10
56.4236753388
 20
48.5934312871
 30
0.0
 10
56.921599551
 20
48.1276441916
 30
0.0
 10
57.3804062888
 20
47.5769694578
 30
0.0
 10
57.782922907
 20
46.9622165278
 30
0.0
 10
58.1140597288
 20
46.3062512935
 30
0.0
 10
58.361559017
 20
45.6335747227
 30
0.0
 10
58.5159854236
 20
44.96946353
 30
0.0
 10
58.5547578624
 20
44.5292427327
 30
0.0
 10
58.5547578625
 20
44.3177138024
 30
0.0
  0
SPLINE
  5
2B3
100
AcDbEntity
  8
0
100
AcDbSpline
 62
7
  6
BYLAYER
 70
0
 71
3
 72
15
 73
11
 74
0
 42
0.0000001
 43
0.0000001
 44
0.0000000001
 40
0.0
 40
0.0
 40
0.0
 40
0.0
 40
0.1141465952
 40
0.2373352438
 40
0.3669756459
 40
0.499998918
 40
0.6330223406
 40
0.7626631822
 40
0.8858525235
 40
1.0
 40
1.0
 40
1.0
 40
1.0
 10
61.2667137597
 20
58.7000866273
 30
0.0
 10
61.4511322652
 20
58.5936149621
 30
0.0
 10
61.8154167411
 20
58.3382286887
 30
0.0
 10
62.3166827265
 20
57.8693155054
 30
0.0
 10
62.7785687041
 20
57.314944968
 30
0.0
 10
63.1837867761
 20
56.6960661794
 30
0.0
 10
63.5171459926
 20
56.035698494
 30
0.0
 10
63.7663063499
 20
55.3585073154
 30
0.0
 10
63.9217691753
 20
54.6899390006
 30
0.0
 10
63.9608018319
 20
54.2467637012
 30
0.0
 10
63.960801832
 20
54.0338151138
 30
0.0
  0
SPLINE
  5
2B4
100
AcDbEntity
  8
0
100
AcDbSpline
 62
7
  6
BYLAYER
 70
0
 71
3
 72
19
 73
15
 74
0
 42
0.0000001
 43
0.0000001
 44
0.0000000001
 40
0.0
 40
0.0
 40
0.0
 40
0.0
 40
0.0453755571
 40
0.0940773173
 40
0.1481663247
 40
0.2086025916
 40
0.3468415821
 40
0.4999851355
 40
0.6531292867
 40
0.7913784578
 40
0.8518214814
 40
0.9059179987
 40
0.9546237043
 40
1.0
 40
1.0
 40
1.0
 40
1.0
 10
47.2057639262
 20
41.7839542843
 30
0.0
 10
47.1890277978
 20
41.7742913998
 30
0.0
 10
47.1577173046
 20
41.7478842251
 30
0.0
 10
47.1242628097
 20
41.6933754122
 30
0.0
 10
47.1044418783
 20
41.6260634148
 30
0.0
 10
47.0959334692
 20
41.5181676926
 30
0.0
 10
47.1226728021
 20
41.3683878457
 30
0.0
 10
47.1996089794
 20
41.1938329357
 30
0.0
 10
47.3123054862
 20
41.0399186421
 30
0.0
 10
47.4286501863
 20
40.9418606125
 30
0.0
 10
47.5263531991
 20
40.8952748805
 30
0.0
 10
47.5945644975
 20
40.8787788003
 30
0.0
 10
47.6585031383
 20
40.8804980472
 30
0.0
 10
47.6970296403
 20
40.8944106534
 30
0.0
 10
47.7137660412
 20
40.9040736952
 30
0.0
  0
SPLINE
  5
2B5
100
AcDbEntity
  8
0
100
AcDbSpline
 62
7
  6
BYLAYER
 70
0
 71
3
 72
18
 73
14
 74
0
 42
0.0000001
 43
0.0000001
 44
0.0000000001
 40
0.0
 40
0.0
 40
0.0
 40
0.0
 40
0.0450364352
 40
0.0909847334
 40
0.1385461891
 40
0.1883479818
 40
0.2408849538
 40
0.2964767933
 40
0.4171418744
 40
0.5502142553
 40
0.6937833066
 40
0.8449422598
 40
1.0
 40
1.0
 40
1.0
 40
1.0
 10
47.7137660412
 20
40.9040736952
 30
0.0
 10
47.7782638078
 20
40.9413125628
 30
0.0
 10
47.9153323494
 20
41.0054082264
 30
0.0
 10
48.1370648738
 20
41.0668306309
 30
0.0
 10
48.3735289758
 20
41.0932188983
 30
0.0
 10
48.622052767
 20
41.0845623664
 30
0.0
 10
48.8802909187
 20
41.0412225097
 30
0.0
 10
49.2442032027
 20
40.9350727275
 30
0.0
 10
49.7092172637
 20
40.71384711
 30
0.0
 10
50.2490806042
 20
40.3352765363
 30
0.0
 10
50.7672983985
 20
39.8506034013
 30
0.0
 10
51.2444799887
 20
39.277880374
 30
0.0
 10
51.5225734645
 20
38.8531508576
 30
0.0
 10
51.6507824325
 20
38.6310876437
 30
0.0
  0
SPLINE
  5
2B6
100
AcDbEntity
  8
0
100
AcDbSpline
 62
7
  6
BYLAYER
 70
0
 71
3
 72
13
 73
9
 74
0
 42
0.0000001
 43
0.0000001
 44
0.0000000001
 40
0.0
 40
0.0
 40
0.0
 40
0.0
 40
0.3063506246
 40
0.5827902232
 40
0.7036979959
 40
0.8118499759
 40
0.9091454716
 40
1.0
 40
1.0
 40
1.0
 40
1.0
 10
51.6507824325
 20
38.6310876437
 30
0.0
 10
51.683401102
 20
38.5745907645
 30
0.0
 10
51.7573539762
 20
38.4735603475
 30
0.0
 10
51.8736945674
 20
38.3755795586
 30
0.0
 10
51.9713927799
 20
38.3289842523
 30
0.0
 10
52.0395763003
 20
38.3125712687
 30
0.0
 10
52.1035181717
 20
38.3141319217
 30
0.0
 10
52.1420117341
 20
38.3281506896
 30
0.0
 10
52.1587674
 20
38.3378237918
 30
0.0
  0
SPLINE
  5
2B7
100
AcDbEntity
  8
0
100
AcDbSpline
 62
7
  6
BYLAYER
 70
0
 71
3
 72
9
 73
5
 74
0
 42
0.0000001
 43
0.0000001
 44
0.0000000001
 40
0.0
 40
0.0
 40
0.0
 40
0.0
 40
0.2521398495
 40
1.0
 40
1.0
 40
1.0
 40
1.0
 10
8.9497135763
 20
58.1513229385
 30
0.0
 10
9.0098631719
 20
58.0471413612
 30
0.0
 10
9.2571268013
 20
57.6390604703
 30
0.0
 10
9.5384811868
 20
57.2514751925
 30
0.0
 10
9.7670812287
 20
56.9775098116
 30
0.0
  0
SPLINE
  5
2B8
100
AcDbEntity
  8
0
100
AcDbSpline
 62
7
  6
BYLAYER
 70
0
 71
3
 72
18
 73
14
 74
0
 42
0.0000001
 43
0.0000001
 44
0.0000000001
 40
0.0
 40
0.0
 40
0.0
 40
0.0
 40
0.1550699885
 40
0.3062053944
 40
0.4497879542
 40
0.5828590296
 40
0.7035253683
 40
0.7591156924
 40
0.811658766
 40
0.8614578689
 40
0.909008113
 40
0.9549510119
 40
1.0
 40
1.0
 40
1.0
 40
1.0
 10
47.2057639262
 20
36.0646816375
 30
0.0
 10
47.3670724317
 20
35.7852886612
 30
0.0
 10
47.7168964529
 20
35.2509505915
 30
0.0
 10
48.3172670043
 20
34.5304599338
 30
0.0
 10
48.9691538969
 20
33.9206651795
 30
0.0
 10
49.648393429
 20
33.4444345515
 30
0.0
 10
50.2333829742
 20
33.1660455291
 30
0.0
 10
50.6912463998
 20
33.0325851247
 30
0.0
 10
51.0161279334
 20
32.9780389652
 30
0.0
 10
51.328772401
 20
32.967181111
 30
0.0
 10
51.6262233098
 20
33.0003247476
 30
0.0
 10
51.9051787391
 20
33.0775824433
 30
0.0
 10
52.0776192719
 20
33.1582564069
 30
0.0
 10
52.1587845475
 20
33.2051185404
 30
0.0
  0
SPLINE
  5
2B9
100
AcDbEntity
  8
0
100
AcDbSpline
 62
7
  6
BYLAYER
 70
0
 71
3
 72
11
 73
7
 74
0
 42
0.0000001
 43
0.0000001
 44
0.0000000001
 40
0.0
 40
0.0
 40
0.0
 40
0.0
 40
0.228284969
 40
0.4746723801
 40
0.7339666854
 40
1.0
 40
1.0
 40
1.0
 40
1.0
 10
47.4372008595
 20
38.790700808
 30
0.0
 10
47.4372008595
 20
38.612952502
 30
0.0
 10
47.4698320991
 20
38.243020841
 30
0.0
 10
47.5997933874
 20
37.684957906
 30
0.0
 10
47.8080146082
 20
37.1198249847
 30
0.0
 10
47.9930455443
 20
36.753880725
 30
0.0
 10
48.0967444247
 20
36.5745665798
 30
0.0
  0
SPLINE
  5
2BA
100
AcDbEntity
  8
0
100
AcDbSpline
 62
7
  6
BYLAYER
 70
0
 71
3
 72
17
 73
13
 74
0
 42
0.0000001
 43
0.0000001
 44
0.0000000001
 40
0.0
 40
0.0
 40
0.0
 40
0.0
 40
0.1551099962
 40
0.3062734703
 40
0.4498744246
 40
0.5829586057
 40
0.7036375047
 40
0.8116013768
 40
0.8614185179
 40
0.9089760847
 40
0.9549129718
 40
1.0
 40
1.0
 40
1.0
 40
1.0
 10
48.0967444247
 20
36.5745665798
 30
0.0
 10
48.2001805516
 20
36.3957067831
 30
0.0
 10
48.4244395313
 20
36.0536630664
 30
0.0
 10
48.8092040462
 20
35.5924867619
 30
0.0
 10
49.2268049514
 20
35.2022511211
 30
0.0
 10
49.662116024
 20
34.8974691215
 30
0.0
 10
50.0995757623
 20
34.6894679587
 30
0.0
 10
50.4639965976
 20
34.6018610211
 30
0.0
 10
50.7381832331
 20
34.5924126193
 30
0.0
 10
50.9286479271
 20
34.613744434
 30
0.0
 10
51.107327841
 20
34.6631445284
 30
0.0
 10
51.2177424834
 20
34.714894064
 30
0.0
 10
51.2697554751
 20
34.7449218376
 30
0.0
  0
SPLINE
  5
2BB
100
AcDbEntity
  8
0
100
AcDbSpline
 62
7
  6
BYLAYER
 70
0
 71
3
 72
19
 73
15
 74
0
 42
0.0000001
 43
0.0000001
 44
0.0000000001
 40
0.0
 40
0.0
 40
0.0
 40
0.0
 40
0.0623912204
 40
0.12883165
 40
0.2703521188
 40
0.4174418405
 40
0.5617162437
 40
0.6953237839
 40
0.7563173263
 40
0.8127977205
 40
0.8647364846
 40
0.9125503751
 40
0.9571578678
 40
1.0
 40
1.0
 40
1.0
 40
1.0
 10
49.6822742369
 20
39.2573651309
 30
0.0
 10
49.7597939143
 20
39.2126101368
 30
0.0
 10
49.9138768368
 20
39.1095697184
 30
0.0
 10
50.2111437746
 20
38.8595143177
 30
0.0
 10
50.5495035552
 20
38.4744673651
 30
0.0
 10
50.8761989264
 20
37.9430285676
 30
0.0
 10
51.1057440934
 20
37.3751145601
 30
0.0
 10
51.2036861301
 20
36.8949541988
 30
0.0
 10
51.2129630878
 20
36.533999954
 30
0.0
 10
51.1867953933
 20
36.2915037077
 30
0.0
 10
51.1280265693
 20
36.0740938595
 30
0.0
 10
51.0373324442
 20
35.8862965736
 30
0.0
 10
50.9158668503
 20
35.7327889622
 30
0.0
 10
50.8149988182
 20
35.6555183717
 30
0.0
 10
50.7617644617
 20
35.6247933852
 30
0.0
  0
SPLINE
  5
2BC
100
AcDbEntity
  8
0
100
AcDbSpline
 62
7
  6
BYLAYER
 70
0
 71
3
 72
19
 73
15
 74
0
 42
0.0000001
 43
0.0000001
 44
0.0000000001
 40
0.0
 40
0.0
 40
0.0
 40
0.0
 40
0.0453755571
 40
0.0940773173
 40
0.1481663247
 40
0.2086025916
 40
0.3468415821
 40
0.4999851355
 40
0.6531292867
 40
0.7913784578
 40
0.8518214814
 40
0.9059179987
 40
0.9546237043
 40
1.0
 40
1.0
 40
1.0
 40
1.0
 10
8.9497135763
 20
63.8705955854
 30
0.0
 10
8.9329774479
 20
63.8609327008
 30
0.0
 10
8.9016669547
 20
63.8345255262
 30
0.0
 10
8.8682124597
 20
63.7800167133
 30
0.0
 10
8.8483915284
 20
63.7127047159
 30
0.0
 10
8.8398831193
 20
63.6048089936
 30
0.0
 10
8.8666224522
 20
63.4550291468
 30
0.0
 10
8.9435586295
 20
63.2804742368
 30
0.0
 10
9.0562551363
 20
63.1265599431
 30
0.0
 10
9.1725998364
 20
63.0285019136
 30
0.0
 10
9.2703028492
 20
62.9819161816
 30
0.0
 10
9.3385141476
 20
62.9654201014
 30
0.0
 10
9.4024527884
 20
62.9671393482
 30
0.0
 10
9.4409792904
 20
62.9810519544
 30
0.0
 10
9.4577156913
 20
62.9907149962
 30
0.0
  0
SPLINE
  5
2BD
100
AcDbEntity
  8
0
100
AcDbSpline
 62
7
  6
BYLAYER
 70
0
 71
3
 72
9
 73
5
 74
0
 42
0.0000001
 43
0.0000001
 44
0.0000000001
 40
0.0
 40
0.0
 40
0.0
 40
0.0
 40
0.2481522274
 40
1.0
 40
1.0
 40
1.0
 40
1.0
 10
9.4577156913
 20
62.9907149962
 30
0.0
 10
9.4829251261
 20
63.0052700864
 30
0.0
 10
9.5864542609
 20
63.0605173097
 30
0.0
 10
9.6973745381
 20
63.1017437063
 30
0.0
 10
9.7825722336
 20
63.1245435081
 30
0.0
  0
SPLINE
  5
2BE
100
AcDbEntity
  8
0
100
AcDbSpline
 62
7
  6
BYLAYER
 70
0
 71
3
 72
11
 73
7
 74
0
 42
0.0000001
 43
0.0000001
 44
0.0000000001
 40
0.0
 40
0.0
 40
0.0
 40
0.0
 40
0.2287892015
 40
0.4747991686
 40
0.7335863783
 40
1.0
 40
1.0
 40
1.0
 40
1.0
 10
9.1811505096
 20
60.877342109
 30
0.0
 10
9.1811505096
 20
60.7129419916
 30
0.0
 10
9.2090614938
 20
60.3714783772
 30
0.0
 10
9.3211839093
 20
59.8551383528
 30
0.0
 10
9.5017136314
 20
59.3299936634
 30
0.0
 10
9.6625650467
 20
58.9876795837
 30
0.0
 10
9.7529138796
 20
58.8189053797
 30
0.0
  0
SPLINE
  5
2BF
100
AcDbEntity
  8
0
100
AcDbSpline
 62
7
  6
BYLAYER
 70
0
 71
3
 72
13
 73
9
 74
0
 42
0.0000001
 43
0.0000001
 44
0.0000000001
 40
0.0
 40
0.0
 40
0.0
 40
0.0
 40
0.3063503715
 40
0.5827903469
 40
0.7036982925
 40
0.8118503148
 40
0.9091456975
 40
1.0
 40
1.0
 40
1.0
 40
1.0
 10
52.5179932968
 20
39.1317792174
 30
0.0
 10
52.5506123853
 20
39.0752816126
 30
0.0
 10
52.6011319601
 20
38.9607199026
 30
0.0
 10
52.6278162769
 20
38.8109735519
 30
0.0
 10
52.6193200069
 20
38.7030651407
 30
0.0
 10
52.5994421236
 20
38.6358090152
 30
0.0
 10
52.5661192003
 20
38.5812133485
 30
0.0
 10
52.5347313368
 20
38.5548861079
 30
0.0
 10
52.5179761158
 20
38.5452118024
 30
0.0
  0
SPLINE
  5
2C0
100
AcDbEntity
  8
0
100
AcDbSpline
 62
7
  6
BYLAYER
 70
0
 71
3
 72
18
 73
14
 74
0
 42
0.0000001
 43
0.0000001
 44
0.0000000001
 40
0.0
 40
0.0
 40
0.0
 40
0.0
 40
0.0450489906
 40
0.0909918964
 40
0.1385421477
 40
0.188341255
 40
0.2408843322
 40
0.2964746602
 40
0.4171410044
 40
0.5502120801
 40
0.6937946363
 40
0.844930027
 40
1.0
 40
1.0
 40
1.0
 40
1.0
 10
47.5649726755
 20
41.9913423145
 30
0.0
 10
47.6461379557
 20
42.0382044506
 30
0.0
 10
47.8185785112
 20
42.1188784121
 30
0.0
 10
48.0975339732
 20
42.1961361174
 30
0.0
 10
48.3949849222
 20
42.2292797477
 30
0.0
 10
48.7076294211
 20
42.2184218781
 30
0.0
 10
49.0325109747
 20
42.1638756888
 30
0.0
 10
49.4903744205
 20
42.0304152583
 30
0.0
 10
50.0753639702
 20
41.7520261986
 30
0.0
 10
50.7546034894
 20
41.2757955459
 30
0.0
 10
51.4064903312
 20
40.6660007948
 30
0.0
 10
52.0068608288
 20
39.9455101865
 30
0.0
 10
52.3566848075
 20
39.4111721657
 30
0.0
 10
52.5179932968
 20
39.1317792174
 30
0.0
  0
SPLINE
  5
2C1
100
AcDbEntity
  8
0
100
AcDbSpline
 62
7
  6
BYLAYER
 70
0
 71
3
 72
9
 73
5
 74
0
 42
0.0000001
 43
0.0000001
 44
0.0000000001
 40
0.0
 40
0.0
 40
0.0
 40
0.0
 40
0.4860034883
 40
1.0
 40
1.0
 40
1.0
 40
1.0
 10
11.4905531034
 20
46.5882072044
 30
0.0
 10
11.4905531045
 20
46.5017294904
 30
0.0
 10
11.5186537213
 20
46.3228691752
 30
0.0
 10
11.5968645726
 20
46.1603892673
 30
0.0
 10
11.6459082652
 20
46.0831920618
 30
0.0
  0
SPLINE
  5
2C2
100
AcDbEntity
  8
0
100
AcDbSpline
 62
7
  6
BYLAYER
 70
0
 71
3
 72
10
 73
6
 74
0
 42
0.0000001
 43
0.0000001
 44
0.0000000001
 40
0.0
 40
0.0
 40
0.0
 40
0.0
 40
0.2275323467
 40
0.596274676
 40
1.0
 40
1.0
 40
1.0
 40
1.0
 10
11.6459082652
 20
46.0831920618
 30
0.0
 10
11.6784453431
 20
46.0319770868
 30
0.0
 10
11.7742977703
 20
45.9043198104
 30
0.0
 10
11.9693989666
 20
45.7202802742
 30
0.0
 10
12.1412519779
 20
45.6050972269
 30
0.0
 10
12.2344906981
 20
45.5512670444
 30
0.0
  0
SPLINE
  5
2C3
100
AcDbEntity
  8
0
100
AcDbSpline
 62
7
  6
BYLAYER
 70
0
 71
3
 72
24
 73
20
 74
0
 42
0.0000001
 43
0.0000001
 44
0.0000000001
 40
0.0
 40
0.0
 40
0.0
 40
0.0
 40
0.0213182343
 40
0.0428481915
 40
0.0872606208
 40
0.1346689474
 40
0.1859751768
 40
0.2416188759
 40
0.3016379094
 40
0.3657454856
 40
0.4334082737
 40
0.5039101338
 40
0.5764018134
 40
0.6499456797
 40
0.7235668535
 40
0.7962846935
 40
0.8671447574
 40
0.935316804
 40
1.0
 40
1.0
 40
1.0
 40
1.0
 10
22.4990530492
 20
38.7392935779
 30
0.0
 10
22.499055758
 20
38.6525544812
 30
0.0
 10
22.5098152717
 20
38.4780144951
 30
0.0
 10
22.5747669647
 20
38.1282233879
 30
0.0
 10
22.7404564315
 20
37.6931083779
 30
0.0
 10
23.0605711314
 20
37.2022467042
 30
0.0
 10
23.4954433388
 20
36.744998972
 30
0.0
 10
24.035699853
 20
36.3293560711
 30
0.0
 10
24.6706101905
 20
35.9625146715
 30
0.0
 10
25.3877803568
 20
35.6511544145
 30
0.0
 10
26.1732189302
 20
35.4011238484
 30
0.0
 10
27.011539571
 20
35.217273906
 30
0.0
 10
27.8862206175
 20
35.1032390098
 30
0.0
 10
28.7799626197
 20
35.0612048873
 30
0.0
 10
29.6750836911
 20
35.0920263307
 30
0.0
 10
30.5538141005
 20
35.1951217124
 30
0.0
 10
31.3989340194
 20
35.3684093275
 30
0.0
 10
32.1934600213
 20
35.6085684519
 30
0.0
 10
32.6938891441
 20
35.8161482193
 30
0.0
 10
32.9307403421
 20
35.9308911536
 30
0.0
  0
SPLINE
  5
2C4
100
AcDbEntity
  8
0
100
AcDbSpline
 62
7
  6
BYLAYER
 70
0
 71
3
 72
13
 73
9
 74
0
 42
0.0000001
 43
0.0000001
 44
0.0000000001
 40
0.0
 40
0.0
 40
0.0
 40
0.0
 40
0.289377721
 40
0.5483151611
 40
0.6677443354
 40
0.7817690538
 40
0.8919077148
 40
1.0
 40
1.0
 40
1.0
 40
1.0
 10
52.2865563635
 20
36.4057600469
 30
0.0
 10
52.2865563635
 20
36.2448467777
 30
0.0
 10
52.2622990761
 20
35.9390338263
 30
0.0
 10
52.1560644137
 20
35.5792728379
 30
0.0
 10
52.0270829158
 20
35.3368039425
 30
0.0
 10
51.913326719
 20
35.1823610272
 30
0.0
 10
51.7811255611
 20
35.0521717941
 30
0.0
 10
51.6810192083
 20
34.982360997
 30
0.0
 10
51.6289651346
 20
34.9523082906
 30
0.0
  0
SPLINE
  5
2C5
100
AcDbEntity
  8
0
100
AcDbSpline
 62
7
  6
BYLAYER
 70
0
 71
3
 72
14
 73
10
 74
0
 42
0.0000001
 43
0.0000001
 44
0.0000000001
 40
0.0
 40
0.0
 40
0.0
 40
0.0
 40
0.28255483
 40
0.4140516824
 40
0.5395247941
 40
0.65972053
 40
0.7756637041
 40
0.8886070077
 40
1.0
 40
1.0
 40
1.0
 40
1.0
 10
25.5592513436
 20
52.5338556812
 30
0.0
 10
25.5915405103
 20
52.8456151505
 30
0.0
 10
25.6745416409
 20
53.3007862435
 30
0.0
 10
25.8699980869
 20
53.8673799329
 30
0.0
 10
26.0490412245
 20
54.2465579824
 30
0.0
 10
26.2630367883
 20
54.5870452625
 30
0.0
 10
26.5105063435
 20
54.8864098827
 30
0.0
 10
26.7897947311
 20
55.1421168462
 30
0.0
 10
26.9964816739
 20
55.2825584674
 30
0.0
 10
27.1034855702
 20
55.3443501348
 30
0.0
  0
SPLINE
  5
2C6
100
AcDbEntity
  8
0
100
AcDbSpline
 62
7
  6
BYLAYER
 70
0
 71
3
 72
12
 73
8
 74
0
 42
0.0000001
 43
0.0000001
 44
0.0000000001
 40
0.0
 40
0.0
 40
0.0
 40
0.0
 40
0.1075182257
 40
0.2185527912
 40
0.4547624792
 40
0.7146227805
 40
1.0
 40
1.0
 40
1.0
 40
1.0
 10
27.1705193146
 20
55.30529778
 30
0.0
 10
27.0778533889
 20
55.2187325549
 30
0.0
 10
26.9018769929
 20
55.0290451555
 30
0.0
 10
26.5918194085
 20
54.5898046
 30
0.0
 10
26.2937369774
 20
53.9310683196
 30
0.0
 10
26.0923171514
 20
53.0267623628
 30
0.0
 10
26.0595149074
 20
52.3815215849
 30
0.0
 10
26.0651459971
 20
52.0449895897
 30
0.0
  0
SPLINE
  5
2C7
100
AcDbEntity
  8
0
100
AcDbSpline
 62
7
  6
BYLAYER
 70
0
 71
3
 72
9
 73
5
 74
0
 42
0.0000001
 43
0.0000001
 44
0.0000000001
 40
0.0
 40
0.0
 40
0.0
 40
0.0
 40
0.4860034883
 40
1.0
 40
1.0
 40
1.0
 40
1.0
 10
11.4905531034
 20
63.1380579977
 30
0.0
 10
11.4905531045
 20
63.0515802837
 30
0.0
 10
11.5186537213
 20
62.8727199685
 30
0.0
 10
11.5968645726
 20
62.7102400606
 30
0.0
 10
11.6459082652
 20
62.633042855
 30
0.0
  0
SPLINE
  5
2C8
100
AcDbEntity
  8
0
100
AcDbSpline
 62
7
  6
BYLAYER
 70
0
 71
3
 72
10
 73
6
 74
0
 42
0.0000001
 43
0.0000001
 44
0.0000000001
 40
0.0
 40
0.0
 40
0.0
 40
0.0
 40
0.2275323467
 40
0.596274676
 40
1.0
 40
1.0
 40
1.0
 40
1.0
 10
11.6459082652
 20
62.633042855
 30
0.0
 10
11.6784453431
 20
62.5818278801
 30
0.0
 10
11.7742977703
 20
62.4541706037
 30
0.0
 10
11.9693989666
 20
62.2701310674
 30
0.0
 10
12.1412519779
 20
62.1549480202
 30
0.0
 10
12.2344906981
 20
62.1011178377
 30
0.0
  0
SPLINE
  5
2C9
100
AcDbEntity
  8
0
100
AcDbSpline
 62
7
  6
BYLAYER
 70
0
 71
3
 72
11
 73
7
 74
0
 42
0.0000001
 43
0.0000001
 44
0.0000000001
 40
0.0
 40
0.0
 40
0.0
 40
0.0
 40
0.2944129729
 40
0.5557208397
 40
0.7869532652
 40
1.0
 40
1.0
 40
1.0
 40
1.0
 10
29.665363083
 20
38.8205270929
 30
0.0
 10
29.7323256431
 20
38.8529672102
 30
0.0
 10
29.8541824454
 20
38.9247154707
 30
0.0
 10
30.0018165071
 20
39.060799418
 30
0.0
 10
30.096495332
 20
39.2152233866
 30
0.0
 10
30.1190180133
 20
39.3283645345
 30
0.0
 10
30.1190122859
 20
39.3822075701
 30
0.0
  0
SPLINE
  5
2CA
100
AcDbEntity
  8
0
100
AcDbSpline
 62
7
  6
BYLAYER
 70
0
 71
3
 72
15
 73
11
 74
0
 42
0.0000001
 43
0.0000001
 44
0.0000000001
 40
0.0
 40
0.0
 40
0.0
 40
0.0
 40
0.1141469224
 40
0.2373360365
 40
0.366976904
 40
0.5000005214
 40
0.6330240663
 40
0.762664722
 40
0.8858535023
 40
1.0
 40
1.0
 40
1.0
 40
1.0
 10
15.8266080701
 20
60.027254823
 30
0.0
 10
15.949553867
 20
59.95627364
 30
0.0
 10
16.2184318665
 20
59.8310871717
 30
0.0
 10
16.6562500631
 20
59.6979911004
 30
0.0
 10
17.1302794421
 20
59.6161156772
 30
0.0
 10
17.6226623391
 20
59.5884588909
 30
0.0
 10
18.1150448425
 20
59.6161180142
 30
0.0
 10
18.5890730587
 20
59.6979956881
 30
0.0
 10
19.0268893704
 20
59.8310938406
 30
0.0
 10
19.2957657226
 20
59.9562816519
 30
0.0
 10
19.4187105502
 20
60.0272634574
 30
0.0
  0
SPLINE
  5
2CB
100
AcDbEntity
  8
0
100
AcDbSpline
 62
7
  6
BYLAYER
 70
0
 71
3
 72
11
 73
7
 74
0
 42
0.0000001
 43
0.0000001
 44
0.0000000001
 40
0.0
 40
0.0
 40
0.0
 40
0.0
 40
0.2839007046
 40
0.5445057356
 40
0.7821532105
 40
1.0
 40
1.0
 40
1.0
 40
1.0
 10
32.9307403421
 20
35.9308911536
 30
0.0
 10
33.1815376662
 20
36.0523903106
 30
0.0
 10
33.6491367253
 20
36.3152477172
 30
0.0
 10
34.2578113274
 20
36.7886758328
 30
0.0
 10
34.7302205763
 20
37.3148212938
 30
0.0
 10
34.9529109502
 20
37.7082325436
 30
0.0
 10
35.0330151593
 20
37.9065012536
 30
0.0
  0
SPLINE
  5
2CC
100
AcDbEntity
  8
0
100
AcDbSpline
 62
7
  6
BYLAYER
 70
0
 71
3
 72
15
 73
11
 74
0
 42
0.0000001
 43
0.0000001
 44
0.0000000001
 40
0.0
 40
0.0
 40
0.0
 40
0.0
 40
0.118677713
 40
0.245351418
 40
0.3771858558
 40
0.5109159951
 40
0.6431273281
 40
0.7705246015
 40
0.8902105399
 40
1.0
 40
1.0
 40
1.0
 40
1.0
 10
32.114396047
 20
36.4925716472
 30
0.0
 10
31.8492926397
 20
36.3641418859
 30
0.0
 10
31.2793052282
 20
36.1426322225
 30
0.0
 10
30.3673961286
 20
35.9210156019
 30
0.0
 10
29.3985196737
 20
35.804910884
 30
0.0
 10
28.4091373367
 20
35.798767341
 30
0.0
 10
27.4362292792
 20
35.9027546528
 30
0.0
 10
26.5160363303
 20
36.1130955496
 30
0.0
 10
25.6830234293
 20
36.4218621486
 30
0.0
 10
25.1820312842
 20
36.6995850709
 30
0.0
 10
24.9575265942
 20
36.8540540867
 30
0.0
  0
SPLINE
  5
2CD
100
AcDbEntity
  8
0
100
AcDbSpline
 62
7
  6
BYLAYER
 70
0
 71
3
 72
13
 73
9
 74
0
 42
0.0000001
 43
0.0000001
 44
0.0000000001
 40
0.0
 40
0.0
 40
0.0
 40
0.0
 40
0.2842141897
 40
0.5414027011
 40
0.6614365364
 40
0.776970969
 40
0.889315696
 40
1.0
 40
1.0
 40
1.0
 40
1.0
 10
24.9575265942
 20
36.8540540867
 30
0.0
 10
24.7767637557
 20
36.9784268015
 30
0.0
 10
24.4499092744
 20
37.2428610897
 30
0.0
 10
24.1217956266
 20
37.6401985425
 30
0.0
 10
23.9381026965
 20
37.9744449041
 30
0.0
 10
23.8409260578
 20
38.2257857846
 30
0.0
 10
23.7821470043
 20
38.4813829704
 30
0.0
 10
23.7690463717
 20
38.6538439223
 30
0.0
 10
23.7690446549
 20
38.7392935857
 30
0.0
  0
SPLINE
  5
2CE
100
AcDbEntity
  8
0
100
AcDbSpline
 62
7
  6
BYLAYER
 70
0
 71
3
 72
13
 73
9
 74
0
 42
0.0000001
 43
0.0000001
 44
0.0000000001
 40
0.0
 40
0.0
 40
0.0
 40
0.0
 40
0.0908486811
 40
0.1881373159
 40
0.2962869128
 40
0.4171942003
 40
0.6936497206
 40
1.0
 40
1.0
 40
1.0
 40
1.0
 10
52.1587674
 20
38.3378237918
 30
0.0
 10
52.175522193
 20
38.34749639
 30
0.0
 10
52.20690558
 20
38.3738245647
 30
0.0
 10
52.2402325589
 20
38.428413511
 30
0.0
 10
52.2601052084
 20
38.4956693322
 30
0.0
 10
52.2686115408
 20
38.6035787395
 30
0.0
 10
52.2419226673
 20
38.7533292294
 30
0.0
 10
52.1914035803
 20
38.8678936788
 30
0.0
 10
52.1587845475
 20
38.9243911873
 30
0.0
  0
SPLINE
  5
2CF
100
AcDbEntity
  8
0
100
AcDbSpline
 62
7
  6
BYLAYER
 70
0
 71
3
 72
9
 73
5
 74
0
 42
0.0000001
 43
0.0000001
 44
0.0000000001
 40
0.0
 40
0.0
 40
0.0
 40
0.0
 40
0.4966338213
 40
1.0
 40
1.0
 40
1.0
 40
1.0
 10
53.1138941223
 20
28.8546652325
 30
0.0
 10
53.1665854641
 20
28.8850864131
 30
0.0
 10
53.2684038779
 20
28.9540695878
 30
0.0
 10
53.3593438658
 20
29.036824216
 30
0.0
 10
53.4020521947
 20
29.0813086894
 30
0.0
  0
SPLINE
  5
2D0
100
AcDbEntity
  8
0
100
AcDbSpline
 62
7
  6
BYLAYER
 70
0
 71
3
 72
11
 73
7
 74
0
 42
0.0000001
 43
0.0000001
 44
0.0000000001
 40
0.0
 40
0.0
 40
0.0
 40
0.0
 40
0.2200277201
 40
0.4575255419
 40
0.7171234318
 40
1.0
 40
1.0
 40
1.0
 40
1.0
 10
53.4020521947
 20
29.0813086894
 30
0.0
 10
53.4850741578
 20
29.1677833515
 30
0.0
 10
53.6344157373
 20
29.3709541136
 30
0.0
 10
53.7906403864
 20
29.7318974269
 30
0.0
 10
53.8840466794
 20
30.1485631466
 30
0.0
 10
53.9030047085
 20
30.4446865992
 30
0.0
 10
53.9030047086
 20
30.5988054351
 30
0.0
  0
SPLINE
  5
2D1
100
AcDbEntity
  8
0
100
AcDbSpline
 62
7
  6
BYLAYER
 70
0
 71
3
 72
13
 73
9
 74
0
 42
0.0000001
 43
0.0000001
 44
0.0000000001
 40
0.0
 40
0.0
 40
0.0
 40
0.0
 40
0.289377721
 40
0.5483151611
 40
0.6677443354
 40
0.7817690538
 40
0.8919077148
 40
1.0
 40
1.0
 40
1.0
 40
1.0
 10
33.6973443125
 20
47.7601627427
 30
0.0
 10
33.6973443125
 20
47.5992494735
 30
0.0
 10
33.6730870251
 20
47.2934365221
 30
0.0
 10
33.5668523627
 20
46.9336755337
 30
0.0
 10
33.4378708648
 20
46.6912066383
 30
0.0
 10
33.324114668
 20
46.536763723
 30
0.0
 10
33.1919135101
 20
46.4065744899
 30
0.0
 10
33.0918071573
 20
46.3367636928
 30
0.0
 10
33.0397530836
 20
46.3067109864
 30
0.0
  0
SPLINE
  5
2D2
100
AcDbEntity
  8
0
100
AcDbSpline
 62
7
  6
BYLAYER
 70
0
 71
3
 72
15
 73
11
 74
0
 42
0.0000001
 43
0.0000001
 44
0.0000000001
 40
0.0
 40
0.0
 40
0.0
 40
0.0
 40
0.1141469224
 40
0.2373360365
 40
0.366976904
 40
0.5000005214
 40
0.6330240663
 40
0.762664722
 40
0.8858535023
 40
1.0
 40
1.0
 40
1.0
 40
1.0
 10
15.8266080701
 20
43.4774040297
 30
0.0
 10
15.949553867
 20
43.4064228467
 30
0.0
 10
16.2184318665
 20
43.2812363784
 30
0.0
 10
16.6562500631
 20
43.1481403071
 30
0.0
 10
17.1302794421
 20
43.0662648839
 30
0.0
 10
17.6226623391
 20
43.0386080976
 30
0.0
 10
18.1150448425
 20
43.0662672209
 30
0.0
 10
18.5890730587
 20
43.1481448948
 30
0.0
 10
19.0268893704
 20
43.2812430474
 30
0.0
 10
19.2957657226
 20
43.4064308586
 30
0.0
 10
19.4187105502
 20
43.4774126641
 30
0.0
  0
SPLINE
  5
2D3
100
AcDbEntity
  8
0
100
AcDbSpline
 62
7
  6
BYLAYER
 70
0
 71
3
 72
11
 73
7
 74
0
 42
0.0000001
 43
0.0000001
 44
0.0000000001
 40
0.0
 40
0.0
 40
0.0
 40
0.0
 40
0.2832473331
 40
0.5428805991
 40
0.7801834511
 40
1.0
 40
1.0
 40
1.0
 40
1.0
 10
53.8850441216
 20
30.6299138892
 30
0.0
 10
53.8850441216
 20
30.4739715088
 30
0.0
 10
53.8656521642
 20
30.1744952223
 30
0.0
 10
53.7699632433
 20
29.7535581528
 30
0.0
 10
53.6099005627
 20
29.3899011131
 30
0.0
 10
53.4569505837
 20
29.1862603087
 30
0.0
 10
53.3720428525
 20
29.1000244506
 30
0.0
  0
SPLINE
  5
2D4
100
AcDbEntity
  8
0
100
AcDbSpline
 62
7
  6
BYLAYER
 70
0
 71
3
 72
18
 73
14
 74
0
 42
0.0000001
 43
0.0000001
 44
0.0000000001
 40
0.0
 40
0.0
 40
0.0
 40
0.0
 40
0.1550699885
 40
0.3062053944
 40
0.4497879542
 40
0.5828590296
 40
0.7035253683
 40
0.7591156924
 40
0.811658766
 40
0.8614578689
 40
0.909008113
 40
0.9549510119
 40
1.0
 40
1.0
 40
1.0
 40
1.0
 10
52.1587845475
 20
38.9243911873
 30
0.0
 10
51.997476042
 20
39.2037841635
 30
0.0
 10
51.6476520208
 20
39.7381222332
 30
0.0
 10
51.0472814694
 20
40.4586128909
 30
0.0
 10
50.3953945768
 20
41.0684076452
 30
0.0
 10
49.7161550447
 20
41.5446382732
 30
0.0
 10
49.1311654996
 20
41.8230272956
 30
0.0
 10
48.6733020739
 20
41.9564877001
 30
0.0
 10
48.3484205403
 20
42.0110338595
 30
0.0
 10
48.0357760727
 20
42.0218917137
 30
0.0
 10
47.7383251639
 20
41.9887480772
 30
0.0
 10
47.4593697346
 20
41.9114903815
 30
0.0
 10
47.2869292019
 20
41.8308164179
 30
0.0
 10
47.2057639262
 20
41.7839542843
 30
0.0
  0
SPLINE
  5
2D5
100
AcDbEntity
  8
0
100
AcDbSpline
 62
7
  6
BYLAYER
 70
0
 71
3
 72
11
 73
7
 74
0
 42
0.0000001
 43
0.0000001
 44
0.0000000001
 40
0.0
 40
0.0
 40
0.0
 40
0.0
 40
0.2660880347
 40
0.525347095
 40
0.7716533386
 40
1.0
 40
1.0
 40
1.0
 40
1.0
 10
53.1049233163
 20
44.2613882019
 30
0.0
 10
53.2276481073
 20
44.0474813744
 30
0.0
 10
53.4466027174
 20
43.6112406158
 30
0.0
 10
53.6928398008
 20
42.9380476526
 30
0.0
 10
53.846525415
 20
42.2736188746
 30
0.0
 10
53.8850441216
 20
41.8333025418
 30
0.0
 10
53.8850441216
 20
41.6216694285
 30
0.0
  0
SPLINE
  5
2D6
100
AcDbEntity
  8
0
100
AcDbSpline
 62
7
  6
BYLAYER
 70
0
 71
3
 72
11
 73
7
 74
0
 42
0.0000001
 43
0.0000001
 44
0.0000000001
 40
0.0
 40
0.0
 40
0.0
 40
0.0
 40
0.2282735072
 40
0.4746544631
 40
0.7339936791
 40
1.0
 40
1.0
 40
1.0
 40
1.0
 10
53.9030047086
 20
41.5905609311
 30
0.0
 10
53.9030047085
 20
41.8048544318
 30
0.0
 10
53.8635074167
 20
42.2508549915
 30
0.0
 10
53.7061605834
 20
42.9235740754
 30
0.0
 10
53.4542557732
 20
43.6046384231
 30
0.0
 10
53.2303696905
 20
44.0454691841
 30
0.0
 10
53.1049233163
 20
44.2613882019
 30
0.0
  0
SPLINE
  5
2D7
100
AcDbEntity
  8
0
100
AcDbSpline
 62
7
  6
BYLAYER
 70
0
 71
3
 72
11
 73
7
 74
0
 42
0.0000001
 43
0.0000001
 44
0.0000000001
 40
0.0
 40
0.0
 40
0.0
 40
0.0
 40
0.213048831
 40
0.4442854977
 40
0.705598124
 40
1.0
 40
1.0
 40
1.0
 40
1.0
 10
30.1190112302
 20
39.3614684155
 30
0.0
 10
30.1190134571
 20
39.3076249087
 30
0.0
 10
30.0964964312
 20
39.1944820078
 30
0.0
 10
30.001811622
 20
39.0400569375
 30
0.0
 10
29.8541784077
 20
38.9039743006
 30
0.0
 10
29.7323230462
 20
38.8322267907
 30
0.0
 10
29.665363083
 20
38.7997879315
 30
0.0
  0
SPLINE
  5
2D8
100
AcDbEntity
  8
0
100
AcDbSpline
 62
7
  6
BYLAYER
 70
0
 71
3
 72
15
 73
11
 74
0
 42
0.0000001
 43
0.0000001
 44
0.0000000001
 40
0.0
 40
0.0
 40
0.0
 40
0.0
 40
0.1097894721
 40
0.2294754242
 40
0.3568727045
 40
0.4890840409
 40
0.6228141776
 40
0.7546486089
 40
0.8813222997
 40
1.0
 40
1.0
 40
1.0
 40
1.0
 10
24.9575265942
 20
37.4762289285
 30
0.0
 10
25.1820313085
 20
37.321759896
 30
0.0
 10
25.683023516
 20
37.0440369527
 30
0.0
 10
26.5160364975
 20
36.7352703369
 30
0.0
 10
27.4362295126
 20
36.5249294587
 30
0.0
 10
28.409137591
 20
36.4209421701
 30
0.0
 10
29.3985199142
 20
36.4270857382
 30
0.0
 10
30.3673963074
 20
36.5431904805
 30
0.0
 10
31.2793053235
 20
36.7648070925
 30
0.0
 10
31.8492926681
 20
36.9863167415
 30
0.0
 10
32.114396047
 20
37.114746489
 30
0.0
  0
SPLINE
  5
2D9
100
AcDbEntity
  8
0
100
AcDbSpline
 62
7
  6
BYLAYER
 70
0
 71
3
 72
13
 73
9
 74
0
 42
0.0000001
 43
0.0000001
 44
0.0000000001
 40
0.0
 40
0.0
 40
0.0
 40
0.0
 40
0.1080924405
 40
0.218232059
 40
0.3322568128
 40
0.4516866096
 40
0.7106267029
 40
1.0
 40
1.0
 40
1.0
 40
1.0
 10
51.2697554751
 20
34.7449218376
 30
0.0
 10
51.3218101187
 20
34.7749736574
 30
0.0
 10
51.4219174284
 20
34.8447846038
 30
0.0
 10
51.5541159243
 20
34.9749769185
 30
0.0
 10
51.6678767839
 20
35.129417295
 30
0.0
 10
51.7968554876
 20
35.3718899575
 30
0.0
 10
51.9030905184
 20
35.7316493195
 30
0.0
 10
51.9273476142
 20
36.0374613044
 30
0.0
 10
51.9273476142
 20
36.1983720168
 30
0.0
  0
SPLINE
  5
2DA
100
AcDbEntity
  8
0
100
AcDbSpline
 62
7
  6
BYLAYER
 70
0
 71
3
 72
17
 73
13
 74
0
 42
0.0000001
 43
0.0000001
 44
0.0000000001
 40
0.0
 40
0.0
 40
0.0
 40
0.0
 40
0.0450859066
 40
0.0910223424
 40
0.1385794794
 40
0.1883970873
 40
0.296361754
 40
0.4170410515
 40
0.5501248033
 40
0.6937245771
 40
0.8448878492
 40
1.0
 40
1.0
 40
1.0
 40
1.0
 10
48.4540008377
 20
40.4515405945
 30
0.0
 10
48.5060126245
 20
40.4815688871
 30
0.0
 10
48.6164269497
 20
40.5333183213
 30
0.0
 10
48.7951070141
 20
40.5827145611
 30
0.0
 10
48.9855727457
 20
40.6040533937
 30
0.0
 10
49.259763781
 20
40.5945953404
 30
0.0
 10
49.6241908382
 20
40.5069905894
 30
0.0
 10
50.0616558992
 20
40.2989830522
 30
0.0
 10
50.4969694223
 20
39.9941969105
 30
0.0
 10
50.9145712252
 20
39.6039557688
 30
0.0
 10
51.2993385285
 20
39.1427710288
 30
0.0
 10
51.5235968761
 20
38.8007180746
 30
0.0
 10
51.627035192
 20
38.6218534069
 30
0.0
  0
SPLINE
  5
2DB
100
AcDbEntity
  8
0
100
AcDbSpline
 62
7
  6
BYLAYER
 70
0
 71
3
 72
11
 73
7
 74
0
 42
0.0000001
 43
0.0000001
 44
0.0000000001
 40
0.0
 40
0.0
 40
0.0
 40
0.0
 40
0.2660343951
 40
0.5253293215
 40
0.771718577
 40
1.0
 40
1.0
 40
1.0
 40
1.0
 10
51.627035192
 20
38.6218534069
 30
0.0
 10
51.7307319405
 20
38.4425418599
 30
0.0
 10
51.9157543661
 20
38.076601014
 30
0.0
 10
52.1239714856
 20
37.5114766889
 30
0.0
 10
52.2539261564
 20
36.9534248003
 30
0.0
 10
52.2865563635
 20
36.5835020241
 30
0.0
 10
52.2865563635
 20
36.4057600469
 30
0.0
  0
SPLINE
  5
2DC
100
AcDbEntity
  8
0
100
AcDbSpline
 62
7
  6
BYLAYER
 70
0
 71
3
 72
13
 73
9
 74
0
 42
0.0000001
 43
0.0000001
 44
0.0000000001
 40
0.0
 40
0.0
 40
0.0
 40
0.0
 40
0.3063506246
 40
0.5827902232
 40
0.7036979959
 40
0.8118499759
 40
0.9091454716
 40
1.0
 40
1.0
 40
1.0
 40
1.0
 10
9.4577156913
 20
58.4446264821
 30
0.0
 10
9.4250970218
 20
58.5011233613
 30
0.0
 10
9.3511441476
 20
58.6021537783
 30
0.0
 10
9.2348035565
 20
58.7001345672
 30
0.0
 10
9.1371053439
 20
58.7467298735
 30
0.0
 10
9.0689218235
 20
58.7631428571
 30
0.0
 10
9.0049799521
 20
58.7615822041
 30
0.0
 10
8.9664863897
 20
58.7475634362
 30
0.0
 10
8.9497307238
 20
58.737890334
 30
0.0
  0
SPLINE
  5
2DD
100
AcDbEntity
  8
0
100
AcDbSpline
 62
7
  6
BYLAYER
 70
0
 71
3
 72
21
 73
17
 74
0
 42
0.0000001
 43
0.0000001
 44
0.0000000001
 40
0.0
 40
0.0
 40
0.0
 40
0.0
 40
0.0428237629
 40
0.0874175383
 40
0.1352139544
 40
0.1871363377
 40
0.2435992197
 40
0.3045738494
 40
0.3696883705
 40
0.4383155752
 40
0.582544646
 40
0.7295831501
 40
0.8015915077
 40
0.8712087898
 40
0.9376091082
 40
1.0
 40
1.0
 40
1.0
 40
1.0
 10
29.8647887867
 20
51.8059432903
 30
0.0
 10
29.9430607763
 20
51.8511325513
 30
0.0
 10
30.1155957841
 20
51.9228575769
 30
0.0
 10
30.4004193628
 20
51.9646048126
 30
0.0
 10
30.7062717395
 20
51.9420690363
 30
0.0
 10
31.0263784373
 20
51.8570528982
 30
0.0
 10
31.3544352232
 20
51.7120593353
 30
0.0
 10
31.6839038576
 20
51.5104753824
 30
0.0
 10
32.0081560462
 20
51.2566731969
 30
0.0
 10
32.4312606499
 20
50.8490711843
 30
0.0
 10
32.9013675981
 20
50.2470860799
 30
0.0
 10
33.268114539
 20
49.5694320004
 30
0.0
 10
33.486673217
 20
49.00001759
 30
0.0
 10
33.6060892975
 20
48.5768031594
 30
0.0
 10
33.6794487654
 20
48.1638331884
 30
0.0
 10
33.6973443125
 20
47.8918396089
 30
0.0
 10
33.6973443125
 20
47.7601627427
 30
0.0
  0
SPLINE
  5
2DE
100
AcDbEntity
  8
0
100
AcDbSpline
 62
7
  6
BYLAYER
 70
0
 71
3
 72
13
 73
9
 74
0
 42
0.0000001
 43
0.0000001
 44
0.0000000001
 40
0.0
 40
0.0
 40
0.0
 40
0.0
 40
0.0918791971
 40
0.1897112347
 40
0.2977156821
 40
0.4179252268
 40
0.6926225064
 40
1.0
 40
1.0
 40
1.0
 40
1.0
 10
9.3089395066
 20
58.9452783837
 30
0.0
 10
9.3248819484
 20
58.9544833982
 30
0.0
 10
9.3612097291
 20
58.9680792843
 30
0.0
 10
9.4215536834
 20
58.9709157635
 30
0.0
 10
9.4860540571
 20
58.957398662
 30
0.0
 10
9.5788566635
 20
58.9167609538
 30
0.0
 10
9.6912001712
 20
58.8286271976
 30
0.0
 10
9.7641458814
 20
58.7363945331
 30
0.0
 10
9.7972372909
 20
58.6844534581
 30
0.0
  0
SPLINE
  5
2DF
100
AcDbEntity
  8
0
100
AcDbSpline
 62
7
  6
BYLAYER
 70
0
 71
3
 72
17
 73
13
 74
0
 42
0.0000001
 43
0.0000001
 44
0.0000000001
 40
0.0
 40
0.0
 40
0.0
 40
0.0
 40
0.1328248256
 40
0.2764315073
 40
0.4236265607
 40
0.5666341893
 40
0.6983765028
 40
0.8139081032
 40
0.8652656703
 40
0.9127274391
 40
0.9571843835
 40
1.0
 40
1.0
 40
1.0
 40
1.0
 10
29.665363083
 20
38.7997879315
 30
0.0
 10
29.5681941854
 20
38.7527143067
 30
0.0
 10
29.3542252975
 20
38.6783449629
 30
0.0
 10
29.0125858391
 20
38.6247386017
 30
0.0
 10
28.6584122239
 20
38.6268856631
 30
0.0
 10
28.3186165658
 20
38.6847833591
 30
0.0
 10
28.0188040876
 20
38.7939874665
 30
0.0
 10
27.8119860924
 20
38.9272418121
 30
0.0
 10
27.6913589091
 20
39.0540602959
 30
0.0
 10
27.6273023859
 20
39.152261119
 30
0.0
 10
27.5879923555
 20
39.2554458759
 30
0.0
 10
27.5790277457
 20
39.3266643666
 30
0.0
 10
27.5790263063
 20
39.3614684156
 30
0.0
  0
SPLINE
  5
2E0
100
AcDbEntity
  8
0
100
AcDbSpline
 62
7
  6
BYLAYER
 70
0
 71
3
 72
11
 73
7
 74
0
 42
0.0000001
 43
0.0000001
 44
0.0000000001
 40
0.0
 40
0.0
 40
0.0
 40
0.0
 40
0.2795938233
 40
0.5356591714
 40
0.7730060906
 40
1.0
 40
1.0
 40
1.0
 40
1.0
 10
10.736298869
 20
68.9802825213
 30
0.0
 10
10.6046809886
 20
69.0312008459
 30
0.0
 10
10.344340816
 20
69.1097826392
 30
0.0
 10
9.9534325911
 20
69.1499700704
 30
0.0
 10
9.5891957362
 20
69.1041281373
 30
0.0
 10
9.3690064706
 20
69.0145864288
 30
0.0
 10
9.2697846692
 20
68.9572951104
 30
0.0
  0
SPLINE
  5
2E1
100
AcDbEntity
  8
0
100
AcDbSpline
 62
7
  6
BYLAYER
 70
0
 71
3
 72
17
 73
13
 74
0
 42
0.0000001
 43
0.0000001
 44
0.0000000001
 40
0.0
 40
0.0
 40
0.0
 40
0.0
 40
0.0428129323
 40
0.087267925
 40
0.1347285051
 40
0.1860848391
 40
0.3016126148
 40
0.4333499509
 40
0.5763586213
 40
0.7235598545
 40
0.8671745736
 40
1.0
 40
1.0
 40
1.0
 40
1.0
 10
27.5790252506
 20
39.3822075838
 30
0.0
 10
27.5790289525
 20
39.3474057165
 30
0.0
 10
27.5879866601
 20
39.2761905176
 30
0.0
 10
27.6272987794
 20
39.1730110768
 30
0.0
 10
27.6913481827
 20
39.0748104833
 30
0.0
 10
27.8119714321
 20
38.9479946664
 30
0.0
 10
28.0187788295
 20
38.81474024
 30
0.0
 10
28.3185834392
 20
38.7055321063
 30
0.0
 10
28.6583799403
 20
38.6476289767
 30
0.0
 10
29.0125661329
 20
38.6454751137
 30
0.0
 10
29.3542179232
 20
38.6990824112
 30
0.0
 10
29.5681937447
 20
38.7734532546
 30
0.0
 10
29.665363083
 20
38.8205270929
 30
0.0
  0
SPLINE
  5
2E2
100
AcDbEntity
  8
0
100
AcDbSpline
 62
7
  6
BYLAYER
 70
0
 71
3
 72
19
 73
15
 74
0
 42
0.0000001
 43
0.0000001
 44
0.0000000001
 40
0.0
 40
0.0
 40
0.0
 40
0.0
 40
0.0453755571
 40
0.0940773173
 40
0.1481663247
 40
0.2086025916
 40
0.3468415821
 40
0.4999851355
 40
0.6531292867
 40
0.7913784578
 40
0.8518214814
 40
0.9059179987
 40
0.9546237043
 40
1.0
 40
1.0
 40
1.0
 40
1.0
 10
52.1587845475
 20
33.2051185404
 30
0.0
 10
52.175520676
 20
33.214781425
 30
0.0
 10
52.2068311691
 20
33.2411885996
 30
0.0
 10
52.2402856641
 20
33.2956974125
 30
0.0
 10
52.2601065954
 20
33.3630094099
 30
0.0
 10
52.2686150045
 20
33.4709051322
 30
0.0
 10
52.2418756716
 20
33.620684979
 30
0.0
 10
52.1649394943
 20
33.795239889
 30
0.0
 10
52.0522429875
 20
33.9491541826
 30
0.0
 10
51.9358982874
 20
34.0472122122
 30
0.0
 10
51.8381952747
 20
34.0937979442
 30
0.0
 10
51.7699839763
 20
34.1102940244
 30
0.0
 10
51.7060453354
 20
34.1085747775
 30
0.0
 10
51.6675188334
 20
34.0946621714
 30
0.0
 10
51.6507824325
 20
34.0849991295
 30
0.0
  0
SPLINE
  5
2E3
100
AcDbEntity
  8
0
100
AcDbSpline
 62
7
  6
BYLAYER
 70
0
 71
3
 72
18
 73
14
 74
0
 42
0.0000001
 43
0.0000001
 44
0.0000000001
 40
0.0
 40
0.0
 40
0.0
 40
0.0
 40
0.0450364352
 40
0.0909847334
 40
0.1385461891
 40
0.1883479818
 40
0.2408849538
 40
0.2964767933
 40
0.4171418744
 40
0.5502142553
 40
0.6937833066
 40
0.8449422598
 40
1.0
 40
1.0
 40
1.0
 40
1.0
 10
51.6507824325
 20
34.0849991295
 30
0.0
 10
51.5862846659
 20
34.047760262
 30
0.0
 10
51.4492161243
 20
33.9836645984
 30
0.0
 10
51.2274836
 20
33.9222421938
 30
0.0
 10
50.9910194979
 20
33.8958539264
 30
0.0
 10
50.7424957068
 20
33.9045104584
 30
0.0
 10
50.484257555
 20
33.947850315
 30
0.0
 10
50.1203452711
 20
34.0540000972
 30
0.0
 10
49.65533121
 20
34.2752257148
 30
0.0
 10
49.1154678695
 20
34.6537962884
 30
0.0
 10
48.5972500752
 20
35.1384694234
 30
0.0
 10
48.1200684851
 20
35.7111924507
 30
0.0
 10
47.8419750092
 20
36.1359219672
 30
0.0
 10
47.7137660412
 20
36.357985181
 30
0.0
  0
SPLINE
  5
2E4
100
AcDbEntity
  8
0
100
AcDbSpline
 62
7
  6
BYLAYER
 70
0
 71
3
 72
21
 73
17
 74
0
 42
0.0000001
 43
0.0000001
 44
0.0000000001
 40
0.0
 40
0.0
 40
0.0
 40
0.0
 40
0.0623909387
 40
0.1287897425
 40
0.1984050988
 40
0.2704117972
 40
0.4174474613
 40
0.5616778534
 40
0.6303066974
 40
0.695422533
 40
0.7563978507
 40
0.8128613613
 40
0.8647839355
 40
0.9125804684
 40
0.9571750386
 40
1.0
 40
1.0
 40
1.0
 40
1.0
 10
51.9273476142
 20
36.1983720168
 30
0.0
 10
51.9273476142
 20
36.3300489761
 30
0.0
 10
51.909453059
 20
36.602039496
 30
0.0
 10
51.836094797
 20
37.0150024043
 30
0.0
 10
51.7166827044
 20
37.4382066335
 30
0.0
 10
51.4981345071
 20
38.0076104326
 30
0.0
 10
51.1313950998
 20
38.6852612379
 30
0.0
 10
50.6612904106
 20
39.287247947
 30
0.0
 10
50.238185289
 20
39.6948623361
 30
0.0
 10
49.9139283644
 20
39.9486713179
 30
0.0
 10
49.5844547657
 20
40.150257498
 30
0.0
 10
49.2563978003
 20
40.2952579435
 30
0.0
 10
48.9362890289
 20
40.3802767063
 30
0.0
 10
48.6304350074
 20
40.4028092906
 30
0.0
 10
48.3456047524
 20
40.3610724474
 30
0.0
 10
48.1730679667
 20
40.2893401398
 30
0.0
 10
48.0947929986
 20
40.2441509871
 30
0.0
  0
SPLINE
  5
2E5
100
AcDbEntity
  8
0
100
AcDbSpline
 62
7
  6
BYLAYER
 70
0
 71
3
 72
9
 73
5
 74
0
 42
0.0000001
 43
0.0000001
 44
0.0000000001
 40
0.0
 40
0.0
 40
0.0
 40
0.0
 40
0.2557310248
 40
1.0
 40
1.0
 40
1.0
 40
1.0
 10
11.6956253078
 20
69.0693257447
 30
0.0
 10
11.6698760127
 20
69.0841917708
 30
0.0
 10
11.5684716459
 20
69.1410693831
 30
0.0
 10
11.4641645677
 20
69.1928181781
 30
0.0
 10
11.3850576496
 20
69.227888848
 30
0.0
  0
SPLINE
  5
2E6
100
AcDbEntity
  8
0
100
AcDbSpline
 62
7
  6
BYLAYER
 70
0
 71
3
 72
15
 73
11
 74
0
 42
0.0000001
 43
0.0000001
 44
0.0000000001
 40
0.0
 40
0.0
 40
0.0
 40
0.0
 40
0.1141232787
 40
0.2373467935
 40
0.3669716251
 40
0.4999988493
 40
0.6330262331
 40
0.7626515288
 40
0.885875802
 40
1.0
 40
1.0
 40
1.0
 40
1.0
 10
49.6822742369
 20
35.7317076938
 30
0.0
 10
49.5777920082
 20
35.792029172
 30
0.0
 10
49.3713745713
 20
35.9367810249
 30
0.0
 10
49.0872960984
 20
36.2024601503
 30
0.0
 10
48.8255609975
 20
36.5166358139
 30
0.0
 10
48.5959237267
 20
36.8673137533
 30
0.0
 10
48.4070443197
 20
37.2415239503
 30
0.0
 10
48.2658252018
 20
37.6252816339
 30
0.0
 10
48.1777766573
 20
38.0041420029
 30
0.0
 10
48.1556243403
 20
38.2552822262
 30
0.0
 10
48.1556243403
 20
38.3759282014
 30
0.0
  0
SPLINE
  5
2E7
100
AcDbEntity
  8
0
100
AcDbSpline
 62
7
  6
BYLAYER
 70
0
 71
3
 72
12
 73
8
 74
0
 42
0.0000001
 43
0.0000001
 44
0.0000000001
 40
0.0
 40
0.0
 40
0.0
 40
0.0
 40
0.2894847231
 40
0.5486751865
 40
0.7816263484
 40
0.8918293154
 40
1.0
 40
1.0
 40
1.0
 40
1.0
 10
48.1556243403
 20
38.3759282014
 30
0.0
 10
48.1556243403
 20
38.4853207251
 30
0.0
 10
48.1722625301
 20
38.6933905755
 30
0.0
 10
48.2563073918
 20
38.9791154267
 30
0.0
 10
48.3772561485
 20
39.1762576682
 30
0.0
 10
48.4993505262
 20
39.2963030327
 30
0.0
 10
48.5673844829
 20
39.3438406731
 30
0.0
 10
48.6027844562
 20
39.3642787195
 30
0.0
  0
SPLINE
  5
2E8
100
AcDbEntity
  8
0
100
AcDbSpline
 62
7
  6
BYLAYER
 70
0
 71
3
 72
13
 73
9
 74
0
 42
0.0000001
 43
0.0000001
 44
0.0000000001
 40
0.0
 40
0.0
 40
0.0
 40
0.0
 40
0.3063506246
 40
0.5827902232
 40
0.7036979959
 40
0.8118499759
 40
0.9091454716
 40
1.0
 40
1.0
 40
1.0
 40
1.0
 10
47.7137660412
 20
36.357985181
 30
0.0
 10
47.6811473717
 20
36.4144820603
 30
0.0
 10
47.6071944975
 20
36.5155124772
 30
0.0
 10
47.4908539064
 20
36.6134932661
 30
0.0
 10
47.3931556938
 20
36.6600885724
 30
0.0
 10
47.3249721734
 20
36.676501556
 30
0.0
 10
47.261030302
 20
36.674940903
 30
0.0
 10
47.2225367396
 20
36.6609221351
 30
0.0
 10
47.2057810737
 20
36.651249033
 30
0.0
  0
SPLINE
  5
2E9
100
AcDbEntity
  8
0
100
AcDbSpline
 62
7
  6
BYLAYER
 70
0
 71
3
 72
9
 73
5
 74
0
 42
0.0000001
 43
0.0000001
 44
0.0000000001
 40
0.0
 40
0.0
 40
0.0
 40
0.0
 40
0.2550829372
 40
1.0
 40
1.0
 40
1.0
 40
1.0
 10
51.5194842207
 20
46.0567910637
 30
0.0
 10
51.4938834347
 20
46.0750019752
 30
0.0
 10
51.3927295584
 20
46.145271356
 30
0.0
 10
51.288372511
 20
46.2109596143
 30
0.0
 10
51.2089165589
 20
46.2568324919
 30
0.0
  0
SPLINE
  5
2EA
100
AcDbEntity
  8
0
100
AcDbSpline
 62
7
  6
BYLAYER
 70
0
 71
3
 72
15
 73
11
 74
0
 42
0.0000001
 43
0.0000001
 44
0.0000000001
 40
0.0
 40
0.0
 40
0.0
 40
0.0
 40
0.1124267361
 40
0.2330673121
 40
0.3599535231
 40
0.4907367818
 40
0.6227798134
 40
0.753364816
 40
0.8799032145
 40
1.0
 40
1.0
 40
1.0
 40
1.0
 10
53.3462309976
 20
41.3105873833
 30
0.0
 10
53.3462309976
 20
41.5005606239
 30
0.0
 10
53.3152062159
 20
41.8947119571
 30
0.0
 10
53.189958452
 20
42.4912802958
 30
0.0
 10
52.9879285449
 20
43.0991349472
 30
0.0
 10
52.7153401691
 20
43.6998483468
 30
0.0
 10
52.3803319693
 20
44.2753287158
 30
0.0
 10
51.9930676412
 20
44.8082657741
 30
0.0
 10
51.5652738431
 20
45.2823839221
 30
0.0
 10
51.2515773701
 20
45.5586461902
 30
0.0
 10
51.0906167535
 20
45.6822333
 30
0.0
  0
SPLINE
  5
2EB
100
AcDbEntity
  8
0
100
AcDbSpline
 62
7
  6
BYLAYER
 70
0
 71
3
 72
9
 73
5
 74
0
 42
0.0000001
 43
0.0000001
 44
0.0000000001
 40
0.0
 40
0.0
 40
0.0
 40
0.0
 40
0.5100503164
 40
1.0
 40
1.0
 40
1.0
 40
1.0
 10
9.7670843763
 20
64.1006153345
 30
0.0
 10
9.6217985066
 20
64.0942557949
 30
0.0
 10
9.3370299653
 20
64.0515061026
 30
0.0
 10
9.0706911945
 20
63.9404440428
 30
0.0
 10
8.9497135763
 20
63.8705955854
 30
0.0
  0
SPLINE
  5
2EC
100
AcDbEntity
  8
0
100
AcDbSpline
 62
7
  6
BYLAYER
 70
0
 71
3
 72
12
 73
8
 74
0
 42
0.0000001
 43
0.0000001
 44
0.0000000001
 40
0.0
 40
0.0
 40
0.0
 40
0.0
 40
0.108169861
 40
0.2183744485
 40
0.4513322769
 40
0.7105272076
 40
1.0
 40
1.0
 40
1.0
 40
1.0
 10
50.7617644617
 20
35.6247933852
 30
0.0
 10
50.7263629009
 20
35.6043608572
 30
0.0
 10
50.6511789172
 20
35.5692136637
 30
0.0
 10
50.4861744505
 20
35.5234865057
 30
0.0
 10
50.2549690931
 20
35.5173179883
 30
0.0
 10
49.9655110308
 20
35.5873950175
 30
0.0
 10
49.7770050867
 20
35.6770160494
 30
0.0
 10
49.6822742369
 20
35.7317076938
 30
0.0
  0
SPLINE
  5
2ED
100
AcDbEntity
  8
0
100
AcDbSpline
 62
7
  6
BYLAYER
 70
0
 71
3
 72
13
 73
9
 74
0
 42
0.0000001
 43
0.0000001
 44
0.0000000001
 40
0.0
 40
0.0
 40
0.0
 40
0.0
 40
0.090848907
 40
0.1881376545
 40
0.2962872097
 40
0.4171943242
 40
0.6936494679
 40
1.0
 40
1.0
 40
1.0
 40
1.0
 10
47.5649898565
 20
36.8586370826
 30
0.0
 10
47.5817438299
 20
36.8683106678
 30
0.0
 10
47.6202359633
 20
36.8823250908
 30
0.0
 10
47.6841740425
 20
36.8838926176
 30
0.0
 10
47.7523546824
 20
36.8674752526
 30
0.0
 10
47.8500587891
 20
36.8208881632
 30
0.0
 10
47.9664006862
 20
36.7229013579
 30
0.0
 10
48.0403561767
 20
36.6218699939
 30
0.0
 10
48.0729747905
 20
36.5653732112
 30
0.0
  0
SPLINE
  5
2EE
100
AcDbEntity
  8
0
100
AcDbSpline
 62
7
  6
BYLAYER
 70
0
 71
3
 72
13
 73
9
 74
0
 42
0.0000001
 43
0.0000001
 44
0.0000000001
 40
0.0
 40
0.0
 40
0.0
 40
0.0
 40
0.1106843095
 40
0.2230290394
 40
0.338563477
 40
0.458597316
 40
0.7157858138
 40
1.0
 40
1.0
 40
1.0
 40
1.0
 10
23.7690446526
 20
39.3614684277
 30
0.0
 10
23.7690463726
 20
39.2760187599
 30
0.0
 10
23.7821470112
 20
39.1035578027
 30
0.0
 10
23.8409260477
 20
38.8479606012
 30
0.0
 10
23.9381027148
 20
38.5966197208
 30
0.0
 10
24.1217956353
 20
38.2623733594
 30
0.0
 10
24.4499092814
 20
37.865035915
 30
0.0
 10
24.7767637577
 20
37.600601642
 30
0.0
 10
24.9575265942
 20
37.4762289285
 30
0.0
  0
SPLINE
  5
2EF
100
AcDbEntity
  8
0
100
AcDbSpline
 62
7
  6
BYLAYER
 70
0
 71
3
 72
9
 73
5
 74
0
 42
0.0000001
 43
0.0000001
 44
0.0000000001
 40
0.0
 40
0.0
 40
0.0
 40
0.0
 40
0.4963502051
 40
1.0
 40
1.0
 40
1.0
 40
1.0
 10
9.3089223256
 20
64.0779836155
 30
0.0
 10
9.3776738007
 20
64.1176784331
 30
0.0
 10
9.5221988523
 20
64.1876448386
 30
0.0
 10
9.6751529598
 20
64.2363594385
 30
0.0
 10
9.7533858726
 20
64.2555634097
 30
0.0
  0
SPLINE
  5
2F0
100
AcDbEntity
  8
0
100
AcDbSpline
 62
7
  6
BYLAYER
 70
0
 71
3
 72
19
 73
15
 74
0
 42
0.0000001
 43
0.0000001
 44
0.0000000001
 40
0.0
 40
0.0
 40
0.0
 40
0.0
 40
0.0453754065
 40
0.0940767671
 40
0.1481652364
 40
0.2086009359
 40
0.3468390001
 40
0.4999822071
 40
0.6531267046
 40
0.7913768019
 40
0.851820393
 40
0.9059174485
 40
0.9546235537
 40
1.0
 40
1.0
 40
1.0
 40
1.0
 10
52.0099911818
 20
34.2923871597
 30
0.0
 10
52.0267272547
 20
34.3020500122
 30
0.0
 10
52.0652512213
 20
34.3159629999
 30
0.0
 10
52.1291840139
 20
34.3176823488
 30
0.0
 10
52.1973880284
 20
34.3011929679
 30
0.0
 10
52.2950824207
 20
34.2546150512
 30
0.0
 10
52.4114259886
 20
34.1565694159
 30
0.0
 10
52.5241273503
 20
34.0026641073
 30
0.0
 10
52.6010737362
 20
33.8281089094
 30
0.0
 10
52.6278232367
 20
33.6783218851
 30
0.0
 10
52.6193172857
 20
33.5704147896
 30
0.0
 10
52.5994985143
 20
33.5030931344
 30
0.0
 10
52.5660411836
 20
33.4485792057
 30
0.0
 10
52.5347297532
 20
33.4221696445
 30
0.0
 10
52.5179932968
 20
33.4125065706
 30
0.0
  0
SPLINE
  5
2F1
100
AcDbEntity
  8
0
100
AcDbSpline
 62
7
  6
BYLAYER
 70
0
 71
3
 72
18
 73
14
 74
0
 42
0.0000001
 43
0.0000001
 44
0.0000000001
 40
0.0
 40
0.0
 40
0.0
 40
0.0
 40
0.1550577402
 40
0.3062166934
 40
0.4497857447
 40
0.5828581256
 40
0.7035232067
 40
0.7591150462
 40
0.8116520182
 40
0.8614538109
 40
0.9090152666
 40
0.9549635648
 40
1.0
 40
1.0
 40
1.0
 40
1.0
 10
48.0729747905
 20
36.5653732112
 30
0.0
 10
48.2011837585
 20
36.3433099973
 30
0.0
 10
48.4792772344
 20
35.9185804809
 30
0.0
 10
48.9564588246
 20
35.3458574536
 30
0.0
 10
49.4746766188
 20
34.8611843186
 30
0.0
 10
50.0145399593
 20
34.4826137449
 30
0.0
 10
50.4795540204
 20
34.2613881274
 30
0.0
 10
50.8434663043
 20
34.1552383452
 30
0.0
 10
51.1017044561
 20
34.1118984885
 30
0.0
 10
51.3502282472
 20
34.1032419566
 30
0.0
 10
51.5866923493
 20
34.129630224
 30
0.0
 10
51.8084248736
 20
34.1910526285
 30
0.0
 10
51.9454934152
 20
34.2551482921
 30
0.0
 10
52.0099911818
 20
34.2923871597
 30
0.0
  0
SPLINE
  5
2F2
100
AcDbEntity
  8
0
100
AcDbSpline
 62
7
  6
BYLAYER
 70
0
 71
3
 72
14
 73
10
 74
0
 42
0.0000001
 43
0.0000001
 44
0.0000000001
 40
0.0
 40
0.0
 40
0.0
 40
0.0
 40
0.1080456362
 40
0.2181349707
 40
0.332107362
 40
0.4514818058
 40
0.577428993
 40
0.7107525123
 40
1.0
 40
1.0
 40
1.0
 40
1.0
 10
52.5571204131
 20
28.5746916607
 30
0.0
 10
52.6195860599
 20
28.6107560056
 30
0.0
 10
52.739713129
 20
28.6945313252
 30
0.0
 10
52.8983550992
 20
28.8507606378
 30
0.0
 10
53.0348577134
 20
29.0360853962
 30
0.0
 10
53.1478661946
 20
29.248513989
 30
0.0
 10
53.2365438482
 20
29.4859438345
 30
0.0
 10
53.3236486644
 20
29.8422561668
 30
0.0
 10
53.3462309976
 20
30.1257362642
 30
0.0
 10
53.3462309976
 20
30.3188318439
 30
0.0
  0
ENDSEC
  0
SECTION
  2
OBJECTS
  0
DICTIONARY
  5
C
100
AcDbDictionary
280
0
281
1
  3
ACAD_GROUP
350
D
  3
ACAD_MLINESTYLE
350
17
  3
ACAD_LAYOUT
350
1A
  3
ACAD_PLOTSETTINGS
350
19
  3
ACAD_PLOTSTYLENAME
350
E
  0
DICTIONARY
  5
D
102
{ACAD_REACTORS
330
C
102
}
100
AcDbDictionary
280
0
281
1
  0
ACDBDICTIONARYWDFLT
  5
E
102
{ACAD_REACTORS
330
C
102
}
100
AcDbDictionary
281
1
  3
Normal
350
F
100
AcDbDictionaryWithDefault
340
F
  0
DICTIONARY
  5
17
102
{ACAD_REACTORS
330
C
102
}
100
AcDbDictionary
280
0
281
1
  3
Standard
350
18
  0
DICTIONARY
  5
19
102
{ACAD_REACTORS
330
C
102
}
100
AcDbDictionary
281
1
  0
DICTIONARY
  5
1A
102
{ACAD_REACTORS
330
C
102
}
100
AcDbDictionary
281
1
  3
Model
350
2F3
  3
Layout1
350
2F4
  0
ACDBPLACEHOLDER
  5
F
102
{ACAD_REACTORS
330
E
102
}
  0
MLINESTYLE
  5
18
102
{ACAD_REACTORS
330
17
102
}
100
AcDbMlineStyle
  2
STANDARD
 70
0
  3

 62
256
 51
90.0
 52
90.0
 71
2
 49
0.5
 62
256
  6
BYLAYER
 49
-0.5
 62
256
  6
BYLAYER
  0
LAYOUT
  5
2F3
102
{ACAD_REACTORS
330
1A
102
}
100
AcDbPlotSettings
  1

  2
none_device
  4

  6

 40
0.0
 41
0.0
 42
0.0
 43
0.0
 44
210.0
 45
297.0
 46
0.0
 47
0.0
 48
0.0
 49
0.0
140
0.0
141
0.0
142
1.0
143
1.0
 70
1024
 72
1
 73
0
 74
0
  7

 75
0
147
1.0
148
0.0
149
0.0
100
AcDbLayout
  1
Model
 70
0
 71
0
 10
0.0
 20
0.0
 11
210.0
 21
297.0
 12
0.0
 22
0.0
 32
0.0
 14
0.0
 24
0.0
 34
0.0
 15
0.0
 25
0.0
 35
0.0
146
0.0
 13
0.0
 23
0.0
 33
0.0
 16
1.0
 26
0.0
 36
0.0
 17
0.0
 27
1.0
 37
0.0
 76
0
330
210
345
0
346
0
  0
LAYOUT
  5
2F4
102
{ACAD_REACTORS
330
1A
102
}
100
AcDbPlotSettings
  1

  2
none_device
  4

  6

 40
0.0
 41
0.0
 42
0.0
 43
0.0
 44
210.0
 45
297.0
 46
0.0
 47
0.0
 48
0.0
 49
0.0
140
0.0
141
0.0
142
1.0
143
1.0
 70
0
 72
1
 73
0
 74
0
  7

 75
0
147
1.0
148
0.0
149
0.0
100
AcDbLayout
  1
Layout1
 70
0
 71
1
 10
0.0
 20
0.0
 11
210.0
 21
297.0
 12
0.0
 22
0.0
 32
0.0
 14
0.0
 24
0.0
 34
0.0
 15
0.0
 25
0.0
 35
0.0
146
0.0
 13
0.0
 23
0.0
 33
0.0
 16
1.0
 26
0.0
 36
0.0
 17
0.0
 27
1.0
 37
0.0
 76
0
330
211
345
0
346
0
  0
ENDSEC
  0
EOF
