  0
SECTION
  2
HEADER
  9
$ACADVER
  1
AC1009
  9
$DWGCODEPAGE
  3
ansi_1250
  9
$INSBASE
 10
0.0
 20
0.0
 30
0.0
  9
$EXTMIN
 10
-0.295
 20
-0.797
 30
0.0
  9
$EXTMAX
 10
0.75
 20
0.797
 30
0.0
  9
$LIMMIN
 10
0.0
 20
0.0
  9
$LIMMAX
 10
0.0
 20
0.0
  9
$ORTHOMODE
 70
     0
  9
$REGENMODE
 70
     1
  9
$FILLMODE
 70
     1
  9
$QTEXTMODE
 70
     0
  9
$MIRRTEXT
 70
     1
  9
$DRAGMODE
 70
     2
  9
$LTSCALE
 40
1.0
  9
$OSMODE
 70
     0
  9
$ATTMODE
 70
     1
  9
$TEXTSIZE
 40
0.2
  9
$TRACEWID
 40
0.05
  9
$TEXTSTYLE
  7
STANDARD
  9
$CLAYER
  8
0
  9
$CELTYPE
  6
CONTINUOUS
  9
$CECOLOR
 62
   256
  9
$DIMSCALE
 40
1.0
  9
$DIMASZ
 40
0.18
  9
$DIMEXO
 40
0.0625
  9
$DIMDLI
 40
0.38
  9
$DIMRND
 40
0.0
  9
$DIMDLE
 40
0.0
  9
$DIMEXE
 40
0.18
  9
$DIMTP
 40
0.0
  9
$DIMTM
 40
0.0
  9
$DIMTXT
 40
0.18
  9
$DIMCEN
 40
0.09
  9
$DIMTSZ
 40
0.0
  9
$DIMTOL
 70
     0
  9
$DIMLIM
 70
     0
  9
$DIMTIH
 70
     1
  9
$DIMTOH
 70
     1
  9
$DIMSE1
 70
     0
  9
$DIMSE2
 70
     0
  9
$DIMTAD
 70
     0
  9
$DIMZIN
 70
     0
  9
$DIMBLK
  1

  9
$DIMASO
 70
     1
  9
$DIMSHO
 70
     1
  9
$DIMPOST
  1

  9
$DIMAPOST
  1

  9
$DIMALT
 70
     0
  9
$DIMALTD
 70
     2
  9
$DIMALTF
 40
25.4
  9
$DIMLFAC
 40
1.0
  9
$DIMTOFL
 70
     0
  9
$DIMTVP
 40
0.0
  9
$DIMTIX
 70
     0
  9
$DIMSOXD
 70
     0
  9
$DIMSAH
 70
     0
  9
$DIMBLK1
  1

  9
$DIMBLK2
  1

  9
$DIMSTYLE
  2
STANDARD
  9
$DIMCLRD
 70
     0
  9
$DIMCLRE
 70
     0
  9
$DIMCLRT
 70
     0
  9
$DIMTFAC
 40
1.0
  9
$DIMGAP
 40
0.09
  9
$LUNITS
 70
     2
  9
$LUPREC
 70
     4
  9
$AXISMODE
 70
     0
  9
$AXISUNIT
 10
0.0
 20
0.0
  9
$SKETCHINC
 40
0.1
  9
$FILLETRAD
 40
0.0
  9
$AUNITS
 70
     0
  9
$AUPREC
 70
     0
  9
$MENU
  1
acad
  9
$ELEVATION
 40
0.0
  9
$PELEVATION
 40
0.0
  9
$THICKNESS
 40
0.0
  9
$LIMCHECK
 70
     0
  9
$BLIPMODE
 70
     1
  9
$CHAMFERA
 40
0.0
  9
$CHAMFERB
 40
0.0
  9
$SKPOLY
 70
     0
  9
$TDCREATE
 40
0.000000000
  9
$TDUPDATE
 40
0.000000000
  9
$TDINDWG
 40
0.0000000000
  9
$TDUSRTIMER
 40
0.0000000000
  9
$USRTIMER
 70
     1
  9
$ANGBASE
 50
0.0
  9
$ANGDIR
 70
     0
  9
$PDMODE
 70
     0
  9
$PDSIZE
 40
0.0
  9
$PLINEWID
 40
0.0
  9
$COORDS
 70
     0
  9
$SPLFRAME
 70
     0
  9
$SPLINETYPE
 70
     6
  9
$SPLINESEGS
 70
     8
  9
$ATTDIA
 70
     0
  9
$ATTREQ
 70
     1
  9
$HANDLING
 70
     1
  9
$HANDSEED
  5
11D
  9
$SURFTAB1
 70
     6
  9
$SURFTAB2
 70
     6
  9
$SURFTYPE
 70
     6
  9
$SURFU
 70
     6
  9
$SURFV
 70
     6
  9
$UCSNAME
  2

  9
$UCSORG
 10
0.0
 20
0.0
 30
0.0
  9
$UCSXDIR
 10
1.0
 20
0.0
 30
0.0
  9
$UCSYDIR
 10
0.0
 20
1.0
 30
0.0
  9
$PUCSNAME
  2

  9
$PUCSORG
 10
0.0
 20
0.0
 30
0.0
  9
$PUCSXDIR
 10
1.0
 20
0.0
 30
0.0
  9
$PUCSYDIR
 10
0.0
 20
1.0
 30
0.0
  9
$USERI1
 70
     0
  9
$USERI2
 70
     0
  9
$USERI3
 70
     0
  9
$USERI4
 70
     0
  9
$USERI5
 70
     0
  9
$USERR1
 40
0.0
  9
$USERR2
 40
0.0
  9
$USERR3
 40
0.0
  9
$USERR4
 40
0.0
  9
$USERR5
 40
0.0
  9
$WORLDVIEW
 70
     1
  9
$SHADEDGE
 70
     3
  9
$SHADEDIF
 70
    70
  9
$TILEMODE
 70
     1
  9
$MAXACTVP
 70
    16
  9
$PINSBASE
 10
0.0
 20
0.0
 30
0.0
  9
$PLIMCHECK
 70
     0
  9
$PEXTMIN
 10
1.000000E+20
 20
1.000000E+20
 30
1.000000E+20
  9
$PEXTMAX
 10
-1.000000E+20
 20
-1.000000E+20
 30
-1.000000E+20
  9
$PLIMMIN
 10
0.0
 20
0.0
  9
$PLIMMAX
 10
12.0
 20
9.0
  9
$UNITMODE
 70
     0
  9
$VISRETAIN
 70
     0
  9
$PLINEGEN
 70
     1
  9
$PSLTSCALE
 70
     0
  9
$TREEDEPTH
 70
  3020
  0
ENDSEC
  0
SECTION
  2
TABLES
  0
TABLE
  2
VPORT
 70
     1
  0
VPORT
  2
*ACTIVE
 70
     0
 10
0.0
 20
0.0
 11
1.0
 21
1.0
 12
6.591288
 22
4.579184
 13
0.0
 23
0.0
 14
1.0
 24
1.0
 15
0.0
 25
0.0
 16
0.0
 26
0.0
 36
1.0
 17
0.0
 27
0.0
 37
0.0
 40
9.158369
 41
0.688564
 42
50.0
 43
0.0
 44
0.0
 50
0.0
 51
0.0
 71
     0
 72
   100
 73
     1
 74
     1
 75
     0
 76
     0
 77
     0
 78
     0
  0
ENDTAB
  0
TABLE
  2
LTYPE
 70
     5
  0
LTYPE
  2
CONTINUOUS
 70
    64
  3
Solid line
 72
    65
 73
     0
 40
0.0
  0
LTYPE
  2
CENTER
 70
    64
  3
Center ____ _ ____ _ ____ _ ____ _ ____ _ ____
 72
    65
 73
     4
 40
50.8
 49
31.75
 49
-6.35
 49
6.35
 49
-6.35
  0
LTYPE
  2
HIDDEN
 70
    64
  3
Hidden __ __ __ __ __ __ __ __ __ __ __ __ __ __
 72
    65
 73
     2
 40
9.525
 49
6.35
 49
-3.175
  0
LTYPE
  2
CENTER2
 70
    64
  3
Center (.5x) ___ _ ___ _ ___ _ ___ _ ___ _ ___
 72
    65
 73
     4
 40
28.575
 49
19.05
 49
-3.175
 49
3.175
 49
-3.175
  0
LTYPE
  2
HIDDEN2
 70
    64
  3
Hidden (.5x) _ _ _ _ _ _ _ _ _ _ _ _ _ _ _ _ _
 72
    65
 73
     2
 40
4.7625
 49
3.175
 49
-1.5875
  0
ENDTAB
  0
TABLE
  2
LAYER
 70
     1
  0
LAYER
  2
0
 70
     0
 62
     7
  6
CONTINUOUS
  0
ENDTAB
  0
TABLE
  2
STYLE
 70
     1
  0
STYLE
  2
STANDARD
 70
     0
 40
0.0
 41
1.0
 50
0.0
 71
     0
 42
0.0
  3
txt
  4

  0
ENDTAB
  0
TABLE
  2
VIEW
 70
     0
  0
ENDTAB
  0
TABLE
  2
UCS
 70
     0
  0
ENDTAB
  0
TABLE
  2
APPID
 70
     1
  0
APPID
  2
ACAD
 70
     0
  0
ENDTAB
  0
TABLE
  2
DIMSTYLE
 70
     1
  0
DIMSTYLE
  2
STANDARD
 70
     0
  3

  4

  5

  6

  7

 40
1.0
 41
0.18
 42
0.0625
 43
0.38
 44
0.18
 45
0.0
 46
0.0
 47
0.0
 48
0.0
 71
     0
 72
     0
 73
     1
 74
     1
 75
     0
 76
     0
 77
     0
 78
     0
140
0.18
141
0.09
142
0.0
143
25.4
144
1.0
145
0.0
146
1.0
147
0.09
170
     0
171
     2
172
     0
173
     0
174
     0
175
     0
176
     0
177
     0
178
     0
  0
ENDTAB
  0
ENDSEC
  0
SECTION
  2
BLOCKS
  0
ENDSEC
  0
SECTION
  2
ENTITIES
  0
LINE
  8
0
  6
CONTINUOUS
 62
     7
  5
B2
 10
0.522895
 20
-0.363933
 30
0.0
 11
0.413967
 21
-0.531667
 31
0.0
  0
LINE
  8
0
  6
CONTINUOUS
 62
     7
  5
B3
 10
0.309134
 20
-0.463588
 30
0.0
 11
0.418061
 21
-0.295853
 31
0.0
  0
LINE
  8
0
  6
CONTINUOUS
 62
     7
  5
B4
 10
0.443222
 20
-0.312193
 30
0.0
 11
0.334294
 21
-0.479927
 31
0.0
  0
LINE
  8
0
  6
CONTINUOUS
 62
     7
  5
B5
 10
0.237847
 20
-0.417293
 30
0.0
 11
0.334294
 21
-0.479927
 31
0.0
  0
LINE
  8
0
  6
CONTINUOUS
 62
     7
  5
B6
 10
0.443222
 20
-0.312193
 30
0.0
 11
0.346774
 21
-0.249559
 31
0.0
  0
LINE
  8
0
  6
CONTINUOUS
 62
     7
  5
B7
 10
0.348127
 20
-0.476986
 30
0.0
 11
0.446162
 21
-0.326026
 31
0.0
  0
LINE
  8
0
  6
CONTINUOUS
 62
     7
  5
B8
 10
0.36039
 20
-0.228592
 30
0.0
 11
0.456838
 21
-0.291226
 31
0.0
  0
ARC
  8
0
  6
CONTINUOUS
 62
     7
  5
B9
 10
0.437775
 20
-0.320579
 30
0.0
 40
0.035
 50
327.0
 51
57.0
  0
ARC
  8
0
  6
CONTINUOUS
 62
     7
  5
BA
 10
0.33974
 20
-0.47154
 30
0.0
 40
0.035
 50
237.0
 51
327.0
  0
LINE
  8
0
  6
CONTINUOUS
 62
     7
  5
BB
 10
0.320678
 20
-0.500894
 30
0.0
 11
0.224231
 21
-0.43826
 31
0.0
  0
LINE
  8
0
  6
CONTINUOUS
 62
     7
  5
BC
 10
0.224231
 20
-0.43826
 30
0.0
 11
0.237847
 21
-0.417293
 31
0.0
  0
ARC
  8
0
  6
CONTINUOUS
 62
     7
  5
BD
 10
0.33974
 20
-0.47154
 30
0.0
 40
0.01
 50
237.0
 51
327.0
  0
ARC
  8
0
  6
CONTINUOUS
 62
     7
  5
BE
 10
0.437775
 20
-0.320579
 30
0.0
 40
0.01
 50
327.0
 51
57.0
  0
LINE
  8
0
  6
CONTINUOUS
 62
     7
  5
BF
 10
0.346774
 20
-0.249559
 30
0.0
 11
0.36039
 21
-0.228592
 31
0.0
  0
LINE
  8
0
  6
CONTINUOUS
 62
     7
  5
C0
 10
0.467129
 20
-0.339642
 30
0.0
 11
0.369094
 21
-0.490602
 31
0.0
  0
LINE
  8
0
  6
CONTINUOUS
 62
     7
  5
C1
 10
0.235893
 20
-0.236693
 30
0.0
 11
0.180994
 21
-0.321231
 31
0.0
  0
LINE
  8
0
  6
CONTINUOUS
 62
     7
  5
C2
 10
0.261623
 20
-0.231224
 30
0.0
 11
0.186463
 21
-0.346961
 31
0.0
  0
LINE
  8
0
  6
CONTINUOUS
 62
     7
  5
C3
 10
0.524675
 20
-0.405259
 30
0.0
 11
0.554867
 21
-0.424866
 31
0.0
  0
LINE
  8
0
  6
CONTINUOUS
 62
     7
  5
C4
 10
0.554867
 20
-0.424866
 30
0.0
 11
0.536
 21
-0.453919
 31
0.0
  0
LINE
  8
0
  6
CONTINUOUS
 62
     7
  5
C5
 10
0.505808
 20
-0.434312
 30
0.0
 11
0.524675
 21
-0.405259
 31
0.0
  0
LINE
  8
0
  6
CONTINUOUS
 62
     7
  5
C6
 10
0.536
 20
-0.453919
 30
0.0
 11
0.505808
 21
-0.434312
 31
0.0
  0
LINE
  8
0
  6
CONTINUOUS
 62
     7
  5
C7
 10
0.536
 20
-0.453919
 30
0.0
 11
0.464288
 21
-0.564346
 31
0.0
  0
LINE
  8
0
  6
CONTINUOUS
 62
     7
  5
C8
 10
0.573215
 20
-0.396612
 30
0.0
 11
0.554867
 21
-0.424866
 31
0.0
  0
LINE
  8
0
  6
CONTINUOUS
 62
     7
  5
C9
 10
0.413967
 20
0.531667
 30
0.0
 11
0.522895
 21
0.363933
 31
0.0
  0
LINE
  8
0
  6
CONTINUOUS
 62
     7
  5
CA
 10
0.418061
 20
0.295853
 30
0.0
 11
0.309134
 21
0.463588
 31
0.0
  0
LINE
  8
0
  6
CONTINUOUS
 62
     7
  5
CB
 10
0.334294
 20
0.479927
 30
0.0
 11
0.443222
 21
0.312193
 31
0.0
  0
LINE
  8
0
  6
CONTINUOUS
 62
     7
  5
CC
 10
0.346774
 20
0.249559
 30
0.0
 11
0.443222
 21
0.312193
 31
0.0
  0
LINE
  8
0
  6
CONTINUOUS
 62
     7
  5
CD
 10
0.334294
 20
0.479927
 30
0.0
 11
0.237847
 21
0.417293
 31
0.0
  0
LINE
  8
0
  6
CONTINUOUS
 62
     7
  5
CE
 10
0.446162
 20
0.326026
 30
0.0
 11
0.348127
 21
0.476986
 31
0.0
  0
LINE
  8
0
  6
CONTINUOUS
 62
     7
  5
CF
 10
0.224231
 20
0.43826
 30
0.0
 11
0.320678
 21
0.500894
 31
0.0
  0
ARC
  8
0
  6
CONTINUOUS
 62
     7
  5
D0
 10
0.33974
 20
0.47154
 30
0.0
 40
0.035
 50
33.0
 51
123.0
  0
ARC
  8
0
  6
CONTINUOUS
 62
     7
  5
D1
 10
0.437775
 20
0.320579
 30
0.0
 40
0.035
 50
303.0
 51
33.0
  0
LINE
  8
0
  6
CONTINUOUS
 62
     7
  5
D2
 10
0.456838
 20
0.291226
 30
0.0
 11
0.36039
 21
0.228592
 31
0.0
  0
LINE
  8
0
  6
CONTINUOUS
 62
     7
  5
D3
 10
0.36039
 20
0.228592
 30
0.0
 11
0.346774
 21
0.249559
 31
0.0
  0
ARC
  8
0
  6
CONTINUOUS
 62
     7
  5
D4
 10
0.437775
 20
0.320579
 30
0.0
 40
0.01
 50
303.0
 51
33.0
  0
ARC
  8
0
  6
CONTINUOUS
 62
     7
  5
D5
 10
0.33974
 20
0.47154
 30
0.0
 40
0.01
 50
33.0
 51
123.0
  0
LINE
  8
0
  6
CONTINUOUS
 62
     7
  5
D6
 10
0.237847
 20
0.417293
 30
0.0
 11
0.224231
 21
0.43826
 31
0.0
  0
LINE
  8
0
  6
CONTINUOUS
 62
     7
  5
D7
 10
0.369094
 20
0.490602
 30
0.0
 11
0.467129
 21
0.339642
 31
0.0
  0
LINE
  8
0
  6
CONTINUOUS
 62
     7
  5
D8
 10
0.180994
 20
0.321231
 30
0.0
 11
0.235893
 21
0.236693
 31
0.0
  0
LINE
  8
0
  6
CONTINUOUS
 62
     7
  5
D9
 10
0.186463
 20
0.346961
 30
0.0
 11
0.261623
 21
0.231224
 31
0.0
  0
LINE
  8
0
  6
CONTINUOUS
 62
     7
  5
DA
 10
0.452444
 20
0.516484
 30
0.0
 11
0.482636
 21
0.536091
 31
0.0
  0
LINE
  8
0
  6
CONTINUOUS
 62
     7
  5
DB
 10
0.482636
 20
0.536091
 30
0.0
 11
0.501503
 21
0.507039
 31
0.0
  0
LINE
  8
0
  6
CONTINUOUS
 62
     7
  5
DC
 10
0.471311
 20
0.487432
 30
0.0
 11
0.452444
 21
0.516484
 31
0.0
  0
LINE
  8
0
  6
CONTINUOUS
 62
     7
  5
DD
 10
0.501503
 20
0.507039
 30
0.0
 11
0.471311
 21
0.487432
 31
0.0
  0
LINE
  8
0
  6
CONTINUOUS
 62
     7
  5
DE
 10
0.501503
 20
0.507039
 30
0.0
 11
0.573215
 21
0.396612
 31
0.0
  0
LINE
  8
0
  6
CONTINUOUS
 62
     7
  5
DF
 10
0.464288
 20
0.564346
 30
0.0
 11
0.482636
 21
0.536091
 31
0.0
  0
LINE
  8
0
  6
CONTINUOUS
 62
     7
  5
E0
 10
0.500074
 20
0.192
 30
0.0
 11
0.75
 21
0.367
 31
0.0
  0
LINE
  8
0
  6
CONTINUOUS
 62
     7
  5
E1
 10
0.0
 20
0.192
 30
0.0
 11
0.500074
 21
0.192
 31
0.0
  0
LINE
  8
0
  6
CONTINUOUS
 62
     7
  5
E2
 10
0.75
 20
0.367
 30
0.0
 11
0.75
 21
-0.367
 31
0.0
  0
LINE
  8
0
  6
CONTINUOUS
 62
     7
  5
E3
 10
0.75
 20
0.367
 30
0.0
 11
0.73
 21
0.367
 31
0.0
  0
LINE
  8
0
  6
CONTINUOUS
 62
     7
  5
E4
 10
0.73
 20
0.367
 30
0.0
 11
0.73
 21
0.757
 31
0.0
  0
LINE
  8
0
  6
CONTINUOUS
 62
     7
  5
E5
 10
0.01
 20
0.757
 30
0.0
 11
0.01
 21
0.192
 31
0.0
  0
LINE
  8
0
  6
CONTINUOUS
 62
     7
  5
E6
 10
0.75
 20
-0.367
 30
0.0
 11
0.500074
 21
-0.192
 31
0.0
  0
LINE
  8
0
  6
CONTINUOUS
 62
     7
  5
E7
 10
0.0
 20
-0.192
 30
0.0
 11
0.500074
 21
-0.192
 31
0.0
  0
LINE
  8
0
  6
CONTINUOUS
 62
     7
  5
E8
 10
0.0
 20
-0.192
 30
0.0
 11
0.0
 21
0.192
 31
0.0
  0
LINE
  8
0
  6
CONTINUOUS
 62
     7
  5
E9
 10
0.73
 20
-0.757
 30
0.0
 11
0.73
 21
-0.367
 31
0.0
  0
LINE
  8
0
  6
CONTINUOUS
 62
     7
  5
EA
 10
0.73
 20
-0.797
 30
0.0
 11
0.73
 21
-0.757
 31
0.0
  0
LINE
  8
0
  6
CONTINUOUS
 62
     7
  5
EB
 10
0.73
 20
-0.367
 30
0.0
 11
0.75
 21
-0.367
 31
0.0
  0
LINE
  8
0
  6
CONTINUOUS
 62
     7
  5
EC
 10
0.01
 20
-0.757
 30
0.0
 11
0.01
 21
-0.797
 31
0.0
  0
LINE
  8
0
  6
CONTINUOUS
 62
     7
  5
ED
 10
0.73
 20
-0.797
 30
0.0
 11
0.01
 21
-0.797
 31
0.0
  0
LINE
  8
0
  6
CONTINUOUS
 62
     7
  5
EE
 10
0.01
 20
-0.192
 30
0.0
 11
0.01
 21
-0.757
 31
0.0
  0
LINE
  8
0
  6
CONTINUOUS
 62
     7
  5
EF
 10
0.73
 20
0.757
 30
0.0
 11
0.73
 21
0.797
 31
0.0
  0
LINE
  8
0
  6
CONTINUOUS
 62
     7
  5
F0
 10
0.73
 20
0.797
 30
0.0
 11
0.01
 21
0.797
 31
0.0
  0
LINE
  8
0
  6
CONTINUOUS
 62
     7
  5
F1
 10
0.01
 20
0.797
 30
0.0
 11
0.01
 21
0.757
 31
0.0
  0
LINE
  8
0
  6
CONTINUOUS
 62
     7
  5
F2
 10
0.749
 20
0.367
 30
0.0
 11
0.749
 21
0.796
 31
0.0
  0
LINE
  8
0
  6
CONTINUOUS
 62
     7
  5
F3
 10
0.73
 20
0.796
 30
0.0
 11
0.749
 21
0.796
 31
0.0
  0
LINE
  8
0
  6
CONTINUOUS
 62
     7
  5
F4
 10
0.001
 20
0.796
 30
0.0
 11
0.01
 21
0.796
 31
0.0
  0
LINE
  8
0
  6
CONTINUOUS
 62
     7
  5
F5
 10
0.001
 20
0.192
 30
0.0
 11
0.001
 21
0.796
 31
0.0
  0
LINE
  8
0
  6
CONTINUOUS
 62
     7
  5
F6
 10
0.749
 20
-0.796
 30
0.0
 11
0.73
 21
-0.796
 31
0.0
  0
LINE
  8
0
  6
CONTINUOUS
 62
     7
  5
F7
 10
0.749
 20
-0.796
 30
0.0
 11
0.749
 21
-0.367
 31
0.0
  0
LINE
  8
0
  6
CONTINUOUS
 62
     7
  5
F8
 10
-0.11
 20
0.557
 30
0.0
 11
-0.11
 21
0.661
 31
0.0
  0
LINE
  8
0
  6
CONTINUOUS
 62
     7
  5
F9
 10
0.0
 20
-0.797
 30
0.0
 11
0.0
 21
-0.192
 31
0.0
  0
LINE
  8
0
  6
CONTINUOUS
 62
     7
  5
FA
 10
0.0
 20
0.192
 30
0.0
 11
0.0
 21
0.797
 31
0.0
  0
LINE
  8
0
  6
CONTINUOUS
 62
     7
  5
FB
 10
0.0
 20
0.797
 30
0.0
 11
0.75
 21
0.797
 31
0.0
  0
LINE
  8
0
  6
CONTINUOUS
 62
     7
  5
FC
 10
-0.295
 20
0.093
 30
0.0
 11
0.0
 21
0.093
 31
0.0
  0
LINE
  8
0
  6
CONTINUOUS
 62
     7
  5
FD
 10
-0.295
 20
-0.093
 30
0.0
 11
-0.295
 21
0.093
 31
0.0
  0
LINE
  8
0
  6
CONTINUOUS
 62
     7
  5
FE
 10
-0.295
 20
-0.093
 30
0.0
 11
0.0
 21
-0.093
 31
0.0
  0
LINE
  8
0
  6
CONTINUOUS
 62
     7
  5
FF
 10
0.01
 20
-0.796
 30
0.0
 11
0.001
 21
-0.796
 31
0.0
  0
LINE
  8
0
  6
CONTINUOUS
 62
     7
  5
100
 10
0.001
 20
-0.796
 30
0.0
 11
0.001
 21
-0.192
 31
0.0
  0
LINE
  8
0
  6
CONTINUOUS
 62
     7
  5
101
 10
0.75
 20
-0.797
 30
0.0
 11
0.0
 21
-0.797
 31
0.0
  0
LINE
  8
0
  6
CONTINUOUS
 62
     7
  5
102
 10
0.75
 20
-0.797
 30
0.0
 11
0.75
 21
0.797
 31
0.0
  0
LINE
  8
0
  6
CONTINUOUS
 62
     7
  5
103
 10
0.522895
 20
-0.363933
 30
0.0
 11
0.455691
 21
-0.357254
 31
0.0
  0
LINE
  8
0
  6
CONTINUOUS
 62
     7
  5
104
 10
0.380531
 20
-0.47299
 30
0.0
 11
0.413967
 21
-0.531667
 31
0.0
  0
LINE
  8
0
  6
CONTINUOUS
 62
     7
  5
105
 10
0.434724
 20
-0.343638
 30
0.0
 11
0.426338
 21
-0.338191
 31
0.0
  0
LINE
  8
0
  6
CONTINUOUS
 62
     7
  5
106
 10
0.351178
 20
-0.453928
 30
0.0
 11
0.359564
 21
-0.459374
 31
0.0
  0
LINE
  8
0
  6
CONTINUOUS
 62
     7
  5
107
 10
0.261623
 20
-0.231224
 30
0.0
 11
0.235893
 21
-0.236693
 31
0.0
  0
LINE
  8
0
  6
CONTINUOUS
 62
     7
  5
108
 10
0.180994
 20
-0.321231
 30
0.0
 11
0.186463
 21
-0.346961
 31
0.0
  0
LINE
  8
0
  6
CONTINUOUS
 62
     7
  5
109
 10
0.401178
 20
-0.321852
 30
0.0
 11
0.261623
 21
-0.231224
 31
0.0
  0
LINE
  8
0
  6
CONTINUOUS
 62
     7
  5
10A
 10
0.186463
 20
-0.346961
 30
0.0
 11
0.326017
 21
-0.437589
 31
0.0
  0
LINE
  8
0
  6
CONTINUOUS
 62
     7
  5
10B
 10
0.573215
 20
-0.396612
 30
0.0
 11
0.522895
 21
-0.363933
 31
0.0
  0
LINE
  8
0
  6
CONTINUOUS
 62
     7
  5
10C
 10
0.413967
 20
-0.531667
 30
0.0
 11
0.464288
 21
-0.564346
 31
0.0
  0
LINE
  8
0
  6
CONTINUOUS
 62
     7
  5
10D
 10
0.413967
 20
0.531667
 30
0.0
 11
0.380531
 21
0.47299
 31
0.0
  0
LINE
  8
0
  6
CONTINUOUS
 62
     7
  5
10E
 10
0.455691
 20
0.357254
 30
0.0
 11
0.522895
 21
0.363933
 31
0.0
  0
LINE
  8
0
  6
CONTINUOUS
 62
     7
  5
10F
 10
0.359564
 20
0.459374
 30
0.0
 11
0.351178
 21
0.453928
 31
0.0
  0
LINE
  8
0
  6
CONTINUOUS
 62
     7
  5
110
 10
0.426338
 20
0.338191
 30
0.0
 11
0.434724
 21
0.343638
 31
0.0
  0
LINE
  8
0
  6
CONTINUOUS
 62
     7
  5
111
 10
0.186463
 20
0.346961
 30
0.0
 11
0.180994
 21
0.321231
 31
0.0
  0
LINE
  8
0
  6
CONTINUOUS
 62
     7
  5
112
 10
0.235893
 20
0.236693
 30
0.0
 11
0.261623
 21
0.231224
 31
0.0
  0
LINE
  8
0
  6
CONTINUOUS
 62
     7
  5
113
 10
0.326017
 20
0.437589
 30
0.0
 11
0.186463
 21
0.346961
 31
0.0
  0
LINE
  8
0
  6
CONTINUOUS
 62
     7
  5
114
 10
0.261623
 20
0.231224
 30
0.0
 11
0.401178
 21
0.321852
 31
0.0
  0
LINE
  8
0
  6
CONTINUOUS
 62
     7
  5
115
 10
0.464288
 20
0.564346
 30
0.0
 11
0.413967
 21
0.531667
 31
0.0
  0
LINE
  8
0
  6
CONTINUOUS
 62
     7
  5
116
 10
0.522895
 20
0.363933
 30
0.0
 11
0.573215
 21
0.396612
 31
0.0
  0
LINE
  8
0
  6
CONTINUOUS
 62
     7
  5
117
 10
-0.11
 20
0.557
 30
0.0
 11
0.0
 21
0.557
 31
0.0
  0
LINE
  8
0
  6
CONTINUOUS
 62
     7
  5
118
 10
0.0
 20
0.661
 30
0.0
 11
-0.11
 21
0.661
 31
0.0
  0
LINE
  8
0
  6
CONTINUOUS
 62
     3
  5
119
 10
0.468431
 20
-0.4478
 30
0.0
 11
0.418111
 21
-0.415122
 31
0.0
  0
LINE
  8
0
  6
CONTINUOUS
 62
     3
  5
11A
 10
0.468431
 20
0.4478
 30
0.0
 11
0.418111
 21
0.415122
 31
0.0
  0
ENDSEC
  0
EOF
