999
DXF file: Y:\001_SCHNEIDER_PARIS\maxime fuentes - génération CAD 2D\TRAVAIL\ZBZ1600_CAD_2023\zbz1600_2d-views_3.dxf
999
Pro/ENGINEER 2018260 by Parametric Technology Corporation
  0
SECTION
  2
HEADER
  9
$ACADVER
  1
AC1027
  9
$DWGCODEPAGE
  3
ANSI_1252
  9
$EXTMAX
 10
558.8
 20
431.8
 30
0.0
  9
$EXTMIN
 10
0.0
 20
0.0
 30
0.0
  9
$LIMMIN
 10
0.0
 20
0.0
  9
$LIMMAX
 10
558.8
 20
431.8
  9
$VIEWCTR
 10
279.4
 20
215.9
  9
$VIEWSIZE
 40
431.8
  9
$CLAYER
  8
0
  9
$LTSCALE
 40
30.734
  9
$CELTYPE
  6
BYLAYER
  9
$DIMSCALE
 40
1.0
  9
$DIMASZ
 40
3.5
  9
$DIMEXO
 40
1.0
  9
$DIMDLI
 40
21.2344
  9
$DIMEXE
 40
3.0
  9
$DIMCEN
 40
5.0292
  9
$DIMLFAC
 40
1.0
  9
$DIMBLK
  1
_FILLED
  9
$DIMALT
 70
0
  9
$DIMALTF
 40
0.0393700787
  9
$DIMTXT
 40
4.0
  9
$DIMTOL
 70
1
  9
$DIMLIM
 70
0
  9
$DIMTFAC
 40
1.0
  9
$DIMTP
 40
0.0001
  9
$DIMTM
 40
0.0001
  9
$DIMGAP
 40
0.625
  9
$DIMDSEP
 70
46
  9
$AUNITS
 70
0
  9
$PDMODE
 70
0
  9
$PDSIZE
 40
0.01
  9
$HANDSEED
  5
271
  9
$TILEMODE
 70
1
  9
$MEASUREMENT
 70
1
  9
$INSUNITS
 70
4
  0
ENDSEC
  0
SECTION
  2
CLASSES
  0
CLASS
  1
ACDBDICTIONARYWDFLT
  2
AcDbDictionaryWithDefault
  3
AutoCAD 2000
 90
0
 91
1
280
0
281
0
  0
CLASS
  1
ACDBPLACEHOLDER
  2
AcDbPlaceHolder
  3
AutoCAD 2000
 90
0
 91
1
280
0
281
0
  0
CLASS
  1
LAYOUT
  2
AcDbLayout
  3
AutoCAD 2000
 90
0
 91
0
280
0
281
0
  0
ENDSEC
  0
SECTION
  2
TABLES
  0
TABLE
  2
VPORT
  5
8
100
AcDbSymbolTable
 70
2
  0
VPORT
  5
1F4
100
AcDbSymbolTableRecord
100
AcDbViewportTableRecord
  2
*ACTIVE
 70
0
 10
0.0
 20
0.0
 11
1.0
 21
1.0
 12
279.4
 22
215.9
 13
0.0
 23
0.0
 14
1.0
 24
1.0
 15
0.0
 25
0.0
 16
0.0
 26
0.0
 36
1.0
 17
0.0
 27
0.0
 37
0.0
 40
431.8
 41
1.2941176471
 42
50.0
 43
0.0
 44
0.0
 50
0.0
 51
0.0
 71
0
 72
100
 73
1
 74
1
 75
0
 76
0
 77
0
 78
0
  0
ENDTAB
  0
TABLE
  2
LTYPE
  5
5
100
AcDbSymbolTable
 70
6
  0
LTYPE
  5
14
100
AcDbSymbolTableRecord
100
AcDbLinetypeTableRecord
  2
BYBLOCK
 70
0
  3

 72
65
 73
0
 40
0.0
  0
LTYPE
  5
15
100
AcDbSymbolTableRecord
100
AcDbLinetypeTableRecord
  2
BYLAYER
 70
0
  3

 72
65
 73
0
 40
0.0
  0
LTYPE
  5
16
100
AcDbSymbolTableRecord
100
AcDbLinetypeTableRecord
  2
CONTINUOUS
 70
64
  3
Solid line
 72
65
 73
0
 40
0.0
  0
LTYPE
  5
1F5
100
AcDbSymbolTableRecord
100
AcDbLinetypeTableRecord
  2
CENTER
 70
64
  3
____ _ ____ _ ____ _ ____ _ ____ _ ____ _ ____
 72
65
 73
4
 40
0.6
 49
0.375
 74
0
 49
-0.075
 74
0
 49
0.075
 74
0
 49
-0.075
 74
0
  0
LTYPE
  5
1F6
100
AcDbSymbolTableRecord
100
AcDbLinetypeTableRecord
  2
HIDDEN
 70
64
  3
- - - - - - - - - - - - - - - - - - - -
 72
65
 73
2
 40
0.2
 49
0.1
 74
0
 49
-0.1
 74
0
  0
LTYPE
  5
1F7
100
AcDbSymbolTableRecord
100
AcDbLinetypeTableRecord
  2
PHANTOM
 70
64
  3
_____ _ _ _____ _ _ _____ _ _ _____
 72
65
 73
6
 40
0.8
 49
0.45
 74
0
 49
-0.05
 74
0
 49
0.1
 74
0
 49
-0.05
 74
0
 49
0.1
 74
0
 49
-0.05
 74
0
  0
LTYPE
  5
1F8
100
AcDbSymbolTableRecord
100
AcDbLinetypeTableRecord
  2
DOT
 70
64
  3
. . . . . . . . . . . . . . . . . . . .
 72
65
 73
2
 40
0.2
 49
0.1
 74
0
 49
-0.1
 74
0
  0
LTYPE
  5
1F9
100
AcDbSymbolTableRecord
100
AcDbLinetypeTableRecord
  2
DASHED
 70
64
  3
- - - - - - - - - - - - - - - - - - - -
 72
65
 73
2
 40
0.2
 49
0.1
 74
0
 49
-0.1
 74
0
  0
ENDTAB
  0
TABLE
  2
LAYER
  5
2
100
AcDbSymbolTable
 70
36
  0
LAYER
  5
10
100
AcDbSymbolTableRecord
100
AcDbLayerTableRecord
  2
0
 70
0
 62
7
  6
CONTINUOUS
370
-3
390
F
  0
LAYER
  5
1FA
100
AcDbSymbolTableRecord
100
AcDbLayerTableRecord
  2
DEFAULT_1
 70
0
 62
7
  6
CENTER
370
-3
390
F
  0
LAYER
  5
1FB
100
AcDbSymbolTableRecord
100
AcDbLayerTableRecord
  2
DEFAULT_2
 70
0
 62
8
  6
HIDDEN
370
-3
390
F
  0
LAYER
  5
1FC
100
AcDbSymbolTableRecord
100
AcDbLayerTableRecord
  2
DEFAULT_3
 70
0
 62
7
  6
PHANTOM
370
-3
390
F
  0
LAYER
  5
1FD
100
AcDbSymbolTableRecord
100
AcDbLayerTableRecord
  2
01_ALL_DTM_PLN
 70
0
 62
7
  6
CONTINUOUS
370
-3
390
F
  0
LAYER
  5
1FE
100
AcDbSymbolTableRecord
100
AcDbLayerTableRecord
  2
01__ASM_ALL_DTM_PLN
 70
0
 62
7
  6
CONTINUOUS
370
-3
390
F
  0
LAYER
  5
1FF
100
AcDbSymbolTableRecord
100
AcDbLayerTableRecord
  2
01__ASM_DEF_DTM_PLN
 70
0
 62
7
  6
CONTINUOUS
370
-3
390
F
  0
LAYER
  5
200
100
AcDbSymbolTableRecord
100
AcDbLayerTableRecord
  2
01___PRT_ALL_DTM_PLN
 70
0
 62
7
  6
CONTINUOUS
370
-3
390
F
  0
LAYER
  5
201
100
AcDbSymbolTableRecord
100
AcDbLayerTableRecord
  2
01___PRT_DEF_DTM_PLN
 70
0
 62
7
  6
CONTINUOUS
370
-3
390
F
  0
LAYER
  5
202
100
AcDbSymbolTableRecord
100
AcDbLayerTableRecord
  2
02_ALL_AXES
 70
0
 62
7
  6
CONTINUOUS
370
-3
390
F
  0
LAYER
  5
203
100
AcDbSymbolTableRecord
100
AcDbLayerTableRecord
  2
02__ASM_ALL_AXES
 70
0
 62
7
  6
CONTINUOUS
370
-3
390
F
  0
LAYER
  5
204
100
AcDbSymbolTableRecord
100
AcDbLayerTableRecord
  2
02___PRT_ALL_AXES
 70
0
 62
7
  6
CONTINUOUS
370
-3
390
F
  0
LAYER
  5
205
100
AcDbSymbolTableRecord
100
AcDbLayerTableRecord
  2
03_ALL_CURVES
 70
0
 62
7
  6
CONTINUOUS
370
-3
390
F
  0
LAYER
  5
206
100
AcDbSymbolTableRecord
100
AcDbLayerTableRecord
  2
03__ASM_ALL_CURVES
 70
0
 62
7
  6
CONTINUOUS
370
-3
390
F
  0
LAYER
  5
207
100
AcDbSymbolTableRecord
100
AcDbLayerTableRecord
  2
03___PRT_ALL_CURVES
 70
0
 62
7
  6
CONTINUOUS
370
-3
390
F
  0
LAYER
  5
208
100
AcDbSymbolTableRecord
100
AcDbLayerTableRecord
  2
04_ALL_DTM_PNT
 70
0
 62
7
  6
CONTINUOUS
370
-3
390
F
  0
LAYER
  5
209
100
AcDbSymbolTableRecord
100
AcDbLayerTableRecord
  2
04__ASM_ALL_DTM_PNT
 70
0
 62
7
  6
CONTINUOUS
370
-3
390
F
  0
LAYER
  5
20A
100
AcDbSymbolTableRecord
100
AcDbLayerTableRecord
  2
04___PRT_ALL_DTM_PNT
 70
0
 62
7
  6
CONTINUOUS
370
-3
390
F
  0
LAYER
  5
20B
100
AcDbSymbolTableRecord
100
AcDbLayerTableRecord
  2
05_ALL_DTM_CSYS
 70
0
 62
7
  6
CONTINUOUS
370
-3
390
F
  0
LAYER
  5
20C
100
AcDbSymbolTableRecord
100
AcDbLayerTableRecord
  2
05__ASM_ALL_DTM_CSYS
 70
0
 62
7
  6
CONTINUOUS
370
-3
390
F
  0
LAYER
  5
20D
100
AcDbSymbolTableRecord
100
AcDbLayerTableRecord
  2
05__ASM_DEF_DTM_CSYS
 70
0
 62
7
  6
CONTINUOUS
370
-3
390
F
  0
LAYER
  5
20E
100
AcDbSymbolTableRecord
100
AcDbLayerTableRecord
  2
05___PRT_ALL_DTM_CSYS
 70
0
 62
7
  6
CONTINUOUS
370
-3
390
F
  0
LAYER
  5
20F
100
AcDbSymbolTableRecord
100
AcDbLayerTableRecord
  2
05___PRT_DEF_DTM_CSYS
 70
0
 62
7
  6
CONTINUOUS
370
-3
390
F
  0
LAYER
  5
210
100
AcDbSymbolTableRecord
100
AcDbLayerTableRecord
  2
06_ALL_SURFS
 70
0
 62
7
  6
CONTINUOUS
370
-3
390
F
  0
LAYER
  5
211
100
AcDbSymbolTableRecord
100
AcDbLayerTableRecord
  2
06__ASM_ALL_SURFS
 70
0
 62
7
  6
CONTINUOUS
370
-3
390
F
  0
LAYER
  5
212
100
AcDbSymbolTableRecord
100
AcDbLayerTableRecord
  2
06___PRT_ALL_SURFS
 70
0
 62
7
  6
CONTINUOUS
370
-3
390
F
  0
LAYER
  5
213
100
AcDbSymbolTableRecord
100
AcDbLayerTableRecord
  2
07__ASM_ALL_SKELETONS
 70
0
 62
7
  6
CONTINUOUS
370
-3
390
F
  0
ENDTAB
  0
TABLE
  2
STYLE
  5
3
100
AcDbSymbolTable
 70
1
  0
STYLE
  5
11
100
AcDbSymbolTableRecord
100
AcDbTextStyleTableRecord
  2
STANDARD
 70
0
 40
0.0
 41
0.6
 50
0.0
 71
0
 42
0.2
  3
txt
  4

  0
STYLE
  5
214
100
AcDbSymbolTableRecord
100
AcDbTextStyleTableRecord
  2
TEXTSTYLE_1
 70
0
 40
0.0
 41
0.8
 50
0.0
 71
0
 42
0.2
  3
gdt
  4

  0
ENDTAB
  0
TABLE
  2
VIEW
  5
6
100
AcDbSymbolTable
 70
0
  0
ENDTAB
  0
TABLE
  2
UCS
  5
7
100
AcDbSymbolTable
 70
0
  0
ENDTAB
  0
TABLE
  2
APPID
  5
9
100
AcDbSymbolTable
 70
1
  0
APPID
  5
215
100
AcDbSymbolTableRecord
100
AcDbRegAppTableRecord
  2
ACAD
 70
0
  0
ENDTAB
  0
TABLE
  2
BLOCK_RECORD
  5
1
100
AcDbSymbolTable
 70
0
  0
BLOCK_RECORD
  5
216
100
AcDbSymbolTableRecord
100
AcDbBlockTableRecord
  2
*Model_Space
  0
BLOCK_RECORD
  5
217
100
AcDbSymbolTableRecord
100
AcDbBlockTableRecord
  2
*Paper_Space
  0
BLOCK_RECORD
  5
218
100
AcDbSymbolTableRecord
100
AcDbBlockTableRecord
  2
_FILLED
  0
ENDTAB
  0
TABLE
  2
DIMSTYLE
  5
A
100
AcDbSymbolTable
 70
1
100
AcDbDimStyleTable
 71
0
  0
DIMSTYLE
105
219
100
AcDbSymbolTableRecord
100
AcDbDimStyleTableRecord
  2
STANDARD
 70
0
  3

  4

 40
1.0
 41
3.5
 42
1.0
 43
0.38
 44
3.0
 45
0.0
 46
0.0
 47
0.0001
 48
0.0001
140
4.0
141
0.09
142
0.0
143
25.4
144
1.0
145
0.0
146
1.0
147
0.625
 71
1.0
 72
0.0
 73
0
 74
0
 75
0
 76
0
 77
1
 78
8
 79
2
170
0
171
3
172
0
173
0
174
0
175
0
176
0
177
0
178
0
270
2
179
4
271
4
272
4
273
2
274
2
275
0
280
0
281
0
282
0
283
1
284
8
285
0
286
0
287
3
288
0
340
11
278
46
341
218
342
218
343
218
344
218
  0
ENDTAB
  0
ENDSEC
  0
SECTION
  2
BLOCKS
  0
BLOCK
  5
20
100
AcDbEntity
  8
0
100
AcDbBlockBegin
  2
*Model_Space
 70
0
 10
0.0
 20
0.0
 30
0.0
  3
*Model_Space
  1

  0
ENDBLK
  5
21
100
AcDbEntity
  8
0
100
AcDbBlockEnd
  0
BLOCK
  5
1C
100
AcDbEntity
  8
0
100
AcDbBlockBegin
  2
*Paper_Space
 70
0
 10
0.0
 20
0.0
 30
0.0
  3
*Paper_Space
  1

  0
ENDBLK
  5
1D
100
AcDbEntity
  8
0
100
AcDbBlockEnd
  0
BLOCK
  5
21A
100
AcDbEntity
  8
0
100
AcDbBlockBegin
  2
_FILLED
 70
64
 10
0.0
 20
0.0
  3
_FILLED
  1

  0
SOLID
  5
21B
100
AcDbEntity
  8
0
  6
BYBLOCK
 62
0
100
AcDbTrace
 10
0.0
 20
0.0
 11
-1.0
 21
0.2857142857
 12
-1.0
 22
-0.2857142857
 13
-1.0
 23
-0.2857142857
  0
ENDBLK
  5
21C
100
AcDbEntity
  8
0
  6
BYBLOCK
 62
0
100
AcDbBlockEnd
  0
ENDSEC
  0
SECTION
  2
ENTITIES
  0
LINE
  5
21D
100
AcDbEntity
  8
0
100
AcDbLine
 62
7
  6
CONTINUOUS
 10
69.7867537231
 20
243.4839799583
 11
86.7867537231
 21
249.0089799583
  0
LINE
  5
21E
100
AcDbEntity
  8
0
100
AcDbLine
 62
7
  6
CONTINUOUS
 10
109.2867537231
 20
204.0089799583
 11
86.7867537231
 21
204.0089799583
  0
LINE
  5
21F
100
AcDbEntity
  8
0
100
AcDbLine
 62
7
  6
CONTINUOUS
 10
69.7867537231
 20
209.5339799583
 11
86.7867537231
 21
204.0089799583
  0
LINE
  5
220
100
AcDbEntity
  8
0
100
AcDbLine
 62
7
  6
CONTINUOUS
 10
68.7867537231
 20
211.5965883158
 11
68.7867537231
 21
241.4213716009
  0
LINE
  5
221
100
AcDbEntity
  8
0
100
AcDbLine
 62
7
  6
CONTINUOUS
 10
69.7867537231
 20
209.5341529071
 11
69.7867537231
 21
211.5954153512
  0
LINE
  5
222
100
AcDbEntity
  8
0
100
AcDbLine
 62
7
  6
CONTINUOUS
 10
69.7867537231
 20
241.3953737732
 11
69.7867537231
 21
243.4838070096
  0
LINE
  5
223
100
AcDbEntity
  8
0
100
AcDbLine
 62
9
  6
CONTINUOUS
 10
98.7867535694
 20
215.7373300969
 11
104.7867537916
 21
215.7373300969
  0
LINE
  5
224
100
AcDbEntity
  8
0
100
AcDbLine
 62
7
  6
CONTINUOUS
 10
98.7867537701
 20
216.4766993945
 11
104.7867537279
 21
216.4766993956
  0
LINE
  5
225
100
AcDbEntity
  8
0
100
AcDbLine
 62
7
  6
CONTINUOUS
 10
104.7867536872
 20
216.5403346683
 11
98.7867536507
 21
216.5403346683
  0
LINE
  5
226
100
AcDbEntity
  8
0
100
AcDbLine
 62
7
  6
CONTINUOUS
 10
86.7867537231
 20
249.0089799583
 11
86.7867537231
 21
204.0089799583
  0
LINE
  5
227
100
AcDbEntity
  8
0
100
AcDbLine
 62
7
  6
CONTINUOUS
 10
88.7867537231
 20
226.472229468
 11
88.8495476375
 21
225.3533842572
  0
LINE
  5
228
100
AcDbEntity
  8
0
100
AcDbLine
 62
7
  6
CONTINUOUS
 10
88.9918695109
 20
224.5296827009
 11
88.9884017528
 21
224.5466151974
  0
LINE
  5
229
100
AcDbEntity
  8
0
100
AcDbLine
 62
7
  6
CONTINUOUS
 10
89.0024153516
 20
224.5322950752
 11
88.9996257805
 21
224.5493719218
  0
LINE
  5
22A
100
AcDbEntity
  8
0
100
AcDbLine
 62
9
  6
CONTINUOUS
 10
98.7867536953
 20
236.4766714884
 11
98.7867536953
 21
237.2145728584
  0
LINE
  5
22B
100
AcDbEntity
  8
0
100
AcDbLine
 62
9
  6
CONTINUOUS
 10
98.7867535612
 20
215.737330097
 11
98.7867536926
 21
216.5403346683
  0
LINE
  5
22C
100
AcDbEntity
  8
0
100
AcDbLine
 62
7
  6
CONTINUOUS
 10
104.7867537006
 20
236.4766714901
 11
98.7867537845
 21
236.4766714868
  0
LINE
  5
22D
100
AcDbEntity
  8
0
100
AcDbLine
 62
9
  6
CONTINUOUS
 10
104.7867537293
 20
237.2145728584
 11
98.7867536522
 21
237.2145728584
  0
LINE
  5
22E
100
AcDbEntity
  8
0
100
AcDbLine
 62
9
  6
CONTINUOUS
 10
104.7867537304
 20
237.2145728584
 11
104.7867537147
 21
236.4766714884
  0
LINE
  5
22F
100
AcDbEntity
  8
0
100
AcDbLine
 62
9
  6
CONTINUOUS
 10
104.7867536665
 20
216.5403346683
 11
104.7867537954
 21
215.737330097
  0
LINE
  5
230
100
AcDbEntity
  8
0
100
AcDbLine
 62
7
  6
CONTINUOUS
 10
109.7720199699
 20
211.865153249
 11
109.7867537231
 21
211.4821172482
  0
LINE
  5
231
100
AcDbEntity
  8
0
100
AcDbLine
 62
9
  6
CONTINUOUS
 10
109.2867537231
 20
249.0089799583
 11
109.2867537231
 21
241.8223729567
  0
LINE
  5
232
100
AcDbEntity
  8
0
100
AcDbLine
 62
9
  6
CONTINUOUS
 10
109.2867537231
 20
211.1405979181
 11
109.2867537231
 21
204.0089799583
  0
LINE
  5
233
100
AcDbEntity
  8
0
100
AcDbLine
 62
7
  6
CONTINUOUS
 10
109.7867537231
 20
248.5089702531
 11
109.7867537231
 21
241.4820756204
  0
LINE
  5
234
100
AcDbEntity
  8
0
100
AcDbLine
 62
7
  6
CONTINUOUS
 10
109.7867537231
 20
211.5347311216
 11
109.7867537231
 21
204.5090106534
  0
LINE
  5
235
100
AcDbEntity
  8
0
100
AcDbLine
 62
7
  6
CONTINUOUS
 10
109.2867537231
 20
249.0089799583
 11
86.7867537231
 21
249.0089799583
  0
ARC
  5
236
100
AcDbEntity
  8
0
100
AcDbCircle
 62
7
  6
CONTINUOUS
 10
98.8003917972
 20
226.474190266
 40
10.0136381375
100
AcDbArc
 50
180.0064475478
 51
186.4357781383
  0
ARC
  5
237
100
AcDbEntity
  8
0
100
AcDbCircle
 62
7
  6
CONTINUOUS
 10
98.7908822632
 20
226.4731029463
 40
10.0039078918
100
AcDbArc
 50
90.0236463661
 51
180.0050014101
  0
ARC
  5
238
100
AcDbEntity
  8
0
100
AcDbCircle
 62
7
  6
CONTINUOUS
 10
98.7872671358
 20
226.4786547636
 40
10.0010016238
100
AcDbArc
 50
266.8314249784
 51
269.9970590485
  0
ARC
  5
239
100
AcDbEntity
  8
0
100
AcDbCircle
 62
7
  6
CONTINUOUS
 10
98.7827296217
 20
226.4733116835
 40
9.9962542153
100
AcDbArc
 50
186.432617672
 51
270.0230646238
  0
ARC
  5
23A
100
AcDbEntity
  8
0
100
AcDbCircle
 62
7
  6
CONTINUOUS
 10
98.7746008317
 20
226.4708554586
 40
9.9876359158
100
AcDbArc
 50
186.4333521213
 51
188.7596523854
  0
ARC
  5
23B
100
AcDbEntity
  8
0
100
AcDbCircle
 62
7
  6
CONTINUOUS
 10
98.7874933856
 20
226.4639123792
 40
9.9226180237
100
AcDbArc
 50
269.3697094062
 51
269.995728874
  0
ARC
  5
23C
100
AcDbEntity
  8
0
100
AcDbCircle
 62
7
  6
CONTINUOUS
 10
98.8175304806
 20
226.5487769406
 40
10.0308387395
100
AcDbArc
 50
186.8481889446
 51
187.3949523512
  0
ARC
  5
23D
100
AcDbEntity
  8
0
100
AcDbCircle
 62
7
  6
CONTINUOUS
 10
98.8081005999
 20
226.5504764321
 40
10.0221077909
100
AcDbArc
 50
194.3080288806
 51
195.325673108
  0
ARC
  5
23E
100
AcDbEntity
  8
0
100
AcDbCircle
 62
7
  6
CONTINUOUS
 10
98.8048150345
 20
226.547587242
 40
10.0180721579
100
AcDbArc
 50
180.428873907
 51
186.8501047028
  0
ARC
  5
23F
100
AcDbEntity
  8
0
100
AcDbCircle
 62
7
  6
CONTINUOUS
 10
98.8005187365
 20
226.5456023603
 40
10.0137721903
100
AcDbArc
 50
181.1536749856
 51
183.8351794422
  0
ARC
  5
240
100
AcDbEntity
  8
0
100
AcDbCircle
 62
7
  6
CONTINUOUS
 10
98.7909993162
 20
226.5448474001
 40
10.0042235919
100
AcDbArc
 50
183.8345119502
 51
185.8337285328
  0
ARC
  5
241
100
AcDbEntity
  8
0
100
AcDbCircle
 62
7
  6
CONTINUOUS
 10
98.7901996221
 20
226.5426403776
 40
10.0025662437
100
AcDbArc
 50
187.2373266432
 51
269.9802608826
  0
ARC
  5
242
100
AcDbEntity
  8
0
100
AcDbCircle
 62
7
  6
CONTINUOUS
 10
98.7861508478
 20
226.5445609349
 40
9.9993718074
100
AcDbArc
 50
186.8328872651
 51
187.2369149365
  0
ARC
  5
243
100
AcDbEntity
  8
0
100
AcDbCircle
 62
7
  6
CONTINUOUS
 10
98.7804591
 20
226.5438893922
 40
9.9936405898
100
AcDbArc
 50
185.8344066682
 51
186.8329468708
  0
ARC
  5
244
100
AcDbEntity
  8
0
100
AcDbCircle
 62
7
  6
CONTINUOUS
 10
98.7777276715
 20
226.54277644
 40
9.9907740611
100
AcDbArc
 50
191.6244121127
 51
194.3082872977
  0
ARC
  5
245
100
AcDbEntity
  8
0
100
AcDbCircle
 62
7
  6
CONTINUOUS
 10
98.7760723113
 20
226.5450236075
 40
9.9893190683
100
AcDbArc
 50
180.4164963787
 51
181.1531792514
  0
ARC
  5
246
100
AcDbEntity
  8
0
100
AcDbCircle
 62
7
  6
CONTINUOUS
 10
98.7647221061
 20
226.544923177
 40
9.9779684329
100
AcDbArc
 50
180.2508065991
 51
180.4163934706
  0
ARC
  5
247
100
AcDbEntity
  8
0
100
AcDbCircle
 62
7
  6
CONTINUOUS
 10
98.7339079217
 20
226.5458518858
 40
9.9471541151
100
AcDbArc
 50
180.2124453397
 51
180.4219356538
  0
ARC
  5
248
100
AcDbEntity
  8
0
100
AcDbCircle
 62
7
  6
CONTINUOUS
 10
104.765805511
 20
211.5357149385
 40
5.0209451731
100
AcDbArc
 50
0.6282783371
 51
3.6906997608
  0
ARC
  5
249
100
AcDbEntity
  8
0
100
AcDbCircle
 62
7
  6
CONTINUOUS
 10
104.7699108888
 20
211.5357874047
 40
5.016839235
100
AcDbArc
 50
0.001105457
 51
0.6279095624
  0
ARC
  5
24A
100
AcDbEntity
  8
0
100
AcDbCircle
 62
7
  6
CONTINUOUS
 10
104.7729076225
 20
211.5347427344
 40
5.0138461007
100
AcDbArc
 50
359.9998656158
 51
9.760691749
  0
ARC
  5
24B
100
AcDbEntity
  8
0
100
AcDbCircle
 62
7
  6
CONTINUOUS
 10
104.7807003567
 20
211.5375286128
 40
5.0059320594
100
AcDbArc
 50
9.7629997832
 51
10.1141145529
  0
ARC
  5
24C
100
AcDbEntity
  8
0
100
AcDbCircle
 62
7
  6
CONTINUOUS
 10
104.7867829452
 20
211.4738091875
 40
5.0038439656
100
AcDbArc
 50
68.3197194757
 51
90.0003345898
  0
ARC
  5
24D
100
AcDbEntity
  8
0
100
AcDbCircle
 62
7
  6
CONTINUOUS
 10
104.7843114887
 20
211.5386610677
 40
5.0019437024
100
AcDbArc
 50
4.1569881752
 51
89.9720238203
  0
ARC
  5
24E
100
AcDbEntity
  8
0
100
AcDbCircle
 62
7
  6
CONTINUOUS
 10
104.785524239
 20
211.5413364988
 40
4.9999848898
100
AcDbArc
 50
19.4484168187
 51
89.7595410831
  0
ARC
  5
24F
100
AcDbEntity
  8
0
100
AcDbCircle
 62
7
  6
CONTINUOUS
 10
104.788923245
 20
211.4780467392
 40
4.9984081539
100
AcDbArc
 50
4.4434211925
 51
90.0248676997
  0
ARC
  5
250
100
AcDbEntity
  8
0
100
AcDbCircle
 62
7
  6
CONTINUOUS
 10
104.8008092035
 20
211.4832586614
 40
4.9859445197
100
AcDbArc
 50
0.0001394782
 51
6.2975127216
  0
ARC
  5
251
100
AcDbEntity
  8
0
100
AcDbCircle
 62
7
  6
CONTINUOUS
 10
104.7860215081
 20
211.5824328871
 40
4.9588369684
100
AcDbArc
 50
89.7632938187
 51
89.9915402175
  0
ARC
  5
252
100
AcDbEntity
  8
0
100
AcDbCircle
 62
7
  6
CONTINUOUS
 10
109.2867537231
 20
204.5089799583
 40
0.5
100
AcDbArc
 50
270.0
 51
359.9999907341
  0
ARC
  5
253
100
AcDbEntity
  8
0
100
AcDbCircle
 62
9
  6
CONTINUOUS
 10
109.5482587631
 20
211.5347206116
 40
0.2384932937
100
AcDbArc
 50
0.0025788935
 51
2.4795396014
  0
ARC
  5
254
100
AcDbEntity
  8
0
100
AcDbCircle
 62
7
  6
CONTINUOUS
 10
104.784228903
 20
241.4786435124
 40
5.0022253262
100
AcDbArc
 50
270.0289206626
 51
0.0393095339
  0
ARC
  5
255
100
AcDbEntity
  8
0
100
AcDbCircle
 62
7
  6
CONTINUOUS
 10
109.2867537231
 20
248.5089799583
 40
0.5
100
AcDbArc
 50
0.0000314955
 51
90.0
  0
SPLINE
  5
256
100
AcDbEntity
  8
0
100
AcDbSpline
 62
7
  6
CONTINUOUS
 70
0
 71
3
 72
14
 73
10
 74
0
 42
0.0000001
 43
0.0000001
 44
0.0000000001
 40
0.0
 40
0.0
 40
0.0
 40
0.0
 40
0.0725997621
 40
0.1582875242
 40
0.2604775804
 40
0.3798925894
 40
0.5159879518
 40
0.6672324385
 40
1.0
 40
1.0
 40
1.0
 40
1.0
 10
107.7867523242
 20
247.1155071119
 30
0.0
 10
107.7867651148
 20
247.0120024655
 30
0.0
 10
107.7328093001
 20
246.7859644686
 30
0.0
 10
107.5335017891
 20
246.4681594792
 30
0.0
 10
107.2238195903
 20
246.1544994111
 30
0.0
 10
106.807780947
 20
245.8561921336
 30
0.0
 10
106.2910417918
 20
245.5886498633
 30
0.0
 10
105.4566204782
 20
245.2910416016
 30
0.0
 10
104.7611766149
 20
245.1963599399
 30
0.0
 10
104.2867537231
 20
245.1963599399
 30
0.0
  0
SPLINE
  5
257
100
AcDbEntity
  8
0
100
AcDbSpline
 62
7
  6
CONTINUOUS
 70
0
 71
3
 72
11
 73
7
 74
0
 42
0.0000001
 43
0.0000001
 44
0.0000000001
 40
0.0
 40
0.0
 40
0.0
 40
0.0
 40
0.1937451768
 40
0.4323208544
 40
0.7064643602
 40
1.0
 40
1.0
 40
1.0
 40
1.0
 10
107.28086943
 20
246.2286201706
 30
0.0
 10
107.1111872896
 20
246.3311690104
 30
0.0
 10
106.6965268562
 20
246.4987651169
 30
0.0
 10
105.9894289541
 20
246.6548941334
 30
0.0
 10
105.1682326875
 20
246.7468782005
 30
0.0
 10
104.5871344288
 20
246.7667323068
 30
0.0
 10
104.2867537231
 20
246.7667323068
 30
0.0
  0
SPLINE
  5
258
100
AcDbEntity
  8
0
100
AcDbSpline
 62
7
  6
CONTINUOUS
 70
0
 71
3
 72
11
 73
7
 74
0
 42
0.0000001
 43
0.0000001
 44
0.0000000001
 40
0.0
 40
0.0
 40
0.0
 40
0.0
 40
0.2932792831
 40
0.567296546
 40
0.8059468749
 40
1.0
 40
1.0
 40
1.0
 40
1.0
 10
104.2867537231
 20
246.7667323068
 30
0.0
 10
103.9872372696
 20
246.7667323068
 30
0.0
 10
103.4076978738
 20
246.7469699393
 30
0.0
 10
102.5884339649
 20
246.6555363736
 30
0.0
 10
101.8823841754
 20
246.5002499601
 30
0.0
 10
101.4678940253
 20
246.3337716908
 30
0.0
 10
101.2979356543
 20
246.2318428654
 30
0.0
  0
SPLINE
  5
259
100
AcDbEntity
  8
0
100
AcDbSpline
 62
7
  6
CONTINUOUS
 70
0
 71
3
 72
10
 73
6
 74
0
 42
0.0000001
 43
0.0000001
 44
0.0000000001
 40
0.0
 40
0.0
 40
0.0
 40
0.0
 40
0.2040225027
 40
0.4438274561
 40
1.0
 40
1.0
 40
1.0
 40
1.0
 10
101.3078994666
 20
246.2450174581
 30
0.0
 10
101.4704818423
 20
246.1005769859
 30
0.0
 10
101.8623107848
 20
245.8285189018
 30
0.0
 10
102.8342175559
 20
245.3832172076
 30
0.0
 10
103.6939047888
 20
245.2381216397
 30
0.0
 10
104.2867537231
 20
245.2381216397
 30
0.0
  0
SPLINE
  5
25A
100
AcDbEntity
  8
0
100
AcDbSpline
 62
7
  6
CONTINUOUS
 70
0
 71
3
 72
11
 73
7
 74
0
 42
0.0000001
 43
0.0000001
 44
0.0000000001
 40
0.0
 40
0.0
 40
0.0
 40
0.0
 40
0.195126023
 40
0.4341071796
 40
0.7076561651
 40
1.0
 40
1.0
 40
1.0
 40
1.0
 10
107.255623028
 20
206.7743637656
 30
0.0
 10
107.0847092828
 20
206.6748419705
 30
0.0
 10
106.6710643514
 20
206.5122211719
 30
0.0
 10
105.9689206099
 20
206.3601654256
 30
0.0
 10
105.1568307178
 20
206.2705843247
 30
0.0
 10
104.5830706756
 20
206.2512276099
 30
0.0
 10
104.2867537231
 20
206.2512276099
 30
0.0
  0
SPLINE
  5
25B
100
AcDbEntity
  8
0
100
AcDbSpline
 62
7
  6
CONTINUOUS
 70
0
 71
3
 72
11
 73
7
 74
0
 42
0.0000001
 43
0.0000001
 44
0.0000000001
 40
0.0
 40
0.0
 40
0.0
 40
0.0
 40
0.1940096983
 40
0.4327046882
 40
0.7067339401
 40
1.0
 40
1.0
 40
1.0
 40
1.0
 10
101.3011033421
 20
206.7602892472
 30
0.0
 10
101.4713683226
 20
206.6596081805
 30
0.0
 10
101.8858450729
 20
206.4953643337
 30
0.0
 10
102.5911402132
 20
206.3423612768
 30
0.0
 10
103.4091837365
 20
206.2522919672
 30
0.0
 10
103.9877505786
 20
206.232852462
 30
0.0
 10
104.2867537231
 20
206.232852462
 30
0.0
  0
SPLINE
  5
25C
100
AcDbEntity
  8
0
100
AcDbSpline
 62
7
  6
CONTINUOUS
 70
0
 71
3
 72
14
 73
10
 74
0
 42
0.0000001
 43
0.0000001
 44
0.0000000001
 40
0.0
 40
0.0
 40
0.0
 40
0.0
 40
0.0722213043
 40
0.1576353076
 40
0.2596769253
 40
0.3790641248
 40
0.5152423768
 40
0.6666673405
 40
1.0
 40
1.0
 40
1.0
 40
1.0
 10
100.7867551221
 20
205.8723843815
 30
0.0
 10
100.7867423233
 20
205.9751651194
 30
0.0
 10
100.840841375
 20
206.1998443145
 30
0.0
 10
101.0402335786
 20
206.5154478452
 30
0.0
 10
101.349906932
 20
206.8270869783
 30
0.0
 10
101.7659222464
 20
207.1236003041
 30
0.0
 10
102.2826277749
 20
207.3896334348
 30
0.0
 10
103.1171544991
 20
207.6856897742
 30
0.0
 10
103.8123760129
 20
207.779838277
 30
0.0
 10
104.2867537231
 20
207.779838277
 30
0.0
  0
LINE
  5
25D
100
AcDbEntity
  8
0
100
AcDbLine
 62
7
  6
CONTINUOUS
 10
69.7867537231
 20
241.4225445655
 11
68.7867537231
 21
241.4213716009
  0
LINE
  5
25E
100
AcDbEntity
  8
0
100
AcDbLine
 62
7
  6
CONTINUOUS
 10
69.7867537231
 20
211.5954153512
 11
68.7867537231
 21
211.5965883158
  0
SPLINE
  5
25F
100
AcDbEntity
  8
0
100
AcDbSpline
 62
7
  6
CONTINUOUS
 70
0
 71
3
 72
11
 73
7
 74
0
 42
0.0000001
 43
0.0000001
 44
0.0000000001
 40
0.0
 40
0.0
 40
0.0
 40
0.0
 40
0.2920350472
 40
0.5654289442
 40
0.8044996633
 40
1.0
 40
1.0
 40
1.0
 40
1.0
 10
104.2867537231
 20
206.2512276099
 30
0.0
 10
103.9914940027
 20
206.2512276099
 30
0.0
 10
103.4196479056
 20
206.2704683669
 30
0.0
 10
102.6099468556
 20
206.3593966055
 30
0.0
 10
101.9091214264
 20
206.5104182256
 30
0.0
 10
101.4957463899
 20
206.6717232106
 30
0.0
 10
101.3245260426
 20
206.7704789657
 30
0.0
  0
SPLINE
  5
260
100
AcDbEntity
  8
0
100
AcDbSpline
 62
7
  6
CONTINUOUS
 70
0
 71
3
 72
11
 73
7
 74
0
 42
0.0000001
 43
0.0000001
 44
0.0000000001
 40
0.0
 40
0.0
 40
0.0
 40
0.0
 40
0.2929964156
 40
0.5668917651
 40
0.8056647291
 40
1.0
 40
1.0
 40
1.0
 40
1.0
 10
104.2867537231
 20
206.232852462
 30
0.0
 10
104.5848475615
 20
206.232852462
 30
0.0
 10
105.1617727068
 20
206.2521958364
 30
0.0
 10
105.9777764553
 20
206.3416982099
 30
0.0
 10
106.681960584
 20
206.4938236633
 30
0.0
 10
107.0962385145
 20
206.6569153268
 30
0.0
 10
107.2667839089
 20
206.7569452035
 30
0.0
  0
SPLINE
  5
261
100
AcDbEntity
  8
0
100
AcDbSpline
 62
7
  6
CONTINUOUS
 70
0
 71
3
 72
14
 73
10
 74
0
 42
0.0000001
 43
0.0000001
 44
0.0000000001
 40
0.0
 40
0.0
 40
0.0
 40
0.0
 40
0.3333389858
 40
0.4847572293
 40
0.6209320201
 40
0.7403189538
 40
0.8423619491
 40
0.9277774794
 40
1.0
 40
1.0
 40
1.0
 40
1.0
 10
104.2867537231
 20
207.779838277
 30
0.0
 10
104.7611403766
 20
207.779838277
 30
0.0
 10
105.4563611927
 20
207.6856868037
 30
0.0
 10
106.290882296
 20
207.3896320284
 30
0.0
 10
106.8075743093
 20
207.1236054495
 30
0.0
 10
107.223588227
 20
206.8270964587
 30
0.0
 10
107.5332672857
 20
206.5154575582
 30
0.0
 10
107.7326639214
 20
206.1998499644
 30
0.0
 10
107.7867653114
 20
205.9751669483
 30
0.0
 10
107.7867520962
 20
205.8723844926
 30
0.0
  0
SPLINE
  5
262
100
AcDbEntity
  8
0
100
AcDbSpline
 62
7
  6
CONTINUOUS
 70
0
 71
3
 72
10
 73
6
 74
0
 42
0.0000001
 43
0.0000001
 44
0.0000000001
 40
0.0
 40
0.0
 40
0.0
 40
0.0
 40
0.5555366392
 40
0.795475111
 40
1.0
 40
1.0
 40
1.0
 40
1.0
 10
104.2867537231
 20
245.2381216397
 30
0.0
 10
104.87605244
 20
245.2381216397
 30
0.0
 10
105.7308652298
 20
245.3815504659
 30
0.0
 10
106.6992250303
 20
245.8220440844
 30
0.0
 10
107.0907752275
 20
246.0914788625
 30
0.0
 10
107.2538196066
 20
246.234607646
 30
0.0
  0
SPLINE
  5
263
100
AcDbEntity
  8
0
100
AcDbSpline
 62
7
  6
CONTINUOUS
 70
0
 71
3
 72
14
 73
10
 74
0
 42
0.0000001
 43
0.0000001
 44
0.0000000001
 40
0.0
 40
0.0
 40
0.0
 40
0.0
 40
0.3327738785
 40
0.4840116541
 40
0.6201035564
 40
0.7395182954
 40
0.8417097257
 40
0.9273990167
 40
1.0
 40
1.0
 40
1.0
 40
1.0
 10
104.2867537231
 20
245.1963599399
 30
0.0
 10
103.8123218855
 20
245.1963599399
 30
0.0
 10
103.1168787213
 20
245.2910445854
 30
0.0
 10
102.2824630385
 20
245.5886512755
 30
0.0
 10
101.7657373997
 20
245.8561869513
 30
0.0
 10
101.349700144
 20
246.1544898666
 30
0.0
 10
101.0400122311
 20
246.46814971
 30
0.0
 10
100.8407002907
 20
246.7859587911
 30
0.0
 10
100.7867421433
 20
247.0120006267
 30
0.0
 10
100.7867553501
 20
247.115507001
 30
0.0
  0
LINE
  5
264
100
AcDbEntity
  8
0
100
AcDbLine
 62
7
  6
CONTINUOUS
 10
68.7867537231
 20
241.3965467379
 11
69.7867537231
 21
241.3953737732
  0
SPLINE
  5
265
100
AcDbEntity
  8
0
100
AcDbSpline
 62
7
  6
CONTINUOUS
 70
0
 71
3
 72
15
 73
11
 74
0
 42
0.0000001
 43
0.0000001
 44
0.0000000001
 40
0.0
 40
0.0
 40
0.0
 40
0.0
 40
0.0701049234
 40
0.1471813921
 40
0.2412368737
 40
0.3570501075
 40
0.4948688793
 40
0.6516715089
 40
0.8222582783
 40
1.0
 40
1.0
 40
1.0
 40
1.0
 10
107.7867520962
 20
205.8723844926
 30
0.0
 10
107.7867401999
 20
205.7798597589
 30
0.0
 10
107.7420784842
 20
205.5825061964
 30
0.0
 10
107.5356767068
 20
205.3294053152
 30
0.0
 10
107.2127227892
 20
205.1242793709
 30
0.0
 10
106.782310134
 20
204.9598071397
 30
0.0
 10
106.254346742
 20
204.8341294179
 30
0.0
 10
105.6461549908
 20
204.7458776469
 30
0.0
 10
104.9811551737
 20
204.6937947902
 30
0.0
 10
104.521337898
 20
204.6823985955
 30
0.0
 10
104.2867537231
 20
204.6823985955
 30
0.0
  0
SPLINE
  5
266
100
AcDbEntity
  8
0
100
AcDbSpline
 62
9
  6
CONTINUOUS
 70
0
 71
3
 72
23
 73
19
 74
0
 42
0.0000001
 43
0.0000001
 44
0.0000000001
 40
0.0
 40
0.0
 40
0.0
 40
0.0
 40
0.1267675074
 40
0.1898915913
 40
0.2526705605
 40
0.3150975695
 40
0.3771608579
 40
0.4389233544
 40
0.5005025812
 40
0.5620271147
 40
0.6236212733
 40
0.6854459749
 40
0.747632295
 40
0.8102159106
 40
0.8731616594
 40
0.9047943437
 40
0.936525142
 40
1.0
 40
1.0
 40
1.0
 40
1.0
 10
88.286003882
 20
226.4713944285
 30
0.0
 10
88.2851494827
 20
225.7670097994
 30
0.0
 10
88.3908807047
 20
224.7084678565
 30
0.0
 10
88.7240900936
 20
223.3432470514
 30
0.0
 10
89.0708476057
 20
222.3539537612
 30
0.0
 10
89.5091362431
 20
221.4085037454
 30
0.0
 10
90.0319577635
 20
220.5135413353
 30
0.0
 10
90.6357183706
 20
219.6767875561
 30
0.0
 10
91.315999614
 20
218.9050090874
 30
0.0
 10
92.0657096578
 20
218.2019133238
 30
0.0
 10
92.8809643794
 20
217.5735337842
 30
0.0
 10
93.7583257823
 20
217.0281641698
 30
0.0
 10
94.6901148477
 20
216.5697081161
 30
0.0
 10
95.66841843
 20
216.2028757022
 30
0.0
 10
96.5150976987
 20
215.9824153172
 30
0.0
 10
97.2057551357
 20
215.8561982273
 30
0.0
 10
97.9039850784
 20
215.7604619999
 30
0.0
 10
98.4341614523
 20
215.7286560424
 30
0.0
 10
98.7867535694
 20
215.7373300969
 30
0.0
  0
SPLINE
  5
267
100
AcDbEntity
  8
0
100
AcDbSpline
 62
7
  6
CONTINUOUS
 70
0
 71
3
 72
15
 73
11
 74
0
 42
0.0000001
 43
0.0000001
 44
0.0000000001
 40
0.0
 40
0.0
 40
0.0
 40
0.0
 40
0.1777487503
 40
0.3483393333
 40
0.5051387741
 40
0.6429546968
 40
0.758765628
 40
0.8528198447
 40
0.929895562
 40
1.0
 40
1.0
 40
1.0
 40
1.0
 10
104.2867537231
 20
204.6823985955
 30
0.0
 10
104.0521602659
 20
204.6823985955
 30
0.0
 10
103.5923286979
 20
204.6937961363
 30
0.0
 10
102.9273187689
 20
204.7458804226
 30
0.0
 10
102.3191305581
 20
204.8341360842
 30
0.0
 10
101.7911782438
 20
204.9598128659
 30
0.0
 10
101.3607745023
 20
205.124284446
 30
0.0
 10
101.0378261993
 20
205.3294089531
 30
0.0
 10
100.8314289297
 20
205.5825086299
 30
0.0
 10
100.7867666436
 20
205.7798602861
 30
0.0
 10
100.7867551221
 20
205.8723843815
 30
0.0
  0
SPLINE
  5
268
100
AcDbEntity
  8
0
100
AcDbSpline
 62
9
  6
CONTINUOUS
 70
0
 71
3
 72
23
 73
19
 74
0
 42
0.0000001
 43
0.0000001
 44
0.0000000001
 40
0.0
 40
0.0
 40
0.0
 40
0.0
 40
0.0634573469
 40
0.0951794096
 40
0.1268128085
 40
0.1897567971
 40
0.2523224739
 40
0.3145061699
 40
0.3763291102
 40
0.4993195011
 40
0.5609214915
 40
0.6227047851
 40
0.6847859106
 40
0.7472274883
 40
0.810008847
 40
0.8731227366
 40
0.9365225784
 40
1.0
 40
1.0
 40
1.0
 40
1.0
 10
98.7867536522
 20
237.2145728584
 30
0.0
 10
98.4340699222
 20
237.2204028749
 30
0.0
 10
97.9040395504
 20
237.1904909286
 30
0.0
 10
97.205471531
 20
237.0956461772
 30
0.0
 10
96.5146480502
 20
236.9692798532
 30
0.0
 10
95.6677306396
 20
236.7487825933
 30
0.0
 10
94.6894881109
 20
236.3810111138
 30
0.0
 10
93.7580207804
 20
235.9211402691
 30
0.0
 10
92.5906623911
 20
235.1950359172
 30
0.0
 10
91.5416275465
 20
234.2982745659
 30
0.0
 10
90.6356257849
 20
233.2693262054
 30
0.0
 10
90.0316621061
 20
232.4316568545
 30
0.0
 10
89.5092815018
 20
231.5357008953
 30
0.0
 10
89.0708574905
 20
230.5896594162
 30
0.0
 10
88.7235950298
 20
229.6002417743
 30
0.0
 10
88.4746915043
 20
228.5762088744
 30
0.0
 10
88.3206204505
 20
227.53003334
 30
0.0
 10
88.2848778076
 20
226.8242361312
 30
0.0
 10
88.286003882
 20
226.4713944285
 30
0.0
  0
SPLINE
  5
269
100
AcDbEntity
  8
0
100
AcDbSpline
 62
7
  6
CONTINUOUS
 70
0
 71
3
 72
15
 73
11
 74
0
 42
0.0000001
 43
0.0000001
 44
0.0000000001
 40
0.0
 40
0.0
 40
0.0
 40
0.0
 40
0.1774714443
 40
0.3478088383
 40
0.5044050925
 40
0.6420967372
 40
0.7578959214
 40
0.8520875841
 40
0.9294707462
 40
1.0
 40
1.0
 40
1.0
 40
1.0
 10
104.2867537231
 20
248.3171861733
 30
0.0
 10
104.5213492308
 20
248.3171861733
 30
0.0
 10
104.98120436
 20
248.3056346185
 30
0.0
 10
105.6462472418
 20
248.2528640579
 30
0.0
 10
106.2544852731
 20
248.1634988555
 30
0.0
 10
106.7825147718
 20
248.0363296717
 30
0.0
 10
107.2130171181
 20
247.870028642
 30
0.0
 10
107.5360322627
 20
247.6627399363
 30
0.0
 10
107.742207991
 20
247.4073557951
 30
0.0
 10
107.7867408032
 20
247.2087381443
 30
0.0
 10
107.7867523242
 20
247.1155071119
 30
0.0
  0
SPLINE
  5
26A
100
AcDbEntity
  8
0
100
AcDbSpline
 62
9
  6
CONTINUOUS
 70
0
 71
3
 72
11
 73
7
 74
0
 42
0.0000001
 43
0.0000001
 44
0.0000000001
 40
0.0
 40
0.0
 40
0.0
 40
0.0
 40
0.3028689919
 40
0.5875445206
 40
0.8190682663
 40
1.0
 40
1.0
 40
1.0
 40
1.0
 10
109.2867537231
 20
211.140601279
 30
0.0
 10
109.3536545372
 20
211.140601613
 30
0.0
 10
109.4842186638
 20
211.1582317274
 30
0.0
 10
109.6516107998
 20
211.2350440936
 30
0.0
 10
109.7615099175
 20
211.3500578336
 30
0.0
 10
109.7867492151
 20
211.442151162
 30
0.0
 10
109.7867497854
 20
211.4821172219
 30
0.0
  0
SPLINE
  5
26B
100
AcDbEntity
  8
0
100
AcDbSpline
 62
9
  6
CONTINUOUS
 70
0
 71
3
 72
19
 73
15
 74
0
 42
0.0000001
 43
0.0000001
 44
0.0000000001
 40
0.0
 40
0.0
 40
0.0
 40
0.0
 40
0.0706782114
 40
0.1410910483
 40
0.2109392689
 40
0.2800467961
 40
0.3480913865
 40
0.4148617588
 40
0.544041072
 40
0.6670999318
 40
0.7836876655
 40
0.839820685
 40
0.8944842999
 40
1.0
 40
1.0
 40
1.0
 40
1.0
 10
104.7867537916
 20
215.7373300969
 30
0.0
 10
104.9549320096
 20
215.7366979829
 30
0.0
 10
105.2909160988
 20
215.7182211949
 30
0.0
 10
105.7868251008
 20
215.6334161055
 30
0.0
 10
106.2652868861
 20
215.490754145
 30
0.0
 10
106.7207324597
 20
215.3009597802
 30
0.0
 10
107.1470350029
 20
215.0669451654
 30
0.0
 10
107.660178653
 20
214.7026036885
 30
0.0
 10
108.2076327596
 20
214.1693344157
 30
0.0
 10
108.7146801401
 20
213.4462754731
 30
0.0
 10
108.9975402075
 20
212.7972601188
 30
0.0
 10
109.1538016341
 20
212.2787954307
 30
0.0
 10
109.2558755174
 20
211.7734666946
 30
0.0
 10
109.2809437289
 20
211.3916061933
 30
0.0
 10
109.2867537231
 20
211.1405979181
 30
0.0
  0
SPLINE
  5
26C
100
AcDbEntity
  8
0
100
AcDbSpline
 62
7
  6
CONTINUOUS
 70
0
 71
3
 72
15
 73
11
 74
0
 42
0.0000001
 43
0.0000001
 44
0.0000000001
 40
0.0
 40
0.0
 40
0.0
 40
0.0
 40
0.0705297418
 40
0.1479136557
 40
0.2421065812
 40
0.3579080639
 40
0.4956025523
 40
0.6522019884
 40
0.8225355735
 40
1.0
 40
1.0
 40
1.0
 40
1.0
 10
100.7867553501
 20
247.115507001
 30
0.0
 10
100.7867672459
 20
247.2087386761
 30
0.0
 10
100.8312994838
 20
247.4073582387
 30
0.0
 10
101.0374797157
 20
247.6627436092
 30
0.0
 10
101.3605004801
 20
247.8700337695
 30
0.0
 10
101.7910117424
 20
248.0363354616
 30
0.0
 10
102.3190523169
 20
248.1635055992
 30
0.0
 10
102.9272938961
 20
248.2528668769
 30
0.0
 10
103.5923266624
 20
248.3056359875
 30
0.0
 10
104.0521674982
 20
248.3171861733
 30
0.0
 10
104.2867537231
 20
248.3171861733
 30
0.0
  0
SPLINE
  5
26D
100
AcDbEntity
  8
0
100
AcDbSpline
 62
9
  6
CONTINUOUS
 70
0
 71
3
 72
15
 73
11
 74
0
 42
0.0000001
 43
0.0000001
 44
0.0000000001
 40
0.0
 40
0.0
 40
0.0
 40
0.0
 40
0.1057866142
 40
0.2167584289
 40
0.3336235977
 40
0.4567546555
 40
0.5860199348
 40
0.7206571665
 40
0.8592765879
 40
1.0
 40
1.0
 40
1.0
 40
1.0
 10
109.2867537231
 20
241.8223729567
 30
0.0
 10
109.2867506793
 20
241.5705394982
 30
0.0
 10
109.2453153688
 20
241.0535955649
 30
0.0
 10
109.0521588632
 20
240.2794907074
 30
0.0
 10
108.7108561785
 20
239.5119198543
 30
0.0
 10
108.2089547991
 20
238.7837194672
 30
0.0
 10
107.5430598996
 20
238.1377614053
 30
0.0
 10
106.7252985366
 20
237.6240358666
 30
0.0
 10
105.7892670801
 20
237.2912810927
 30
0.0
 10
105.1217570135
 20
237.214622866
 30
0.0
 10
104.7867537293
 20
237.2145728584
 30
0.0
  0
SPLINE
  5
26E
100
AcDbEntity
  8
0
100
AcDbSpline
 62
9
  6
CONTINUOUS
 70
0
 71
3
 72
11
 73
7
 74
0
 42
0.0000001
 43
0.0000001
 44
0.0000000001
 40
0.0
 40
0.0
 40
0.0
 40
0.0
 40
0.1805566455
 40
0.4119147547
 40
0.6967622752
 40
1.0
 40
1.0
 40
1.0
 40
1.0
 10
109.7867501229
 20
241.4820758072
 30
0.0
 10
109.7867495422
 20
241.521907732
 30
0.0
 10
109.7614630451
 20
241.6137587078
 30
0.0
 10
109.65151036
 20
241.7283266343
 30
0.0
 10
109.4841616984
 20
241.8048133204
 30
0.0
 10
109.3536498611
 20
241.8223694285
 30
0.0
 10
109.2867537231
 20
241.8223697314
 30
0.0
  0
ENDSEC
  0
SECTION
  2
OBJECTS
  0
DICTIONARY
  5
C
100
AcDbDictionary
280
0
281
1
  3
ACAD_GROUP
350
D
  3
ACAD_MLINESTYLE
350
17
  3
ACAD_LAYOUT
350
1A
  3
ACAD_PLOTSETTINGS
350
19
  3
ACAD_PLOTSTYLENAME
350
E
  0
DICTIONARY
  5
D
102
{ACAD_REACTORS
330
C
102
}
100
AcDbDictionary
280
0
281
1
  0
ACDBDICTIONARYWDFLT
  5
E
102
{ACAD_REACTORS
330
C
102
}
100
AcDbDictionary
281
1
  3
Normal
350
F
100
AcDbDictionaryWithDefault
340
F
  0
DICTIONARY
  5
17
102
{ACAD_REACTORS
330
C
102
}
100
AcDbDictionary
280
0
281
1
  3
Standard
350
18
  0
DICTIONARY
  5
19
102
{ACAD_REACTORS
330
C
102
}
100
AcDbDictionary
281
1
  0
DICTIONARY
  5
1A
102
{ACAD_REACTORS
330
C
102
}
100
AcDbDictionary
281
1
  3
Model
350
26F
  3
Layout1
350
270
  0
ACDBPLACEHOLDER
  5
F
102
{ACAD_REACTORS
330
E
102
}
  0
MLINESTYLE
  5
18
102
{ACAD_REACTORS
330
17
102
}
100
AcDbMlineStyle
  2
STANDARD
 70
0
  3

 62
256
 51
90.0
 52
90.0
 71
2
 49
0.5
 62
256
  6
BYLAYER
 49
-0.5
 62
256
  6
BYLAYER
  0
LAYOUT
  5
26F
102
{ACAD_REACTORS
330
1A
102
}
100
AcDbPlotSettings
  1

  2
none_device
  4
ANSI_C_(22.00_x_17.00_Inches)
  6

 40
0.0
 41
0.0
 42
0.0
 43
0.0
 44
558.8
 45
431.8
 46
0.0
 47
0.0
 48
0.0
 49
0.0
140
0.0
141
0.0
142
1.0
143
1.0
 70
1024
 72
1
 73
0
 74
0
  7

 75
0
147
1.0
148
0.0
149
0.0
100
AcDbLayout
  1
Model
 70
0
 71
0
 10
0.0
 20
0.0
 11
558.8
 21
431.8
 12
0.0
 22
0.0
 32
0.0
 14
0.0
 24
0.0
 34
0.0
 15
0.0
 25
0.0
 35
0.0
146
0.0
 13
0.0
 23
0.0
 33
0.0
 16
1.0
 26
0.0
 36
0.0
 17
0.0
 27
1.0
 37
0.0
 76
0
330
216
345
0
346
0
  0
LAYOUT
  5
270
102
{ACAD_REACTORS
330
1A
102
}
100
AcDbPlotSettings
  1

  2
none_device
  4
ANSI_C_(22.00_x_17.00_Inches)
  6

 40
0.0
 41
0.0
 42
0.0
 43
0.0
 44
558.8
 45
431.8
 46
0.0
 47
0.0
 48
0.0
 49
0.0
140
0.0
141
0.0
142
1.0
143
1.0
 70
0
 72
1
 73
0
 74
0
  7

 75
0
147
1.0
148
0.0
149
0.0
100
AcDbLayout
  1
Layout1
 70
0
 71
1
 10
0.0
 20
0.0
 11
558.8
 21
431.8
 12
0.0
 22
0.0
 32
0.0
 14
0.0
 24
0.0
 34
0.0
 15
0.0
 25
0.0
 35
0.0
146
0.0
 13
0.0
 23
0.0
 33
0.0
 16
1.0
 26
0.0
 36
0.0
 17
0.0
 27
1.0
 37
0.0
 76
0
330
217
345
0
346
0
  0
ENDSEC
  0
EOF
