999
DXF file: Y:\001_SCHNEIDER_PARIS\maxime fuentes - génération CAD 2D\TRAVAIL\ZBD8D1_CAD_2023\zbd8d1_2d-views_3.dxf
999
Pro/ENGINEER 2018260 by Parametric Technology Corporation
  0
SECTION
  2
HEADER
  9
$ACADVER
  1
AC1027
  9
$DWGCODEPAGE
  3
ANSI_1252
  9
$EXTMAX
 10
558.8
 20
431.8
 30
0.0
  9
$EXTMIN
 10
0.0
 20
0.0
 30
0.0
  9
$LIMMIN
 10
0.0
 20
0.0
  9
$LIMMAX
 10
558.8
 20
431.8
  9
$VIEWCTR
 10
279.4
 20
215.9
  9
$VIEWSIZE
 40
431.8
  9
$CLAYER
  8
0
  9
$LTSCALE
 40
30.734
  9
$CELTYPE
  6
BYLAYER
  9
$DIMSCALE
 40
1.0
  9
$DIMASZ
 40
3.5
  9
$DIMEXO
 40
1.0
  9
$DIMDLI
 40
21.2344
  9
$DIMEXE
 40
3.0
  9
$DIMCEN
 40
5.0292
  9
$DIMLFAC
 40
1.0
  9
$DIMBLK
  1
_FILLED
  9
$DIMALT
 70
0
  9
$DIMALTF
 40
0.0393700787
  9
$DIMTXT
 40
4.0
  9
$DIMTOL
 70
1
  9
$DIMLIM
 70
0
  9
$DIMTFAC
 40
1.0
  9
$DIMTP
 40
0.0001
  9
$DIMTM
 40
0.0001
  9
$DIMGAP
 40
0.625
  9
$DIMDSEP
 70
46
  9
$AUNITS
 70
0
  9
$PDMODE
 70
0
  9
$PDSIZE
 40
0.01
  9
$HANDSEED
  5
375
  9
$TILEMODE
 70
1
  9
$MEASUREMENT
 70
1
  9
$INSUNITS
 70
4
  0
ENDSEC
  0
SECTION
  2
CLASSES
  0
CLASS
  1
ACDBDICTIONARYWDFLT
  2
AcDbDictionaryWithDefault
  3
AutoCAD 2000
 90
0
 91
1
280
0
281
0
  0
CLASS
  1
ACDBPLACEHOLDER
  2
AcDbPlaceHolder
  3
AutoCAD 2000
 90
0
 91
1
280
0
281
0
  0
CLASS
  1
LAYOUT
  2
AcDbLayout
  3
AutoCAD 2000
 90
0
 91
0
280
0
281
0
  0
ENDSEC
  0
SECTION
  2
TABLES
  0
TABLE
  2
VPORT
  5
8
100
AcDbSymbolTable
 70
2
  0
VPORT
  5
1F4
100
AcDbSymbolTableRecord
100
AcDbViewportTableRecord
  2
*ACTIVE
 70
0
 10
0.0
 20
0.0
 11
1.0
 21
1.0
 12
279.4
 22
215.9
 13
0.0
 23
0.0
 14
1.0
 24
1.0
 15
0.0
 25
0.0
 16
0.0
 26
0.0
 36
1.0
 17
0.0
 27
0.0
 37
0.0
 40
431.8
 41
1.2941176471
 42
50.0
 43
0.0
 44
0.0
 50
0.0
 51
0.0
 71
0
 72
100
 73
1
 74
1
 75
0
 76
0
 77
0
 78
0
  0
ENDTAB
  0
TABLE
  2
LTYPE
  5
5
100
AcDbSymbolTable
 70
6
  0
LTYPE
  5
14
100
AcDbSymbolTableRecord
100
AcDbLinetypeTableRecord
  2
BYBLOCK
 70
0
  3

 72
65
 73
0
 40
0.0
  0
LTYPE
  5
15
100
AcDbSymbolTableRecord
100
AcDbLinetypeTableRecord
  2
BYLAYER
 70
0
  3

 72
65
 73
0
 40
0.0
  0
LTYPE
  5
16
100
AcDbSymbolTableRecord
100
AcDbLinetypeTableRecord
  2
CONTINUOUS
 70
64
  3
Solid line
 72
65
 73
0
 40
0.0
  0
LTYPE
  5
1F5
100
AcDbSymbolTableRecord
100
AcDbLinetypeTableRecord
  2
CENTER
 70
64
  3
____ _ ____ _ ____ _ ____ _ ____ _ ____ _ ____
 72
65
 73
4
 40
0.6
 49
0.375
 74
0
 49
-0.075
 74
0
 49
0.075
 74
0
 49
-0.075
 74
0
  0
LTYPE
  5
1F6
100
AcDbSymbolTableRecord
100
AcDbLinetypeTableRecord
  2
HIDDEN
 70
64
  3
- - - - - - - - - - - - - - - - - - - -
 72
65
 73
2
 40
0.2
 49
0.1
 74
0
 49
-0.1
 74
0
  0
LTYPE
  5
1F7
100
AcDbSymbolTableRecord
100
AcDbLinetypeTableRecord
  2
PHANTOM
 70
64
  3
_____ _ _ _____ _ _ _____ _ _ _____
 72
65
 73
6
 40
0.8
 49
0.45
 74
0
 49
-0.05
 74
0
 49
0.1
 74
0
 49
-0.05
 74
0
 49
0.1
 74
0
 49
-0.05
 74
0
  0
LTYPE
  5
1F8
100
AcDbSymbolTableRecord
100
AcDbLinetypeTableRecord
  2
DOT
 70
64
  3
. . . . . . . . . . . . . . . . . . . .
 72
65
 73
2
 40
0.2
 49
0.1
 74
0
 49
-0.1
 74
0
  0
LTYPE
  5
1F9
100
AcDbSymbolTableRecord
100
AcDbLinetypeTableRecord
  2
DASHED
 70
64
  3
- - - - - - - - - - - - - - - - - - - -
 72
65
 73
2
 40
0.2
 49
0.1
 74
0
 49
-0.1
 74
0
  0
ENDTAB
  0
TABLE
  2
LAYER
  5
2
100
AcDbSymbolTable
 70
36
  0
LAYER
  5
10
100
AcDbSymbolTableRecord
100
AcDbLayerTableRecord
  2
0
 70
0
 62
7
  6
CONTINUOUS
370
-3
390
F
  0
LAYER
  5
1FA
100
AcDbSymbolTableRecord
100
AcDbLayerTableRecord
  2
DEFAULT_1
 70
0
 62
7
  6
CENTER
370
-3
390
F
  0
LAYER
  5
1FB
100
AcDbSymbolTableRecord
100
AcDbLayerTableRecord
  2
DEFAULT_2
 70
0
 62
8
  6
HIDDEN
370
-3
390
F
  0
LAYER
  5
1FC
100
AcDbSymbolTableRecord
100
AcDbLayerTableRecord
  2
DEFAULT_3
 70
0
 62
7
  6
PHANTOM
370
-3
390
F
  0
LAYER
  5
1FD
100
AcDbSymbolTableRecord
100
AcDbLayerTableRecord
  2
01_ALL_DTM_PLN
 70
0
 62
7
  6
CONTINUOUS
370
-3
390
F
  0
LAYER
  5
1FE
100
AcDbSymbolTableRecord
100
AcDbLayerTableRecord
  2
01__ASM_ALL_DTM_PLN
 70
0
 62
7
  6
CONTINUOUS
370
-3
390
F
  0
LAYER
  5
1FF
100
AcDbSymbolTableRecord
100
AcDbLayerTableRecord
  2
01__ASM_DEF_DTM_PLN
 70
0
 62
7
  6
CONTINUOUS
370
-3
390
F
  0
LAYER
  5
200
100
AcDbSymbolTableRecord
100
AcDbLayerTableRecord
  2
01___PRT_ALL_DTM_PLN
 70
0
 62
7
  6
CONTINUOUS
370
-3
390
F
  0
LAYER
  5
201
100
AcDbSymbolTableRecord
100
AcDbLayerTableRecord
  2
01___PRT_DEF_DTM_PLN
 70
0
 62
7
  6
CONTINUOUS
370
-3
390
F
  0
LAYER
  5
202
100
AcDbSymbolTableRecord
100
AcDbLayerTableRecord
  2
02_ALL_AXES
 70
0
 62
7
  6
CONTINUOUS
370
-3
390
F
  0
LAYER
  5
203
100
AcDbSymbolTableRecord
100
AcDbLayerTableRecord
  2
02__ASM_ALL_AXES
 70
0
 62
7
  6
CONTINUOUS
370
-3
390
F
  0
LAYER
  5
204
100
AcDbSymbolTableRecord
100
AcDbLayerTableRecord
  2
02___PRT_ALL_AXES
 70
0
 62
7
  6
CONTINUOUS
370
-3
390
F
  0
LAYER
  5
205
100
AcDbSymbolTableRecord
100
AcDbLayerTableRecord
  2
03_ALL_CURVES
 70
0
 62
7
  6
CONTINUOUS
370
-3
390
F
  0
LAYER
  5
206
100
AcDbSymbolTableRecord
100
AcDbLayerTableRecord
  2
03__ASM_ALL_CURVES
 70
0
 62
7
  6
CONTINUOUS
370
-3
390
F
  0
LAYER
  5
207
100
AcDbSymbolTableRecord
100
AcDbLayerTableRecord
  2
03___PRT_ALL_CURVES
 70
0
 62
7
  6
CONTINUOUS
370
-3
390
F
  0
LAYER
  5
208
100
AcDbSymbolTableRecord
100
AcDbLayerTableRecord
  2
04_ALL_DTM_PNT
 70
0
 62
7
  6
CONTINUOUS
370
-3
390
F
  0
LAYER
  5
209
100
AcDbSymbolTableRecord
100
AcDbLayerTableRecord
  2
04__ASM_ALL_DTM_PNT
 70
0
 62
7
  6
CONTINUOUS
370
-3
390
F
  0
LAYER
  5
20A
100
AcDbSymbolTableRecord
100
AcDbLayerTableRecord
  2
04___PRT_ALL_DTM_PNT
 70
0
 62
7
  6
CONTINUOUS
370
-3
390
F
  0
LAYER
  5
20B
100
AcDbSymbolTableRecord
100
AcDbLayerTableRecord
  2
05_ALL_DTM_CSYS
 70
0
 62
7
  6
CONTINUOUS
370
-3
390
F
  0
LAYER
  5
20C
100
AcDbSymbolTableRecord
100
AcDbLayerTableRecord
  2
05__ASM_ALL_DTM_CSYS
 70
0
 62
7
  6
CONTINUOUS
370
-3
390
F
  0
LAYER
  5
20D
100
AcDbSymbolTableRecord
100
AcDbLayerTableRecord
  2
05__ASM_DEF_DTM_CSYS
 70
0
 62
7
  6
CONTINUOUS
370
-3
390
F
  0
LAYER
  5
20E
100
AcDbSymbolTableRecord
100
AcDbLayerTableRecord
  2
05___PRT_ALL_DTM_CSYS
 70
0
 62
7
  6
CONTINUOUS
370
-3
390
F
  0
LAYER
  5
20F
100
AcDbSymbolTableRecord
100
AcDbLayerTableRecord
  2
05___PRT_DEF_DTM_CSYS
 70
0
 62
7
  6
CONTINUOUS
370
-3
390
F
  0
LAYER
  5
210
100
AcDbSymbolTableRecord
100
AcDbLayerTableRecord
  2
06_ALL_SURFS
 70
0
 62
7
  6
CONTINUOUS
370
-3
390
F
  0
LAYER
  5
211
100
AcDbSymbolTableRecord
100
AcDbLayerTableRecord
  2
06__ASM_ALL_SURFS
 70
0
 62
7
  6
CONTINUOUS
370
-3
390
F
  0
LAYER
  5
212
100
AcDbSymbolTableRecord
100
AcDbLayerTableRecord
  2
06___PRT_ALL_SURFS
 70
0
 62
7
  6
CONTINUOUS
370
-3
390
F
  0
LAYER
  5
213
100
AcDbSymbolTableRecord
100
AcDbLayerTableRecord
  2
07__ASM_ALL_SKELETONS
 70
0
 62
7
  6
CONTINUOUS
370
-3
390
F
  0
LAYER
  5
214
100
AcDbSymbolTableRecord
100
AcDbLayerTableRecord
  2
CLOSED_SHELL
 70
0
 62
7
  6
CONTINUOUS
370
-3
390
F
  0
ENDTAB
  0
TABLE
  2
STYLE
  5
3
100
AcDbSymbolTable
 70
1
  0
STYLE
  5
11
100
AcDbSymbolTableRecord
100
AcDbTextStyleTableRecord
  2
STANDARD
 70
0
 40
0.0
 41
0.6
 50
0.0
 71
0
 42
0.2
  3
txt
  4

  0
STYLE
  5
215
100
AcDbSymbolTableRecord
100
AcDbTextStyleTableRecord
  2
TEXTSTYLE_1
 70
0
 40
0.0
 41
0.8
 50
0.0
 71
0
 42
0.2
  3
gdt
  4

  0
ENDTAB
  0
TABLE
  2
VIEW
  5
6
100
AcDbSymbolTable
 70
0
  0
ENDTAB
  0
TABLE
  2
UCS
  5
7
100
AcDbSymbolTable
 70
0
  0
ENDTAB
  0
TABLE
  2
APPID
  5
9
100
AcDbSymbolTable
 70
1
  0
APPID
  5
216
100
AcDbSymbolTableRecord
100
AcDbRegAppTableRecord
  2
ACAD
 70
0
  0
ENDTAB
  0
TABLE
  2
BLOCK_RECORD
  5
1
100
AcDbSymbolTable
 70
0
  0
BLOCK_RECORD
  5
217
100
AcDbSymbolTableRecord
100
AcDbBlockTableRecord
  2
*Model_Space
  0
BLOCK_RECORD
  5
218
100
AcDbSymbolTableRecord
100
AcDbBlockTableRecord
  2
*Paper_Space
  0
BLOCK_RECORD
  5
219
100
AcDbSymbolTableRecord
100
AcDbBlockTableRecord
  2
_FILLED
  0
ENDTAB
  0
TABLE
  2
DIMSTYLE
  5
A
100
AcDbSymbolTable
 70
1
100
AcDbDimStyleTable
 71
0
  0
DIMSTYLE
105
21A
100
AcDbSymbolTableRecord
100
AcDbDimStyleTableRecord
  2
STANDARD
 70
0
  3

  4

 40
1.0
 41
3.5
 42
1.0
 43
0.38
 44
3.0
 45
0.0
 46
0.0
 47
0.0001
 48
0.0001
140
4.0
141
0.09
142
0.0
143
25.4
144
1.0
145
0.0
146
1.0
147
0.625
 71
1.0
 72
0.0
 73
0
 74
0
 75
0
 76
0
 77
1
 78
8
 79
2
170
0
171
3
172
0
173
0
174
0
175
0
176
0
177
0
178
0
270
2
179
4
271
4
272
4
273
2
274
2
275
0
280
0
281
0
282
0
283
1
284
8
285
0
286
0
287
3
288
0
340
11
278
46
341
219
342
219
343
219
344
219
  0
ENDTAB
  0
ENDSEC
  0
SECTION
  2
BLOCKS
  0
BLOCK
  5
20
100
AcDbEntity
  8
0
100
AcDbBlockBegin
  2
*Model_Space
 70
0
 10
0.0
 20
0.0
 30
0.0
  3
*Model_Space
  1

  0
ENDBLK
  5
21
100
AcDbEntity
  8
0
100
AcDbBlockEnd
  0
BLOCK
  5
1C
100
AcDbEntity
  8
0
100
AcDbBlockBegin
  2
*Paper_Space
 70
0
 10
0.0
 20
0.0
 30
0.0
  3
*Paper_Space
  1

  0
ENDBLK
  5
1D
100
AcDbEntity
  8
0
100
AcDbBlockEnd
  0
BLOCK
  5
21B
100
AcDbEntity
  8
0
100
AcDbBlockBegin
  2
_FILLED
 70
64
 10
0.0
 20
0.0
  3
_FILLED
  1

  0
SOLID
  5
21C
100
AcDbEntity
  8
0
  6
BYBLOCK
 62
0
100
AcDbTrace
 10
0.0
 20
0.0
 11
-1.0
 21
0.2857142857
 12
-1.0
 22
-0.2857142857
 13
-1.0
 23
-0.2857142857
  0
ENDBLK
  5
21D
100
AcDbEntity
  8
0
  6
BYBLOCK
 62
0
100
AcDbBlockEnd
  0
ENDSEC
  0
SECTION
  2
ENTITIES
  0
LINE
  5
21E
100
AcDbEntity
  8
0
100
AcDbLine
 62
7
  6
CONTINUOUS
 10
88.2670676512
 20
194.7454864299
 11
90.0741274222
 21
194.7520202068
  0
LINE
  5
21F
100
AcDbEntity
  8
0
100
AcDbLine
 62
9
  6
CONTINUOUS
 10
89.7561347548
 20
194.8678421666
 11
88.2704337436
 21
194.862470325
  0
LINE
  5
220
100
AcDbEntity
  8
0
100
AcDbLine
 62
7
  6
CONTINUOUS
 10
90.2151604894
 20
194.7733565259
 11
90.0741251478
 21
194.7522830586
  0
LINE
  5
221
100
AcDbEntity
  8
0
100
AcDbLine
 62
7
  6
CONTINUOUS
 10
90.0865708641
 20
196.4285634545
 11
90.236559457
 21
196.4291057675
  0
LINE
  5
222
100
AcDbEntity
  8
0
100
AcDbLine
 62
7
  6
CONTINUOUS
 10
90.2415503865
 20
196.9074016352
 11
88.2916986598
 21
196.9003515662
  0
LINE
  5
223
100
AcDbEntity
  8
0
100
AcDbLine
 62
7
  6
CONTINUOUS
 10
89.4367704397
 20
195.1370487429
 11
89.7561347558
 21
194.8678421659
  0
LINE
  5
224
100
AcDbEntity
  8
0
100
AcDbLine
 62
7
  6
CONTINUOUS
 10
87.1206104651
 20
257.4019802439
 11
87.0614186196
 21
257.3294395308
  0
LINE
  5
225
100
AcDbEntity
  8
0
100
AcDbLine
 62
9
  6
CONTINUOUS
 10
87.2112663435
 20
257.3240430057
 11
87.2101531604
 21
257.3226900871
  0
LINE
  5
226
100
AcDbEntity
  8
0
100
AcDbLine
 62
9
  6
CONTINUOUS
 10
87.1545340019
 20
257.2550927706
 11
87.1534209165
 21
257.2537399708
  0
LINE
  5
227
100
AcDbEntity
  8
0
100
AcDbLine
 62
9
  6
CONTINUOUS
 10
87.1698595644
 20
257.2757254073
 11
87.1687680158
 21
257.2744019703
  0
LINE
  5
228
100
AcDbEntity
  8
0
100
AcDbLine
 62
7
  6
CONTINUOUS
 10
87.2449676619
 20
257.5531580384
 11
87.1206104651
 21
257.4019802439
  0
LINE
  5
229
100
AcDbEntity
  8
0
100
AcDbLine
 62
9
  6
CONTINUOUS
 10
87.2238685936
 20
257.3409694155
 11
87.2228396186
 21
257.3397310128
  0
LINE
  5
22A
100
AcDbEntity
  8
0
100
AcDbLine
 62
7
  6
CONTINUOUS
 10
87.3532482389
 20
257.6831133846
 11
87.2449676619
 21
257.5531580384
  0
LWPOLYLINE
  5
22B
100
AcDbEntity
  8
0
100
AcDbPolyline
 62
7
  6
CONTINUOUS
 90
5
 70
0
 10
87.5620451672
 20
257.9266303736
 10
87.526648785
 20
257.8862899965
 10
87.488260789
 20
257.8420123559
 10
87.4466859565
 20
257.7935486823
 10
87.3532482389
 20
257.6831133846
  0
LINE
  5
22C
100
AcDbEntity
  8
0
100
AcDbLine
 62
7
  6
CONTINUOUS
 10
87.4195077753
 20
257.5574837142
 11
87.328784941
 21
257.422898747
  0
LINE
  5
22D
100
AcDbEntity
  8
0
100
AcDbLine
 62
7
  6
CONTINUOUS
 10
87.328784941
 20
257.422898747
 11
87.2424707196
 21
257.2960991581
  0
LWPOLYLINE
  5
22E
100
AcDbEntity
  8
0
100
AcDbPolyline
 62
7
  6
CONTINUOUS
 90
4
 70
0
 10
87.2424707196
 20
257.2960991581
 10
87.2072388526
 20
257.2365171206
 10
87.1545950142
 20
257.0746702836
 10
87.148033124
 20
256.9907381923
  0
LINE
  5
22F
100
AcDbEntity
  8
0
100
AcDbLine
 62
9
  6
CONTINUOUS
 10
86.9407766698
 20
256.9857642624
 11
86.9582726379
 21
257.0133149915
  0
LWPOLYLINE
  5
230
100
AcDbEntity
  8
0
100
AcDbPolyline
 62
7
  6
CONTINUOUS
 90
4
 70
0
 10
87.0614218115
 20
257.329436952
 10
86.9976161464
 20
257.2312469932
 10
86.9448576452
 20
257.0682536665
 10
86.9384924222
 20
256.9858662864
  0
LINE
  5
231
100
AcDbEntity
  8
0
100
AcDbLine
 62
7
  6
CONTINUOUS
 10
87.5010646972
 20
257.6802365666
 11
87.4195077753
 21
257.5574837142
  0
LINE
  5
232
100
AcDbEntity
  8
0
100
AcDbLine
 62
7
  6
CONTINUOUS
 10
88.2263686387
 20
197.2288153275
 11
88.2564724322
 21
197.1868527151
  0
LWPOLYLINE
  5
233
100
AcDbEntity
  8
0
100
AcDbPolyline
 62
7
  6
CONTINUOUS
 90
11
 70
0
 10
87.6787280149
 20
257.9654089851
 10
87.6787992839
 20
257.9655571781
 10
87.6763255518
 20
257.9607625382
 10
87.669432151
 20
257.9481422706
 10
87.6581249389
 20
257.9283925717
 10
87.6424153665
 20
257.9019370627
 10
87.6223490654
 20
257.8690989925
 10
87.5980091489
 20
257.8301663424
 10
87.5695329894
 20
257.7854503493
 10
87.5371249271
 20
257.7353223841
 10
87.5010646972
 20
257.6802365666
  0
LINE
  5
234
100
AcDbEntity
  8
0
100
AcDbLine
 62
9
  6
CONTINUOUS
 10
88.1757875911
 20
211.2190850012
 11
88.2057392828
 21
211.2191924048
  0
LINE
  5
235
100
AcDbEntity
  8
0
100
AcDbLine
 62
7
  6
CONTINUOUS
 10
88.1442595942
 20
212.2452639281
 11
88.1661251088
 21
212.2453429871
  0
LINE
  5
236
100
AcDbEntity
  8
0
100
AcDbLine
 62
7
  6
CONTINUOUS
 10
88.2371142613
 20
202.5411512953
 11
88.2069813015
 21
202.591180985
  0
LINE
  5
237
100
AcDbEntity
  8
0
100
AcDbLine
 62
7
  6
CONTINUOUS
 10
90.5051404452
 20
214.7530605177
 11
88.6980594585
 21
214.7465266642
  0
LINE
  5
238
100
AcDbEntity
  8
0
100
AcDbLine
 62
7
  6
CONTINUOUS
 10
90.5068255128
 20
214.7760939778
 11
90.4568293139
 21
214.7759132068
  0
LINE
  5
239
100
AcDbEntity
  8
0
100
AcDbLine
 62
9
  6
CONTINUOUS
 10
89.8887718059
 20
214.897271982
 11
88.558927421
 21
214.8924636704
  0
LINE
  5
23A
100
AcDbEntity
  8
0
100
AcDbLine
 62
7
  6
CONTINUOUS
 10
88.5568967874
 20
214.7668365903
 11
88.6980598863
 21
214.7467999468
  0
LINE
  5
23B
100
AcDbEntity
  8
0
100
AcDbLine
 62
7
  6
CONTINUOUS
 10
86.8720512719
 20
237.4845271037
 11
86.7457700575
 21
237.3302241881
  0
LINE
  5
23C
100
AcDbEntity
  8
0
100
AcDbLine
 62
9
  6
CONTINUOUS
 10
86.8945144364
 20
237.3234675007
 11
86.8934971726
 21
237.3222311587
  0
LINE
  5
23D
100
AcDbEntity
  8
0
100
AcDbLine
 62
7
  6
CONTINUOUS
 10
86.9927398103
 20
237.6302427255
 11
86.8720512719
 21
237.4845271037
  0
LINE
  5
23E
100
AcDbEntity
  8
0
100
AcDbLine
 62
9
  6
CONTINUOUS
 10
86.9071166674
 20
237.3403938845
 11
86.9061764047
 21
237.3392622573
  0
LWPOLYLINE
  5
23F
100
AcDbEntity
  8
0
100
AcDbPolyline
 62
7
  6
CONTINUOUS
 90
5
 70
0
 10
87.2240867924
 20
237.9019478974
 10
87.1850753047
 20
237.857140994
 10
87.1426444813
 20
237.8078403223
 10
87.0965797762
 20
237.7537686028
 10
86.9927398103
 20
237.6302427255
  0
LINE
  5
240
100
AcDbEntity
  8
0
100
AcDbLine
 62
7
  6
CONTINUOUS
 10
88.5736121023
 20
216.6889370004
 11
89.2544580728
 21
216.8734432925
  0
LINE
  5
241
100
AcDbEntity
  8
0
100
AcDbLine
 62
7
  6
CONTINUOUS
 10
88.550910519
 20
216.4225853825
 11
88.5235256395
 21
216.4224863671
  0
LINE
  5
242
100
AcDbEntity
  8
0
100
AcDbLine
 62
7
  6
CONTINUOUS
 10
89.4355755498
 20
217.8920359811
 11
90.4285401678
 21
217.8956262382
  0
LWPOLYLINE
  5
243
100
AcDbEntity
  8
0
100
AcDbPolyline
 62
7
  6
CONTINUOUS
 90
11
 70
0
 10
87.3619628844
 20
237.9648060787
 10
87.3620495331
 20
237.9649862985
 10
87.359558096
 20
237.9601578232
 10
87.3525809585
 20
237.9473894577
 10
87.341178354
 20
237.9274836035
 10
87.3253943087
 20
237.9009152169
 10
87.3052917576
 20
237.8680298081
 10
87.2809593568
 20
237.829119077
 10
87.2525298915
 20
237.7844836162
 10
87.2201936708
 20
237.7344713653
 10
87.1842073252
 20
237.6795009109
  0
LWPOLYLINE
  5
244
100
AcDbEntity
  8
0
100
AcDbPolyline
 62
7
  6
CONTINUOUS
 90
4
 70
0
 10
86.9258038757
 20
237.295649162
 10
86.8779651914
 20
237.2096773352
 10
86.8349390358
 20
237.0529692962
 10
86.8312808416
 20
236.9902068814
  0
LWPOLYLINE
  5
245
100
AcDbEntity
  8
0
100
AcDbPolyline
 62
7
  6
CONTINUOUS
 90
4
 70
0
 10
86.7449414549
 20
237.329197172
 10
86.673139488
 20
237.2148776138
 10
86.6259224773
 20
237.0521237447
 10
86.6217401993
 20
236.9853482689
  0
LINE
  5
246
100
AcDbEntity
  8
0
100
AcDbLine
 62
9
  6
CONTINUOUS
 10
86.624024662
 20
236.9851170366
 11
86.6415204607
 21
237.0127391589
  0
LINE
  5
247
100
AcDbEntity
  8
0
100
AcDbLine
 62
7
  6
CONTINUOUS
 10
87.1842073252
 20
237.6795009109
 11
87.102668829
 21
237.5567783215
  0
LINE
  5
248
100
AcDbEntity
  8
0
100
AcDbLine
 62
7
  6
CONTINUOUS
 10
87.102668829
 20
237.5567783215
 11
87.011488478
 21
237.4215200703
  0
LINE
  5
249
100
AcDbEntity
  8
0
100
AcDbLine
 62
7
  6
CONTINUOUS
 10
87.011488478
 20
237.4215200703
 11
86.9267063352
 21
237.2969820877
  0
LWPOLYLINE
  5
24A
100
AcDbEntity
  8
0
100
AcDbPolyline
 62
7
  6
CONTINUOUS
 90
6
 70
0
 10
90.7119534126
 20
218.6043839419
 10
90.8799727489
 20
218.6341047721
 10
91.0282370584
 20
218.7186084886
 10
91.1394542515
 20
218.8480637699
 10
91.2006298525
 20
219.0072684873
 10
91.2078825371
 20
219.0568024331
  0
LINE
  5
24B
100
AcDbEntity
  8
0
100
AcDbLine
 62
7
  6
CONTINUOUS
 10
90.7102950337
 20
218.6043779461
 11
90.5280661525
 21
218.6037018179
  0
LINE
  5
24C
100
AcDbEntity
  8
0
100
AcDbLine
 62
7
  6
CONTINUOUS
 10
88.5089458323
 20
218.5963891136
 11
87.709552341
 21
218.5935292721
  0
LINE
  5
24D
100
AcDbEntity
  8
0
100
AcDbLine
 62
7
  6
CONTINUOUS
 10
89.4286868948
 20
219.7973767165
 11
90.4216515135
 21
219.8009669736
  0
LINE
  5
24E
100
AcDbEntity
  8
0
100
AcDbLine
 62
9
  6
CONTINUOUS
 10
87.2047041438
 20
219.0919176685
 11
87.0823324772
 21
219.0915061278
  0
LINE
  5
24F
100
AcDbEntity
  8
0
100
AcDbLine
 62
7
  6
CONTINUOUS
 10
87.5717651294
 20
218.5932780164
 11
87.7070835615
 21
218.5937244166
  0
LINE
  5
250
100
AcDbEntity
  8
0
100
AcDbLine
 62
9
  6
CONTINUOUS
 10
87.3884693745
 20
239.0441042354
 11
87.3990842894
 21
239.0920809566
  0
LINE
  5
251
100
AcDbEntity
  8
0
100
AcDbLine
 62
7
  6
CONTINUOUS
 10
90.2718767219
 20
220.9922080335
 11
89.2941324887
 21
220.9886728086
  0
LINE
  5
252
100
AcDbEntity
  8
0
100
AcDbLine
 62
9
  6
CONTINUOUS
 10
88.3560762269
 20
221.5203977942
 11
88.498372381
 21
221.5209120766
  0
LINE
  5
253
100
AcDbEntity
  8
0
100
AcDbLine
 62
7
  6
CONTINUOUS
 10
90.2675382165
 20
222.1922001904
 11
89.2897939831
 21
222.1886649655
  0
LINE
  5
254
100
AcDbEntity
  8
0
100
AcDbLine
 62
7
  6
CONTINUOUS
 10
88.1705702417
 20
218.04504129
 11
88.170449013
 21
218.0453116631
  0
LINE
  5
255
100
AcDbEntity
  8
0
100
AcDbLine
 62
7
  6
CONTINUOUS
 10
87.0717551465
 20
219.0431489699
 11
87.0717088799
 21
219.0436090213
  0
LINE
  5
256
100
AcDbEntity
  8
0
100
AcDbLine
 62
7
  6
CONTINUOUS
 10
88.2652158043
 20
194.7685134659
 11
88.2670676185
 21
194.7454954937
  0
LINE
  5
257
100
AcDbEntity
  8
0
100
AcDbLine
 62
7
  6
CONTINUOUS
 10
87.2079050978
 20
219.0554494381
 11
87.2079338597
 21
219.0550767999
  0
LINE
  5
258
100
AcDbEntity
  8
0
100
AcDbLine
 62
9
  6
CONTINUOUS
 10
86.6361605931
 20
222.6459732587
 11
86.6366631165
 21
222.4061463651
  0
LINE
  5
259
100
AcDbEntity
  8
0
100
AcDbLine
 62
7
  6
CONTINUOUS
 10
86.8336291399
 20
236.9896960464
 11
86.8336291399
 21
222.6520175846
  0
LINE
  5
25A
100
AcDbEntity
  8
0
100
AcDbLine
 62
7
  6
CONTINUOUS
 10
87.1503813171
 20
256.9902794612
 11
87.1503813171
 21
242.652593417
  0
LINE
  5
25B
100
AcDbEntity
  8
0
100
AcDbLine
 62
9
  6
CONTINUOUS
 10
86.6388397301
 20
237.0127306166
 11
86.6388358707
 21
236.9848697819
  0
LINE
  5
25C
100
AcDbEntity
  8
0
100
AcDbLine
 62
9
  6
CONTINUOUS
 10
86.9555919074
 20
257.0133064491
 11
86.9555880606
 21
256.9855369109
  0
LINE
  5
25D
100
AcDbEntity
  8
0
100
AcDbLine
 62
9
  6
CONTINUOUS
 10
86.9529150786
 20
242.6531567925
 11
86.9534152938
 21
242.4067221976
  0
LINE
  5
25E
100
AcDbEntity
  8
0
100
AcDbLine
 62
7
  6
CONTINUOUS
 10
86.6240231547
 20
236.9848718339
 11
86.6153832841
 21
222.6525857701
  0
LINE
  5
25F
100
AcDbEntity
  8
0
100
AcDbLine
 62
7
  6
CONTINUOUS
 10
86.940775387
 20
256.9855389628
 11
86.9321354613
 21
242.6531616026
  0
LINE
  5
260
100
AcDbEntity
  8
0
100
AcDbLine
 62
7
  6
CONTINUOUS
 10
87.1503825075
 20
256.9905088392
 11
87.1503813171
 21
256.9902794612
  0
LINE
  5
261
100
AcDbEntity
  8
0
100
AcDbLine
 62
7
  6
CONTINUOUS
 10
86.940775387
 20
256.9855389628
 11
86.9407766698
 21
256.9857642624
  0
LINE
  5
262
100
AcDbEntity
  8
0
100
AcDbLine
 62
7
  6
CONTINUOUS
 10
86.83363062
 20
236.9899518431
 11
86.8336291399
 21
236.9896960464
  0
LINE
  5
263
100
AcDbEntity
  8
0
100
AcDbLine
 62
7
  6
CONTINUOUS
 10
86.6240231547
 20
236.9848718339
 11
86.624024662
 21
236.9851170366
  0
LINE
  5
264
100
AcDbEntity
  8
0
100
AcDbLine
 62
9
  6
CONTINUOUS
 10
88.4941305971
 20
222.6941519275
 11
88.3169784044
 21
222.6935116695
  0
LINE
  5
265
100
AcDbEntity
  8
0
100
AcDbLine
 62
7
  6
CONTINUOUS
 10
89.4157310078
 20
223.3808604809
 11
90.4086956258
 21
223.384450738
  0
LINE
  5
266
100
AcDbEntity
  8
0
100
AcDbLine
 62
7
  6
CONTINUOUS
 10
89.4144931968
 20
223.7232278537
 11
90.4074578155
 21
223.7268181109
  0
LINE
  5
267
100
AcDbEntity
  8
0
100
AcDbLine
 62
7
  6
CONTINUOUS
 10
90.5041414278
 20
224.3230589897
 11
89.6029841621
 21
224.3198006799
  0
LINE
  5
268
100
AcDbEntity
  8
0
100
AcDbLine
 62
7
  6
CONTINUOUS
 10
90.2718767219
 20
220.9922080335
 11
90.515767583
 21
220.5872765518
  0
LINE
  5
269
100
AcDbEntity
  8
0
100
AcDbLine
 62
7
  6
CONTINUOUS
 10
89.5838530109
 20
217.5688961363
 11
89.4355755491
 21
217.892035982
  0
LINE
  5
26A
100
AcDbEntity
  8
0
100
AcDbLine
 62
7
  6
CONTINUOUS
 10
90.5314368952
 20
217.6713842529
 11
90.4285401681
 21
217.8956262382
  0
LINE
  5
26B
100
AcDbEntity
  8
0
100
AcDbLine
 62
9
  6
CONTINUOUS
 10
88.1666136876
 20
217.4227637024
 11
88.1815651966
 21
217.3653715161
  0
LINE
  5
26C
100
AcDbEntity
  8
0
100
AcDbLine
 62
9
  6
CONTINUOUS
 10
88.1666136876
 20
217.4227637024
 11
88.179217297
 21
217.3647627655
  0
LWPOLYLINE
  5
26D
100
AcDbEntity
  8
0
100
AcDbPolyline
 62
7
  6
CONTINUOUS
 90
6
 70
0
 10
87.0718641191
 20
219.0420479583
 10
87.079467361
 20
218.9926279031
 10
87.1417822152
 20
218.833878774
 10
87.2539166782
 20
218.7052332933
 10
87.4027703415
 20
218.621796963
 10
87.571015239
 20
218.5932753061
  0
LINE
  5
26E
100
AcDbEntity
  8
0
100
AcDbLine
 62
9
  6
CONTINUOUS
 10
86.6361601765
 20
222.645968119
 11
86.6713996662
 21
222.4109068915
  0
LWPOLYLINE
  5
26F
100
AcDbEntity
  8
0
100
AcDbPolyline
 62
7
  6
CONTINUOUS
 90
4
 70
0
 10
86.6366630965
 20
222.406146122
 10
86.8026332093
 20
221.2738467725
 10
86.9568569952
 20
220.0745857418
 10
87.0717551465
 20
219.0431489699
  0
LINE
  5
270
100
AcDbEntity
  8
0
100
AcDbLine
 62
9
  6
CONTINUOUS
 10
86.6361605413
 20
222.6459701728
 11
86.6697660714
 21
222.4108780674
  0
LWPOLYLINE
  5
271
100
AcDbEntity
  8
0
100
AcDbPolyline
 62
7
  6
CONTINUOUS
 90
6
 70
0
 10
87.2080108564
 20
219.0539963744
 10
87.2166836834
 20
218.9928607917
 10
87.27901319
 20
218.8340989766
 10
87.391170591
 20
218.7054501577
 10
87.5400502475
 20
218.6220232842
 10
87.7082629134
 20
218.5935246103
  0
LWPOLYLINE
  5
272
100
AcDbEntity
  8
0
100
AcDbPolyline
 62
7
  6
CONTINUOUS
 90
4
 70
0
 10
86.8497653419
 20
222.4428518001
 10
86.9898172251
 20
221.3052789235
 10
87.1157802421
 20
220.1062588341
 10
87.2079338597
 20
219.0550767999
  0
LINE
  5
273
100
AcDbEntity
  8
0
100
AcDbLine
 62
7
  6
CONTINUOUS
 10
87.3885152734
 20
239.0436479502
 11
87.3884693745
 21
239.0441042354
  0
LINE
  5
274
100
AcDbEntity
  8
0
100
AcDbLine
 62
7
  6
CONTINUOUS
 10
87.524655398
 20
239.0560494098
 11
87.5246848316
 21
239.0556677854
  0
LINE
  5
275
100
AcDbEntity
  8
0
100
AcDbLine
 62
7
  6
CONTINUOUS
 10
89.5645128614
 20
215.5925359609
 11
89.5647605063
 21
215.5819305631
  0
LINE
  5
276
100
AcDbEntity
  8
0
100
AcDbLine
 62
7
  6
CONTINUOUS
 10
89.178875559
 20
195.6701060215
 11
89.17900969
 21
195.6612067943
  0
LINE
  5
277
100
AcDbEntity
  8
0
100
AcDbLine
 62
7
  6
CONTINUOUS
 10
88.1900955298
 20
205.8435352672
 11
88.194528752
 21
205.5153550174
  0
LINE
  5
278
100
AcDbEntity
  8
0
100
AcDbLine
 62
7
  6
CONTINUOUS
 10
88.1780561774
 20
209.1735135028
 11
88.1824893995
 21
208.845333253
  0
LINE
  5
279
100
AcDbEntity
  8
0
100
AcDbLine
 62
7
  6
CONTINUOUS
 10
88.1239951158
 20
217.8502391368
 11
88.1442595942
 21
212.2452639281
  0
LINE
  5
27A
100
AcDbEntity
  8
0
100
AcDbLine
 62
7
  6
CONTINUOUS
 10
88.1706605602
 20
211.2190756903
 11
88.1780561774
 21
209.1735135028
  0
LINE
  5
27B
100
AcDbEntity
  8
0
100
AcDbLine
 62
7
  6
CONTINUOUS
 10
88.1847677605
 20
207.3171490549
 11
88.1900955298
 21
205.8435352672
  0
LINE
  5
27C
100
AcDbEntity
  8
0
100
AcDbLine
 62
7
  6
CONTINUOUS
 10
88.196807113
 20
203.9871708193
 11
88.1999805367
 21
203.1094299332
  0
LINE
  5
27D
100
AcDbEntity
  8
0
100
AcDbLine
 62
7
  6
CONTINUOUS
 10
88.2110008111
 20
200.0613196821
 11
88.2196693582
 21
197.6636763325
  0
LINE
  5
27E
100
AcDbEntity
  8
0
100
AcDbLine
 62
7
  6
CONTINUOUS
 10
88.1757875911
 20
211.2190850012
 11
88.2069813017
 21
202.5911809842
  0
LINE
  5
27F
100
AcDbEntity
  8
0
100
AcDbLine
 62
7
  6
CONTINUOUS
 10
88.2142541078
 20
200.579587253
 11
88.2263686387
 21
197.2288153275
  0
LINE
  5
280
100
AcDbEntity
  8
0
100
AcDbLine
 62
7
  6
CONTINUOUS
 10
88.2001297434
 20
212.7707413201
 11
88.2652158043
 21
194.7685134659
  0
LINE
  5
281
100
AcDbEntity
  8
0
100
AcDbLine
 62
7
  6
CONTINUOUS
 10
88.2916986598
 20
196.9003515667
 11
88.2132614482
 21
218.595389428
  0
LINE
  5
282
100
AcDbEntity
  8
0
100
AcDbLine
 62
7
  6
CONTINUOUS
 10
88.5150762937
 20
216.9007578266
 11
88.436639082
 21
238.5957956884
  0
LINE
  5
283
100
AcDbEntity
  8
0
100
AcDbLine
 62
7
  6
CONTINUOUS
 10
88.5235256387
 20
216.422486367
 11
88.4615611516
 21
233.5613145724
  0
LINE
  5
284
100
AcDbEntity
  8
0
100
AcDbLine
 62
7
  6
CONTINUOUS
 10
88.4986524544
 20
230.8767030999
 11
88.5568967874
 21
214.7668365902
  0
LINE
  5
285
100
AcDbEntity
  8
0
100
AcDbLine
 62
7
  6
CONTINUOUS
 10
88.5223168619
 20
230.8767460747
 11
88.5736121023
 21
216.6889370004
  0
LINE
  5
286
100
AcDbEntity
  8
0
100
AcDbLine
 62
7
  6
CONTINUOUS
 10
88.5321357749
 20
238.5959691144
 11
88.5550936992
 21
232.2460106172
  0
LINE
  5
287
100
AcDbEntity
  8
0
100
AcDbLine
 62
7
  6
CONTINUOUS
 10
88.979584577
 20
230.8783548587
 11
88.9808945887
 21
230.5160172348
  0
LINE
  5
288
100
AcDbEntity
  8
0
100
AcDbLine
 62
9
  6
CONTINUOUS
 10
89.2072569904
 20
229.9288445096
 11
89.2544580728
 21
216.8734432925
  0
LINE
  5
289
100
AcDbEntity
  8
0
100
AcDbLine
 62
7
  6
CONTINUOUS
 10
89.2941324885
 20
220.9886728086
 11
89.2897939831
 21
222.1886649655
  0
LINE
  5
28A
100
AcDbEntity
  8
0
100
AcDbLine
 62
9
  6
CONTINUOUS
 10
89.4367704397
 20
195.1370487429
 11
89.4329841487
 21
196.1843033069
  0
LINE
  5
28B
100
AcDbEntity
  8
0
100
AcDbLine
 62
7
  6
CONTINUOUS
 10
89.402453845
 20
227.0532060892
 11
89.405846001
 21
226.1149658149
  0
LINE
  5
28C
100
AcDbEntity
  8
0
100
AcDbLine
 62
7
  6
CONTINUOUS
 10
89.4144931975
 20
223.7232278537
 11
89.4157310078
 21
223.3808604809
  0
LINE
  5
28D
100
AcDbEntity
  8
0
100
AcDbLine
 62
7
  6
CONTINUOUS
 10
89.4286868956
 20
219.7973767164
 11
89.4355755498
 21
217.8920359811
  0
LINE
  5
28E
100
AcDbEntity
  8
0
100
AcDbLine
 62
9
  6
CONTINUOUS
 10
88.3157783731
 20
226.9657354264
 11
88.3171773154
 21
222.6934419502
  0
LINE
  5
28F
100
AcDbEntity
  8
0
100
AcDbLine
 62
7
  6
CONTINUOUS
 10
88.1868279049
 20
207.6453410968
 11
88.1847677605
 21
207.3171490549
  0
LINE
  5
290
100
AcDbEntity
  8
0
100
AcDbLine
 62
7
  6
CONTINUOUS
 10
88.1988672574
 20
204.3153628613
 11
88.196807113
 21
203.9871708193
  0
LINE
  5
291
100
AcDbEntity
  8
0
100
AcDbLine
 62
7
  6
CONTINUOUS
 10
87.8357031805
 20
238.5942770437
 11
87.7548839789
 21
228.7071352622
  0
LINE
  5
292
100
AcDbEntity
  8
0
100
AcDbLine
 62
7
  6
CONTINUOUS
 10
88.5589274203
 20
214.8924636703
 11
88.573612103
 21
216.6889370013
  0
LINE
  5
293
100
AcDbEntity
  8
0
100
AcDbLine
 62
7
  6
CONTINUOUS
 10
88.2704337436
 20
194.8624703255
 11
88.2916986598
 21
196.9003515667
  0
LINE
  5
294
100
AcDbEntity
  8
0
100
AcDbLine
 62
9
  6
CONTINUOUS
 10
87.0717088799
 20
219.0436090213
 11
87.0823321121
 21
219.0915051246
  0
LINE
  5
295
100
AcDbEntity
  8
0
100
AcDbLine
 62
7
  6
CONTINUOUS
 10
89.4024538444
 20
227.0532060893
 11
89.5481664236
 21
227.4394899966
  0
LINE
  5
296
100
AcDbEntity
  8
0
100
AcDbLine
 62
7
  6
CONTINUOUS
 10
90.4998029224
 20
225.523051146
 11
89.5986456567
 21
225.5197928362
  0
LINE
  5
297
100
AcDbEntity
  8
0
100
AcDbLine
 62
7
  6
CONTINUOUS
 10
89.405846001
 20
226.1149658149
 11
90.3988106189
 21
226.118556072
  0
LINE
  5
298
100
AcDbEntity
  8
0
100
AcDbLine
 62
7
  6
CONTINUOUS
 10
89.4157310074
 20
223.3808604806
 11
89.5642328665
 21
222.9956541008
  0
LINE
  5
299
100
AcDbEntity
  8
0
100
AcDbLine
 62
7
  6
CONTINUOUS
 10
90.4086956258
 20
223.3844507367
 11
90.5117480736
 21
223.1171378538
  0
LINE
  5
29A
100
AcDbEntity
  8
0
100
AcDbLine
 62
7
  6
CONTINUOUS
 10
89.4058460001
 20
226.1149658146
 11
89.5543478591
 21
225.7297594362
  0
LWPOLYLINE
  5
29B
100
AcDbEntity
  8
0
100
AcDbPolyline
 62
7
  6
CONTINUOUS
 90
4
 70
0
 10
87.8107964009
 20
228.4136475579
 10
88.0738413114
 20
227.7083579821
 10
88.3300084036
 20
226.9222476981
 10
88.4808161582
 20
226.376807796
  0
LINE
  5
29C
100
AcDbEntity
  8
0
100
AcDbLine
 62
9
  6
CONTINUOUS
 10
88.2058722698
 20
227.9409445625
 11
88.4801693941
 21
226.5556970064
  0
LINE
  5
29D
100
AcDbEntity
  8
0
100
AcDbLine
 62
7
  6
CONTINUOUS
 10
87.7548839789
 20
228.7071352622
 11
87.8108699874
 21
228.4136455561
  0
LINE
  5
29E
100
AcDbEntity
  8
0
100
AcDbLine
 62
9
  6
CONTINUOUS
 10
86.9529123537
 20
242.6465439516
 11
86.9881518426
 21
242.4114827299
  0
LWPOLYLINE
  5
29F
100
AcDbEntity
  8
0
100
AcDbPolyline
 62
7
  6
CONTINUOUS
 90
4
 70
0
 10
86.9534152728
 20
242.4067219601
 10
87.1199442016
 20
241.2703678079
 10
87.2732374908
 20
240.078275151
 10
87.3885152734
 20
239.0436479502
  0
LINE
  5
2A0
100
AcDbEntity
  8
0
100
AcDbLine
 62
9
  6
CONTINUOUS
 10
86.9529127185
 20
242.6465460053
 11
86.9865182478
 21
242.4114539056
  0
LINE
  5
2A1
100
AcDbEntity
  8
0
100
AcDbLine
 62
7
  6
CONTINUOUS
 10
87.3886159367
 20
239.0426272835
 11
87.3928011862
 21
239.0115726478
  0
LWPOLYLINE
  5
2A2
100
AcDbEntity
  8
0
100
AcDbPolyline
 62
7
  6
CONTINUOUS
 90
4
 70
0
 10
87.1665175185
 20
242.443427637
 10
87.3069261688
 20
241.3027333729
 10
87.4321449611
 20
240.1108782708
 10
87.5246848316
 20
239.0556677854
  0
LWPOLYLINE
  5
2A3
100
AcDbEntity
  8
0
100
AcDbPolyline
 62
7
  6
CONTINUOUS
 90
7
 70
0
 10
87.5247639678
 20
239.0545604285
 10
87.530013852
 20
239.0118235411
 10
87.5723145195
 20
238.8779883893
 10
87.6502230934
 20
238.7610989941
 10
87.7575663201
 20
238.6704966397
 10
87.8858466512
 20
238.6133345138
 10
88.0250150856
 20
238.5941004411
  0
LINE
  5
2A4
100
AcDbEntity
  8
0
100
AcDbLine
 62
7
  6
CONTINUOUS
 10
90.5157675832
 20
220.5872765514
 11
90.522768348
 21
220.0690276027
  0
LINE
  5
2A5
100
AcDbEntity
  8
0
100
AcDbLine
 62
7
  6
CONTINUOUS
 10
90.5041414278
 20
224.3230589895
 11
90.50857465
 21
223.9948787398
  0
LINE
  5
2A6
100
AcDbEntity
  8
0
100
AcDbLine
 62
7
  6
CONTINUOUS
 10
90.4921020753
 20
227.6530372252
 11
90.4965352975
 21
227.3248569755
  0
LINE
  5
2A7
100
AcDbEntity
  8
0
100
AcDbLine
 62
7
  6
CONTINUOUS
 10
91.525967048
 20
237.0021823942
 11
91.5259637265
 21
237.0024298676
  0
LINE
  5
2A8
100
AcDbEntity
  8
0
100
AcDbLine
 62
7
  6
CONTINUOUS
 10
91.525967048
 20
237.0021823942
 11
91.6382402953
 21
222.6703533135
  0
LINE
  5
2A9
100
AcDbEntity
  8
0
100
AcDbLine
 62
7
  6
CONTINUOUS
 10
89.6178402786
 20
220.4356522659
 11
89.617891545
 21
220.4286270895
  0
LINE
  5
2AA
100
AcDbEntity
  8
0
100
AcDbLine
 62
7
  6
CONTINUOUS
 10
89.6029841621
 20
224.3198006802
 11
89.5986456567
 21
225.5197928362
  0
LINE
  5
2AB
100
AcDbEntity
  8
0
100
AcDbLine
 62
7
  6
CONTINUOUS
 10
89.5909448096
 20
227.6497789158
 11
89.5866063042
 21
228.8497710714
  0
LINE
  5
2AC
100
AcDbEntity
  8
0
100
AcDbLine
 62
7
  6
CONTINUOUS
 10
89.9713092189
 20
231.2249116995
 11
89.9738592073
 21
230.519607492
  0
LINE
  5
2AD
100
AcDbEntity
  8
0
100
AcDbLine
 62
7
  6
CONTINUOUS
 10
90.2091745774
 20
196.429006759
 11
90.2151604894
 21
194.7733565259
  0
LINE
  5
2AE
100
AcDbEntity
  8
0
100
AcDbLine
 62
7
  6
CONTINUOUS
 10
90.2415503865
 20
196.9074016352
 11
90.1770346811
 21
214.7518741874
  0
LINE
  5
2AF
100
AcDbEntity
  8
0
100
AcDbLine
 62
7
  6
CONTINUOUS
 10
90.2718767219
 20
220.9922080335
 11
90.2675382165
 21
222.1922001904
  0
LINE
  5
2B0
100
AcDbEntity
  8
0
100
AcDbLine
 62
7
  6
CONTINUOUS
 10
90.395418463
 20
227.056796347
 11
90.398810619
 21
226.1185560707
  0
LINE
  5
2B1
100
AcDbEntity
  8
0
100
AcDbLine
 62
7
  6
CONTINUOUS
 10
90.4074578155
 20
223.7268181113
 11
90.4086956258
 21
223.3844507367
  0
LINE
  5
2B2
100
AcDbEntity
  8
0
100
AcDbLine
 62
7
  6
CONTINUOUS
 10
90.4216515135
 20
219.8009669742
 11
90.4285401678
 21
217.8956262389
  0
LINE
  5
2B3
100
AcDbEntity
  8
0
100
AcDbLine
 62
9
  6
CONTINUOUS
 10
90.4568293139
 20
214.7759132068
 11
90.4483402124
 21
217.1239234745
  0
LINE
  5
2B4
100
AcDbEntity
  8
0
100
AcDbLine
 62
9
  6
CONTINUOUS
 10
90.4353358417
 20
220.720817202
 11
90.4290307263
 21
222.4647562635
  0
LINE
  5
2B5
100
AcDbEntity
  8
0
100
AcDbLine
 62
7
  6
CONTINUOUS
 10
90.4787243531
 20
222.5486257869
 11
90.4856346234
 21
220.6373062409
  0
LINE
  5
2B6
100
AcDbEntity
  8
0
100
AcDbLine
 62
7
  6
CONTINUOUS
 10
90.498082524
 20
217.1943272067
 11
90.5068255128
 21
214.7760939769
  0
LINE
  5
2B7
100
AcDbEntity
  8
0
100
AcDbLine
 62
7
  6
CONTINUOUS
 10
90.5041414278
 20
224.3230589899
 11
90.4998029224
 21
225.523051146
  0
LINE
  5
2B8
100
AcDbEntity
  8
0
100
AcDbLine
 62
7
  6
CONTINUOUS
 10
90.4921020753
 20
227.6530372256
 11
90.4877635699
 21
228.8530293812
  0
LINE
  5
2B9
100
AcDbEntity
  8
0
100
AcDbLine
 62
7
  6
CONTINUOUS
 10
90.4824280972
 20
231.2267836109
 11
90.4898237143
 21
229.1812214232
  0
LINE
  5
2BA
100
AcDbEntity
  8
0
100
AcDbLine
 62
7
  6
CONTINUOUS
 10
90.4965352975
 20
227.3248569755
 11
90.5018630668
 21
225.8512431877
  0
LINE
  5
2BB
100
AcDbEntity
  8
0
100
AcDbLine
 62
7
  6
CONTINUOUS
 10
90.50857465
 20
223.9948787398
 11
90.5117480737
 21
223.1171378536
  0
LINE
  5
2BC
100
AcDbEntity
  8
0
100
AcDbLine
 62
7
  6
CONTINUOUS
 10
90.522768348
 20
220.0690276027
 11
90.5314368952
 21
217.671384253
  0
LINE
  5
2BD
100
AcDbEntity
  8
0
100
AcDbLine
 62
7
  6
CONTINUOUS
 10
90.4819875015
 20
238.6030191834
 11
90.5049454259
 21
232.2530606862
  0
LINE
  5
2BE
100
AcDbEntity
  8
0
100
AcDbLine
 62
7
  6
CONTINUOUS
 10
89.6094946032
 20
222.743992144
 11
89.6094817787
 21
222.7510171018
  0
LINE
  5
2BF
100
AcDbEntity
  8
0
100
AcDbLine
 62
7
  6
CONTINUOUS
 10
89.6289682608
 20
217.3577528369
 11
89.6289618791
 21
217.3636478331
  0
LINE
  5
2C0
100
AcDbEntity
  8
0
100
AcDbLine
 62
7
  6
CONTINUOUS
 10
90.4898237143
 20
229.1812214232
 11
90.48776357
 21
228.8530293813
  0
LINE
  5
2C1
100
AcDbEntity
  8
0
100
AcDbLine
 62
7
  6
CONTINUOUS
 10
90.5018630668
 20
225.8512431877
 11
90.4998029224
 21
225.5230511458
  0
LINE
  5
2C2
100
AcDbEntity
  8
0
100
AcDbLine
 62
7
  6
CONTINUOUS
 10
90.5117480737
 20
223.1171378536
 11
90.5084947772
 21
222.5988702832
  0
LINE
  5
2C3
100
AcDbEntity
  8
0
100
AcDbLine
 62
7
  6
CONTINUOUS
 10
90.5314368952
 20
217.671384253
 11
90.5278821141
 21
217.2365046263
  0
LINE
  5
2C4
100
AcDbEntity
  8
0
100
AcDbLine
 62
7
  6
CONTINUOUS
 10
90.8358848799
 20
238.6042444759
 11
90.7547823437
 21
228.6824405204
  0
LINE
  5
2C5
100
AcDbEntity
  8
0
100
AcDbLine
 62
7
  6
CONTINUOUS
 10
90.2415503872
 20
196.9074016352
 11
90.2365594577
 21
196.4291057674
  0
LINE
  5
2C6
100
AcDbEntity
  8
0
100
AcDbLine
 62
7
  6
CONTINUOUS
 10
90.5068255128
 20
214.7760939769
 11
90.5051404123
 21
214.7530695977
  0
LINE
  5
2C7
100
AcDbEntity
  8
0
100
AcDbLine
 62
7
  6
CONTINUOUS
 10
91.5247241983
 20
239.0583598455
 11
91.5247647165
 21
239.0587934501
  0
LWPOLYLINE
  5
2C8
100
AcDbEntity
  8
0
100
AcDbPolyline
 62
7
  6
CONTINUOUS
 90
4
 70
0
 10
91.5247241983
 20
239.0583598455
 10
91.632516588
 20
240.0937359423
 10
91.7771860054
 20
241.2868534377
 10
91.9354937149
 20
242.4243321038
  0
LINE
  5
2C9
100
AcDbEntity
  8
0
100
AcDbLine
 62
7
  6
CONTINUOUS
 10
90.395418463
 20
227.0567963464
 11
90.4965352975
 21
227.3248569753
  0
LINE
  5
2CA
100
AcDbEntity
  8
0
100
AcDbLine
 62
7
  6
CONTINUOUS
 10
89.4144931969
 20
223.7232278537
 11
89.5602057761
 21
224.109511761
  0
LINE
  5
2CB
100
AcDbEntity
  8
0
100
AcDbLine
 62
7
  6
CONTINUOUS
 10
90.4074578155
 20
223.7268181109
 11
90.50857465
 21
223.9948787397
  0
LINE
  5
2CC
100
AcDbEntity
  8
0
100
AcDbLine
 62
7
  6
CONTINUOUS
 10
90.4913617031
 20
227.8578176271
 11
90.6960132008
 21
228.394802303
  0
LINE
  5
2CD
100
AcDbEntity
  8
0
100
AcDbLine
 62
7
  6
CONTINUOUS
 10
89.4024538443
 20
227.0532060892
 11
90.395418463
 21
227.0567963464
  0
LINE
  5
2CE
100
AcDbEntity
  8
0
100
AcDbLine
 62
7
  6
CONTINUOUS
 10
90.4921020753
 20
227.6530372252
 11
89.5909448096
 21
227.6497789155
  0
LINE
  5
2CF
100
AcDbEntity
  8
0
100
AcDbLine
 62
7
  6
CONTINUOUS
 10
90.4877635699
 20
228.8530293812
 11
89.5866063042
 21
228.8497710714
  0
LINE
  5
2D0
100
AcDbEntity
  8
0
100
AcDbLine
 62
7
  6
CONTINUOUS
 10
90.398810619
 20
226.1185560707
 11
90.5018630667
 21
225.8512431878
  0
LINE
  5
2D1
100
AcDbEntity
  8
0
100
AcDbLine
 62
7
  6
CONTINUOUS
 10
88.9808945881
 20
230.5160172345
 11
89.5423085071
 21
229.0597376706
  0
LINE
  5
2D2
100
AcDbEntity
  8
0
100
AcDbLine
 62
7
  6
CONTINUOUS
 10
89.9738592073
 20
230.519607492
 11
90.4898237143
 21
229.1812214235
  0
LWPOLYLINE
  5
2D3
100
AcDbEntity
  8
0
100
AcDbPolyline
 62
7
  6
CONTINUOUS
 90
6
 70
0
 10
87.3928011862
 20
239.0115726478
 10
87.4351048487
 20
238.8777317784
 10
87.5130195016
 20
238.7608384337
 10
87.6203674963
 20
238.670237646
 10
87.7486442455
 20
238.6130816356
 10
87.887794793
 20
238.5938512379
  0
LWPOLYLINE
  5
2D4
100
AcDbEntity
  8
0
100
AcDbPolyline
 62
7
  6
CONTINUOUS
 90
4
 70
0
 10
91.5282461019
 20
237.0027267609
 10
91.5235842241
 20
237.0694326596
 10
91.4752068248
 20
237.2318283402
 10
91.402598304
 20
237.3456223692
  0
LINE
  5
2D5
100
AcDbEntity
  8
0
100
AcDbLine
 62
7
  6
CONTINUOUS
 10
91.8427193446
 20
257.0027429893
 11
91.84271635
 21
257.0029729623
  0
LINE
  5
2D6
100
AcDbEntity
  8
0
100
AcDbLine
 62
7
  6
CONTINUOUS
 10
91.8427193446
 20
257.0027429893
 11
91.9549924725
 21
242.670929146
  0
LINE
  5
2D7
100
AcDbEntity
  8
0
100
AcDbLine
 62
7
  6
CONTINUOUS
 10
91.2079832432
 20
219.0579007365
 11
91.2080318202
 21
219.0584237391
  0
LWPOLYLINE
  5
2D8
100
AcDbEntity
  8
0
100
AcDbPolyline
 62
7
  6
CONTINUOUS
 90
4
 70
0
 10
91.2079832432
 20
219.0579007365
 10
91.3154152882
 20
220.0900443814
 10
91.4609633291
 20
221.2903363138
 10
91.6187415368
 20
222.4237562657
  0
LINE
  5
2D9
100
AcDbEntity
  8
0
100
AcDbLine
 62
7
  6
CONTINUOUS
 10
89.4286868949
 20
219.7973767165
 11
89.5743994743
 21
220.1836606223
  0
LINE
  5
2DA
100
AcDbEntity
  8
0
100
AcDbLine
 62
7
  6
CONTINUOUS
 10
90.4216515135
 20
219.8009669736
 11
90.522768348
 21
220.0690276026
  0
LINE
  5
2DB
100
AcDbEntity
  8
0
100
AcDbLine
 62
7
  6
CONTINUOUS
 10
90.2675382169
 20
222.1922001904
 11
90.5084947772
 21
222.5988702837
  0
LINE
  5
2DC
100
AcDbEntity
  8
0
100
AcDbLine
 62
7
  6
CONTINUOUS
 10
88.9808945887
 20
230.5160172348
 11
89.9738592073
 21
230.519607492
  0
LINE
  5
2DD
100
AcDbEntity
  8
0
100
AcDbLine
 62
9
  6
CONTINUOUS
 10
88.5223168619
 20
230.8767460747
 11
88.9795844255
 21
230.8783968231
  0
LINE
  5
2DE
100
AcDbEntity
  8
0
100
AcDbLine
 62
7
  6
CONTINUOUS
 10
88.4559580441
 20
238.0459413856
 11
88.4560789534
 21
238.045628942
  0
LINE
  5
2DF
100
AcDbEntity
  8
0
100
AcDbLine
 62
7
  6
CONTINUOUS
 10
88.5042372458
 20
238.045974209
 11
88.5043045035
 21
238.0457704546
  0
LWPOLYLINE
  5
2E0
100
AcDbEntity
  8
0
100
AcDbPolyline
 62
7
  6
CONTINUOUS
 90
4
 70
0
 10
91.8449987027
 20
257.0032380757
 10
91.838040623
 20
257.0855531182
 10
91.7841172743
 20
257.2481509941
 10
91.7196245593
 20
257.3458642468
  0
LINE
  5
2E1
100
AcDbEntity
  8
0
100
AcDbLine
 62
7
  6
CONTINUOUS
 10
90.5278821139
 20
217.2365046262
 11
89.7315148507
 21
216.1093509876
  0
LINE
  5
2E2
100
AcDbEntity
  8
0
100
AcDbLine
 62
9
  6
CONTINUOUS
 10
89.9713092189
 20
231.2249116995
 11
90.4824280971
 21
231.2267836109
  0
LINE
  5
2E3
100
AcDbEntity
  8
0
100
AcDbLine
 62
7
  6
CONTINUOUS
 10
88.5550936992
 20
232.2460106172
 11
90.5049454259
 21
232.2530606862
  0
LWPOLYLINE
  5
2E4
100
AcDbEntity
  8
0
100
AcDbPolyline
 62
7
  6
CONTINUOUS
 90
7
 70
0
 10
91.0478514815
 20
237.7678138526
 10
91.0013972213
 20
237.8215694791
 10
90.9586133305
 20
237.8705777092
 10
90.9192832519
 20
237.9151143547
 10
90.8831746903
 20
237.9554685174
 10
90.8500331826
 20
237.9919475308
 10
90.831047663
 20
238.0124760755
  0
LINE
  5
2E5
100
AcDbEntity
  8
0
100
AcDbLine
 62
7
  6
CONTINUOUS
 10
91.1525879874
 20
237.6449964646
 11
91.0478514815
 21
237.7678138526
  0
LINE
  5
2E6
100
AcDbEntity
  8
0
100
AcDbLine
 62
7
  6
CONTINUOUS
 10
91.2743425235
 20
237.5000988333
 11
91.1525879874
 21
237.6449964646
  0
LINE
  5
2E7
100
AcDbEntity
  8
0
100
AcDbLine
 62
7
  6
CONTINUOUS
 10
91.4017627468
 20
237.3466430613
 11
91.2743425235
 21
237.5000988333
  0
LINE
  5
2E8
100
AcDbEntity
  8
0
100
AcDbLine
 62
7
  6
CONTINUOUS
 10
91.4017627468
 20
237.3466430613
 11
91.4026014712
 21
237.3456249701
  0
LINE
  5
2E9
100
AcDbEntity
  8
0
100
AcDbLine
 62
7
  6
CONTINUOUS
 10
88.2440245316
 20
200.6298317493
 11
88.2142541078
 21
200.579587253
  0
LWPOLYLINE
  5
2EA
100
AcDbEntity
  8
0
100
AcDbPolyline
 62
7
  6
CONTINUOUS
 90
7
 70
0
 10
91.028705584
 20
238.6049597756
 10
91.1677117509
 20
238.6251941691
 10
91.2955739627
 20
238.6832755924
 10
91.4022655967
 20
238.7746501768
 10
91.4793341024
 20
238.8921041703
 10
91.5206696367
 20
239.0262481495
 10
91.5246245251
 20
239.0572717943
  0
LWPOLYLINE
  5
2EB
100
AcDbEntity
  8
0
100
AcDbPolyline
 62
7
  6
CONTINUOUS
 90
15
 70
0
 10
87.8203447819
 20
238.2941815456
 10
87.7332380173
 20
238.2863354865
 10
87.6184558982
 20
238.2517787093
 10
87.5509466435
 20
238.2167646356
 10
87.5078790842
 20
238.1878376763
 10
87.4761697649
 20
238.1630681587
 10
87.4497210731
 20
238.1402555558
 10
87.4254532217
 20
238.1178098535
 10
87.4015526391
 20
238.094529155
 10
87.3769492783
 20
238.0695884998
 10
87.3509432913
 20
238.042378894
 10
87.3230284017
 20
238.0124130732
 10
87.2927948538
 20
237.9792617436
 10
87.2599091897
 20
237.9425517585
 10
87.2240867924
 20
237.9019478974
  0
LINE
  5
2EC
100
AcDbEntity
  8
0
100
AcDbLine
 62
9
  6
CONTINUOUS
 10
90.0984973903
 20
238.7480070715
 11
88.9967788231
 21
238.7440195946
  0
LINE
  5
2ED
100
AcDbEntity
  8
0
100
AcDbLine
 62
7
  6
CONTINUOUS
 10
87.8203587736
 20
238.2941816106
 11
87.8332505297
 21
238.2942282232
  0
LINE
  5
2EE
100
AcDbEntity
  8
0
100
AcDbLine
 62
7
  6
CONTINUOUS
 10
91.0278964839
 20
238.6049568503
 11
88.0263913888
 21
238.5941054171
  0
LINE
  5
2EF
100
AcDbEntity
  8
0
100
AcDbLine
 62
7
  6
CONTINUOUS
 10
88.0235756024
 20
238.594299388
 11
87.8889833994
 21
238.5938555353
  0
LINE
  5
2F0
100
AcDbEntity
  8
0
100
AcDbLine
 62
9
  6
CONTINUOUS
 10
87.5214552896
 20
239.0924934975
 11
87.3990846545
 21
239.0920819603
  0
LINE
  5
2F1
100
AcDbEntity
  8
0
100
AcDbLine
 62
9
  6
CONTINUOUS
 10
88.6728279015
 20
241.5209772379
 11
90.4674220811
 21
241.527465943
  0
LINE
  5
2F2
100
AcDbEntity
  8
0
100
AcDbLine
 62
9
  6
CONTINUOUS
 10
90.5090328256
 20
242.7008683791
 11
88.6337305816
 21
242.6940878583
  0
LINE
  5
2F3
100
AcDbEntity
  8
0
100
AcDbLine
 62
7
  6
CONTINUOUS
 10
91.7185148363
 20
257.347219
 11
91.7196277342
 21
257.3458668477
  0
LWPOLYLINE
  5
2F4
100
AcDbEntity
  8
0
100
AcDbPolyline
 62
7
  6
CONTINUOUS
 90
18
 70
0
 10
91.3309668679
 20
257.8073653376
 10
91.2890442524
 20
257.8555429136
 10
91.2503405546
 20
257.899555151
 10
91.2146587771
 20
257.9396494591
 10
91.181785742
 20
257.9760867258
 10
91.1514854173
 20
258.0091463344
 10
91.1234883941
 20
258.0391337654
 10
91.0974744063
 20
258.0663927267
 10
91.0730513463
 20
258.0913156604
 10
91.0497301776
 20
258.11435061
 10
91.0268150151
 20
258.1360742898
 10
91.0032337767
 20
258.1572723973
 10
90.9772070704
 20
258.1790554136
 10
90.9457273541
 20
258.2028735521
 10
90.9029019767
 20
258.2306842844
 10
90.8365340213
 20
258.2639384371
 10
90.7264141641
 20
258.2961794154
 10
90.6369332545
 20
258.3037960268
  0
LINE
  5
2F5
100
AcDbEntity
  8
0
100
AcDbLine
 62
7
  6
CONTINUOUS
 10
91.4252033759
 20
257.6975692168
 11
91.3309668679
 21
257.8073653376
  0
LINE
  5
2F6
100
AcDbEntity
  8
0
100
AcDbLine
 62
7
  6
CONTINUOUS
 10
91.5344318122
 20
257.5683495924
 11
91.4252033759
 21
257.6975692168
  0
LWPOLYLINE
  5
2F7
100
AcDbEntity
  8
0
100
AcDbPolyline
 62
7
  6
CONTINUOUS
 90
3
 70
0
 10
91.7185148363
 20
257.347219
 10
91.6598991792
 20
257.4180116077
 10
91.5344318122
 20
257.5683495924
  0
LWPOLYLINE
  5
2F8
100
AcDbEntity
  8
0
100
AcDbPolyline
 62
7
  6
CONTINUOUS
 90
15
 70
0
 10
88.1370985521
 20
258.2947573869
 10
88.047935388
 20
258.2865420064
 10
87.9381366076
 20
258.2536092639
 10
87.8719766017
 20
258.2199223848
 10
87.8292977075
 20
258.1918099887
 10
87.7979420833
 20
258.1677589625
 10
87.7720337989
 20
258.1457793348
 10
87.7485739208
 20
258.124402457
 10
87.7257897861
 20
258.1025066972
 10
87.7026138641
 20
258.079299234
 10
87.6783536253
 20
258.0541985506
 10
87.6525227226
 20
258.0267531628
 10
87.6247313343
 20
257.9965676552
 10
87.594661298
 20
257.9632958905
 10
87.5620451672
 20
257.9266303736
  0
LINE
  5
2F9
100
AcDbEntity
  8
0
100
AcDbLine
 62
7
  6
CONTINUOUS
 10
90.6369208749
 20
258.3037959932
 11
88.1371109509
 21
258.2947574431
  0
ARC
  5
2FA
100
AcDbEntity
  8
0
100
AcDbCircle
 62
7
  6
CONTINUOUS
 10
-2020.3304439264
 20
223.1863520042
 40
2108.8431186891
100
AcDbArc
 50
0.208941876
 51
0.3770561812
  0
ARC
  5
2FB
100
AcDbEntity
  8
0
100
AcDbCircle
 62
7
  6
CONTINUOUS
 10
1571.7243821493
 20
216.5147796863
 40
1483.5580463192
100
AcDbArc
 50
179.9649331852
 51
180.2045229037
  0
ARC
  5
2FC
100
AcDbEntity
  8
0
100
AcDbCircle
 62
7
  6
CONTINUOUS
 10
-911.8526568979
 20
207.4827180297
 40
1000.0303945713
100
AcDbArc
 50
0.2729917842
 51
0.5940077901
  0
ARC
  5
2FD
100
AcDbEntity
  8
0
100
AcDbCircle
 62
7
  6
CONTINUOUS
 10
-896.4810639642
 20
227.241334757
 40
985.0458498289
100
AcDbArc
 50
0.2911008903
 51
0.6188638706
  0
ARC
  5
2FE
100
AcDbEntity
  8
0
100
AcDbCircle
 62
9
  6
CONTINUOUS
 10
17.6915838622
 20
212.1862659514
 40
69.733480271
100
AcDbArc
 50
5.6829295337
 51
8.4313652617
  0
ARC
  5
2FF
100
AcDbEntity
  8
0
100
AcDbCircle
 62
9
  6
CONTINUOUS
 10
18.0083360505
 20
232.1868417858
 40
69.7334802598
100
AcDbArc
 50
5.6829295327
 51
8.4313652664
  0
ARC
  5
300
100
AcDbEntity
  8
0
100
AcDbCircle
 62
9
  6
CONTINUOUS
 10
23.5859757456
 20
212.5442134242
 40
65.3891260242
100
AcDbArc
 50
6.883568789
 51
7.890097314
  0
ARC
  5
301
100
AcDbEntity
  8
0
100
AcDbCircle
 62
9
  6
CONTINUOUS
 10
154.6933734565
 20
231.5883774179
 40
64.9904478426
100
AcDbArc
 50
171.2031486596
 51
173.6752109901
  0
ARC
  5
302
100
AcDbEntity
  8
0
100
AcDbCircle
 62
9
  6
CONTINUOUS
 10
24.7751798267
 20
232.6595093571
 40
64.5091857218
100
AcDbArc
 50
5.4121863698
 51
7.8955453871
  0
ARC
  5
303
100
AcDbEntity
  8
0
100
AcDbCircle
 62
9
  6
CONTINUOUS
 10
89.3418905903
 20
305.1864385402
 40
48.3996953777
100
AcDbArc
 50
269.1601340511
 51
270.2067850361
  0
ARC
  5
304
100
AcDbEntity
  8
0
100
AcDbCircle
 62
9
  6
CONTINUOUS
 10
89.3420271969
 20
305.0566106984
 40
48.2706196773
100
AcDbArc
 50
270.2071793272
 51
271.2555861776
  0
ARC
  5
305
100
AcDbEntity
  8
0
100
AcDbCircle
 62
9
  6
CONTINUOUS
 10
89.3368955491
 20
305.062579826
 40
47.7992934983
100
AcDbArc
 50
269.1982103708
 51
271.2161152932
  0
ARC
  5
306
100
AcDbEntity
  8
0
100
AcDbCircle
 62
9
  6
CONTINUOUS
 10
117.6928838172
 20
232.180554394
 40
39.5149688816
100
AcDbArc
 50
140.890432723
 51
141.0654520711
  0
ARC
  5
307
100
AcDbEntity
  8
0
100
AcDbCircle
 62
9
  6
CONTINUOUS
 10
117.375160481
 20
212.1807652664
 40
39.5137190606
100
AcDbArc
 50
140.8903739905
 51
141.0654544529
  0
ARC
  5
308
100
AcDbEntity
  8
0
100
AcDbCircle
 62
9
  6
CONTINUOUS
 10
67.6870945661
 20
218.4300458213
 40
30.1439244898
100
AcDbArc
 50
39.2943614783
 51
39.9178097755
  0
ARC
  5
309
100
AcDbEntity
  8
0
100
AcDbCircle
 62
9
  6
CONTINUOUS
 10
110.3047778603
 20
238.1979758644
 40
29.9864133316
100
AcDbArc
 50
140.4932601476
 51
140.9070704333
  0
ARC
  5
30A
100
AcDbEntity
  8
0
100
AcDbCircle
 62
9
  6
CONTINUOUS
 10
109.944554493
 20
218.232948416
 40
29.9302581745
100
AcDbArc
 50
140.4895405078
 51
140.9073376108
  0
ARC
  5
30B
100
AcDbEntity
  8
0
100
AcDbCircle
 62
9
  6
CONTINUOUS
 10
64.5969114827
 20
230.7959940962
 40
24.606370381
100
AcDbArc
 50
13.4950180675
 51
13.6952457236
  0
ARC
  5
30C
100
AcDbEntity
  8
0
100
AcDbCircle
 62
7
  6
CONTINUOUS
 10
114.549950294
 20
231.3137185101
 40
24.5788015116
100
AcDbArc
 50
177.8140580055
 51
180.207018388
  0
ARC
  5
30D
100
AcDbEntity
  8
0
100
AcDbCircle
 62
7
  6
CONTINUOUS
 10
64.5907045614
 20
230.7900431754
 40
24.3890399026
100
AcDbArc
 50
0.2074660509
 51
3.4257536742
  0
ARC
  5
30E
100
AcDbEntity
  8
0
100
AcDbCircle
 62
9
  6
CONTINUOUS
 10
64.5406623575
 20
230.7925778119
 40
24.0806001242
100
AcDbArc
 50
5.9400468197
 51
6.6023501817
  0
ARC
  5
30F
100
AcDbEntity
  8
0
100
AcDbCircle
 62
9
  6
CONTINUOUS
 10
104.9681345554
 20
242.5972958571
 40
23.0702164427
100
AcDbArc
 50
140.2808774182
 51
140.4872296277
  0
ARC
  5
310
100
AcDbEntity
  8
0
100
AcDbCircle
 62
9
  6
CONTINUOUS
 10
104.6482143169
 20
222.5993410134
 40
23.066104733
100
AcDbArc
 50
140.2805106526
 51
140.4872457229
  0
ARC
  5
311
100
AcDbEntity
  8
0
100
AcDbCircle
 62
9
  6
CONTINUOUS
 10
74.2104556434
 20
242.6099243925
 40
16.2988323143
100
AcDbArc
 50
0.1724654678
 51
0.3197003308
  0
ARC
  5
312
100
AcDbEntity
  8
0
100
AcDbCircle
 62
7
  6
CONTINUOUS
 10
88.2177087679
 20
222.6516960512
 40
1.6
100
AcDbArc
 50
179.9628007261
 51
188.8279815403
  0
ARC
  5
313
100
AcDbEntity
  8
0
100
AcDbCircle
 62
7
  6
CONTINUOUS
 10
90.0359631341
 20
222.6578774114
 40
1.6
100
AcDbArc
 50
351.585959436
 51
0.4514921205
  0
ARC
  5
314
100
AcDbEntity
  8
0
100
AcDbCircle
 62
7
  6
CONTINUOUS
 10
88.4360246206
 20
222.6520925218
 40
1.6
100
AcDbArc
 50
179.9973641543
 51
187.5144027838
  0
ARC
  5
315
100
AcDbEntity
  8
0
100
AcDbCircle
 62
7
  6
CONTINUOUS
 10
90.3527153114
 20
242.6584532439
 40
1.6
100
AcDbArc
 50
351.5859594359
 51
0.4514921208
  0
ARC
  5
316
100
AcDbEntity
  8
0
100
AcDbCircle
 62
7
  6
CONTINUOUS
 10
88.5344609451
 20
242.6522718837
 40
1.6
100
AcDbArc
 50
179.9628007261
 51
188.8279815402
  0
ARC
  5
317
100
AcDbEntity
  8
0
100
AcDbCircle
 62
7
  6
CONTINUOUS
 10
88.7527767979
 20
242.6526683543
 40
1.6
100
AcDbArc
 50
179.9973641516
 51
187.5144032359
  0
ARC
  5
318
100
AcDbEntity
  8
0
100
AcDbCircle
 62
7
  6
CONTINUOUS
 10
89.1884768199
 20
239.4367709064
 40
1.592201952
100
AcDbArc
 50
241.5897687376
 51
242.1109613175
  0
ARC
  5
319
100
AcDbEntity
  8
0
100
AcDbCircle
 62
7
  6
CONTINUOUS
 10
90.4730867358
 20
215.5843320072
 40
0.9086109124
100
AcDbArc
 50
144.7022223144
 51
179.4826627061
  0
ARC
  5
31A
100
AcDbEntity
  8
0
100
AcDbCircle
 62
7
  6
CONTINUOUS
 10
88.6906203496
 20
238.9126193069
 40
0.8571270226
100
AcDbArc
 50
201.9320236562
 51
206.1580711048
  0
ARC
  5
31B
100
AcDbEntity
  8
0
100
AcDbCircle
 62
7
  6
CONTINUOUS
 10
90.0057724202
 20
238.8935143713
 40
0.8356014742
100
AcDbArc
 50
336.9171691362
 51
337.9896379268
  0
ARC
  5
31C
100
AcDbEntity
  8
0
100
AcDbCircle
 62
7
  6
CONTINUOUS
 10
90.0172313084
 20
238.8889067096
 40
0.8232509218
100
AcDbArc
 50
337.9880609183
 51
339.7476168549
  0
ARC
  5
31D
100
AcDbEntity
  8
0
100
AcDbCircle
 62
9
  6
CONTINUOUS
 10
87.5834586529
 20
219.0935020526
 40
0.5011314606
100
AcDbArc
 50
180.2282008949
 51
198.7390610275
  0
ARC
  5
31E
100
AcDbEntity
  8
0
100
AcDbCircle
 62
9
  6
CONTINUOUS
 10
87.9002088647
 20
239.0940778035
 40
0.5011294948
100
AcDbArc
 50
180.2281924628
 51
186.7079027554
  0
ARC
  5
31F
100
AcDbEntity
  8
0
100
AcDbCircle
 62
7
  6
CONTINUOUS
 10
89.1321007378
 20
217.3619822073
 40
0.4968837794
100
AcDbArc
 50
0.1920858013
 51
24.6089734871
  0
SPLINE
  5
320
100
AcDbEntity
  8
0
100
AcDbSpline
 62
7
  6
CONTINUOUS
 70
0
 71
3
 72
9
 73
5
 74
0
 42
0.0000001
 43
0.0000001
 44
0.0000000001
 40
0.0
 40
0.0
 40
0.0
 40
0.0
 40
0.2496305215
 40
1.0
 40
1.0
 40
1.0
 40
1.0
 10
88.1663866173
 20
212.2474502848
 30
0.0
 10
88.1667883267
 20
212.1618792575
 30
0.0
 10
88.1683514853
 20
211.8190883189
 30
0.0
 10
88.1697305924
 20
211.4762965403
 30
0.0
 10
88.1706605602
 20
211.2190756903
 30
0.0
  0
SPLINE
  5
321
100
AcDbEntity
  8
0
100
AcDbSpline
 62
7
  6
CONTINUOUS
 70
0
 71
3
 72
9
 73
5
 74
0
 42
0.0000001
 43
0.0000001
 44
0.0000000001
 40
0.0
 40
0.0
 40
0.0
 40
0.0
 40
0.2547637111
 40
1.0
 40
1.0
 40
1.0
 40
1.0
 10
90.6960464769
 20
228.3948525873
 30
0.0
 10
90.7054934486
 20
228.4180019236
 30
0.0
 10
90.7385008449
 20
228.510463987
 30
0.0
 10
90.7541880891
 20
228.6092138514
 30
0.0
 10
90.754780586
 20
228.682349614
 30
0.0
  0
SPLINE
  5
322
100
AcDbEntity
  8
0
100
AcDbSpline
 62
7
  6
CONTINUOUS
 70
0
 71
3
 72
27
 73
23
 74
0
 42
0.0000001
 43
0.0000001
 44
0.0000000001
 40
0.0
 40
0.0
 40
0.0
 40
0.0
 40
0.1309762296
 40
0.2619446897
 40
0.392873273
 40
0.5236629815
 40
0.5889335471
 40
0.6540462025
 40
0.718892672
 40
0.7832749718
 40
0.8468092251
 40
0.8780103697
 40
0.9085723934
 40
0.9380688128
 40
0.9521594574
 40
0.9655654779
 40
0.9779513092
 40
0.9886622387
 40
0.9930488264
 40
0.9965326482
 40
0.9989162627
 40
1.0
 40
1.0
 40
1.0
 40
1.0
 10
88.2001297434
 20
212.7707413201
 30
0.0
 10
88.1992971943
 20
213.0010170086
 30
0.0
 10
88.1976239609
 20
213.4615546963
 30
0.0
 10
88.1950474726
 20
214.1522840441
 30
0.0
 10
88.1923474002
 20
214.8426849859
 30
0.0
 10
88.1899281722
 20
215.417578706
 30
0.0
 10
88.1878302352
 20
215.8767577677
 30
0.0
 10
88.1861592663
 20
216.2199987777
 30
0.0
 10
88.1843642681
 20
216.5616774311
 30
0.0
 10
88.1824073512
 20
216.9005800756
 30
0.0
 10
88.1805944202
 20
217.1803286339
 30
0.0
 10
88.1789785063
 20
217.4006156905
 30
0.0
 10
88.1776797334
 20
217.5610593435
 30
0.0
 10
88.176486376
 20
217.691420146
 30
0.0
 10
88.1754285421
 20
217.7916170958
 30
0.0
 10
88.1746076277
 20
217.8617333968
 30
0.0
 10
88.1737174428
 20
217.9259008851
 30
0.0
 10
88.1729650488
 20
217.97422588
 30
0.0
 10
88.1721821137
 20
218.006869132
 30
0.0
 10
88.1718352468
 20
218.0249271279
 30
0.0
 10
88.1710499769
 20
218.03706312
 30
0.0
 10
88.1710689925
 20
218.0432470107
 30
0.0
 10
88.1705701036
 20
218.0450859227
 30
0.0
  0
SPLINE
  5
323
100
AcDbEntity
  8
0
100
AcDbSpline
 62
7
  6
CONTINUOUS
 70
0
 71
3
 72
11
 73
7
 74
0
 42
0.0000001
 43
0.0000001
 44
0.0000000001
 40
0.0
 40
0.0
 40
0.0
 40
0.0
 40
0.3042790049
 40
0.5692202474
 40
0.79523134
 40
1.0
 40
1.0
 40
1.0
 40
1.0
 10
90.0865708641
 20
196.4285634545
 30
0.0
 10
89.9547119712
 20
196.428086693
 30
0.0
 10
89.7054463689
 20
196.3813739169
 30
0.0
 10
89.4058570295
 20
196.1958299188
 30
0.0
 10
89.2224206497
 20
195.9470321752
 30
0.0
 10
89.17980035
 20
195.7588380027
 30
0.0
 10
89.178875559
 20
195.6701060215
 30
0.0
  0
SPLINE
  5
324
100
AcDbEntity
  8
0
100
AcDbSpline
 62
7
  6
CONTINUOUS
 70
0
 71
3
 72
22
 73
18
 74
0
 42
0.0000001
 43
0.0000001
 44
0.0000000001
 40
0.0
 40
0.0
 40
0.0
 40
0.0
 40
0.0024698215
 40
0.009486452
 40
0.0206918031
 40
0.0357046702
 40
0.0541390508
 40
0.0755961424
 40
0.1259653389
 40
0.1836623154
 40
0.2466371174
 40
0.3136590336
 40
0.3836597901
 40
0.5303510385
 40
0.6832131573
 40
0.8401723685
 40
1.0
 40
1.0
 40
1.0
 40
1.0
 10
88.170449013
 20
218.0453116631
 30
0.0
 10
88.1699364351
 20
218.0453107382
 30
0.0
 10
88.1704508155
 20
218.0422081961
 30
0.0
 10
88.169529975
 20
218.0389775405
 30
0.0
 10
88.1696349797
 20
218.0315127191
 30
0.0
 10
88.1692321092
 20
218.0224873869
 30
0.0
 10
88.169051742
 20
218.011008468
 30
0.0
 10
88.1687193387
 20
217.992316123
 30
0.0
 10
88.1684094201
 20
217.9654148927
 30
0.0
 10
88.1680796519
 20
217.9299275365
 30
0.0
 10
88.1678043321
 20
217.8909725579
 30
0.0
 10
88.1675686738
 20
217.8494671588
 30
0.0
 10
88.1672967588
 20
217.7905864489
 30
0.0
 10
88.1670406393
 20
217.7138909361
 30
0.0
 10
88.166829305
 20
217.6191479875
 30
0.0
 10
88.1666885486
 20
217.5216786875
 30
0.0
 10
88.1666332624
 20
217.4559338001
 30
0.0
 10
88.1666136875
 20
217.4227637026
 30
0.0
  0
SPLINE
  5
325
100
AcDbEntity
  8
0
100
AcDbSpline
 62
7
  6
CONTINUOUS
 70
0
 71
3
 72
19
 73
15
 74
0
 42
0.0000001
 43
0.0000001
 44
0.0000000001
 40
0.0
 40
0.0
 40
0.0
 40
0.0
 40
0.0055135912
 40
0.0193812266
 40
0.0418984492
 40
0.0730014347
 40
0.1125487406
 40
0.160275901
 40
0.215890081
 40
0.2790643753
 40
0.4264141871
 40
0.5986599243
 40
0.7914213381
 40
1.0
 40
1.0
 40
1.0
 40
1.0
 10
91.6382504745
 20
222.670005759
 30
0.0
 10
91.6380740132
 20
222.6720743055
 30
0.0
 10
91.6285773344
 20
222.6742822105
 30
0.0
 10
91.6152269714
 20
222.6771472999
 30
0.0
 10
91.5887611246
 20
222.6798810556
 30
0.0
 10
91.5543082294
 20
222.6826833994
 30
0.0
 10
91.5096122531
 20
222.6853264903
 30
0.0
 10
91.4559384701
 20
222.6878438084
 30
0.0
 10
91.3932586997
 20
222.6901826816
 30
0.0
 10
91.2931029911
 20
222.6931993127
 30
0.0
 10
91.1490011339
 20
222.6962699243
 30
0.0
 10
90.9560997972
 20
222.6988944086
 30
0.0
 10
90.7401292169
 20
222.7005478394
 30
0.0
 10
90.5890106663
 20
222.7009353708
 30
0.0
 10
90.5104735232
 20
222.7009577728
 30
0.0
  0
SPLINE
  5
326
100
AcDbEntity
  8
0
100
AcDbSpline
 62
9
  6
CONTINUOUS
 70
0
 71
3
 72
14
 73
10
 74
0
 42
0.0000001
 43
0.0000001
 44
0.0000000001
 40
0.0
 40
0.0
 40
0.0
 40
0.0
 40
0.392545199
 40
0.5505329918
 40
0.6830625918
 40
0.7911744622
 40
0.8768126137
 40
0.9441695002
 40
1.0
 40
1.0
 40
1.0
 40
1.0
 10
90.5341312394
 20
218.7918729559
 30
0.0
 10
90.63187925
 20
218.8047381683
 30
0.0
 10
90.7686124411
 20
218.8273585722
 30
0.0
 10
90.9346351404
 20
218.8710383453
 30
0.0
 10
91.0293319956
 20
218.9039359391
 30
0.0
 10
91.1038101608
 20
218.9385432972
 30
0.0
 10
91.158999494
 20
218.9746029302
 30
0.0
 10
91.1953392808
 20
219.0135345997
 30
0.0
 10
91.2064869658
 20
219.0436946467
 30
0.0
 10
91.2078419131
 20
219.0576513272
 30
0.0
  0
SPLINE
  5
327
100
AcDbEntity
  8
0
100
AcDbSpline
 62
9
  6
CONTINUOUS
 70
0
 71
3
 72
19
 73
15
 74
0
 42
0.0000001
 43
0.0000001
 44
0.0000000001
 40
0.0
 40
0.0
 40
0.0
 40
0.0
 40
0.0056657305
 40
0.0098440841
 40
0.015715712
 40
0.0331625495
 40
0.0585896614
 40
0.0921396446
 40
0.1338666855
 40
0.1837952404
 40
0.2419367689
 40
0.3828721147
 40
0.5565348868
 40
1.0
 40
1.0
 40
1.0
 40
1.0
 10
87.8201123824
 20
238.2941668472
 30
0.0
 10
87.8218688608
 20
238.2941731954
 30
0.0
 10
87.8249725025
 20
238.2916843714
 30
0.0
 10
87.8248634718
 20
238.286661897
 30
0.0
 10
87.8236939208
 20
238.2782626106
 30
0.0
 10
87.818495662
 20
238.2639035802
 30
0.0
 10
87.8089106599
 20
238.2422974775
 30
0.0
 10
87.7946717562
 20
238.2144698289
 30
0.0
 10
87.7759502819
 20
238.1804754199
 30
0.0
 10
87.752623262
 20
238.1403109199
 30
0.0
 10
87.7127578013
 20
238.0742035463
 30
0.0
 10
87.6511078577
 20
237.9764528446
 30
0.0
 10
87.5226271427
 20
237.7796633408
 30
0.0
 10
87.4157746234
 20
237.6209509375
 30
0.0
 10
87.3387950529
 20
237.5070398343
 30
0.0
  0
SPLINE
  5
328
100
AcDbEntity
  8
0
100
AcDbSpline
 62
9
  6
CONTINUOUS
 70
0
 71
3
 72
9
 73
5
 74
0
 42
0.0000001
 43
0.0000001
 44
0.0000000001
 40
0.0
 40
0.0
 40
0.0
 40
0.0
 40
0.5409265641
 40
1.0
 40
1.0
 40
1.0
 40
1.0
 10
88.3172815586
 20
222.651629361
 30
0.0
 10
88.318031802
 20
222.4475082505
 30
0.0
 10
88.3247066977
 20
222.0701728594
 30
0.0
 10
88.3427717431
 20
221.6931090427
 30
0.0
 10
88.3562350047
 20
221.520398368
 30
0.0
  0
LINE
  5
329
100
AcDbEntity
  8
0
100
AcDbLine
 62
9
  6
CONTINUOUS
 10
88.3171336594
 20
222.6935122305
 11
88.3172815586
 21
222.651629361
  0
SPLINE
  5
32A
100
AcDbEntity
  8
0
100
AcDbSpline
 62
7
  6
CONTINUOUS
 70
0
 71
3
 72
20
 73
16
 74
0
 42
0.0000001
 43
0.0000001
 44
0.0000000001
 40
0.0
 40
0.0
 40
0.0
 40
0.0
 40
0.1982697094
 40
0.3869882007
 40
0.5594138629
 40
0.709659186
 40
0.774773914
 40
0.8324522891
 40
0.8821764797
 40
0.9235388513
 40
0.9561639349
 40
0.9797977748
 40
0.9943078429
 40
0.9981664343
 40
1.0
 40
1.0
 40
1.0
 40
1.0
 10
88.3171773154
 20
222.6934419502
 30
0.0
 10
88.218979928
 20
222.6931856946
 30
0.0
 10
88.0273159955
 20
222.6923549631
 30
0.0
 10
87.7502645264
 20
222.6896974507
 30
0.0
 10
87.4970155948
 20
222.6857524599
 30
0.0
 10
87.3050035021
 20
222.6814118223
 30
0.0
 10
87.1698345608
 20
222.6772787771
 30
0.0
 10
87.0844555305
 20
222.6741231829
 30
0.0
 10
87.0108307226
 20
222.6707852845
 30
0.0
 10
86.9497119109
 20
222.667334518
 30
0.0
 10
86.9013418204
 20
222.6637687184
 30
0.0
 10
86.8668014524
 20
222.660313206
 30
0.0
 10
86.845633898
 20
222.656992297
 30
0.0
 10
86.8365789656
 20
222.6543618687
 30
0.0
 10
86.8336852972
 20
222.6525643907
 30
0.0
 10
86.833615411
 20
222.6516589674
 30
0.0
  0
SPLINE
  5
32B
100
AcDbEntity
  8
0
100
AcDbSpline
 62
9
  6
CONTINUOUS
 70
0
 71
3
 72
8
 73
4
 74
0
 42
0.0000001
 43
0.0000001
 44
0.0000000001
 40
0.0
 40
0.0
 40
0.0
 40
0.0
 40
1.0
 40
1.0
 40
1.0
 40
1.0
 10
86.6388317796
 20
236.984869523
 30
0.0
 10
86.6374756251
 20
232.2052365157
 30
0.0
 10
86.6378682722
 20
227.4256030674
 30
0.0
 10
86.6361605413
 20
222.6459701728
 30
0.0
  0
SPLINE
  5
32C
100
AcDbEntity
  8
0
100
AcDbSpline
 62
9
  6
CONTINUOUS
 70
0
 71
3
 72
9
 73
5
 74
0
 42
0.0000001
 43
0.0000001
 44
0.0000000001
 40
0.0
 40
0.0
 40
0.0
 40
0.0
 40
0.2074647121
 40
1.0
 40
1.0
 40
1.0
 40
1.0
 10
87.1489350753
 20
237.623918854
 30
0.0
 10
87.1318217053
 20
237.6046506598
 30
0.0
 10
87.0499740638
 20
237.5112074397
 30
0.0
 10
86.9700342594
 20
237.4161113154
 30
0.0
 10
86.9071166674
 20
237.3403938845
 30
0.0
  0
SPLINE
  5
32D
100
AcDbEntity
  8
0
100
AcDbSpline
 62
9
  6
CONTINUOUS
 70
0
 71
3
 72
11
 73
7
 74
0
 42
0.0000001
 43
0.0000001
 44
0.0000000001
 40
0.0
 40
0.0
 40
0.0
 40
0.0
 40
0.2338678592
 40
0.4860807469
 40
0.7455977824
 40
1.0
 40
1.0
 40
1.0
 40
1.0
 10
87.5817238416
 20
218.5933094226
 30
0.0
 10
87.533529645
 20
218.5931352449
 30
0.0
 10
87.432696402
 20
218.6075302106
 30
0.0
 10
87.2920125413
 20
218.6753396961
 30
0.0
 10
87.1763126883
 20
218.7866199248
 30
0.0
 10
87.1258734499
 20
218.8821065362
 30
0.0
 10
87.1090105167
 20
218.931746664
 30
0.0
  0
SPLINE
  5
32E
100
AcDbEntity
  8
0
100
AcDbSpline
 62
9
  6
CONTINUOUS
 70
0
 71
3
 72
15
 73
11
 74
0
 42
0.0000001
 43
0.0000001
 44
0.0000000001
 40
0.0
 40
0.0
 40
0.0
 40
0.0
 40
0.0319595501
 40
0.0569892074
 40
0.0891918405
 40
0.1758218668
 40
0.2916512056
 40
0.434953708
 40
0.6031106702
 40
1.0
 40
1.0
 40
1.0
 40
1.0
 10
86.8336566411
 20
236.989727131
 30
0.0
 10
86.8336564321
 20
236.9788892921
 30
0.0
 10
86.8485773042
 20
236.9618513969
 30
0.0
 10
86.8738344214
 20
236.9466567885
 30
0.0
 10
86.9186539653
 20
236.9262546472
 30
0.0
 10
86.9949578422
 20
236.9036364371
 30
0.0
 10
87.1096999643
 20
236.8789115883
 30
0.0
 10
87.2528416289
 20
236.8562051003
 30
0.0
 10
87.4913518634
 20
236.8273416178
 30
0.0
 10
87.6825588253
 20
236.8131522001
 30
0.0
 10
87.8169517563
 20
236.8058791683
 30
0.0
  0
SPLINE
  5
32F
100
AcDbEntity
  8
0
100
AcDbSpline
 62
9
  6
CONTINUOUS
 70
0
 71
3
 72
13
 73
9
 74
0
 42
0.0000001
 43
0.0000001
 44
0.0000000001
 40
0.0
 40
0.0
 40
0.0
 40
0.0
 40
0.1037338479
 40
0.2133635558
 40
0.4527649284
 40
0.5837240049
 40
0.7203924269
 40
1.0
 40
1.0
 40
1.0
 40
1.0
 10
91.618676237
 20
222.4237660849
 30
0.0
 10
91.6109604219
 20
222.3712559343
 30
0.0
 10
91.5840307416
 20
222.2644902275
 30
0.0
 10
91.4810574661
 20
222.0554838291
 30
0.0
 10
91.308888913
 20
221.8714524679
 30
0.0
 10
91.0900436224
 20
221.7309887411
 30
0.0
 10
90.8348847362
 20
221.6138548756
 30
0.0
 10
90.6253229312
 20
221.5632848764
 30
0.0
 10
90.4834962374
 20
221.5445604483
 30
0.0
  0
SPLINE
  5
330
100
AcDbEntity
  8
0
100
AcDbSpline
 62
7
  6
CONTINUOUS
 70
0
 71
3
 72
9
 73
5
 74
0
 42
0.0000001
 43
0.0000001
 44
0.0000000001
 40
0.0
 40
0.0
 40
0.0
 40
0.0
 40
0.4800031472
 40
1.0
 40
1.0
 40
1.0
 40
1.0
 10
87.9212792291
 20
238.5347556104
 30
0.0
 10
87.9604858177
 20
238.4548705304
 30
0.0
 10
88.0679563509
 20
238.3005085028
 30
0.0
 10
88.20990544
 20
238.1785078265
 30
0.0
 10
88.2890408374
 20
238.1234539823
 30
0.0
  0
SPLINE
  5
331
100
AcDbEntity
  8
0
100
AcDbSpline
 62
7
  6
CONTINUOUS
 70
0
 71
3
 72
9
 73
5
 74
0
 42
0.0000001
 43
0.0000001
 44
0.0000000001
 40
0.0
 40
0.0
 40
0.0
 40
0.0
 40
0.4733343842
 40
1.0
 40
1.0
 40
1.0
 40
1.0
 10
89.1788448114
 20
195.6612052477
 30
0.0
 10
89.1791767644
 20
195.5667818082
 30
0.0
 10
89.2262732609
 20
195.3651594219
 30
0.0
 10
89.3564398946
 20
195.2047629802
 30
0.0
 10
89.4367704395
 20
195.137048743
 30
0.0
  0
SPLINE
  5
332
100
AcDbEntity
  8
0
100
AcDbSpline
 62
9
  6
CONTINUOUS
 70
0
 71
3
 72
9
 73
5
 74
0
 42
0.0000001
 43
0.0000001
 44
0.0000000001
 40
0.0
 40
0.0
 40
0.0
 40
0.0
 40
0.4830914291
 40
1.0
 40
1.0
 40
1.0
 40
1.0
 10
87.3387949114
 20
237.5070411243
 30
0.0
 10
87.2619919458
 20
237.5085658881
 30
0.0
 10
87.0999589461
 20
237.4741648929
 30
0.0
 10
86.9731333477
 20
237.3648077493
 30
0.0
 10
86.9268322969
 20
237.2968937569
 30
0.0
  0
SPLINE
  5
333
100
AcDbEntity
  8
0
100
AcDbSpline
 62
9
  6
CONTINUOUS
 70
0
 71
3
 72
15
 73
11
 74
0
 42
0.0000001
 43
0.0000001
 44
0.0000000001
 40
0.0
 40
0.0
 40
0.0
 40
0.0
 40
0.4019539834
 40
0.568544235
 40
0.7092387274
 40
0.822492676
 40
0.9074507813
 40
0.9394700176
 40
0.9649096159
 40
1.0
 40
1.0
 40
1.0
 40
1.0
 10
90.8251264098
 20
236.8347188192
 30
0.0
 10
90.9232543484
 20
236.8437712532
 30
0.0
 10
91.0618820331
 20
236.8592023789
 30
0.0
 10
91.233535919
 20
236.8871296717
 30
0.0
 10
91.3345637683
 20
236.9079314275
 30
0.0
 10
91.414828848
 20
236.9296505509
 30
0.0
 10
91.4679059223
 20
236.9492237171
 30
0.0
 10
91.4986244914
 20
236.966323658
 30
0.0
 10
91.5166059136
 20
236.9796251787
 30
0.0
 10
91.526000654
 20
236.9936180064
 30
0.0
 10
91.5259277174
 20
237.0022205924
 30
0.0
  0
SPLINE
  5
334
100
AcDbEntity
  8
0
100
AcDbSpline
 62
9
  6
CONTINUOUS
 70
0
 71
3
 72
9
 73
5
 74
0
 42
0.0000001
 43
0.0000001
 44
0.0000000001
 40
0.0
 40
0.0
 40
0.0
 40
0.0
 40
0.482256974
 40
1.0
 40
1.0
 40
1.0
 40
1.0
 10
91.0155542241
 20
237.5203327283
 30
0.0
 10
91.0853878515
 20
237.5222304681
 30
0.0
 10
91.2327407125
 20
237.4950171336
 30
0.0
 10
91.354068679
 20
237.4045245258
 30
0.0
 10
91.4017062821
 20
237.346596616
 30
0.0
  0
SPLINE
  5
335
100
AcDbEntity
  8
0
100
AcDbSpline
 62
9
  6
CONTINUOUS
 70
0
 71
3
 72
13
 73
9
 74
0
 42
0.0000001
 43
0.0000001
 44
0.0000000001
 40
0.0
 40
0.0
 40
0.0
 40
0.0
 40
0.3954109162
 40
0.6730002771
 40
0.7718676359
 40
0.8506820584
 40
0.9212360085
 40
1.0
 40
1.0
 40
1.0
 40
1.0
 10
90.8318758854
 20
237.3698434355
 30
0.0
 10
90.8662891588
 20
237.3797709484
 30
0.0
 10
90.924009967
 20
237.3992302653
 30
0.0
 10
90.9870386253
 20
237.4317803849
 30
0.0
 10
91.0168858345
 20
237.4607078539
 30
0.0
 10
91.0277261971
 20
237.4811696717
 30
0.0
 10
91.0273180644
 20
237.5027779595
 30
0.0
 10
91.0200703573
 20
237.5148121567
 30
0.0
 10
91.0155542183
 20
237.5203353398
 30
0.0
  0
SPLINE
  5
336
100
AcDbEntity
  8
0
100
AcDbSpline
 62
9
  6
CONTINUOUS
 70
0
 71
3
 72
15
 73
11
 74
0
 42
0.0000001
 43
0.0000001
 44
0.0000000001
 40
0.0
 40
0.0
 40
0.0
 40
0.0
 40
0.0507258652
 40
0.1054420314
 40
0.1821236729
 40
0.28723069
 40
0.4225182613
 40
0.5877972419
 40
0.7816024574
 40
1.0
 40
1.0
 40
1.0
 40
1.0
 10
87.3387950529
 20
237.5070398343
 30
0.0
 10
87.3334216916
 20
237.4990785477
 30
0.0
 10
87.3267564816
 20
237.4778781628
 30
0.0
 10
87.3451859313
 20
237.4458357438
 30
0.0
 10
87.3811909524
 20
237.4188596815
 30
0.0
 10
87.4352726443
 20
237.392139407
 30
0.0
 10
87.5078545238
 20
237.36671097
 30
0.0
 10
87.5984658702
 20
237.3428904452
 30
0.0
 10
87.7057671838
 20
237.321600875
 30
0.0
 10
87.7829547917
 20
237.3098617809
 30
0.0
 10
87.8239425933
 20
237.3043734755
 30
0.0
  0
SPLINE
  5
337
100
AcDbEntity
  8
0
100
AcDbSpline
 62
7
  6
CONTINUOUS
 70
0
 71
3
 72
9
 73
5
 74
0
 42
0.0000001
 43
0.0000001
 44
0.0000000001
 40
0.0
 40
0.0
 40
0.0
 40
0.0
 40
0.2563753604
 40
1.0
 40
1.0
 40
1.0
 40
1.0
 10
88.475281679
 20
227.7919226999
 30
0.0
 10
88.4511246984
 20
227.8024122966
 30
0.0
 10
88.3578622348
 20
227.8454854427
 30
0.0
 10
88.2685881042
 20
227.8973755773
 30
0.0
 10
88.2058858512
 20
227.9410066032
 30
0.0
  0
SPLINE
  5
338
100
AcDbEntity
  8
0
100
AcDbSpline
 62
7
  6
CONTINUOUS
 70
0
 71
3
 72
14
 73
10
 74
0
 42
0.0000001
 43
0.0000001
 44
0.0000000001
 40
0.0
 40
0.0
 40
0.0
 40
0.0
 40
0.0166862152
 40
0.0654833506
 40
0.1462015841
 40
0.2583769109
 40
0.4013964011
 40
0.5738409984
 40
1.0
 40
1.0
 40
1.0
 40
1.0
 10
88.2670676016
 20
194.7455001983
 30
0.0
 10
88.2677177385
 20
194.7454618883
 30
0.0
 10
88.2673227634
 20
194.7495128938
 30
0.0
 10
88.2684493597
 20
194.7537635802
 30
0.0
 10
88.2684796096
 20
194.7640006282
 30
0.0
 10
88.2690793018
 20
194.7767487581
 30
0.0
 10
88.2694135481
 20
194.7935712023
 30
0.0
 10
88.2699836383
 20
194.822447481
 30
0.0
 10
88.2702601905
 20
194.8458382008
 30
0.0
 10
88.2704337436
 20
194.8624703255
 30
0.0
  0
SPLINE
  5
339
100
AcDbEntity
  8
0
100
AcDbSpline
 62
7
  6
CONTINUOUS
 70
0
 71
3
 72
9
 73
5
 74
0
 42
0.0000001
 43
0.0000001
 44
0.0000000001
 40
0.0
 40
0.0
 40
0.0
 40
0.0
 40
0.4775747573
 40
1.0
 40
1.0
 40
1.0
 40
1.0
 10
87.8108698082
 20
228.4136455193
 30
0.0
 10
87.8474353108
 20
228.3215266926
 30
0.0
 10
87.9591658839
 20
228.1417744915
 30
0.0
 10
88.1168926037
 20
228.0029319598
 30
0.0
 10
88.2058858512
 20
227.9410066032
 30
0.0
  0
SPLINE
  5
33A
100
AcDbEntity
  8
0
100
AcDbSpline
 62
7
  6
CONTINUOUS
 70
0
 71
3
 72
9
 73
5
 74
0
 42
0.0000001
 43
0.0000001
 44
0.0000000001
 40
0.0
 40
0.0
 40
0.0
 40
0.0
 40
0.2604939588
 40
1.0
 40
1.0
 40
1.0
 40
1.0
 10
90.498705015
 20
228.0969463357
 30
0.0
 10
90.5202345315
 20
228.1194299382
 30
0.0
 10
90.5992745651
 20
228.209053293
 30
0.0
 10
90.6626563377
 20
228.3130317048
 30
0.0
 10
90.6960464769
 20
228.3948525873
 30
0.0
  0
SPLINE
  5
33B
100
AcDbEntity
  8
0
100
AcDbSpline
 62
7
  6
CONTINUOUS
 70
0
 71
3
 72
9
 73
5
 74
0
 42
0.0000001
 43
0.0000001
 44
0.0000000001
 40
0.0
 40
0.0
 40
0.0
 40
0.0
 40
0.246021277
 40
1.0
 40
1.0
 40
1.0
 40
1.0
 10
88.2890408374
 20
238.1234539823
 30
0.0
 10
88.3002520912
 20
238.1156516131
 30
0.0
 10
88.3462903634
 20
238.0846133383
 30
0.0
 10
88.3941179426
 20
238.0562447809
 30
0.0
 10
88.4309369378
 20
238.0363279826
 30
0.0
  0
SPLINE
  5
33C
100
AcDbEntity
  8
0
100
AcDbSpline
 62
9
  6
CONTINUOUS
 70
0
 71
3
 72
8
 73
4
 74
0
 42
0.0000001
 43
0.0000001
 44
0.0000000001
 40
0.0
 40
0.0
 40
0.0
 40
0.0
 40
1.0
 40
1.0
 40
1.0
 40
1.0
 10
88.2889684171
 20
238.1233243527
 30
0.0
 10
88.3364535469
 20
238.173472561
 30
0.0
 10
88.3851979606
 20
238.2224353523
 30
0.0
 10
88.4345928035
 20
238.2707036631
 30
0.0
  0
SPLINE
  5
33D
100
AcDbEntity
  8
0
100
AcDbSpline
 62
9
  6
CONTINUOUS
 70
0
 71
3
 72
9
 73
5
 74
0
 42
0.0000001
 43
0.0000001
 44
0.0000000001
 40
0.0
 40
0.0
 40
0.0
 40
0.0
 40
0.2464038012
 40
1.0
 40
1.0
 40
1.0
 40
1.0
 10
88.2890781899
 20
238.1234242079
 30
0.0
 10
88.3002992454
 20
238.1471872964
 30
0.0
 10
88.3466554539
 20
238.2432407481
 30
0.0
 10
88.3960123801
 20
238.3378321187
 30
0.0
 10
88.4344796184
 20
238.4084004622
 30
0.0
  0
SPLINE
  5
33E
100
AcDbEntity
  8
0
100
AcDbSpline
 62
7
  6
CONTINUOUS
 70
0
 71
3
 72
9
 73
5
 74
0
 42
0.0000001
 43
0.0000001
 44
0.0000000001
 40
0.0
 40
0.0
 40
0.0
 40
0.0
 40
0.5170140789
 40
1.0
 40
1.0
 40
1.0
 40
1.0
 10
90.491882375
 20
238.1948645012
 30
0.0
 10
90.5536150592
 20
238.2471905559
 30
0.0
 10
90.6637104059
 20
238.3603080217
 30
0.0
 10
90.7448365008
 20
238.4963599823
 30
0.0
 10
90.774474824
 20
238.5659072313
 30
0.0
  0
SPLINE
  5
33F
100
AcDbEntity
  8
0
100
AcDbSpline
 62
9
  6
CONTINUOUS
 70
0
 71
3
 72
14
 73
10
 74
0
 42
0.0000001
 43
0.0000001
 44
0.0000000001
 40
0.0
 40
0.0
 40
0.0
 40
0.0
 40
0.0442194782
 40
0.1041983552
 40
0.187714103
 40
0.2979175076
 40
0.4359042965
 40
0.6013623459
 40
1.0
 40
1.0
 40
1.0
 40
1.0
 10
87.2080283213
 20
219.0548992271
 30
0.0
 10
87.2096799142
 20
219.0346191701
 30
0.0
 10
87.2326157119
 20
218.98876645
 30
0.0
 10
87.3035357741
 20
218.9372274474
 30
0.0
 10
87.4101473603
 20
218.8888870425
 30
0.0
 10
87.5565752093
 20
218.8445762655
 30
0.0
 10
87.7431413408
 20
218.8060653351
 30
0.0
 10
88.0633044525
 20
218.7618230004
 30
0.0
 10
88.3230017995
 20
218.7468181973
 30
0.0
 10
88.5064123615
 20
218.7441784586
 30
0.0
  0
SPLINE
  5
340
100
AcDbEntity
  8
0
100
AcDbSpline
 62
9
  6
CONTINUOUS
 70
0
 71
3
 72
9
 73
5
 74
0
 42
0.0000001
 43
0.0000001
 44
0.0000000001
 40
0.0
 40
0.0
 40
0.0
 40
0.0
 40
0.5186051742
 40
1.0
 40
1.0
 40
1.0
 40
1.0
 10
86.7449974036
 20
237.3291520665
 30
0.0
 10
86.708184077
 20
237.2834727283
 30
0.0
 10
86.6527460629
 20
237.1814142101
 30
0.0
 10
86.6372083898
 20
237.0668905354
 30
0.0
 10
86.6388455683
 20
237.0124575081
 30
0.0
  0
SPLINE
  5
341
100
AcDbEntity
  8
0
100
AcDbSpline
 62
7
  6
CONTINUOUS
 70
0
 71
3
 72
9
 73
5
 74
0
 42
0.0000001
 43
0.0000001
 44
0.0000000001
 40
0.0
 40
0.0
 40
0.0
 40
0.0
 40
0.6738068311
 40
1.0
 40
1.0
 40
1.0
 40
1.0
 10
86.6334413848
 20
222.6459627856
 30
0.0
 10
86.6293012336
 20
222.6466587427
 30
0.0
 10
86.6235396594
 20
222.6479935049
 30
0.0
 10
86.6168905232
 20
222.6497240849
 30
0.0
 10
86.6156748908
 20
222.6513528385
 30
0.0
  0
SPLINE
  5
342
100
AcDbEntity
  8
0
100
AcDbSpline
 62
9
  6
CONTINUOUS
 70
0
 71
3
 72
14
 73
10
 74
0
 42
0.0000001
 43
0.0000001
 44
0.0000000001
 40
0.0
 40
0.0
 40
0.0
 40
0.0
 40
0.2718408313
 40
0.410036882
 40
0.5444175367
 40
0.6712856568
 40
0.7892853842
 40
0.8984379038
 40
1.0
 40
1.0
 40
1.0
 40
1.0
 10
88.3560764075
 20
221.5203964598
 30
0.0
 10
88.1818743671
 20
221.5150319982
 30
0.0
 10
87.9162297447
 20
221.5370065363
 30
0.0
 10
87.5807810422
 20
221.6370184325
 30
0.0
 10
87.3483071568
 20
221.7472968841
 30
0.0
 10
87.1497127005
 20
221.8903554217
 30
0.0
 10
86.9964172974
 20
222.0601849778
 30
0.0
 10
86.8926501012
 20
222.245899099
 30
0.0
 10
86.8583397314
 20
222.3782982045
 30
0.0
 10
86.8498594193
 20
222.4428578634
 30
0.0
  0
SPLINE
  5
343
100
AcDbEntity
  8
0
100
AcDbSpline
 62
7
  6
CONTINUOUS
 70
0
 71
3
 72
9
 73
5
 74
0
 42
0.0000001
 43
0.0000001
 44
0.0000000001
 40
0.0
 40
0.0
 40
0.0
 40
0.0
 40
0.2496293155
 40
1.0
 40
1.0
 40
1.0
 40
1.0
 10
90.4792663917
 20
232.2550454982
 30
0.0
 10
90.4794834046
 20
232.1694839295
 30
0.0
 10
90.480398798
 20
231.8267295584
 30
0.0
 10
90.4814982335
 20
231.4839756781
 30
0.0
 10
90.4824280972
 20
231.2267836109
 30
0.0
  0
SPLINE
  5
344
100
AcDbEntity
  8
0
100
AcDbSpline
 62
7
  6
CONTINUOUS
 70
0
 71
3
 72
9
 73
5
 74
0
 42
0.0000001
 43
0.0000001
 44
0.0000000001
 40
0.0
 40
0.0
 40
0.0
 40
0.0
 40
0.2484261992
 40
1.0
 40
1.0
 40
1.0
 40
1.0
 10
89.6029841621
 20
224.3198006799
 30
0.0
 10
89.6021773754
 20
224.3020077387
 30
0.0
 10
89.596291402
 20
224.230536107
 30
0.0
 10
89.5792239946
 20
224.1599290389
 30
0.0
 10
89.5602057768
 20
224.1095117622
 30
0.0
  0
SPLINE
  5
345
100
AcDbEntity
  8
0
100
AcDbSpline
 62
7
  6
CONTINUOUS
 70
0
 71
3
 72
9
 73
5
 74
0
 42
0.0000001
 43
0.0000001
 44
0.0000000001
 40
0.0
 40
0.0
 40
0.0
 40
0.0
 40
0.2484261992
 40
1.0
 40
1.0
 40
1.0
 40
1.0
 10
89.5909448096
 20
227.6497789155
 30
0.0
 10
89.5901380229
 20
227.6319859743
 30
0.0
 10
89.5842520496
 20
227.5605143427
 30
0.0
 10
89.5671846422
 20
227.4899072747
 30
0.0
 10
89.5481664244
 20
227.4394899981
 30
0.0
  0
SPLINE
  5
346
100
AcDbEntity
  8
0
100
AcDbSpline
 62
7
  6
CONTINUOUS
 70
0
 71
3
 72
13
 73
9
 74
0
 42
0.0000001
 43
0.0000001
 44
0.0000000001
 40
0.0
 40
0.0
 40
0.0
 40
0.0
 40
0.034235602
 40
0.1104541346
 40
0.2181488225
 40
0.3487773199
 40
0.655844046
 40
1.0
 40
1.0
 40
1.0
 40
1.0
 10
88.5043042588
 20
238.0458494545
 30
0.0
 10
88.5047984254
 20
238.0440316436
 30
0.0
 10
88.5045845271
 20
238.0378493
 30
0.0
 10
88.5053465493
 20
238.0259372386
 30
0.0
 10
88.5055458783
 20
238.0085944931
 30
0.0
 10
88.5061652173
 20
237.9786081299
 30
0.0
 10
88.5067039151
 20
237.9355801721
 30
0.0
 10
88.5071228064
 20
237.899752871
 30
0.0
 10
88.507325653
 20
237.8808170915
 30
0.0
  0
SPLINE
  5
347
100
AcDbEntity
  8
0
100
AcDbSpline
 62
7
  6
CONTINUOUS
 70
0
 71
3
 72
9
 73
5
 74
0
 42
0.0000001
 43
0.0000001
 44
0.0000000001
 40
0.0
 40
0.0
 40
0.0
 40
0.0
 40
0.2486612761
 40
1.0
 40
1.0
 40
1.0
 40
1.0
 10
89.6095039618
 20
222.7510173107
 30
0.0
 10
89.6094293236
 20
222.7717014367
 30
0.0
 10
89.6055177859
 20
222.8548180119
 30
0.0
 10
89.5867139832
 20
222.9373392113
 30
0.0
 10
89.5642328665
 20
222.9956541008
 30
0.0
  0
SPLINE
  5
348
100
AcDbEntity
  8
0
100
AcDbSpline
 62
7
  6
CONTINUOUS
 70
0
 71
3
 72
9
 73
5
 74
0
 42
0.0000001
 43
0.0000001
 44
0.0000000001
 40
0.0
 40
0.0
 40
0.0
 40
0.0
 40
0.2486587091
 40
1.0
 40
1.0
 40
1.0
 40
1.0
 10
89.61790112
 20
220.4286270697
 30
0.0
 10
89.6179799963
 20
220.4079418372
 30
0.0
 10
89.614769483
 20
220.324788131
 30
0.0
 10
89.5964591414
 20
220.2421407784
 30
0.0
 10
89.5743994727
 20
220.1836606182
 30
0.0
  0
SPLINE
  5
349
100
AcDbEntity
  8
0
100
AcDbSpline
 62
7
  6
CONTINUOUS
 70
0
 71
3
 72
19
 73
15
 74
0
 42
0.0000001
 43
0.0000001
 44
0.0000000001
 40
0.0
 40
0.0
 40
0.0
 40
0.0
 40
0.0045963747
 40
0.0145643949
 40
0.0292029114
 40
0.0478212852
 40
0.0943075016
 40
0.1495358689
 40
0.2102927084
 40
0.2748104496
 40
0.4111562576
 40
0.5538288355
 40
0.7003627864
 40
1.0
 40
1.0
 40
1.0
 40
1.0
 10
88.4560786491
 20
238.0457265159
 30
0.0
 10
88.4564891558
 20
238.0442797766
 30
0.0
 10
88.4565326331
 20
238.039445935
 30
0.0
 10
88.4571817307
 20
238.0299614728
 30
0.0
 10
88.4575156997
 20
238.0157964995
 30
0.0
 10
88.4582170212
 20
237.989728767
 30
0.0
 10
88.4589139193
 20
237.9503550458
 30
0.0
 10
88.459731305
 20
237.897207117
 30
0.0
 10
88.4604936886
 20
237.8381535349
 30
0.0
 10
88.4614847146
 20
237.7525621462
 30
0.0
 10
88.4626117731
 20
237.6401686277
 30
0.0
 10
88.4638319032
 20
237.5009408955
 30
0.0
 10
88.4653499375
 20
237.3082876663
 30
0.0
 10
88.4663666174
 20
237.162311939
 30
0.0
 10
88.4670101715
 20
237.0642781006
 30
0.0
  0
SPLINE
  5
34A
100
AcDbEntity
  8
0
100
AcDbSpline
 62
9
  6
CONTINUOUS
 70
0
 71
3
 72
12
 73
8
 74
0
 42
0.0000001
 43
0.0000001
 44
0.0000000001
 40
0.0
 40
0.0
 40
0.0
 40
0.0
 40
0.0227560669
 40
0.0691200173
 40
0.2517105991
 40
0.5650570761
 40
1.0
 40
1.0
 40
1.0
 40
1.0
 10
89.0186223912
 20
238.5976616078
 30
0.0
 10
89.0174886842
 20
238.5976576045
 30
0.0
 10
89.0148159807
 20
238.6007625093
 30
0.0
 10
89.0109552606
 20
238.6121742754
 30
0.0
 10
89.0059149055
 20
238.6393431225
 30
0.0
 10
89.00099986
 20
238.6851278443
 30
0.0
 10
88.9981610604
 20
238.7224173443
 30
0.0
 10
88.9967790581
 20
238.7440422166
 30
0.0
  0
SPLINE
  5
34B
100
AcDbEntity
  8
0
100
AcDbSpline
 62
9
  6
CONTINUOUS
 70
0
 71
3
 72
9
 73
5
 74
0
 42
0.0000001
 43
0.0000001
 44
0.0000000001
 40
0.0
 40
0.0
 40
0.0
 40
0.0
 40
0.518599273
 40
1.0
 40
1.0
 40
1.0
 40
1.0
 10
87.0614785557
 20
257.3293912877
 30
0.0
 10
87.0247533194
 20
257.2837363097
 30
0.0
 10
86.9694560557
 20
257.1817760973
 30
0.0
 10
86.9539625926
 20
257.0673987818
 30
0.0
 10
86.9555977385
 20
257.0130333324
 30
0.0
  0
SPLINE
  5
34C
100
AcDbEntity
  8
0
100
AcDbSpline
 62
7
  6
CONTINUOUS
 70
0
 71
3
 72
21
 73
17
 74
0
 42
0.0000001
 43
0.0000001
 44
0.0000000001
 40
0.0
 40
0.0
 40
0.0
 40
0.0
 40
0.001835704
 40
0.0056786488
 40
0.0117616078
 40
0.0201154838
 40
0.0436153043
 40
0.0760706775
 40
0.117222384
 40
0.1667171193
 40
0.2241617485
 40
0.2890531165
 40
0.4389741211
 40
0.6113782596
 40
0.8005767105
 40
1.0
 40
1.0
 40
1.0
 40
1.0
 10
91.9550025697
 20
242.6705914404
 30
0.0
 10
91.9549274479
 20
242.6714744106
 30
0.0
 10
91.9521181002
 20
242.67322132
 30
0.0
 10
91.9470029053
 20
242.6746793737
 30
0.0
 10
91.9381716139
 20
242.6765121437
 30
0.0
 10
91.9201389086
 20
242.6790490744
 30
0.0
 10
91.8891430563
 20
242.6819785662
 30
0.0
 10
91.842405142
 20
242.6850823084
 30
0.0
 10
91.7830356174
 20
242.6880266294
 30
0.0
 10
91.7116029082
 20
242.6907509617
 30
0.0
 10
91.6286882604
 20
242.6932182213
 30
0.0
 10
91.4972957788
 20
242.6962811145
 30
0.0
 10
91.3103912056
 20
242.6991388944
 30
0.0
 10
91.0634676528
 20
242.7011798539
 30
0.0
 10
90.7926394581
 20
242.7017910768
 30
0.0
 10
90.6050380017
 20
242.7012371081
 30
0.0
 10
90.5087702442
 20
242.7007966349
 30
0.0
  0
SPLINE
  5
34D
100
AcDbEntity
  8
0
100
AcDbSpline
 62
7
  6
CONTINUOUS
 70
0
 71
3
 72
9
 73
5
 74
0
 42
0.0000001
 43
0.0000001
 44
0.0000000001
 40
0.0
 40
0.0
 40
0.0
 40
0.0
 40
0.2498094569
 40
1.0
 40
1.0
 40
1.0
 40
1.0
 10
88.5036924623
 20
236.6217375265
 30
0.0
 10
88.5047413291
 20
236.2573656525
 30
0.0
 10
88.5090361295
 20
234.7987667312
 30
0.0
 10
88.5137312841
 20
233.3401689853
 30
0.0
 10
88.517490178
 20
232.2459435822
 30
0.0
  0
LINE
  5
34E
100
AcDbEntity
  8
0
100
AcDbLine
 62
7
  6
CONTINUOUS
 10
88.517490178
 20
232.2459435822
 11
88.5223168627
 21
230.8767460568
  0
SPLINE
  5
34F
100
AcDbEntity
  8
0
100
AcDbSpline
 62
7
  6
CONTINUOUS
 70
0
 71
3
 72
10
 73
6
 74
0
 42
0.0000001
 43
0.0000001
 44
0.0000000001
 40
0.0
 40
0.0
 40
0.0
 40
0.0
 40
0.2691756857
 40
0.5293738893
 40
1.0
 40
1.0
 40
1.0
 40
1.0
 10
90.4568293139
 20
214.7759132067
 30
0.0
 10
90.4040562067
 20
214.7757223953
 30
0.0
 10
90.2999247213
 20
214.7779991023
 30
0.0
 10
90.1061439757
 20
214.7959427953
 30
0.0
 10
89.960104085
 20
214.8387461787
 30
0.0
 10
89.8887718059
 20
214.897271982
 30
0.0
  0
SPLINE
  5
350
100
AcDbEntity
  8
0
100
AcDbSpline
 62
9
  6
CONTINUOUS
 70
0
 71
3
 72
20
 73
16
 74
0
 42
0.0000001
 43
0.0000001
 44
0.0000000001
 40
0.0
 40
0.0
 40
0.0
 40
0.0
 40
0.0030269776
 40
0.0060294932
 40
0.0102059087
 40
0.0160749726
 40
0.0335144943
 40
0.0589311851
 40
0.0924677351
 40
0.1341785813
 40
0.1840884706
 40
0.2422091707
 40
0.3830976254
 40
0.5567053209
 40
1.0
 40
1.0
 40
1.0
 40
1.0
 10
88.1370230435
 20
258.2947433153
 30
0.0
 10
88.1379618901
 20
258.2947467084
 30
0.0
 10
88.1399788746
 20
258.2943123537
 30
0.0
 10
88.1416950843
 20
258.2913581496
 30
0.0
 10
88.1418460379
 20
258.2872606028
 30
0.0
 10
88.1405305202
 20
258.2788167243
 30
0.0
 10
88.1354428183
 20
258.2644920831
 30
0.0
 10
88.1257987365
 20
258.2428684353
 30
0.0
 10
88.1115790565
 20
258.2150476085
 30
0.0
 10
88.0928437347
 20
258.181050373
 30
0.0
 10
88.069512118
 20
258.140886581
 30
0.0
 10
88.0296303777
 20
258.0747779129
 30
0.0
 10
87.9679534732
 20
257.977027473
 30
0.0
 10
87.8394141294
 20
257.7802484258
 30
0.0
 10
87.7325323786
 20
257.6215350185
 30
0.0
 10
87.6555472116
 20
257.5076156324
 30
0.0
  0
SPLINE
  5
351
100
AcDbEntity
  8
0
100
AcDbSpline
 62
7
  6
CONTINUOUS
 70
0
 71
3
 72
28
 73
24
 74
0
 42
0.0000001
 43
0.0000001
 44
0.0000000001
 40
0.0
 40
0.0
 40
0.0
 40
0.0
 40
0.1380347499
 40
0.2756834934
 40
0.4126881269
 40
0.5485986004
 40
0.6158987103
 40
0.6825354725
 40
0.7482150783
 40
0.8124351413
 40
0.843729169
 40
0.8742406652
 40
0.9036703956
 40
0.931539291
 40
0.9570372402
 40
0.9684856968
 40
0.9787396239
 40
0.9874387569
 40
0.9941604046
 40
0.9966445966
 40
0.9984732023
 40
0.9996028183
 40
1.0
 40
1.0
 40
1.0
 40
1.0
 10
88.5036924623
 20
236.6217375265
 30
0.0
 10
88.5035038216
 20
236.6872705012
 30
0.0
 10
88.5031468581
 20
236.8181532493
 30
0.0
 10
88.5026827101
 20
237.014080126
 30
0.0
 10
88.5023063996
 20
237.2089986717
 30
0.0
 10
88.5020845448
 20
237.3705187843
 30
0.0
 10
88.5019825896
 20
237.4986312159
 30
0.0
 10
88.5019518605
 20
237.5934009428
 30
0.0
 10
88.501977183
 20
237.6867083986
 30
0.0
 10
88.5020581689
 20
237.7632365204
 30
0.0
 10
88.5021734735
 20
237.8230682293
 30
0.0
 10
88.502288681
 20
237.8663827601
 30
0.0
 10
88.5024390914
 20
237.9080714414
 30
0.0
 10
88.5026341154
 20
237.9473783909
 30
0.0
 10
88.5028447709
 20
237.9781521464
 30
0.0
 10
88.5030626424
 20
238.0005549135
 30
0.0
 10
88.5032307709
 20
238.0149997062
 30
0.0
 10
88.5034468534
 20
238.0271512905
 30
0.0
 10
88.5035923795
 20
238.035732258
 30
0.0
 10
88.5038367438
 20
238.0408497465
 30
0.0
 10
88.5038471455
 20
238.0436370855
 30
0.0
 10
88.5041707504
 20
238.0448478936
 30
0.0
 10
88.5040486805
 20
238.0459738665
 30
0.0
 10
88.5042372458
 20
238.045974209
 30
0.0
  0
SPLINE
  5
352
100
AcDbEntity
  8
0
100
AcDbSpline
 62
7
  6
CONTINUOUS
 70
0
 71
3
 72
11
 73
7
 74
0
 42
0.0000001
 43
0.0000001
 44
0.0000000001
 40
0.0
 40
0.0
 40
0.0
 40
0.0
 40
0.2736836394
 40
0.5256212911
 40
0.7655805604
 40
1.0
 40
1.0
 40
1.0
 40
1.0
 10
89.2897939834
 20
222.1886649655
 30
0.0
 10
89.3452483523
 20
222.2149055851
 30
0.0
 10
89.4428802323
 20
222.2866513783
 30
0.0
 10
89.5405530858
 20
222.430428259
 30
0.0
 10
89.5967175353
 20
222.5847602998
 30
0.0
 10
89.6091650767
 20
222.6914452507
 30
0.0
 10
89.6094946032
 20
222.743992144
 30
0.0
  0
SPLINE
  5
353
100
AcDbEntity
  8
0
100
AcDbSpline
 62
7
  6
CONTINUOUS
 70
0
 71
3
 72
11
 73
7
 74
0
 42
0.0000001
 43
0.0000001
 44
0.0000000001
 40
0.0
 40
0.0
 40
0.0
 40
0.0
 40
0.2344218656
 40
0.4743826914
 40
0.7263200312
 40
1.0
 40
1.0
 40
1.0
 40
1.0
 10
89.6178402786
 20
220.4356522659
 30
0.0
 10
89.6171307972
 20
220.4881972548
 30
0.0
 10
89.6039122159
 20
220.5947929463
 30
0.0
 10
89.5466334298
 20
220.7487200532
 30
0.0
 10
89.4479239498
 20
220.8917917146
 30
0.0
 10
89.3497754443
 20
220.9628328189
 30
0.0
 10
89.2941324887
 20
220.9886728086
 30
0.0
  0
SPLINE
  5
354
100
AcDbEntity
  8
0
100
AcDbSpline
 62
7
  6
CONTINUOUS
 70
0
 71
3
 72
9
 73
5
 74
0
 42
0.0000001
 43
0.0000001
 44
0.0000000001
 40
0.0
 40
0.0
 40
0.0
 40
0.0
 40
0.1698266317
 40
1.0
 40
1.0
 40
1.0
 40
1.0
 10
88.5568967874
 20
214.7668365902
 30
0.0
 10
88.5571522916
 20
214.7739446474
 30
0.0
 10
88.55825101
 20
214.8158132779
 30
0.0
 10
88.5586432206
 20
214.8576956629
 30
0.0
 10
88.5589274203
 20
214.8924636703
 30
0.0
  0
SPLINE
  5
355
100
AcDbEntity
  8
0
100
AcDbSpline
 62
7
  6
CONTINUOUS
 70
0
 71
3
 72
11
 73
7
 74
0
 42
0.0000001
 43
0.0000001
 44
0.0000000001
 40
0.0
 40
0.0
 40
0.0
 40
0.0
 40
0.2875119273
 40
0.5429519798
 40
0.7767032751
 40
1.0
 40
1.0
 40
1.0
 40
1.0
 10
89.2544580741
 20
216.8734432932
 30
0.0
 10
89.3149823155
 20
216.8898450989
 30
0.0
 10
89.4245214033
 20
216.9429708209
 30
0.0
 10
89.5441585226
 20
217.067016194
 30
0.0
 10
89.6130142388
 20
217.2089128152
 30
0.0
 10
89.6285701545
 20
217.3090527267
 30
0.0
 10
89.6289682608
 20
217.3577528369
 30
0.0
  0
SPLINE
  5
356
100
AcDbEntity
  8
0
100
AcDbSpline
 62
9
  6
CONTINUOUS
 70
0
 71
3
 72
16
 73
12
 74
0
 42
0.0000001
 43
0.0000001
 44
0.0000000001
 40
0.0
 40
0.0
 40
0.0
 40
0.0
 40
0.0295462872
 40
0.0550365447
 40
0.0885531106
 40
0.130131251
 40
0.1795790084
 40
0.3007874461
 40
0.4486755115
 40
0.6184343934
 40
1.0
 40
1.0
 40
1.0
 40
1.0
 10
87.1504048518
 20
256.9903066842
 30
0.0
 10
87.1504023042
 20
256.9753815475
 30
0.0
 10
87.1768369781
 20
256.95373928
 30
0.0
 10
87.2154406331
 20
256.9354702705
 30
0.0
 10
87.2640566452
 20
256.9181462787
 30
0.0
 10
87.32455905
 20
256.9017517292
 30
0.0
 10
87.4294262773
 20
256.8787563792
 30
0.0
 10
87.5884113058
 20
256.8536677982
 30
0.0
 10
87.8087678455
 20
256.8288081984
 30
0.0
 10
88.1609771383
 20
256.8017246593
 30
0.0
 10
88.4395214104
 20
256.7929563687
 30
0.0
 10
88.6322595873
 20
256.791256863
 30
0.0
  0
SPLINE
  5
357
100
AcDbEntity
  8
0
100
AcDbSpline
 62
9
  6
CONTINUOUS
 70
0
 71
3
 72
14
 73
10
 74
0
 42
0.0000001
 43
0.0000001
 44
0.0000000001
 40
0.0
 40
0.0
 40
0.0
 40
0.0
 40
0.0992024609
 40
0.1380374261
 40
0.1835705505
 40
0.2955431189
 40
0.4361197048
 40
0.6041055604
 40
1.0
 40
1.0
 40
1.0
 40
1.0
 10
87.5247822595
 20
239.0554859366
 30
0.0
 10
87.5289461723
 20
239.0044202516
 30
0.0
 10
87.5982304565
 20
238.950248528
 30
0.0
 10
87.6813314059
 20
238.9101485163
 30
0.0
 10
87.7765413787
 20
238.8728994915
 30
0.0
 10
87.9250668696
 20
238.8326976624
 30
0.0
 10
88.1390719086
 20
238.7937677329
 30
0.0
 10
88.5005506379
 20
238.7513152159
 30
0.0
 10
88.7923123652
 20
238.7431614924
 30
0.0
 10
88.9967784413
 20
238.7440225872
 30
0.0
  0
SPLINE
  5
358
100
AcDbEntity
  8
0
100
AcDbSpline
 62
7
  6
CONTINUOUS
 70
0
 71
3
 72
34
 73
30
 74
0
 42
0.0000001
 43
0.0000001
 44
0.0000000001
 40
0.0
 40
0.0
 40
0.0
 40
0.0
 40
0.1325763928
 40
0.2651287447
 40
0.3975894212
 40
0.4637401476
 40
0.5297932767
 40
0.5956923217
 40
0.6613477948
 40
0.7266113667
 40
0.7590212828
 40
0.7912199889
 40
0.8231343936
 40
0.854654836
 40
0.8856078068
 40
0.9156989204
 40
0.9302657765
 40
0.9443778361
 40
0.9578685803
 40
0.9704820077
 40
0.9818086616
 40
0.9867962248
 40
0.991190185
 40
0.9948504354
 40
0.9976228778
 40
0.998635295
 40
0.9993783091
 40
0.9998370712
 40
1.0
 40
1.0
 40
1.0
 40
1.0
 10
88.4615611516
 20
233.5613145724
 30
0.0
 10
88.460844612
 20
233.7595022892
 30
0.0
 10
88.4594305573
 20
234.1558418531
 30
0.0
 10
88.4574090295
 20
234.7501965312
 30
0.0
 10
88.4558522888
 20
235.2452521948
 30
0.0
 10
88.4547211422
 20
235.6408987122
 30
0.0
 10
88.4539433181
 20
235.9370425603
 30
0.0
 10
88.4532512454
 20
236.2324462647
 30
0.0
 10
88.4526655338
 20
236.5266698862
 30
0.0
 10
88.4522884022
 20
236.7708307641
 30
0.0
 10
88.4520750139
 20
236.9649771437
 30
0.0
 10
88.4519670882
 20
237.1092697891
 30
0.0
 10
88.4519203334
 20
237.2522327912
 30
0.0
 10
88.451947422
 20
237.3933335444
 30
0.0
 10
88.4520661437
 20
237.5317086158
 30
0.0
 10
88.4522637642
 20
237.6447395631
 30
0.0
 10
88.4525052704
 20
237.7325948479
 30
0.0
 10
88.4527320781
 20
237.7956339296
 30
0.0
 10
88.4530150949
 20
237.8557531257
 30
0.0
 10
88.4533673896
 20
237.9117061058
 30
0.0
 10
88.4537370525
 20
237.9549525641
 30
0.0
 10
88.4541067312
 20
237.9859003299
 30
0.0
 10
88.4543887512
 20
238.0054109288
 30
0.0
 10
88.4547286953
 20
238.0215458959
 30
0.0
 10
88.4549823718
 20
238.0327759633
 30
0.0
 10
88.4553331042
 20
238.0393918046
 30
0.0
 10
88.4554017118
 20
238.0429513355
 30
0.0
 10
88.4558013432
 20
238.044517256
 30
0.0
 10
88.4557144816
 20
238.0459409427
 30
0.0
 10
88.4559580441
 20
238.0459413856
 30
0.0
  0
SPLINE
  5
359
100
AcDbEntity
  8
0
100
AcDbSpline
 62
9
  6
CONTINUOUS
 70
0
 71
3
 72
13
 73
9
 74
0
 42
0.0000001
 43
0.0000001
 44
0.0000000001
 40
0.0
 40
0.0
 40
0.0
 40
0.0
 40
0.1025697984
 40
0.2123238468
 40
0.3306295963
 40
0.4575338565
 40
0.7283521052
 40
1.0
 40
1.0
 40
1.0
 40
1.0
 10
91.935261375
 20
242.4243666059
 30
0.0
 10
91.9259489836
 20
242.361197572
 30
0.0
 10
91.8905360017
 20
242.2322489074
 30
0.0
 10
91.7881255324
 20
242.0515093762
 30
0.0
 10
91.6371750405
 20
241.8876948892
 30
0.0
 10
91.3743784215
 20
241.6997023523
 30
0.0
 10
90.9761885489
 20
241.5534554392
 30
0.0
 10
90.6364813931
 20
241.5234724372
 30
0.0
 10
90.4674223143
 20
241.5274675039
 30
0.0
  0
SPLINE
  5
35A
100
AcDbEntity
  8
0
100
AcDbSpline
 62
9
  6
CONTINUOUS
 70
0
 71
3
 72
11
 73
7
 74
0
 42
0.0000001
 43
0.0000001
 44
0.0000000001
 40
0.0
 40
0.0
 40
0.0
 40
0.0
 40
0.4302803362
 40
0.7413828207
 40
0.9250633035
 40
1.0
 40
1.0
 40
1.0
 40
1.0
 10
90.0984962455
 20
238.7480296908
 30
0.0
 10
90.0967605255
 20
238.7263740545
 30
0.0
 10
90.0934130701
 20
238.689622067
 30
0.0
 10
90.0860896927
 20
238.6417727579
 30
0.0
 10
90.0804529569
 20
238.6165130693
 30
0.0
 10
90.0731808921
 20
238.6014748579
 30
0.0
 10
90.0693973239
 20
238.6014608894
 30
0.0
  0
SPLINE
  5
35B
100
AcDbEntity
  8
0
100
AcDbSpline
 62
9
  6
CONTINUOUS
 70
0
 71
3
 72
14
 73
10
 74
0
 42
0.0000001
 43
0.0000001
 44
0.0000000001
 40
0.0
 40
0.0
 40
0.0
 40
0.0
 40
0.3959605115
 40
0.5634984438
 40
0.7037881105
 40
0.8156481562
 40
0.8611759943
 40
0.9000656077
 40
1.0
 40
1.0
 40
1.0
 40
1.0
 10
90.0984973885
 20
238.7480060473
 30
0.0
 10
90.2967952701
 20
238.7489484045
 30
0.0
 10
90.5794279542
 20
238.7582808784
 30
0.0
 10
90.9294336682
 20
238.8009887912
 30
0.0
 10
91.1363132118
 20
238.8398345608
 30
0.0
 10
91.2799098197
 20
238.879646684
 30
0.0
 10
91.3720021205
 20
238.9161786663
 30
0.0
 10
91.4528056252
 20
238.9557269318
 30
0.0
 10
91.5197731043
 20
239.0082982332
 30
0.0
 10
91.5245951004
 20
239.058113323
 30
0.0
  0
SPLINE
  5
35C
100
AcDbEntity
  8
0
100
AcDbSpline
 62
9
  6
CONTINUOUS
 70
0
 71
3
 72
13
 73
9
 74
0
 42
0.0000001
 43
0.0000001
 44
0.0000000001
 40
0.0
 40
0.0
 40
0.0
 40
0.0
 40
0.2720357876
 40
0.5439442489
 40
0.67108667
 40
0.7892305941
 40
0.8983627154
 40
1.0
 40
1.0
 40
1.0
 40
1.0
 10
88.6728276977
 20
241.5209787686
 30
0.0
 10
88.4986348125
 20
241.5156145829
 30
0.0
 10
88.1478198494
 20
241.5450275569
 30
0.0
 10
87.7367457652
 20
241.6959694981
 30
0.0
 10
87.4664232579
 20
241.8909858272
 30
0.0
 10
87.3124664337
 20
242.060438159
 30
0.0
 10
87.2095990744
 20
242.2466507073
 30
0.0
 10
87.1752840388
 20
242.3789078694
 30
0.0
 10
87.1667556108
 20
242.4434592572
 30
0.0
  0
SPLINE
  5
35D
100
AcDbEntity
  8
0
100
AcDbSpline
 62
7
  6
CONTINUOUS
 70
0
 71
3
 72
21
 73
17
 74
0
 42
0.0000001
 43
0.0000001
 44
0.0000000001
 40
0.0
 40
0.0
 40
0.0
 40
0.0
 40
0.1982684206
 40
0.3869858141
 40
0.5594103681
 40
0.709654765
 40
0.7747690876
 40
0.8324471001
 40
0.8821709758
 40
0.9235330901
 40
0.9561579857
 40
0.9797916913
 40
0.9881936519
 40
0.994308102
 40
0.9981665927
 40
1.0
 40
1.0
 40
1.0
 40
1.0
 10
88.6339294927
 20
242.6940177827
 30
0.0
 10
88.535732144
 20
242.6937568034
 30
0.0
 10
88.3440682537
 20
242.6929307993
 30
0.0
 10
88.0670165108
 20
242.6902748811
 30
0.0
 10
87.8137683574
 20
242.6863280718
 30
0.0
 10
87.6217542339
 20
242.6819878692
 30
0.0
 10
87.4865887705
 20
242.6778553829
 30
0.0
 10
87.4012012724
 20
242.6746981679
 30
0.0
 10
87.3276019293
 20
242.6713650147
 30
0.0
 10
87.2664110332
 20
242.6679009137
 30
0.0
 10
87.2182295003
 20
242.664370003
 30
0.0
 10
87.1862726824
 20
242.6611388834
 30
0.0
 10
87.1676873558
 20
242.6584081447
 30
0.0
 10
87.1585842027
 20
242.6564681252
 30
0.0
 10
87.1533352896
 20
242.6549389858
 30
0.0
 10
87.1504375456
 20
242.6531410466
 30
0.0
 10
87.1503676679
 20
242.6522356957
 30
0.0
  0
SPLINE
  5
35E
100
AcDbEntity
  8
0
100
AcDbSpline
 62
9
  6
CONTINUOUS
 70
0
 71
3
 72
9
 73
5
 74
0
 42
0.0000001
 43
0.0000001
 44
0.0000000001
 40
0.0
 40
0.0
 40
0.0
 40
0.0
 40
0.48309144
 40
1.0
 40
1.0
 40
1.0
 40
1.0
 10
87.6555470884
 20
257.5076169567
 30
0.0
 10
87.5787440548
 20
257.5091417219
 30
0.0
 10
87.416710909
 20
257.4747406616
 30
0.0
 10
87.2898852648
 20
257.3653833275
 30
0.0
 10
87.2435842342
 20
257.2974692374
 30
0.0
  0
SPLINE
  5
35F
100
AcDbEntity
  8
0
100
AcDbSpline
 62
9
  6
CONTINUOUS
 70
0
 71
3
 72
12
 73
8
 74
0
 42
0.0000001
 43
0.0000001
 44
0.0000000001
 40
0.0
 40
0.0
 40
0.0
 40
0.0
 40
0.0480204667
 40
0.1236814179
 40
0.3561281482
 40
0.667060034
 40
1.0
 40
1.0
 40
1.0
 40
1.0
 10
88.668016882
 20
257.2679568376
 30
0.0
 10
88.6653781205
 20
257.2607731669
 30
0.0
 10
88.6609714855
 20
257.2414662275
 30
0.0
 10
88.6521285827
 20
257.1854376129
 30
0.0
 10
88.6435682558
 20
257.0870259887
 30
0.0
 10
88.6360383513
 20
256.9475974745
 30
0.0
 10
88.6332997981
 20
256.8449965195
 30
0.0
 10
88.632464474
 20
256.7919427041
 30
0.0
  0
SPLINE
  5
360
100
AcDbEntity
  8
0
100
AcDbSpline
 62
9
  6
CONTINUOUS
 70
0
 71
3
 72
16
 73
12
 74
0
 42
0.0000001
 43
0.0000001
 44
0.0000000001
 40
0.0
 40
0.0
 40
0.0
 40
0.0
 40
0.3829672177
 40
0.5526326447
 40
0.7001569302
 40
0.8209215844
 40
0.8701499264
 40
0.9115350408
 40
0.9449042333
 40
0.970319666
 40
1.0
 40
1.0
 40
1.0
 40
1.0
 10
90.4000043679
 20
256.7976484888
 30
0.0
 10
90.5885822183
 20
256.8006665167
 30
0.0
 10
90.8607132383
 20
256.8112193302
 30
0.0
 10
91.2043669671
 20
256.8399607903
 30
0.0
 10
91.4185836927
 20
256.8656599761
 30
0.0
 10
91.5728645535
 20
256.8914066845
 30
0.0
 10
91.6744928603
 20
256.9145897392
 30
0.0
 10
91.7330845198
 20
256.9310064011
 30
0.0
 10
91.7800867736
 20
256.9483121461
 30
0.0
 10
91.8175293013
 20
256.9665930447
 30
0.0
 10
91.8428168342
 20
256.9881644465
 30
0.0
 10
91.8426902771
 20
257.0027807381
 30
0.0
  0
SPLINE
  5
361
100
AcDbEntity
  8
0
100
AcDbSpline
 62
9
  6
CONTINUOUS
 70
0
 71
3
 72
12
 73
8
 74
0
 42
0.0000001
 43
0.0000001
 44
0.0000000001
 40
0.0
 40
0.0
 40
0.0
 40
0.0
 40
0.0466247537
 40
0.1193192041
 40
0.3455388472
 40
0.6570781523
 40
1.0
 40
1.0
 40
1.0
 40
1.0
 10
90.3513747613
 20
257.2740434287
 30
0.0
 10
90.3546607107
 20
257.2673419434
 30
0.0
 10
90.3604228882
 20
257.2489923187
 30
0.0
 10
90.3720659102
 20
257.1949513839
 30
0.0
 10
90.3838305182
 20
257.0977377112
 30
0.0
 10
90.3944330342
 20
256.9571917001
 30
0.0
 10
90.3984629288
 20
256.8524601988
 30
0.0
 10
90.3997498368
 20
256.7975800152
 30
0.0
  0
SPLINE
  5
362
100
AcDbEntity
  8
0
100
AcDbSpline
 62
9
  6
CONTINUOUS
 70
0
 71
3
 72
9
 73
5
 74
0
 42
0.0000001
 43
0.0000001
 44
0.0000000001
 40
0.0
 40
0.0
 40
0.0
 40
0.0
 40
0.4822569779
 40
1.0
 40
1.0
 40
1.0
 40
1.0
 10
91.3323063942
 20
257.5209085695
 30
0.0
 10
91.4021400017
 20
257.5228063087
 30
0.0
 10
91.5494928211
 20
257.4955929902
 30
0.0
 10
91.6708207545
 20
257.4051004237
 30
0.0
 10
91.7184583631
 20
257.3471725477
 30
0.0
  0
SPLINE
  5
363
100
AcDbEntity
  8
0
100
AcDbSpline
 62
7
  6
CONTINUOUS
 70
0
 71
3
 72
9
 73
5
 74
0
 42
0.0000001
 43
0.0000001
 44
0.0000000001
 40
0.0
 40
0.0
 40
0.0
 40
0.0
 40
0.4786713772
 40
1.0
 40
1.0
 40
1.0
 40
1.0
 10
89.564488627
 20
215.5819279782
 30
0.0
 10
89.5649356119
 20
215.4580646598
 30
0.0
 10
89.6202608353
 20
215.1966170563
 30
0.0
 10
89.7844800319
 20
214.9828399735
 30
0.0
 10
89.8887718059
 20
214.897271982
 30
0.0
  0
SPLINE
  5
364
100
AcDbEntity
  8
0
100
AcDbSpline
 62
9
  6
CONTINUOUS
 70
0
 71
3
 72
17
 73
13
 74
0
 42
0.0000001
 43
0.0000001
 44
0.0000000001
 40
0.0
 40
0.0
 40
0.0
 40
0.0
 40
0.2251859941
 40
0.4224118605
 40
0.5911450407
 40
0.7308961444
 40
0.841502178
 40
0.9229785899
 40
0.9528306013
 40
0.9754809848
 40
0.9910576054
 40
1.0
 40
1.0
 40
1.0
 40
1.0
 10
91.3323063955
 20
257.5209111723
 30
0.0
 10
91.2824161797
 20
257.5818606036
 30
0.0
 10
91.188437594
 20
257.6958706886
 30
0.0
 10
91.055662803
 20
257.8543812511
 30
0.0
 10
90.9408563668
 20
257.9889443988
 30
0.0
 10
90.8445601775
 20
258.0994866697
 30
0.0
 10
90.7669256438
 20
258.1857363858
 30
0.0
 10
90.7134642908
 20
258.2421314878
 30
0.0
 10
90.6796763661
 20
258.2745167554
 30
0.0
 10
90.6616044768
 20
258.2902436946
 30
0.0
 10
90.6483993903
 20
258.2997305339
 30
0.0
 10
90.6403076061
 20
258.3037887657
 30
0.0
 10
90.6371797774
 20
258.3037830456
 30
0.0
  0
SPLINE
  5
365
100
AcDbEntity
  8
0
100
AcDbSpline
 62
9
  6
CONTINUOUS
 70
0
 71
3
 72
17
 73
13
 74
0
 42
0.0000001
 43
0.0000001
 44
0.0000000001
 40
0.0
 40
0.0
 40
0.0
 40
0.0
 40
0.2059927142
 40
0.3990052836
 40
0.5712950589
 40
0.7167678084
 40
0.8304965153
 40
0.9102805173
 40
0.9382243389
 40
0.9599420928
 40
0.9789061712
 40
1.0
 40
1.0
 40
1.0
 40
1.0
 10
90.3513744548
 20
257.2740433218
 30
0.0
 10
90.425329346
 20
257.275618814
 30
0.0
 10
90.5685291038
 20
257.2818426347
 30
0.0
 10
90.7729651698
 20
257.2999929413
 30
0.0
 10
90.9546415127
 20
257.325572323
 30
0.0
 10
91.1066731444
 20
257.3568561836
 30
0.0
 10
91.2230496607
 20
257.3923112274
 30
0.0
 10
91.2960890628
 20
257.4263656347
 30
0.0
 10
91.3313713905
 20
257.4571166253
 30
0.0
 10
91.3445164721
 20
257.4788784332
 30
0.0
 10
91.3448202085
 20
257.5021887247
 30
0.0
 10
91.3371012224
 20
257.5150471589
 30
0.0
 10
91.3323063955
 20
257.5209111723
 30
0.0
  0
SPLINE
  5
366
100
AcDbEntity
  8
0
100
AcDbSpline
 62
9
  6
CONTINUOUS
 70
0
 71
3
 72
17
 73
13
 74
0
 42
0.0000001
 43
0.0000001
 44
0.0000000001
 40
0.0
 40
0.0
 40
0.0
 40
0.0
 40
0.0196814012
 40
0.0384714176
 40
0.061032908
 40
0.0902255219
 40
0.1724908092
 40
0.28789306
 40
0.4339663858
 40
0.605705754
 40
0.7969690337
 40
1.0
 40
1.0
 40
1.0
 40
1.0
 10
87.6555472116
 20
257.5076156324
 30
0.0
 10
87.6515170863
 20
257.5016445128
 30
0.0
 10
87.6455263381
 20
257.4880950817
 30
0.0
 10
87.6494542255
 20
257.4649974731
 30
0.0
 10
87.6653246413
 20
257.4438809101
 30
0.0
 10
87.7042606453
 20
257.413620186
 30
0.0
 10
87.7812408895
 20
257.3801497022
 30
0.0
 10
87.9021364551
 20
257.3454243103
 30
0.0
 10
88.0580343869
 20
257.3151798308
 30
0.0
 10
88.2428338122
 20
257.2908825294
 30
0.0
 10
88.4494286783
 20
257.2742042468
 30
0.0
 10
88.5937094966
 20
257.2689996628
 30
0.0
 10
88.668016748
 20
257.2679568196
 30
0.0
  0
SPLINE
  5
367
100
AcDbEntity
  8
0
100
AcDbSpline
 62
7
  6
CONTINUOUS
 70
0
 71
3
 72
9
 73
5
 74
0
 42
0.0000001
 43
0.0000001
 44
0.0000000001
 40
0.0
 40
0.0
 40
0.0
 40
0.0
 40
0.6738827471
 40
1.0
 40
1.0
 40
1.0
 40
1.0
 10
86.9501935613
 20
242.6465373253
 30
0.0
 10
86.9460536492
 20
242.6472332423
 30
0.0
 10
86.9402928227
 20
242.6485680845
 30
0.0
 10
86.9336442317
 20
242.6502924326
 30
0.0
 10
86.932427146
 20
242.6519190775
 30
0.0
  0
SPLINE
  5
368
100
AcDbEntity
  8
0
100
AcDbSpline
 62
9
  6
CONTINUOUS
 70
0
 71
3
 72
11
 73
7
 74
0
 42
0.0000001
 43
0.0000001
 44
0.0000000001
 40
0.0
 40
0.0
 40
0.0
 40
0.0
 40
0.2370548725
 40
0.4937994214
 40
0.7539356831
 40
1.0
 40
1.0
 40
1.0
 40
1.0
 10
87.8984760192
 20
238.5938852551
 30
0.0
 10
87.8413661365
 20
238.5936788553
 30
0.0
 10
87.7213391486
 20
238.6141811529
 30
0.0
 10
87.5612275509
 20
238.7086208187
 30
0.0
 10
87.4456434003
 20
238.8570625862
 30
0.0
 10
87.4094179874
 20
238.9766651251
 30
0.0
 10
87.4025098279
 20
239.0355420083
 30
0.0
  0
SPLINE
  5
369
100
AcDbEntity
  8
0
100
AcDbSpline
 62
9
  6
CONTINUOUS
 70
0
 71
3
 72
11
 73
7
 74
0
 42
0.0000001
 43
0.0000001
 44
0.0000000001
 40
0.0
 40
0.0
 40
0.0
 40
0.0
 40
0.249999785
 40
0.4374999562
 40
0.6250000856
 40
1.0
 40
1.0
 40
1.0
 40
1.0
 10
88.6322595873
 20
256.791256863
 30
0.0
 10
88.6318785951
 20
255.6164879645
 30
0.0
 10
88.6336714489
 20
253.5606408978
 30
0.0
 10
88.6338155059
 20
250.6237154426
 30
0.0
 10
88.6312759087
 20
247.0994049071
 30
0.0
 10
88.6344749876
 20
244.4561722518
 30
0.0
 10
88.6339294927
 20
242.6940177827
 30
0.0
  0
SPLINE
  5
36A
100
AcDbEntity
  8
0
100
AcDbSpline
 62
9
  6
CONTINUOUS
 70
0
 71
3
 72
11
 73
7
 74
0
 42
0.0000001
 43
0.0000001
 44
0.0000000001
 40
0.0
 40
0.0
 40
0.0
 40
0.0
 40
0.2499997575
 40
0.4374999365
 40
0.6250001213
 40
1.0
 40
1.0
 40
1.0
 40
1.0
 10
90.5087702442
 20
242.7007966349
 30
0.0
 10
90.4991993937
 20
243.8755291671
 30
0.0
 10
90.484876387
 20
245.9313317185
 30
0.0
 10
90.4619973022
 20
248.8681749519
 30
0.0
 10
90.4318537013
 20
252.3923656836
 30
0.0
 10
90.414386675
 20
255.0355487633
 30
0.0
 10
90.4000043679
 20
256.7976484888
 30
0.0
  0
SPLINE
  5
36B
100
AcDbEntity
  8
0
100
AcDbSpline
 62
9
  6
CONTINUOUS
 70
0
 71
3
 72
9
 73
5
 74
0
 42
0.0000001
 43
0.0000001
 44
0.0000000001
 40
0.0
 40
0.0
 40
0.0
 40
0.0
 40
0.54091991
 40
1.0
 40
1.0
 40
1.0
 40
1.0
 10
88.6338628228
 20
242.6522045764
 30
0.0
 10
88.6346023426
 20
242.4480864812
 30
0.0
 10
88.6412858321
 20
242.0707518597
 30
0.0
 10
88.659362194
 20
241.6936897781
 30
0.0
 10
88.6728278987
 20
241.5209772379
 30
0.0
  0
LINE
  5
36C
100
AcDbEntity
  8
0
100
AcDbLine
 62
9
  6
CONTINUOUS
 10
88.6337306833
 20
242.6940878586
 11
88.6338628228
 21
242.6522045764
  0
SPLINE
  5
36D
100
AcDbEntity
  8
0
100
AcDbSpline
 62
9
  6
CONTINUOUS
 70
0
 71
3
 72
9
 73
5
 74
0
 42
0.0000001
 43
0.0000001
 44
0.0000000001
 40
0.0
 40
0.0
 40
0.0
 40
0.0
 40
0.5407161915
 40
1.0
 40
1.0
 40
1.0
 40
1.0
 10
90.5092141188
 20
242.6589852748
 30
0.0
 10
90.5099506058
 20
242.4548511316
 30
0.0
 10
90.5043306798
 20
242.0772992124
 30
0.0
 10
90.4836798532
 20
241.7000961314
 30
0.0
 10
90.4674223127
 20
241.527467508
 30
0.0
  0
SPLINE
  5
36E
100
AcDbEntity
  8
0
100
AcDbSpline
 62
9
  6
CONTINUOUS
 70
0
 71
3
 72
8
 73
4
 74
0
 42
0.0000001
 43
0.0000001
 44
0.0000000001
 40
0.0
 40
0.0
 40
0.0
 40
0.0
 40
1.0
 40
1.0
 40
1.0
 40
1.0
 10
86.9555839827
 20
256.9855366528
 30
0.0
 10
86.954228394
 20
252.2080768088
 30
0.0
 10
86.9546193066
 20
247.4306165248
 30
0.0
 10
86.9529150786
 20
242.6531567925
 30
0.0
  0
SPLINE
  5
36F
100
AcDbEntity
  8
0
100
AcDbSpline
 62
9
  6
CONTINUOUS
 70
0
 71
3
 72
9
 73
5
 74
0
 42
0.0000001
 43
0.0000001
 44
0.0000000001
 40
0.0
 40
0.0
 40
0.0
 40
0.0
 40
0.2074647886
 40
1.0
 40
1.0
 40
1.0
 40
1.0
 10
87.4656868769
 20
257.6244942641
 30
0.0
 10
87.4485735104
 20
257.60522607
 30
0.0
 10
87.3667259141
 20
257.511782887
 30
0.0
 10
87.2867861489
 20
257.4166868051
 30
0.0
 10
87.2238685936
 20
257.3409694155
 30
0.0
  0
ELLIPSE
  5
370
100
AcDbEntity
  8
0
100
AcDbEllipse
 62
7
  6
CONTINUOUS
 10
90.0723301944
 20
195.2520169768
 30
0.0
 11
-0.001357928
 21
0.4999981608
 31
0.0
 40
0.9881407643
 41
-3.8388139874
 42
-3.1407061911
  0
ELLIPSE
  5
371
100
AcDbEntity
  8
0
100
AcDbEllipse
 62
7
  6
CONTINUOUS
 10
89.0876082621
 20
228.8062680329
 30
0.0
 11
0.0177394183
 21
0.5957005479
 31
0.0
 40
0.8387791051
 41
-1.4727528399
 42
-1.1064574736
  0
ELLIPSE
  5
372
100
AcDbEntity
  8
0
100
AcDbEllipse
 62
7
  6
CONTINUOUS
 10
89.0996476146
 20
225.4762897974
 30
0.0
 11
0.0177394183
 21
0.5957005479
 31
0.0
 40
0.8387791051
 41
-1.4727528394
 42
-1.1064574717
  0
ENDSEC
  0
SECTION
  2
OBJECTS
  0
DICTIONARY
  5
C
100
AcDbDictionary
280
0
281
1
  3
ACAD_GROUP
350
D
  3
ACAD_MLINESTYLE
350
17
  3
ACAD_LAYOUT
350
1A
  3
ACAD_PLOTSETTINGS
350
19
  3
ACAD_PLOTSTYLENAME
350
E
  0
DICTIONARY
  5
D
102
{ACAD_REACTORS
330
C
102
}
100
AcDbDictionary
280
0
281
1
  0
ACDBDICTIONARYWDFLT
  5
E
102
{ACAD_REACTORS
330
C
102
}
100
AcDbDictionary
281
1
  3
Normal
350
F
100
AcDbDictionaryWithDefault
340
F
  0
DICTIONARY
  5
17
102
{ACAD_REACTORS
330
C
102
}
100
AcDbDictionary
280
0
281
1
  3
Standard
350
18
  0
DICTIONARY
  5
19
102
{ACAD_REACTORS
330
C
102
}
100
AcDbDictionary
281
1
  0
DICTIONARY
  5
1A
102
{ACAD_REACTORS
330
C
102
}
100
AcDbDictionary
281
1
  3
Model
350
373
  3
Layout1
350
374
  0
ACDBPLACEHOLDER
  5
F
102
{ACAD_REACTORS
330
E
102
}
  0
MLINESTYLE
  5
18
102
{ACAD_REACTORS
330
17
102
}
100
AcDbMlineStyle
  2
STANDARD
 70
0
  3

 62
256
 51
90.0
 52
90.0
 71
2
 49
0.5
 62
256
  6
BYLAYER
 49
-0.5
 62
256
  6
BYLAYER
  0
LAYOUT
  5
373
102
{ACAD_REACTORS
330
1A
102
}
100
AcDbPlotSettings
  1

  2
none_device
  4
ANSI_C_(22.00_x_17.00_Inches)
  6

 40
0.0
 41
0.0
 42
0.0
 43
0.0
 44
558.8
 45
431.8
 46
0.0
 47
0.0
 48
0.0
 49
0.0
140
0.0
141
0.0
142
1.0
143
1.0
 70
1024
 72
1
 73
0
 74
0
  7

 75
0
147
1.0
148
0.0
149
0.0
100
AcDbLayout
  1
Model
 70
0
 71
0
 10
0.0
 20
0.0
 11
558.8
 21
431.8
 12
0.0
 22
0.0
 32
0.0
 14
0.0
 24
0.0
 34
0.0
 15
0.0
 25
0.0
 35
0.0
146
0.0
 13
0.0
 23
0.0
 33
0.0
 16
1.0
 26
0.0
 36
0.0
 17
0.0
 27
1.0
 37
0.0
 76
0
330
217
345
0
346
0
  0
LAYOUT
  5
374
102
{ACAD_REACTORS
330
1A
102
}
100
AcDbPlotSettings
  1

  2
none_device
  4
ANSI_C_(22.00_x_17.00_Inches)
  6

 40
0.0
 41
0.0
 42
0.0
 43
0.0
 44
558.8
 45
431.8
 46
0.0
 47
0.0
 48
0.0
 49
0.0
140
0.0
141
0.0
142
1.0
143
1.0
 70
0
 72
1
 73
0
 74
0
  7

 75
0
147
1.0
148
0.0
149
0.0
100
AcDbLayout
  1
Layout1
 70
0
 71
1
 10
0.0
 20
0.0
 11
558.8
 21
431.8
 12
0.0
 22
0.0
 32
0.0
 14
0.0
 24
0.0
 34
0.0
 15
0.0
 25
0.0
 35
0.0
146
0.0
 13
0.0
 23
0.0
 33
0.0
 16
1.0
 26
0.0
 36
0.0
 17
0.0
 27
1.0
 37
0.0
 76
0
330
218
345
0
346
0
  0
ENDSEC
  0
EOF
