  0
SECTION
  2
HEADER
  9
$ACADVER
  1
AC1032
  9
$ACADMAINTVER
 90
      228
  9
$DWGCODEPAGE
  3
ANSI_1252
  9
$REQUIREDVERSIONS
160
                 0
  9
$INSBASE
 10
0.0
 20
0.0
 30
0.0
  9
$EXTMIN
 10
1.000000000000000E+20
 20
1.000000000000000E+20
 30
1.000000000000000E+20
  9
$EXTMAX
 10
-1.000000000000000E+20
 20
-1.000000000000000E+20
 30
-1.000000000000000E+20
  9
$LIMMIN
 10
0.0
 20
0.0
  9
$LIMMAX
 10
12.0
 20
9.0
  9
$ORTHOMODE
 70
     0
  9
$REGENMODE
 70
     1
  9
$FILLMODE
 70
     1
  9
$QTEXTMODE
 70
     0
  9
$MIRRTEXT
 70
     0
  9
$LTSCALE
 40
1.0
  9
$ATTMODE
 70
     1
  9
$TEXTSIZE
 40
0.2
  9
$TRACEWID
 40
0.05
  9
$TEXTSTYLE
  7
Standard
  9
$CLAYER
  8
0
  9
$CELTYPE
  6
ByLayer
  9
$CECOLOR
 62
   256
  9
$CELTSCALE
 40
1.0
  9
$DISPSILH
 70
     0
  9
$DIMSCALE
 40
1.0
  9
$DIMASZ
 40
0.18
  9
$DIMEXO
 40
0.0625
  9
$DIMDLI
 40
0.38
  9
$DIMRND
 40
0.0
  9
$DIMDLE
 40
0.0
  9
$DIMEXE
 40
0.18
  9
$DIMTP
 40
0.0
  9
$DIMTM
 40
0.0
  9
$DIMTXT
 40
0.18
  9
$DIMCEN
 40
0.09
  9
$DIMTSZ
 40
0.0
  9
$DIMTOL
 70
     0
  9
$DIMLIM
 70
     0
  9
$DIMTIH
 70
     1
  9
$DIMTOH
 70
     1
  9
$DIMSE1
 70
     0
  9
$DIMSE2
 70
     0
  9
$DIMTAD
 70
     0
  9
$DIMZIN
 70
     0
  9
$DIMBLK
  1

  9
$DIMASO
 70
     1
  9
$DIMSHO
 70
     1
  9
$DIMPOST
  1

  9
$DIMAPOST
  1

  9
$DIMALT
 70
     0
  9
$DIMALTD
 70
     2
  9
$DIMALTF
 40
25.4
  9
$DIMLFAC
 40
1.0
  9
$DIMTOFL
 70
     0
  9
$DIMTVP
 40
0.0
  9
$DIMTIX
 70
     0
  9
$DIMSOXD
 70
     0
  9
$DIMSAH
 70
     0
  9
$DIMBLK1
  1

  9
$DIMBLK2
  1

  9
$DIMSTYLE
  2
Standard
  9
$DIMCLRD
 70
     0
  9
$DIMCLRE
 70
     0
  9
$DIMCLRT
 70
     0
  9
$DIMTFAC
 40
1.0
  9
$DIMGAP
 40
0.09
  9
$DIMJUST
 70
     0
  9
$DIMSD1
 70
     0
  9
$DIMSD2
 70
     0
  9
$DIMTOLJ
 70
     1
  9
$DIMTZIN
 70
     0
  9
$DIMALTZ
 70
     0
  9
$DIMALTTZ
 70
     0
  9
$DIMUPT
 70
     0
  9
$DIMDEC
 70
     4
  9
$DIMTDEC
 70
     4
  9
$DIMALTU
 70
     2
  9
$DIMALTTD
 70
     2
  9
$DIMTXSTY
  7
Standard
  9
$DIMAUNIT
 70
     0
  9
$DIMADEC
 70
     0
  9
$DIMALTRND
 40
0.0
  9
$DIMAZIN
 70
     0
  9
$DIMDSEP
 70
    46
  9
$DIMATFIT
 70
     3
  9
$DIMFRAC
 70
     0
  9
$DIMLDRBLK
  1

  9
$DIMLUNIT
 70
     2
  9
$DIMLWD
 70
    -2
  9
$DIMLWE
 70
    -2
  9
$DIMTMOVE
 70
     0
  9
$DIMFXL
 40
1.0
  9
$DIMFXLON
 70
     0
  9
$DIMJOGANG
 40
0.7853981633974483
  9
$DIMTFILL
 70
     0
  9
$DIMTFILLCLR
 70
     0
  9
$DIMARCSYM
 70
     0
  9
$DIMLTYPE
  6

  9
$DIMLTEX1
  6

  9
$DIMLTEX2
  6

  9
$DIMTXTDIRECTION
 70
     0
  9
$LUNITS
 70
     2
  9
$LUPREC
 70
     4
  9
$SKETCHINC
 40
0.1
  9
$FILLETRAD
 40
0.0
  9
$AUNITS
 70
     0
  9
$AUPREC
 70
     0
  9
$MENU
  1
.
  9
$ELEVATION
 40
0.0
  9
$PELEVATION
 40
0.0
  9
$THICKNESS
 40
0.0
  9
$LIMCHECK
 70
     0
  9
$CHAMFERA
 40
0.0
  9
$CHAMFERB
 40
0.0
  9
$CHAMFERC
 40
0.0
  9
$CHAMFERD
 40
0.0
  9
$SKPOLY
 70
     0
  9
$TDCREATE
 40
2460216.686724537
  9
$TDUCREATE
 40
2460216.603391204
  9
$TDUPDATE
 40
2460216.686724537
  9
$TDUUPDATE
 40
2460216.603391204
  9
$TDINDWG
 40
0.0000000000
  9
$TDUSRTIMER
 40
0.0000000000
  9
$USRTIMER
 70
     1
  9
$ANGBASE
 50
0.0
  9
$ANGDIR
 70
     0
  9
$PDMODE
 70
     0
  9
$PDSIZE
 40
0.0
  9
$PLINEWID
 40
0.0
  9
$SPLFRAME
 70
     0
  9
$SPLINETYPE
 70
     6
  9
$SPLINESEGS
 70
     8
  9
$HANDSEED
  5
325
  9
$SURFTAB1
 70
     6
  9
$SURFTAB2
 70
     6
  9
$SURFTYPE
 70
     6
  9
$SURFU
 70
     6
  9
$SURFV
 70
     6
  9
$UCSBASE
  2

  9
$UCSNAME
  2

  9
$UCSORG
 10
0.0
 20
0.0
 30
0.0
  9
$UCSXDIR
 10
1.0
 20
0.0
 30
0.0
  9
$UCSYDIR
 10
0.0
 20
1.0
 30
0.0
  9
$UCSORTHOREF
  2

  9
$UCSORTHOVIEW
 70
     0
  9
$UCSORGTOP
 10
0.0
 20
0.0
 30
0.0
  9
$UCSORGBOTTOM
 10
0.0
 20
0.0
 30
0.0
  9
$UCSORGLEFT
 10
0.0
 20
0.0
 30
0.0
  9
$UCSORGRIGHT
 10
0.0
 20
0.0
 30
0.0
  9
$UCSORGFRONT
 10
0.0
 20
0.0
 30
0.0
  9
$UCSORGBACK
 10
0.0
 20
0.0
 30
0.0
  9
$PUCSBASE
  2

  9
$PUCSNAME
  2

  9
$PUCSORG
 10
0.0
 20
0.0
 30
0.0
  9
$PUCSXDIR
 10
1.0
 20
0.0
 30
0.0
  9
$PUCSYDIR
 10
0.0
 20
1.0
 30
0.0
  9
$PUCSORTHOREF
  2

  9
$PUCSORTHOVIEW
 70
     0
  9
$PUCSORGTOP
 10
0.0
 20
0.0
 30
0.0
  9
$PUCSORGBOTTOM
 10
0.0
 20
0.0
 30
0.0
  9
$PUCSORGLEFT
 10
0.0
 20
0.0
 30
0.0
  9
$PUCSORGRIGHT
 10
0.0
 20
0.0
 30
0.0
  9
$PUCSORGFRONT
 10
0.0
 20
0.0
 30
0.0
  9
$PUCSORGBACK
 10
0.0
 20
0.0
 30
0.0
  9
$USERI1
 70
     0
  9
$USERI2
 70
     0
  9
$USERI3
 70
     0
  9
$USERI4
 70
     0
  9
$USERI5
 70
     0
  9
$USERR1
 40
0.0
  9
$USERR2
 40
0.0
  9
$USERR3
 40
0.0
  9
$USERR4
 40
0.0
  9
$USERR5
 40
0.0
  9
$WORLDVIEW
 70
     1
  9
$SHADEDGE
 70
     3
  9
$SHADEDIF
 70
    70
  9
$TILEMODE
 70
     1
  9
$MAXACTVP
 70
    64
  9
$PINSBASE
 10
0.0
 20
0.0
 30
0.0
  9
$PLIMCHECK
 70
     0
  9
$PEXTMIN
 10
1.000000000000000E+20
 20
1.000000000000000E+20
 30
1.000000000000000E+20
  9
$PEXTMAX
 10
-1.000000000000000E+20
 20
-1.000000000000000E+20
 30
-1.000000000000000E+20
  9
$PLIMMIN
 10
0.0
 20
0.0
  9
$PLIMMAX
 10
12.0
 20
9.0
  9
$UNITMODE
 70
     0
  9
$VISRETAIN
 70
     1
  9
$PLINEGEN
 70
     0
  9
$PSLTSCALE
 70
     1
  9
$TREEDEPTH
 70
  3020
  9
$CMLSTYLE
  2
Standard
  9
$CMLJUST
 70
     0
  9
$CMLSCALE
 40
1.0
  9
$PROXYGRAPHICS
 70
     1
  9
$MEASUREMENT
 70
     0
  9
$CELWEIGHT
370
    -1
  9
$ENDCAPS
280
     0
  9
$JOINSTYLE
280
     0
  9
$LWDISPLAY
290
     1
  9
$INSUNITS
 70
     0
  9
$HYPERLINKBASE
  1

  9
$STYLESHEET
  1

  9
$XEDIT
290
     1
  9
$CEPSNTYPE
380
     0
  9
$PSTYLEMODE
290
     1
  9
$FINGERPRINTGUID
  2
{E3D0B784-07EA-7442-8C7A-E9952FCFCF7E}
  9
$VERSIONGUID
  2
{2082626D-CF31-E142-ADC9-C2754747C02F}
  9
$EXTNAMES
290
     1
  9
$PSVPSCALE
 40
0.0
  9
$OLESTARTUP
290
     0
  9
$SORTENTS
280
   127
  9
$INDEXCTL
280
     0
  9
$HIDETEXT
280
     1
  9
$XCLIPFRAME
280
     2
  9
$HALOGAP
280
     0
  9
$OBSCOLOR
 70
   257
  9
$OBSLTYPE
280
     0
  9
$INTERSECTIONDISPLAY
280
     0
  9
$INTERSECTIONCOLOR
 70
   257
  9
$DIMASSOC
280
     2
  9
$PROJECTNAME
  1

  9
$CAMERADISPLAY
290
     0
  9
$LENSLENGTH
 40
50.0
  9
$CAMERAHEIGHT
 40
0.0
  9
$STEPSPERSEC
 40
2.0
  9
$STEPSIZE
 40
6.0
  9
$3DDWFPREC
 40
2.0
  9
$PSOLWIDTH
 40
0.25
  9
$PSOLHEIGHT
 40
4.0
  9
$LOFTANG1
 40
1.570796326794896
  9
$LOFTANG2
 40
1.570796326794896
  9
$LOFTMAG1
 40
0.0
  9
$LOFTMAG2
 40
0.0
  9
$LOFTPARAM
 70
     7
  9
$LOFTNORMALS
280
     1
  9
$LATITUDE
 40
37.795
  9
$LONGITUDE
 40
-122.394
  9
$NORTHDIRECTION
 40
0.0
  9
$TIMEZONE
 70
 -8000
  9
$LIGHTGLYPHDISPLAY
280
     1
  9
$TILEMODELIGHTSYNCH
280
     1
  9
$CMATERIAL
347
11
  9
$SOLIDHIST
280
     0
  9
$SHOWHIST
280
     1
  9
$DWFFRAME
280
     2
  9
$DGNFRAME
280
     0
  9
$REALWORLDSCALE
290
     1
  9
$INTERFERECOLOR
 62
     1
  9
$INTERFEREOBJVS
345
33
  9
$INTERFEREVPVS
346
30
  9
$CSHADOW
280
     0
  9
$SHADOWPLANELOCATION
 40
0.0
  0
ENDSEC
  0
SECTION
  2
CLASSES
  0
CLASS
  1
ACDBDICTIONARYWDFLT
  2
AcDbDictionaryWithDefault
  3
ObjectDBX Classes
 90
        0
 91
        1
280
     0
281
     0
  0
CLASS
  1
MATERIAL
  2
AcDbMaterial
  3
ObjectDBX Classes
 90
     1153
 91
        3
280
     0
281
     0
  0
CLASS
  1
VISUALSTYLE
  2
AcDbVisualStyle
  3
ObjectDBX Classes
 90
     4095
 91
       24
280
     0
281
     0
  0
CLASS
  1
SCALE
  2
AcDbScale
  3
ObjectDBX Classes
 90
     1153
 91
       17
280
     0
281
     0
  0
CLASS
  1
TABLESTYLE
  2
AcDbTableStyle
  3
ObjectDBX Classes
 90
     4095
 91
        1
280
     0
281
     0
  0
CLASS
  1
MLEADERSTYLE
  2
AcDbMLeaderStyle
  3
ACDB_MLEADERSTYLE_CLASS
 90
     4095
 91
        1
280
     0
281
     0
  0
CLASS
  1
ACDBSECTIONVIEWSTYLE
  2
AcDbSectionViewStyle
  3
ObjectDBX Classes
 90
     1025
 91
        1
280
     0
281
     0
  0
CLASS
  1
ACDBDETAILVIEWSTYLE
  2
AcDbDetailViewStyle
  3
ObjectDBX Classes
 90
     1025
 91
        1
280
     0
281
     0
  0
CLASS
  1
DICTIONARYVAR
  2
AcDbDictionaryVar
  3
ObjectDBX Classes
 90
        0
 91
        5
280
     0
281
     0
  0
CLASS
  1
CELLSTYLEMAP
  2
AcDbCellStyleMap
  3
ObjectDBX Classes
 90
     1152
 91
        1
280
     0
281
     0
  0
ENDSEC
  0
SECTION
  2
TABLES
  0
TABLE
  2
VPORT
  5
8
330
0
100
AcDbSymbolTable
 70
     1
  0
VPORT
  5
57
330
8
100
AcDbSymbolTableRecord
100
AcDbViewportTableRecord
  2
*Active
 70
     0
 10
0.0
 20
0.0
 11
1.0
 21
1.0
 12
0.0
 22
0.0
 13
0.0
 23
0.0
 14
1.0
 24
1.0
 15
0.0
 25
0.0
 16
0.0
 26
0.0
 36
1.0
 17
960.0
 27
540.0000000000004
 37
0.0
 40
1102.322834645849
 41
1.776612021857633
 42
50.0
 43
0.0
 44
0.0
 50
0.0
 51
0.0
 71
     0
 72
   100
 73
     1
 74
     1
 75
     0
 76
     0
 77
     0
 78
     0
281
     0
 65
     1
110
0.0
120
0.0
130
0.0
111
1.0
121
0.0
131
0.0
112
0.0
122
1.0
132
0.0
 79
     0
146
0.0
 60
     3
 61
     5
292
     1
282
     1
141
0.0
142
0.0
 63
   250
421
  3355443
  0
ENDTAB
  0
TABLE
  2
LTYPE
  5
5
330
0
100
AcDbSymbolTable
 70
     1
  0
LTYPE
  5
5B
330
5
100
AcDbSymbolTableRecord
100
AcDbLinetypeTableRecord
  2
ByBlock
 70
     0
  3

 72
    65
 73
     0
 40
0.0
  0
LTYPE
  5
5C
330
5
100
AcDbSymbolTableRecord
100
AcDbLinetypeTableRecord
  2
ByLayer
 70
     0
  3

 72
    65
 73
     0
 40
0.0
  0
LTYPE
  5
5D
330
5
100
AcDbSymbolTableRecord
100
AcDbLinetypeTableRecord
  2
Continuous
 70
     0
  3
Solid line
 72
    65
 73
     0
 40
0.0
  0
ENDTAB
  0
TABLE
  2
LAYER
  5
2
330
0
100
AcDbSymbolTable
 70
     2
  0
LAYER
  5
54
330
2
100
AcDbSymbolTableRecord
100
AcDbLayerTableRecord
  2
0
 70
     0
 62
     7
  6
Continuous
370
    -3
390
F
347
21
348
0
  0
LAYER
  5
78
330
2
100
AcDbSymbolTableRecord
100
AcDbLayerTableRecord
  2
MAIN-1
 70
     0
 62
     7
  6
Continuous
370
     0
390
F
347
21
348
0
  0
ENDTAB
  0
TABLE
  2
STYLE
  5
3
330
0
100
AcDbSymbolTable
 70
     2
  0
STYLE
  5
55
330
3
100
AcDbSymbolTableRecord
100
AcDbTextStyleTableRecord
  2
Standard
 70
     0
 40
0.0
 41
1.0
 50
0.0
 71
     0
 42
0.2
  3
txt
  4

  0
STYLE
  5
5A
330
3
100
AcDbSymbolTableRecord
100
AcDbTextStyleTableRecord
  2
Annotative
 70
     0
 40
0.0
 41
1.0
 50
0.0
 71
     0
 42
0.2
  3
txt
  4

1001
AcadAnnotative
1000
AnnotativeData
1002
{
1070
     1
1070
     1
1002
}
  0
ENDTAB
  0
TABLE
  2
VIEW
  5
6
330
0
100
AcDbSymbolTable
 70
     0
  0
ENDTAB
  0
TABLE
  2
UCS
  5
7
330
0
100
AcDbSymbolTable
 70
     0
  0
ENDTAB
  0
TABLE
  2
APPID
  5
9
330
0
100
AcDbSymbolTable
 70
     2
  0
APPID
  5
56
330
9
100
AcDbSymbolTableRecord
100
AcDbRegAppTableRecord
  2
ACAD
 70
     0
  0
APPID
  5
5E
330
9
100
AcDbSymbolTableRecord
100
AcDbRegAppTableRecord
  2
AcadAnnotative
 70
     0
  0
ENDTAB
  0
TABLE
  2
DIMSTYLE
  5
A
330
0
100
AcDbSymbolTable
 70
     2
100
AcDbDimStyleTable
 71
     0
  0
DIMSTYLE
105
58
330
A
100
AcDbSymbolTableRecord
100
AcDbDimStyleTableRecord
  2
Standard
 70
     0
340
55
  0
DIMSTYLE
105
59
330
A
100
AcDbSymbolTableRecord
100
AcDbDimStyleTableRecord
  2
Annotative
 70
     0
340
55
1001
AcadAnnotative
1000
AnnotativeData
1002
{
1070
     1
1070
     1
1002
}
  0
ENDTAB
  0
TABLE
  2
BLOCK_RECORD
  5
1
330
0
100
AcDbSymbolTable
 70
     1
  0
BLOCK_RECORD
  5
70
330
1
100
AcDbSymbolTableRecord
100
AcDbBlockTableRecord
  2
*Model_Space
340
73
 70
     0
280
     1
281
     0
  0
BLOCK_RECORD
  5
6C
330
1
100
AcDbSymbolTableRecord
100
AcDbBlockTableRecord
  2
*Paper_Space
340
6F
 70
     0
280
     1
281
     0
  0
BLOCK_RECORD
  5
74
330
1
100
AcDbSymbolTableRecord
100
AcDbBlockTableRecord
  2
*Paper_Space0
340
77
 70
     0
280
     1
281
     0
  0
ENDTAB
  0
ENDSEC
  0
SECTION
  2
BLOCKS
  0
BLOCK
  5
71
330
70
100
AcDbEntity
  8
0
100
AcDbBlockBegin
  2
*Model_Space
 70
     0
 10
0.0
 20
0.0
 30
0.0
  3
*Model_Space
  1

  0
ENDBLK
  5
72
330
70
100
AcDbEntity
  8
0
100
AcDbBlockEnd
  0
BLOCK
  5
6D
330
6C
100
AcDbEntity
 67
     1
  8
0
100
AcDbBlockBegin
  2
*Paper_Space
 70
     0
 10
0.0
 20
0.0
 30
0.0
  3
*Paper_Space
  1

  0
ENDBLK
  5
6E
330
6C
100
AcDbEntity
 67
     1
  8
0
100
AcDbBlockEnd
  0
BLOCK
  5
75
330
74
100
AcDbEntity
 67
     1
  8
0
100
AcDbBlockBegin
  2
*Paper_Space0
 70
     0
 10
0.0
 20
0.0
 30
0.0
  3
*Paper_Space0
  1

  0
ENDBLK
  5
76
330
74
100
AcDbEntity
 67
     1
  8
0
100
AcDbBlockEnd
  0
ENDSEC
  0
SECTION
  2
ENTITIES
  0
LINE
  5
79
330
70
100
AcDbEntity
  8
MAIN-1
 62
    18
420
        0
370
    25
100
AcDbLine
 10
638.6820394795086
 20
314.9046278920978
 30
0.0
 11
638.681096154497
 21
314.9048352153331
 31
0.0
  0
LINE
  5
7A
330
70
100
AcDbEntity
  8
MAIN-1
 62
    18
420
        0
370
    25
100
AcDbLine
 10
638.681096154497
 20
314.9048352153331
 30
0.0
 11
638.6801169355167
 21
314.9050714691894
 31
0.0
  0
LINE
  5
7B
330
70
100
AcDbEntity
  8
MAIN-1
 62
    18
420
        0
370
    25
100
AcDbLine
 10
638.6801169355167
 20
314.9050714691894
 30
0.0
 11
638.679145757118
 21
314.9053146863935
 31
0.0
  0
LINE
  5
7C
330
70
100
AcDbEntity
  8
MAIN-1
 62
    18
420
        0
370
    25
100
AcDbLine
 10
638.679145757118
 20
314.9053146863935
 30
0.0
 11
638.6781943915266
 21
314.9055428996689
 31
0.0
  0
LINE
  5
7D
330
70
100
AcDbEntity
  8
MAIN-1
 62
    18
420
        0
370
    25
100
AcDbLine
 10
638.6781943915266
 20
314.9055428996689
 30
0.0
 11
638.677223213127
 21
314.905786116873
 31
0.0
  0
LINE
  5
7E
330
70
100
AcDbEntity
  8
MAIN-1
 62
    18
420
        0
370
    25
100
AcDbLine
 10
638.677223213127
 20
314.905786116873
 30
0.0
 11
638.6762798881155
 21
314.9060212934965
 31
0.0
  0
LINE
  5
7F
330
70
100
AcDbEntity
  8
MAIN-1
 62
    18
420
        0
370
    25
100
AcDbLine
 10
1185.524168760192
 20
255.6435676163474
 30
0.0
 11
1185.523829901229
 21
255.6437861345221
 31
0.0
  0
LINE
  5
80
330
70
100
AcDbEntity
  8
MAIN-1
 62
    18
420
        0
370
    25
100
AcDbLine
 10
1185.523829901229
 20
255.6437861345221
 30
0.0
 11
1185.523491042264
 21
255.644004652695
 31
0.0
  0
LINE
  5
81
330
70
100
AcDbEntity
  8
MAIN-1
 62
    18
420
        0
370
    25
100
AcDbLine
 10
1185.523491042264
 20
255.644004652695
 30
0.0
 11
1185.523152183301
 21
255.6442231708697
 31
0.0
  0
LINE
  5
82
330
70
100
AcDbEntity
  8
MAIN-1
 62
    18
420
        0
370
    25
100
AcDbLine
 10
1185.523152183301
 20
255.6442231708697
 30
0.0
 11
1185.522813324336
 21
255.6444277623486
 31
0.0
  0
LINE
  5
83
330
70
100
AcDbEntity
  8
MAIN-1
 62
    18
420
        0
370
    25
100
AcDbLine
 10
1185.522813324336
 20
255.6444277623486
 30
0.0
 11
1185.522474465371
 21
255.6446462805234
 31
0.0
  0
LINE
  5
84
330
70
100
AcDbEntity
  8
MAIN-1
 62
    18
420
        0
370
    25
100
AcDbLine
 10
1185.522474465371
 20
255.6446462805234
 30
0.0
 11
1185.522135606408
 21
255.6448647986981
 31
0.0
  0
SPLINE
  5
85
330
70
100
AcDbEntity
  8
MAIN-1
 62
    18
420
        0
370
    25
100
AcDbSpline
210
0.0
220
0.0
230
1.0
 70
     8
 71
     3
 72
     8
 73
     4
 74
     0
 42
0.0000000001
 43
0.0000000001
 40
0.0
 40
0.0
 40
0.0
 40
0.0
 40
1.0
 40
1.0
 40
1.0
 40
1.0
 10
1285.258766944262
 20
151.7210242577039
 30
0.0
 10
1285.258766944262
 20
146.8819503354025
 30
0.0
 10
1289.18161144137
 20
141.8266781750972
 30
0.0
 10
1294.02068536367
 20
140.4297578592632
 30
0.0
  0
SPLINE
  5
86
330
70
100
AcDbEntity
  8
MAIN-1
 62
    18
420
        0
370
    25
100
AcDbSpline
210
0.0
220
0.0
230
1.0
 70
     8
 71
     3
 72
     8
 73
     4
 74
     0
 42
0.0000000001
 43
0.0000000001
 40
0.0
 40
0.0
 40
0.0
 40
0.0
 40
1.0
 40
1.0
 40
1.0
 40
1.0
 10
1274.298259035124
 20
142.2289459700096
 30
0.0
 10
1274.298259035124
 20
137.3898720477082
 30
0.0
 10
1278.221103532232
 20
132.3345998874047
 30
0.0
 10
1283.060177454534
 20
130.9376795715688
 30
0.0
  0
LINE
  5
87
330
70
100
AcDbEntity
  8
MAIN-1
 62
    18
420
        0
370
    25
100
AcDbLine
 10
1283.060177454534
 20
130.9376795715688
 30
0.0
 11
1294.02068536367
 21
140.4297578592632
 31
0.0
  0
SPLINE
  5
88
330
70
100
AcDbEntity
  8
MAIN-1
 62
    18
420
        0
370
    25
100
AcDbSpline
210
0.0
220
0.0
230
1.0
 70
     8
 71
     3
 72
     8
 73
     4
 74
     0
 42
0.0000000001
 43
0.0000000001
 40
0.0
 40
0.0
 40
0.0
 40
0.0
 40
1.0
 40
1.0
 40
1.0
 40
1.0
 10
471.6890879154016
 20
365.1603380506185
 30
0.0
 10
474.2313136538687
 20
364.4264606933957
 30
0.0
 10
476.6482053654572
 20
364.832923095486
 30
0.0
 10
478.3124809937298
 20
366.2742316717922
 30
0.0
  0
SPLINE
  5
89
330
70
100
AcDbEntity
  8
MAIN-1
 62
    18
420
        0
370
    25
100
AcDbSpline
210
0.0
220
0.0
230
1.0
 70
     8
 71
     3
 72
     8
 73
     4
 74
     0
 42
0.0000000001
 43
0.0000000001
 40
0.0
 40
0.0
 40
0.0
 40
0.0
 40
1.0
 40
1.0
 40
1.0
 40
1.0
 10
478.3124809937298
 20
366.2742316717922
 30
0.0
 10
479.6917931647931
 20
367.4687540380292
 30
0.0
 10
480.4510063348106
 20
369.2859720899051
 30
0.0
 10
480.4510063348106
 20
371.392908490996
 30
0.0
  0
LINE
  5
8A
330
70
100
AcDbEntity
  8
MAIN-1
 62
    18
420
        0
370
    25
100
AcDbLine
 10
471.6890879154016
 20
365.1603380506185
 30
0.0
 11
480.3611384398591
 21
372.6705541077008
 31
0.0
  0
LINE
  5
8B
330
70
100
AcDbEntity
  8
MAIN-1
 62
    18
420
        0
370
    25
100
AcDbLine
 10
987.3828769659903
 20
799.4467122229525
 30
0.0
 11
995.8140368961013
 21
797.0128459953375
 31
0.0
  0
LINE
  5
8C
330
70
100
AcDbEntity
  8
MAIN-1
 62
    18
420
        0
370
    25
100
AcDbLine
 10
1081.64648893852
 20
889.0607302748431
 30
0.0
 11
1088.556796127257
 21
887.0658964170434
 31
0.0
  0
LINE
  5
8D
330
70
100
AcDbEntity
  8
MAIN-1
 62
    18
420
        0
370
    25
100
AcDbLine
 10
823.0120439426364
 20
811.8488108917954
 30
0.0
 11
885.4750341257695
 21
793.8172987934849
 31
0.0
  0
LINE
  5
8E
330
70
100
AcDbEntity
  8
MAIN-1
 62
    18
420
        0
370
    25
100
AcDbLine
 10
885.4750341257695
 20
789.9231128293031
 30
0.0
 11
885.4750341257695
 21
793.8172987934849
 31
0.0
  0
LINE
  5
8F
330
70
100
AcDbEntity
  8
MAIN-1
 62
    18
420
        0
370
    25
100
AcDbLine
 10
955.1790899869374
 20
773.6954710859572
 30
0.0
 11
955.1790899869374
 21
812.5429763426618
 31
0.0
  0
LINE
  5
90
330
70
100
AcDbEntity
  8
MAIN-1
 62
    18
420
        0
370
    25
100
AcDbLine
 10
935.585735459359
 20
929.3185259154888
 30
0.0
 11
955.1790899869056
 21
812.5429763426655
 31
0.0
  0
SPLINE
  5
91
330
70
100
AcDbEntity
  8
MAIN-1
 62
    18
420
        0
370
    25
100
AcDbSpline
210
0.0
220
0.0
230
1.0
 70
     8
 71
     3
 72
     8
 73
     4
 74
     0
 42
0.0000000001
 43
0.0000000001
 40
0.0
 40
0.0
 40
0.0
 40
0.0
 40
1.0
 40
1.0
 40
1.0
 40
1.0
 10
935.5857354593881
 20
929.3185259154851
 30
0.0
 10
935.0934887960784
 20
932.252294839931
 30
0.0
 10
932.6679342209299
 20
934.9877740828196
 30
0.0
 10
929.8331986655748
 20
935.8060917508028
 30
0.0
  0
LINE
  5
92
330
70
100
AcDbEntity
  8
MAIN-1
 62
    18
420
        0
370
    25
100
AcDbLine
 10
929.8331986655748
 20
935.8060917508028
 30
0.0
 11
863.6994023828457
 21
954.8972742939859
 31
0.0
  0
SPLINE
  5
93
330
70
100
AcDbEntity
  8
MAIN-1
 62
    18
420
        0
370
    25
100
AcDbSpline
210
0.0
220
0.0
230
1.0
 70
     8
 71
     3
 72
     8
 73
     4
 74
     0
 42
0.0000000001
 43
0.0000000001
 40
0.0
 40
0.0
 40
0.0
 40
0.0
 40
1.0
 40
1.0
 40
1.0
 40
1.0
 10
863.6994023828457
 20
954.8972742939859
 30
0.0
 10
862.0045072413395
 20
955.3865483770842
 30
0.0
 10
860.3931799133105
 20
955.1155250724004
 30
0.0
 10
859.2836607708514
 20
954.1545519038827
 30
0.0
  0
SPLINE
  5
94
330
70
100
AcDbEntity
  8
MAIN-1
 62
    18
420
        0
370
    25
100
AcDbSpline
210
0.0
220
0.0
230
1.0
 70
     8
 71
     3
 72
     8
 73
     4
 74
     0
 42
0.0000000001
 43
0.0000000001
 40
0.0
 40
0.0
 40
0.0
 40
0.0
 40
1.0
 40
1.0
 40
1.0
 40
1.0
 10
859.2836607708514
 20
954.1545519038827
 30
0.0
 10
858.5922575862369
 20
953.5557159905438
 30
0.0
 10
858.1302699427242
 20
952.7181306254387
 30
0.0
 10
857.9468655890332
 20
951.7309371250995
 30
0.0
  0
LINE
  5
95
330
70
100
AcDbEntity
  8
MAIN-1
 62
    18
420
        0
370
    25
100
AcDbLine
 10
838.353511061484
 20
846.2676160630834
 30
0.0
 11
857.9468655890305
 21
951.7309371250995
 31
0.0
  0
LINE
  5
96
330
70
100
AcDbEntity
  8
MAIN-1
 62
    18
420
        0
370
    25
100
AcDbLine
 10
838.353511061484
 20
846.2676160630834
 30
0.0
 11
838.353511061484
 21
807.4201108063789
 31
0.0
  0
LINE
  5
97
330
70
100
AcDbEntity
  8
MAIN-1
 62
    18
420
        0
370
    25
100
AcDbLine
 10
1442.510843115509
 20
102.4320740394723
 30
0.0
 11
1324.474604094032
 21
0.2096924797006068
 31
0.0
  0
LINE
  5
98
330
70
100
AcDbEntity
  8
MAIN-1
 62
    18
420
        0
370
    25
100
AcDbLine
 10
1324.474604094032
 20
0.2096924797006068
 30
0.0
 11
1254.379256738761
 21
20.44447631195362
 31
0.0
  0
LINE
  5
99
330
70
100
AcDbEntity
  8
MAIN-1
 62
    18
420
        0
370
    25
100
AcDbLine
 10
1230.772008934464
 20
0.0
 30
0.0
 11
1254.379256738761
 21
20.44447631195362
 31
0.0
  0
LINE
  5
9A
330
70
100
AcDbEntity
  8
MAIN-1
 62
    18
420
        0
370
    25
100
AcDbLine
 10
453.881909080199
 20
224.2688541408079
 30
0.0
 11
1230.772008934464
 21
0.0
 31
0.0
  0
LINE
  5
9B
330
70
100
AcDbEntity
  8
MAIN-1
 62
    18
420
        0
370
    25
100
AcDbLine
 10
453.881909080199
 20
224.2688541408079
 30
0.0
 11
410.0723169831489
 21
357.2814590781163
 31
0.0
  0
LINE
  5
9C
330
70
100
AcDbEntity
  8
MAIN-1
 62
    18
420
        0
370
    25
100
AcDbLine
 10
410.0723169831535
 20
382.9475676927832
 30
0.0
 11
410.0723169831535
 21
357.2814590781163
 31
0.0
  0
LINE
  5
9D
330
70
100
AcDbEntity
  8
MAIN-1
 62
    18
420
        0
370
    25
100
AcDbLine
 10
410.0723169831535
 20
382.9475676927832
 30
0.0
 11
421.0328248922905
 21
392.4396459804757
 31
0.0
  0
LINE
  5
9E
330
70
100
AcDbEntity
  8
MAIN-1
 62
    18
420
        0
370
    25
100
AcDbLine
 10
421.0328248922905
 20
538.0925879897586
 30
0.0
 11
421.0328248922905
 21
392.4396459804757
 31
0.0
  0
LINE
  5
9F
330
70
100
AcDbEntity
  8
MAIN-1
 62
    18
420
        0
370
    25
100
AcDbLine
 10
1140.962927399059
 20
891.4084792394715
 30
0.0
 11
1081.64648893852
 21
908.5316600957522
 31
0.0
  0
LINE
  5
A0
330
70
100
AcDbEntity
  8
MAIN-1
 62
    18
420
        0
370
    25
100
AcDbLine
 10
766.3903327057869
 20
808.7231611831722
 30
0.0
 11
843.839404964503
 21
875.7960252587563
 31
0.0
  0
LINE
  5
A1
330
70
100
AcDbEntity
  8
MAIN-1
 62
    18
420
        0
370
    25
100
AcDbLine
 10
766.3903327057869
 20
808.7231611831722
 30
0.0
 11
988.3589326641486
 21
744.6463457143691
 31
0.0
  0
LINE
  5
A2
330
70
100
AcDbEntity
  8
MAIN-1
 62
    18
420
        0
370
    25
100
AcDbLine
 10
823.0120439426364
 20
811.8488108917954
 30
0.0
 11
838.3535110614811
 21
816.2775109772082
 31
0.0
  0
LINE
  5
A3
330
70
100
AcDbEntity
  8
MAIN-1
 62
    18
420
        0
370
    25
100
AcDbLine
 10
1088.556796127257
 20
887.0658964170434
 30
0.0
 11
995.8140368960957
 21
806.7483109057938
 31
0.0
  0
LINE
  5
A4
330
70
100
AcDbEntity
  8
MAIN-1
 62
    18
420
        0
370
    25
100
AcDbLine
 10
995.8140368960957
 20
806.7483109057938
 30
0.0
 11
995.8140368960957
 21
797.0128459953375
 31
0.0
  0
LINE
  5
A5
330
70
100
AcDbEntity
  8
MAIN-1
 62
    18
420
        0
370
    25
100
AcDbLine
 10
957.0307012176099
 20
773.1609569647262
 30
0.0
 11
987.3828769659903
 21
799.4467122229525
 31
0.0
  0
LINE
  5
A6
330
70
100
AcDbEntity
  8
MAIN-1
 62
    18
420
        0
370
    25
100
AcDbLine
 10
902.9988709645877
 20
788.7586028354217
 30
0.0
 11
957.0307012176099
 21
773.1609569647262
 31
0.0
  0
LINE
  5
A7
330
70
100
AcDbEntity
  8
MAIN-1
 62
    18
420
        0
370
    25
100
AcDbLine
 10
899.6264069925455
 20
785.8379633622844
 30
0.0
 11
902.9988709645877
 21
788.7586028354217
 31
0.0
  0
LINE
  5
A8
330
70
100
AcDbEntity
  8
MAIN-1
 62
    18
420
        0
370
    25
100
AcDbLine
 10
899.6264069925455
 20
785.8379633622844
 30
0.0
 11
882.1025701537273
 21
790.8966593203476
 31
0.0
  0
LINE
  5
A9
330
70
100
AcDbEntity
  8
MAIN-1
 62
    18
420
        0
370
    25
100
AcDbLine
 10
882.1025701537273
 20
790.8966593203476
 30
0.0
 11
885.4750341257695
 21
793.8172987934849
 31
0.0
  0
LINE
  5
AA
330
70
100
AcDbEntity
  8
MAIN-1
 62
    18
420
        0
370
    25
100
AcDbLine
 10
1153.609667294216
 20
902.3608772637325
 30
0.0
 11
988.3589326641486
 21
759.2495430800518
 31
0.0
  0
LINE
  5
AB
330
70
100
AcDbEntity
  8
MAIN-1
 62
    18
420
        0
370
    25
100
AcDbLine
 10
988.3589326641486
 20
759.2495430800518
 30
0.0
 11
988.3589326641486
 21
744.6463457143691
 31
0.0
  0
LINE
  5
AC
330
70
100
AcDbEntity
  8
MAIN-1
 62
    18
420
        0
370
    25
100
AcDbLine
 10
1236.613287880736
 20
687.5846836741548
 30
0.0
 11
1256.891193069008
 21
705.1458647027284
 31
0.0
  0
LINE
  5
AD
330
70
100
AcDbEntity
  8
MAIN-1
 62
    18
420
        0
370
    25
100
AcDbLine
 10
1327.252137392763
 20
766.0802299213628
 30
0.0
 11
1401.864022510806
 21
830.6960178578355
 31
0.0
  0
LINE
  5
AE
330
70
100
AcDbEntity
  8
MAIN-1
 62
    18
420
        0
370
    25
100
AcDbLine
 10
1153.609667294216
 20
902.3608772637325
 30
0.0
 11
1271.74727211
 21
868.2574882928275
 31
0.0
  0
LINE
  5
AF
330
70
100
AcDbEntity
  8
MAIN-1
 62
    18
420
        0
370
    25
100
AcDbLine
 10
1324.563425845137
 20
853.0107780045565
 30
0.0
 11
1401.864022510806
 21
830.6960178578355
 31
0.0
  0
LINE
  5
B0
330
70
100
AcDbEntity
  8
MAIN-1
 62
    18
420
        0
370
    25
100
AcDbLine
 10
988.3589326641486
 20
759.2495430800518
 30
0.0
 11
1236.613287880736
 21
687.5846836741548
 31
0.0
  0
LINE
  5
B1
330
70
100
AcDbEntity
  8
MAIN-1
 62
    18
420
        0
370
    25
100
AcDbLine
 10
1085.224299316063
 20
795.9229157389127
 30
0.0
 11
1067.700462477236
 21
790.8642197808476
 31
0.0
  0
LINE
  5
B2
330
70
100
AcDbEntity
  8
MAIN-1
 62
    18
420
        0
370
    25
100
AcDbLine
 10
1093.324700756859
 20
802.9380691674941
 30
0.0
 11
1085.224299316063
 21
795.9229157389127
 31
0.0
  0
LINE
  5
B3
330
70
100
AcDbEntity
  8
MAIN-1
 62
    18
420
        0
370
    25
100
AcDbLine
 10
1230.265558059205
 20
763.4066487542095
 30
0.0
 11
1223.38950668387
 21
765.3915938104655
 31
0.0
  0
LINE
  5
B4
330
70
100
AcDbEntity
  8
MAIN-1
 62
    18
420
        0
370
    25
100
AcDbLine
 10
1170.573352948733
 20
780.6383040987366
 30
0.0
 11
1093.324700756859
 21
802.9380691674941
 31
0.0
  0
LINE
  5
B5
330
70
100
AcDbEntity
  8
MAIN-1
 62
    18
420
        0
370
    25
100
AcDbLine
 10
1211.973669264444
 20
726.9504995096449
 30
0.0
 11
1200.904097224495
 21
717.3639689140254
 31
0.0
  0
LINE
  5
B6
330
70
100
AcDbEntity
  8
MAIN-1
 62
    18
420
        0
370
    25
100
AcDbLine
 10
1200.904097224495
 20
717.3639689140254
 30
0.0
 11
1136.005597235313
 21
736.0985521334042
 31
0.0
  0
LINE
  5
B7
330
70
100
AcDbEntity
  8
MAIN-1
 62
    18
420
        0
370
    25
100
AcDbLine
 10
1108.710481110751
 20
792.6552980067153
 30
0.0
 11
1165.717587619538
 21
776.1987638624304
 31
0.0
  0
LINE
  5
B8
330
70
100
AcDbEntity
  8
MAIN-1
 62
    18
420
        0
370
    25
100
AcDbLine
 10
1091.186644271927
 20
787.5966020486466
 30
0.0
 11
1108.710481110753
 21
792.6552980067135
 31
0.0
  0
LINE
  5
B9
330
70
100
AcDbEntity
  8
MAIN-1
 62
    18
420
        0
370
    25
100
AcDbLine
 10
1088.144938789193
 20
784.962407829771
 30
0.0
 11
1091.186644271927
 21
787.5966020486466
 31
0.0
  0
LINE
  5
BA
330
70
100
AcDbEntity
  8
MAIN-1
 62
    18
420
        0
370
    25
100
AcDbLine
 10
1067.70046247724
 20
790.864219780844
 30
0.0
 11
1088.144938789193
 21
784.962407829771
 31
0.0
  0
LINE
  5
BB
330
70
100
AcDbEntity
  8
MAIN-1
 62
    18
420
        0
370
    25
100
AcDbLine
 10
1332.430192134141
 20
831.2689083663427
 30
0.0
 11
1302.078016385762
 21
804.9831531081164
 31
0.0
  0
LINE
  5
BC
330
70
100
AcDbEntity
  8
MAIN-1
 62
    18
420
        0
370
    25
100
AcDbLine
 10
1302.078016385762
 20
804.9831531081164
 30
0.0
 11
1237.17951639658
 21
823.717736327495
 31
0.0
  0
LINE
  5
BD
330
70
100
AcDbEntity
  8
MAIN-1
 62
    18
420
        0
370
    25
100
AcDbLine
 10
1341.416486075333
 20
737.4579630846219
 30
0.0
 11
1385.001702650596
 21
775.2038678682438
 31
0.0
  0
LINE
  5
BE
330
70
100
AcDbEntity
  8
MAIN-1
 62
    18
420
        0
370
    25
100
AcDbLine
 10
1385.001702650596
 20
775.2038678682438
 30
0.0
 11
1385.001702650596
 21
770.3361354130175
 31
0.0
  0
LINE
  5
BF
330
70
100
AcDbEntity
  8
MAIN-1
 62
    18
420
        0
370
    25
100
AcDbLine
 10
1401.864022510806
 20
766.7141305306813
 30
0.0
 11
1401.864022510806
 21
830.6960178578355
 31
0.0
  0
LINE
  5
C0
330
70
100
AcDbEntity
  8
MAIN-1
 62
    18
420
        0
370
    25
100
AcDbLine
 10
1236.613287880736
 20
617.4893363188821
 30
0.0
 11
1236.613287880736
 21
687.5846836741548
 31
0.0
  0
LINE
  5
C1
330
70
100
AcDbEntity
  8
MAIN-1
 62
    18
420
        0
370
    25
100
AcDbLine
 10
1236.613287880736
 20
617.4893363188821
 30
0.0
 11
1253.475607740947
 21
632.092533684563
 31
0.0
  0
LINE
  5
C2
330
70
100
AcDbEntity
  8
MAIN-1
 62
    18
420
        0
370
    25
100
AcDbLine
 10
1253.475607740947
 20
632.092533684563
 30
0.0
 11
1253.475607740947
 21
648.1560507868143
 31
0.0
  0
LINE
  5
C3
330
70
100
AcDbEntity
  8
MAIN-1
 62
    18
420
        0
370
    25
100
AcDbLine
 10
1085.224299316063
 20
785.8055238227789
 30
0.0
 11
1085.224299316063
 21
795.9229157389127
 31
0.0
  0
LINE
  5
C4
330
70
100
AcDbEntity
  8
MAIN-1
 62
    18
420
        0
370
    25
100
AcDbLine
 10
1219.687586329328
 20
775.6228205690385
 30
0.0
 11
1225.303266807048
 21
760.102416327898
 31
0.0
  0
LINE
  5
C5
330
70
100
AcDbEntity
  8
MAIN-1
 62
    18
420
        0
370
    25
100
AcDbLine
 10
1240.509905213939
 20
674.2094352147669
 30
0.0
 11
1240.510868351759
 21
674.2091571808268
 31
0.0
  0
LINE
  5
C6
330
70
100
AcDbEntity
  8
MAIN-1
 62
    18
420
        0
370
    25
100
AcDbLine
 10
1240.510868351759
 20
674.2091571808268
 30
0.0
 11
1240.511795595608
 21
674.2088802241214
 31
0.0
  0
LINE
  5
C7
330
70
100
AcDbEntity
  8
MAIN-1
 62
    18
420
        0
370
    25
100
AcDbLine
 10
1240.511795595608
 20
674.2088802241214
 30
0.0
 11
1240.512750692845
 21
674.2086230802233
 31
0.0
  0
LINE
  5
C8
330
70
100
AcDbEntity
  8
MAIN-1
 62
    18
420
        0
370
    25
100
AcDbLine
 10
1240.512750692845
 20
674.2086230802233
 30
0.0
 11
1240.513705790085
 21
674.2083380829371
 31
0.0
  0
LINE
  5
C9
330
70
100
AcDbEntity
  8
MAIN-1
 62
    18
420
        0
370
    25
100
AcDbLine
 10
1240.513705790085
 20
674.2083380829371
 30
0.0
 11
1240.514660887322
 21
674.2080530856492
 31
0.0
  0
LINE
  5
CA
330
70
100
AcDbEntity
  8
MAIN-1
 62
    18
420
        0
370
    25
100
AcDbLine
 10
1240.514660887322
 20
674.2080530856492
 30
0.0
 11
1240.515615984561
 21
674.2077680883631
 31
0.0
  0
LINE
  5
CB
330
70
100
AcDbEntity
  8
MAIN-1
 62
    18
420
        0
370
    25
100
AcDbLine
 10
1368.576488525912
 20
731.2680942141632
 30
0.0
 11
1406.708679914962
 21
720.260278732534
 31
0.0
  0
LINE
  5
CC
330
70
100
AcDbEntity
  8
MAIN-1
 62
    18
420
        0
370
    25
100
AcDbLine
 10
1478.462165790957
 20
719.0177613605428
 30
0.0
 11
1461.991137424851
 21
704.7534323690415
 31
0.0
  0
LINE
  5
CD
330
70
100
AcDbEntity
  8
MAIN-1
 62
    18
420
        0
370
    25
100
AcDbLine
 10
1474.472498075358
 20
720.1694792253329
 30
0.0
 11
1478.462165790957
 21
719.0177613605428
 31
0.0
  0
LINE
  5
CE
330
70
100
AcDbEntity
  8
MAIN-1
 62
    18
420
        0
370
    25
100
AcDbLine
 10
1166.357772983694
 20
762.3843073916305
 30
0.0
 11
1219.573715080329
 21
747.0221881442958
 31
0.0
  0
LINE
  5
CF
330
70
100
AcDbEntity
  8
MAIN-1
 62
    18
420
        0
370
    25
100
AcDbLine
 10
1231.256272972874
 20
743.6497241722536
 30
0.0
 11
1234.176912446012
 21
742.8066081792422
 31
0.0
  0
LINE
  5
D0
330
70
100
AcDbEntity
  8
MAIN-1
 62
    18
420
        0
370
    25
100
AcDbLine
 10
1377.173292433812
 20
606.1134410035156
 30
0.0
 11
1399.942717231046
 21
625.8323413074776
 31
0.0
  0
LINE
  5
D1
330
70
100
AcDbEntity
  8
MAIN-1
 62
    18
420
        0
370
    25
100
AcDbLine
 10
1357.788504769974
 20
725.3507919271997
 30
0.0
 11
1372.495328822595
 21
690.6306475380042
 31
0.0
  0
LINE
  5
D2
330
70
100
AcDbEntity
  8
MAIN-1
 62
    18
420
        0
370
    25
100
AcDbLine
 10
1392.27771760317
 20
643.9280153199815
 30
0.0
 11
1399.942717230846
 21
625.8323413074394
 31
0.0
  0
LINE
  5
D3
330
70
100
AcDbEntity
  8
MAIN-1
 62
    18
420
        0
370
    25
100
AcDbLine
 10
1365.484622727543
 20
621.1763390104752
 30
0.0
 11
1361.494955011943
 21
622.3280568752652
 31
0.0
  0
LINE
  5
D4
330
70
100
AcDbEntity
  8
MAIN-1
 62
    18
420
        0
370
    25
100
AcDbLine
 10
1380.087820093226
 20
602.3575616797407
 30
0.0
 11
1365.484622727543
 21
621.1763390104752
 31
0.0
  0
LINE
  5
D5
330
70
100
AcDbEntity
  8
MAIN-1
 62
    18
420
        0
370
    25
100
AcDbLine
 10
1380.087820093226
 20
602.3575616797407
 30
0.0
 11
1380.087820093226
 21
280.3553523834344
 31
0.0
  0
SPLINE
  5
D6
330
70
100
AcDbEntity
  8
MAIN-1
 62
    18
420
        0
370
    25
100
AcDbSpline
210
0.0
220
0.0
230
1.0
 70
     8
 71
     3
 72
     8
 73
     4
 74
     0
 42
0.0000000001
 43
0.0000000001
 40
0.0
 40
0.0
 40
0.0
 40
0.0
 40
1.0
 40
1.0
 40
1.0
 40
1.0
 10
1377.949491437335
 20
275.2368459068966
 30
0.0
 10
1379.328681301025
 20
276.4313727057815
 30
0.0
 10
1380.087820093226
 20
278.2485193888988
 30
0.0
 10
1380.087820093224
 20
280.3553523834344
 30
0.0
  0
LINE
  5
D7
330
70
100
AcDbEntity
  8
MAIN-1
 62
    18
420
        0
370
    25
100
AcDbLine
 10
1472.947489705479
 20
383.5141962745347
 30
0.0
 11
1380.087820093226
 21
303.0953634032921
 31
0.0
  0
LINE
  5
D8
330
70
100
AcDbEntity
  8
MAIN-1
 62
    18
420
        0
370
    25
100
AcDbLine
 10
1399.942717231046
 20
625.8323413074776
 30
0.0
 11
1472.947489705591
 21
383.5141962745383
 31
0.0
  0
LINE
  5
D9
330
70
100
AcDbEntity
  8
MAIN-1
 62
    18
420
        0
370
    25
100
AcDbLine
 10
1476.203043296427
 20
372.7083313910061
 30
0.0
 11
1476.203043296427
 21
685.5957866641274
 31
0.0
  0
LINE
  5
DA
330
70
100
AcDbEntity
  8
MAIN-1
 62
    18
420
        0
370
    25
100
AcDbLine
 10
1461.809538410447
 20
704.1443385103593
 30
0.0
 11
1476.203043296427
 21
685.5957866641274
 31
0.0
  0
SPLINE
  5
DB
330
70
100
AcDbEntity
  8
MAIN-1
 62
    18
420
        0
370
    25
100
AcDbSpline
210
0.0
220
0.0
230
1.0
 70
     8
 71
     3
 72
     8
 73
     4
 74
     0
 42
0.0000000001
 43
0.0000000001
 40
0.0
 40
0.0
 40
0.0
 40
0.0
 40
1.0
 40
1.0
 40
1.0
 40
1.0
 10
1471.250312317454
 20
375.5225848140817
 30
0.0
 10
1473.269351405337
 20
377.2711781807702
 30
0.0
 10
1473.913933770338
 20
380.3063658116007
 30
0.0
 10
1472.947489705442
 20
383.5141962745365
 30
0.0
  0
LINE
  5
DC
330
70
100
AcDbEntity
  8
MAIN-1
 62
    18
420
        0
370
    25
100
AcDbLine
 10
1469.490731651876
 20
373.9987432577127
 30
0.0
 11
1471.906359759931
 21
373.9486770892563
 31
0.0
  0
LINE
  5
DD
330
70
100
AcDbEntity
  8
MAIN-1
 62
    18
420
        0
370
    25
100
AcDbLine
 10
1471.906359759941
 20
373.9486770892126
 30
0.0
 11
1476.203043296427
 21
372.7083313910061
 31
0.0
  0
LINE
  5
DE
330
70
100
AcDbEntity
  8
MAIN-1
 62
    18
420
        0
370
    25
100
AcDbLine
 10
1491.379131170619
 20
219.37069457488
 30
0.0
 11
1491.379131170619
 21
385.8512090201184
 31
0.0
  0
LINE
  5
DF
330
70
100
AcDbEntity
  8
MAIN-1
 62
    18
420
        0
370
    25
100
AcDbLine
 10
1491.379131170619
 20
219.37069457488
 30
0.0
 11
1479.575507268469
 21
209.1484564189031
 31
0.0
  0
LINE
  5
E0
330
70
100
AcDbEntity
  8
MAIN-1
 62
    18
420
        0
370
    25
100
AcDbLine
 10
1479.575507268469
 20
204.3099202401936
 30
0.0
 11
1479.575507268469
 21
209.1484564189031
 31
0.0
  0
LINE
  5
E1
330
70
100
AcDbEntity
  8
MAIN-1
 62
    18
420
        0
370
    25
100
AcDbLine
 10
1509.927683016851
 20
230.59567549842
 30
0.0
 11
1479.575507268469
 21
204.3099202401936
 31
0.0
  0
LINE
  5
E2
330
70
100
AcDbEntity
  8
MAIN-1
 62
    18
420
        0
370
    25
100
AcDbLine
 10
1509.927683016851
 20
230.59567549842
 30
0.0
 11
1509.927683016851
 21
256.261784113085
 31
0.0
  0
LINE
  5
E3
330
70
100
AcDbEntity
  8
MAIN-1
 62
    18
420
        0
370
    25
100
AcDbLine
 10
1509.927683016851
 20
256.261784113085
 30
0.0
 11
1498.967175107713
 21
246.7697058253925
 31
0.0
  0
LINE
  5
E4
330
70
100
AcDbEntity
  8
MAIN-1
 62
    18
420
        0
370
    25
100
AcDbLine
 10
1498.967175107713
 20
246.7697058253925
 30
0.0
 11
1498.967175107713
 21
392.4226478346755
 31
0.0
  0
LINE
  5
E5
330
70
100
AcDbEntity
  8
MAIN-1
 62
    18
420
        0
370
    25
100
AcDbLine
 10
1498.967175107713
 20
392.4226478346755
 30
0.0
 11
1493.06536315664
 21
387.3115287566871
 31
0.0
  0
LINE
  5
E6
330
70
100
AcDbEntity
  8
MAIN-1
 62
    18
420
        0
370
    25
100
AcDbLine
 10
1493.06536315664
 20
387.3115287566871
 30
0.0
 11
1493.06536315664
 21
700.1989840298083
 31
0.0
  0
LINE
  5
E7
330
70
100
AcDbEntity
  8
MAIN-1
 62
    18
420
        0
370
    25
100
AcDbLine
 10
1493.06536315664
 20
700.1989840298083
 30
0.0
 11
1476.203043296427
 21
685.5957866641274
 31
0.0
  0
LINE
  5
E8
330
70
100
AcDbEntity
  8
MAIN-1
 62
    18
420
        0
370
    25
100
AcDbLine
 10
1476.203043296427
 20
372.7083313910061
 30
0.0
 11
1491.379131170619
 21
385.8512090201184
 31
0.0
  0
LINE
  5
E9
330
70
100
AcDbEntity
  8
MAIN-1
 62
    18
420
        0
370
    25
100
AcDbLine
 10
1477.558516793146
 20
228.7338275070906
 30
0.0
 11
1477.558516793146
 21
373.8822058733203
 31
0.0
  0
LINE
  5
EA
330
70
100
AcDbEntity
  8
MAIN-1
 62
    18
420
        0
370
    25
100
AcDbLine
 10
1491.37913076859
 20
219.3706948448707
 30
0.0
 11
1490.94930135128
 21
219.060778336383
 31
0.0
  0
LINE
  5
EB
330
70
100
AcDbEntity
  8
MAIN-1
 62
    18
420
        0
370
    25
100
AcDbLine
 10
1490.94930135128
 20
219.060778336383
 30
0.0
 11
1490.516649517029
 21
218.858884281939
 31
0.0
  0
LINE
  5
EC
330
70
100
AcDbEntity
  8
MAIN-1
 62
    18
420
        0
370
    25
100
AcDbLine
 10
1490.516649517029
 20
218.858884281939
 30
0.0
 11
1490.081710075456
 21
218.7442258977444
 31
0.0
  0
LINE
  5
ED
330
70
100
AcDbEntity
  8
MAIN-1
 62
    18
420
        0
370
    25
100
AcDbLine
 10
1490.081710075456
 20
218.7442258977444
 30
0.0
 11
1489.645037648988
 21
218.6960431761618
 31
0.0
  0
LINE
  5
EE
330
70
100
AcDbEntity
  8
MAIN-1
 62
    18
420
        0
370
    25
100
AcDbLine
 10
1489.645037648988
 20
218.6960431761618
 30
0.0
 11
1489.20707983833
 21
218.697548258544
 31
0.0
  0
LINE
  5
EF
330
70
100
AcDbEntity
  8
MAIN-1
 62
    18
420
        0
370
    25
100
AcDbLine
 10
1489.20707983833
 20
218.697548258544
 30
0.0
 11
1488.767933006107
 21
218.7430590895219
 31
0.0
  0
LINE
  5
F0
330
70
100
AcDbEntity
  8
MAIN-1
 62
    18
420
        0
370
    25
100
AcDbLine
 10
1488.767933006107
 20
218.7430590895219
 30
0.0
 11
1488.327778838058
 21
218.8287978302251
 31
0.0
  0
LINE
  5
F1
330
70
100
AcDbEntity
  8
MAIN-1
 62
    18
420
        0
370
    25
100
AcDbLine
 10
1488.327778838058
 20
218.8287978302251
 30
0.0
 11
1487.886661763126
 21
218.950972878747
 31
0.0
  0
LINE
  5
F2
330
70
100
AcDbEntity
  8
MAIN-1
 62
    18
420
        0
370
    25
100
AcDbLine
 10
1487.886661763126
 20
218.950972878747
 30
0.0
 11
1487.444658094297
 21
219.1063474601651
 31
0.0
  0
LINE
  5
F3
330
70
100
AcDbEntity
  8
MAIN-1
 62
    18
420
        0
370
    25
100
AcDbLine
 10
1487.444658094297
 20
219.1063474601651
 30
0.0
 11
1487.001852205854
 21
219.2926155609784
 31
0.0
  0
LINE
  5
F4
330
70
100
AcDbEntity
  8
MAIN-1
 62
    18
420
        0
370
    25
100
AcDbLine
 10
1487.001852205854
 20
219.2926155609784
 30
0.0
 11
1486.558316988507
 21
219.5076508875009
 31
0.0
  0
LINE
  5
F5
330
70
100
AcDbEntity
  8
MAIN-1
 62
    18
420
        0
370
    25
100
AcDbLine
 10
1486.558316988507
 20
219.5076508875009
 30
0.0
 11
1486.114045793083
 21
219.7493408227729
 31
0.0
  0
LINE
  5
F6
330
70
100
AcDbEntity
  8
MAIN-1
 62
    18
420
        0
370
    25
100
AcDbLine
 10
1486.114045793083
 20
219.7493408227729
 30
0.0
 11
1485.669159475488
 21
220.0160303399316
 31
0.0
  0
LINE
  5
F7
330
70
100
AcDbEntity
  8
MAIN-1
 62
    18
420
        0
370
    25
100
AcDbLine
 10
1485.669159475488
 20
220.0160303399316
 30
0.0
 11
1485.223618678028
 21
220.3068719877519
 31
0.0
  0
LINE
  5
F8
330
70
100
AcDbEntity
  8
MAIN-1
 62
    18
420
        0
370
    25
100
AcDbLine
 10
1485.223618678028
 20
220.3068719877519
 30
0.0
 11
1484.777485694479
 21
220.6210377141888
 31
0.0
  0
LINE
  5
F9
330
70
100
AcDbEntity
  8
MAIN-1
 62
    18
420
        0
370
    25
100
AcDbLine
 10
1484.777485694479
 20
220.6210377141888
 30
0.0
 11
1484.330751319323
 21
220.9577201072589
 31
0.0
  0
LINE
  5
FA
330
70
100
AcDbEntity
  8
MAIN-1
 62
    18
420
        0
370
    25
100
AcDbLine
 10
1484.330751319323
 20
220.9577201072589
 30
0.0
 11
1483.883435643651
 21
221.3164607496056
 31
0.0
  0
LINE
  5
FB
330
70
100
AcDbEntity
  8
MAIN-1
 62
    18
420
        0
370
    25
100
AcDbLine
 10
1483.883435643651
 20
221.3164607496056
 30
0.0
 11
1483.435558191624
 21
221.6971982983068
 31
0.0
  0
LINE
  5
FC
330
70
100
AcDbEntity
  8
MAIN-1
 62
    18
420
        0
370
    25
100
AcDbLine
 10
1483.435558191624
 20
221.6971982983068
 30
0.0
 11
1482.987096851648
 21
222.0998439706873
 31
0.0
  0
LINE
  5
FD
330
70
100
AcDbEntity
  8
MAIN-1
 62
    18
420
        0
370
    25
100
AcDbLine
 10
1482.987096851648
 20
222.0998439706873
 30
0.0
 11
1482.538075168175
 21
222.5243399055052
 31
0.0
  0
LINE
  5
FE
330
70
100
AcDbEntity
  8
MAIN-1
 62
    18
420
        0
370
    25
100
AcDbLine
 10
1482.538075168175
 20
222.5243399055052
 30
0.0
 11
1482.088471029608
 21
222.9706251734733
 31
0.0
  0
LINE
  5
FF
330
70
100
AcDbEntity
  8
MAIN-1
 62
    18
420
        0
370
    25
100
AcDbLine
 10
1482.088471029608
 20
222.9706251734733
 30
0.0
 11
1481.638312000697
 21
223.4386036149353
 31
0.0
  0
LINE
  5
100
330
70
100
AcDbEntity
  8
MAIN-1
 62
    18
420
        0
370
    25
100
AcDbLine
 10
1481.638312000697
 20
223.4386036149353
 30
0.0
 11
1481.187571949547
 21
223.9282525990148
 31
0.0
  0
LINE
  5
101
330
70
100
AcDbEntity
  8
MAIN-1
 62
    18
420
        0
370
    25
100
AcDbLine
 10
1481.187571949547
 20
223.9282525990148
 30
0.0
 11
1480.73629280057
 21
224.4395762709883
 31
0.0
  0
LINE
  5
102
330
70
100
AcDbEntity
  8
MAIN-1
 62
    18
420
        0
370
    25
100
AcDbLine
 10
1480.73629280057
 20
224.4395762709883
 30
0.0
 11
1480.284380963592
 21
224.973555626566
 31
0.0
  0
LINE
  5
103
330
70
100
AcDbEntity
  8
MAIN-1
 62
    18
420
        0
370
    25
100
AcDbLine
 10
1480.284380963592
 20
224.973555626566
 30
0.0
 11
1479.831874085174
 21
225.5316142476349
 31
0.0
  0
LINE
  5
104
330
70
100
AcDbEntity
  8
MAIN-1
 62
    18
420
        0
370
    25
100
AcDbLine
 10
1479.831874085174
 20
225.5316142476349
 30
0.0
 11
1479.378674565216
 21
226.1152054739614
 31
0.0
  0
LINE
  5
105
330
70
100
AcDbEntity
  8
MAIN-1
 62
    18
420
        0
370
    25
100
AcDbLine
 10
1479.378674565216
 20
226.1152054739614
 30
0.0
 11
1478.924794207034
 21
226.7257905222359
 31
0.0
  0
LINE
  5
106
330
70
100
AcDbEntity
  8
MAIN-1
 62
    18
420
        0
370
    25
100
AcDbLine
 10
1478.924794207034
 20
226.7257905222359
 30
0.0
 11
1478.470159243627
 21
227.3647833565828
 31
0.0
  0
LINE
  5
107
330
70
100
AcDbEntity
  8
MAIN-1
 62
    18
420
        0
370
    25
100
AcDbLine
 10
1478.470159243627
 20
227.3647833565828
 30
0.0
 11
1478.014755635066
 21
228.033641048416
 31
0.0
  0
LINE
  5
108
330
70
100
AcDbEntity
  8
MAIN-1
 62
    18
420
        0
370
    25
100
AcDbLine
 10
1478.014755635066
 20
228.033641048416
 30
0.0
 11
1477.558511624498
 21
228.733835009476
 31
0.0
  0
SPLINE
  5
109
330
70
100
AcDbEntity
  8
MAIN-1
 62
    18
420
        0
370
    25
100
AcDbSpline
210
0.0
220
0.0
230
1.0
 70
     8
 71
     3
 72
     8
 73
     4
 74
     0
 42
0.0000000001
 43
0.0000000001
 40
0.0
 40
0.0
 40
0.0
 40
0.0
 40
1.0
 40
1.0
 40
1.0
 40
1.0
 10
1416.681198199283
 20
320.1004306428695
 30
0.0
 10
1413.646298443071
 20
321.5116654492413
 30
0.0
 10
1410.553401339657
 20
321.3059352271484
 30
0.0
 10
1408.536051934456
 20
319.5586399870517
 30
0.0
  0
LINE
  5
10A
330
70
100
AcDbEntity
  8
MAIN-1
 62
    18
420
        0
370
    25
100
AcDbLine
 10
1417.108059137219
 20
319.9019394037987
 30
0.0
 11
1416.681198199285
 21
320.1004306428786
 31
0.0
  0
SPLINE
  5
10B
330
70
100
AcDbEntity
  8
MAIN-1
 62
    18
420
        0
370
    25
100
AcDbSpline
210
0.0
220
0.0
230
1.0
 70
     8
 71
     3
 72
     8
 73
     4
 74
     0
 42
0.0000000001
 43
0.0000000001
 40
0.0
 40
0.0
 40
0.0
 40
0.0
 40
1.0
 40
1.0
 40
1.0
 40
1.0
 10
1422.491053907519
 20
315.113573094066
 30
0.0
 10
1421.158002673444
 20
317.2046196108058
 30
0.0
 10
1419.2403984878
 20
318.9103970952256
 30
0.0
 10
1417.108059137223
 20
319.9019394037878
 30
0.0
  0
LINE
  5
10C
330
70
100
AcDbEntity
  8
MAIN-1
 62
    18
420
        0
370
    25
100
AcDbLine
 10
1422.491053907486
 20
315.1135730940496
 30
0.0
 11
1477.558516793169
 21
228.7338275071015
 31
0.0
  0
LINE
  5
10D
330
70
100
AcDbEntity
  8
MAIN-1
 62
    18
420
        0
370
    25
100
AcDbLine
 10
1380.087820093226
 20
288.4096355927413
 30
0.0
 11
1416.681198199285
 21
320.1004306428786
 31
0.0
  0
LINE
  5
10E
330
70
100
AcDbEntity
  8
MAIN-1
 62
    18
420
        0
370
    25
100
AcDbLine
 10
1380.087820093226
 20
287.8414719375269
 30
0.0
 11
1417.108059137219
 21
319.9019394037987
 31
0.0
  0
LINE
  5
10F
330
70
100
AcDbEntity
  8
MAIN-1
 62
    18
420
        0
370
    25
100
AcDbLine
 10
1379.773011239616
 20
278.118662943727
 30
0.0
 11
1422.491053907486
 21
315.1135730940496
 31
0.0
  0
LINE
  5
110
330
70
100
AcDbEntity
  8
MAIN-1
 62
    18
420
        0
370
    25
100
AcDbLine
 10
1452.386103012312
 20
251.7982118139171
 30
0.0
 11
1419.145727330342
 21
263.4754122424856
 31
0.0
  0
LINE
  5
111
330
70
100
AcDbEntity
  8
MAIN-1
 62
    18
420
        0
370
    25
100
AcDbLine
 10
1479.575507268469
 20
209.1484564189031
 30
0.0
 11
1452.386103012393
 21
251.7982118139571
 31
0.0
  0
LINE
  5
112
330
70
100
AcDbEntity
  8
MAIN-1
 62
    18
420
        0
370
    25
100
AcDbLine
 10
1366.126087401861
 20
259.8406020254879
 30
0.0
 11
1383.492723604802
 21
232.599005294851
 31
0.0
  0
LINE
  5
113
330
70
100
AcDbEntity
  8
MAIN-1
 62
    18
420
        0
370
    25
100
AcDbLine
 10
1383.492723604771
 20
232.5990052948346
 30
0.0
 11
1419.14572733042
 21
263.4754122424693
 31
0.0
  0
LINE
  5
114
330
70
100
AcDbEntity
  8
MAIN-1
 62
    18
420
        0
370
    25
100
AcDbLine
 10
1419.14572733042
 20
263.4754122424693
 30
0.0
 11
1419.14572733042
 21
161.054555981902
 31
0.0
  0
LINE
  5
115
330
70
100
AcDbEntity
  8
MAIN-1
 62
    18
420
        0
370
    25
100
AcDbLine
 10
1452.386103012312
 20
146.9141377690994
 30
0.0
 11
1419.145727330335
 21
161.0545559819074
 31
0.0
  0
LINE
  5
116
330
70
100
AcDbEntity
  8
MAIN-1
 62
    18
420
        0
370
    25
100
AcDbLine
 10
1452.386103012312
 20
251.7982118139171
 30
0.0
 11
1452.386103012312
 21
146.9141377690994
 31
0.0
  0
LINE
  5
117
330
70
100
AcDbEntity
  8
MAIN-1
 62
    18
420
        0
370
    25
100
AcDbLine
 10
1372.623384745661
 20
120.7650254599375
 30
0.0
 11
1419.14572733042
 21
161.054555981902
 31
0.0
  0
LINE
  5
118
330
70
100
AcDbEntity
  8
MAIN-1
 62
    18
420
        0
370
    25
100
AcDbLine
 10
1383.492723604771
 20
232.5990052948346
 30
0.0
 11
1383.492723604771
 21
230.9817148602306
 31
0.0
  0
LINE
  5
119
330
70
100
AcDbEntity
  8
MAIN-1
 62
    18
420
        0
370
    25
100
AcDbLine
 10
1383.492723604771
 20
230.9817148602306
 30
0.0
 11
1364.580973723179
 21
214.6036590327567
 31
0.0
  0
LINE
  5
11A
330
70
100
AcDbEntity
  8
MAIN-1
 62
    18
420
        0
370
    25
100
AcDbLine
 10
1454.651053977333
 20
143.0256175386967
 30
0.0
 11
1354.584647823336
 21
56.36556774392556
 31
0.0
  0
LINE
  5
11B
330
70
100
AcDbEntity
  8
MAIN-1
 62
    18
420
        0
370
    25
100
AcDbLine
 10
1452.386103012312
 20
146.9141377690994
 30
0.0
 11
1454.651053977172
 21
143.0256175386312
 31
0.0
  0
LINE
  5
11C
330
70
100
AcDbEntity
  8
MAIN-1
 62
    18
420
        0
370
    25
100
AcDbLine
 10
1442.510843115509
 20
102.4320740394723
 30
0.0
 11
1454.323230482767
 21
120.7332337938624
 31
0.0
  0
LINE
  5
11D
330
70
100
AcDbEntity
  8
MAIN-1
 62
    18
420
        0
370
    25
100
AcDbLine
 10
1454.323230482647
 20
120.7332337939406
 30
0.0
 11
1491.776804389248
 21
212.8241668916471
 31
0.0
  0
LINE
  5
11E
330
70
100
AcDbEntity
  8
MAIN-1
 62
    18
420
        0
370
    25
100
AcDbLine
 10
1508.639124249446
 20
227.4273642573353
 30
0.0
 11
1491.776804389236
 21
212.8241668916544
 31
0.0
  0
LINE
  5
11F
330
70
100
AcDbEntity
  8
MAIN-1
 62
    18
420
        0
370
    25
100
AcDbLine
 10
1508.639124249446
 20
227.4273642573353
 30
0.0
 11
1509.927683016727
 21
230.5956754985
 31
0.0
  0
LINE
  5
120
330
70
100
AcDbEntity
  8
MAIN-1
 62
    18
420
        0
370
    25
100
AcDbLine
 10
1454.651053977333
 20
143.0256175386967
 30
0.0
 11
1479.57550726859
 21
204.3099202401154
 31
0.0
  0
LINE
  5
121
330
70
100
AcDbEntity
  8
MAIN-1
 62
    18
420
        0
370
    25
100
AcDbLine
 10
1354.584647823207
 20
63.50117150437836
 30
0.0
 11
1354.584647823207
 21
56.36556774398923
 31
0.0
  0
LINE
  5
122
330
70
100
AcDbEntity
  8
MAIN-1
 62
    18
420
        0
370
    25
100
AcDbLine
 10
1375.029124135162
 20
113.7700965729673
 30
0.0
 11
1354.584647823209
 21
63.50117150437654
 31
0.0
  0
LINE
  5
123
330
70
100
AcDbEntity
  8
MAIN-1
 62
    18
420
        0
370
    25
100
AcDbLine
 10
1375.029124135162
 20
113.7700965729673
 30
0.0
 11
1344.676948386781
 21
87.48434131473914
 31
0.0
  0
LINE
  5
124
330
70
100
AcDbEntity
  8
MAIN-1
 62
    18
420
        0
370
    25
100
AcDbLine
 10
1344.676948386781
 20
87.48434131473914
 30
0.0
 11
1343.388389619502
 21
84.31603007357443
 31
0.0
  0
LINE
  5
125
330
70
100
AcDbEntity
  8
MAIN-1
 62
    18
420
        0
370
    25
100
AcDbLine
 10
1343.388389619378
 20
84.31603007365447
 30
0.0
 11
1360.250709479589
 21
98.91922743933719
 31
0.0
  0
LINE
  5
126
330
70
100
AcDbEntity
  8
MAIN-1
 62
    18
420
        0
370
    25
100
AcDbLine
 10
1322.797135573
 20
6.828294341623404
 30
0.0
 11
1360.250709479602
 21
98.91922743932992
 31
0.0
  0
LINE
  5
127
330
70
100
AcDbEntity
  8
MAIN-1
 62
    18
420
        0
370
    25
100
AcDbLine
 10
1324.474604094032
 20
0.2096924797006068
 30
0.0
 11
1322.797135573104
 21
6.828294341532455
 31
0.0
  0
LINE
  5
128
330
70
100
AcDbEntity
  8
MAIN-1
 62
    18
420
        0
370
    25
100
AcDbLine
 10
1322.797135573
 20
6.828294341623404
 30
0.0
 11
1259.316886687222
 21
25.15346373283865
 31
0.0
  0
LINE
  5
129
330
70
100
AcDbEntity
  8
MAIN-1
 62
    18
420
        0
370
    25
100
AcDbLine
 10
1254.379256738761
 20
20.44447631195362
 30
0.0
 11
1259.316886687231
 21
25.15346373278044
 31
0.0
  0
LINE
  5
12A
330
70
100
AcDbEntity
  8
MAIN-1
 62
    18
420
        0
370
    25
100
AcDbLine
 10
1242.454566827009
 20
10.55026636715592
 30
0.0
 11
1259.316886687222
 21
25.15346373283865
 31
0.0
  0
LINE
  5
12B
330
70
100
AcDbEntity
  8
MAIN-1
 62
    18
420
        0
370
    25
100
AcDbLine
 10
1230.772008934464
 20
0.0
 30
0.0
 11
1242.454566827042
 21
10.55026636711954
 31
0.0
  0
LINE
  5
12C
330
70
100
AcDbEntity
  8
MAIN-1
 62
    18
420
        0
370
    25
100
AcDbLine
 10
1343.388389619378
 20
84.31603007365447
 30
0.0
 11
1198.644974729965
 21
126.0998548485695
 31
0.0
  0
LINE
  5
12D
330
70
100
AcDbEntity
  8
MAIN-1
 62
    18
420
        0
370
    25
100
AcDbLine
 10
1344.676948386781
 20
87.48434131473914
 30
0.0
 11
1344.676948386781
 21
113.150449929406
 31
0.0
  0
LINE
  5
12E
330
70
100
AcDbEntity
  8
MAIN-1
 62
    18
420
        0
370
    25
100
AcDbLine
 10
1344.676948386781
 20
113.150449929406
 30
0.0
 11
1283.060177454534
 21
130.9376795715688
 31
0.0
  0
SPLINE
  5
12F
330
70
100
AcDbEntity
  8
MAIN-1
 62
    18
420
        0
370
    25
100
AcDbSpline
210
0.0
220
0.0
230
1.0
 70
     8
 71
     3
 72
     8
 73
     4
 74
     0
 42
0.0000000001
 43
0.0000000001
 40
0.0
 40
0.0
 40
0.0
 40
0.0
 40
1.0
 40
1.0
 40
1.0
 40
1.0
 10
1274.43137226384
 20
143.712010657191
 30
0.0
 10
1274.342799278569
 20
143.2352571145693
 30
0.0
 10
1274.298259035124
 20
142.7390174631819
 30
0.0
 10
1274.298259035124
 20
142.2289459700096
 30
0.0
  0
LINE
  5
130
330
70
100
AcDbEntity
  8
MAIN-1
 62
    18
420
        0
370
    25
100
AcDbLine
 10
1314.451887740339
 20
359.1267047998681
 30
0.0
 11
1274.431372263709
 21
143.7120106572693
 31
0.0
  0
LINE
  5
131
330
70
100
AcDbEntity
  8
MAIN-1
 62
    18
420
        0
370
    25
100
AcDbLine
 10
1314.451887740339
 20
359.1267047998681
 30
0.0
 11
1236.613287880609
 21
617.4893363188767
 31
0.0
  0
LINE
  5
132
330
70
100
AcDbEntity
  8
MAIN-1
 62
    18
420
        0
370
    25
100
AcDbLine
 10
766.3903327057869
 20
823.3263585488529
 30
0.0
 11
766.3903327057869
 21
808.7231611831722
 31
0.0
  0
LINE
  5
133
330
70
100
AcDbEntity
  8
MAIN-1
 62
    18
420
        0
370
    25
100
AcDbLine
 10
766.3903327057869
 20
823.3263585488529
 30
0.0
 11
754.7077748132415
 21
826.6988225208951
 31
0.0
  0
LINE
  5
134
330
70
100
AcDbEntity
  8
MAIN-1
 62
    18
420
        0
370
    25
100
AcDbLine
 10
754.7077748132415
 20
826.6988225208951
 30
0.0
 11
676.7673790889776
 21
749.4391194298914
 31
0.0
  0
SPLINE
  5
135
330
70
100
AcDbEntity
  8
MAIN-1
 62
    18
420
        0
370
    25
100
AcDbSpline
210
0.0
220
0.0
230
1.0
 70
     8
 71
     3
 72
     8
 73
     4
 74
     0
 42
0.0000000001
 43
0.0000000001
 40
0.0
 40
0.0
 40
0.0
 40
0.0
 40
1.0
 40
1.0
 40
1.0
 40
1.0
 10
675.8295695848455
 20
748.5700785686822
 30
0.0
 10
676.1517243188954
 20
748.8490406911114
 30
0.0
 10
676.4644273151007
 20
749.1388134860353
 30
0.0
 10
676.7673790890012
 20
749.4391194298914
 30
0.0
  0
SPLINE
  5
136
330
70
100
AcDbEntity
  8
MAIN-1
 62
    18
420
        0
370
    25
100
AcDbSpline
210
0.0
220
0.0
230
1.0
 70
     8
 71
     3
 72
     8
 73
     4
 74
     0
 42
0.0000000001
 43
0.0000000001
 40
0.0
 40
0.0
 40
0.0
 40
0.0
 40
1.0
 40
1.0
 40
1.0
 40
1.0
 10
653.7524259666042
 20
744.8578214580848
 30
0.0
 10
662.2260673806913
 20
742.4116918823638
 30
0.0
 10
670.2819959148309
 20
743.7662909419377
 30
0.0
 10
675.8295695848455
 20
748.5700785686822
 30
0.0
  0
LINE
  5
137
330
70
100
AcDbEntity
  8
MAIN-1
 62
    18
420
        0
370
    25
100
AcDbLine
 10
653.7524259666042
 20
744.8578214580848
 30
0.0
 11
525.8669201582115
 21
781.7751870600477
 31
0.0
  0
LINE
  5
138
330
70
100
AcDbEntity
  8
MAIN-1
 62
    18
420
        0
370
    25
100
AcDbLine
 10
525.8669201582115
 20
781.7751870600477
 30
0.0
 11
442.3582270503447
 21
599.1908018255307
 31
0.0
  0
LINE
  5
139
330
70
100
AcDbEntity
  8
MAIN-1
 62
    18
420
        0
370
    25
100
AcDbLine
 10
480.3178931059892
 20
372.9528261366358
 30
0.0
 11
442.3582270501665
 21
599.1908018256599
 31
0.0
  0
SPLINE
  5
13A
330
70
100
AcDbEntity
  8
MAIN-1
 62
    18
420
        0
370
    25
100
AcDbSpline
210
0.0
220
0.0
230
1.0
 70
     8
 71
     3
 72
     8
 73
     4
 74
     0
 42
0.0000000001
 43
0.0000000001
 40
0.0
 40
0.0
 40
0.0
 40
0.0
 40
1.0
 40
1.0
 40
1.0
 40
1.0
 10
480.4510063348106
 20
371.392908490996
 30
0.0
 10
480.4510063348106
 20
371.9029799841737
 30
0.0
 10
480.4064660913645
 20
372.4249349571091
 30
0.0
 10
480.3178931060938
 20
372.9528261366249
 30
0.0
  0
LINE
  5
13B
330
70
100
AcDbEntity
  8
MAIN-1
 62
    18
420
        0
370
    25
100
AcDbLine
 10
410.0723169831535
 20
382.9475676927832
 30
0.0
 11
471.6890879154016
 21
365.1603380506185
 31
0.0
  0
LINE
  5
13C
330
70
100
AcDbEntity
  8
MAIN-1
 62
    18
420
        0
370
    25
100
AcDbLine
 10
1242.454566827009
 20
10.55026636715592
 30
0.0
 11
1242.454566827009
 21
25.83393075932145
 31
0.0
  0
LINE
  5
13D
330
70
100
AcDbEntity
  8
MAIN-1
 62
    18
420
        0
370
    25
100
AcDbLine
 10
1198.644974729965
 20
46.9963927095996
 30
0.0
 11
1242.454566827029
 21
25.83393075941422
 31
0.0
  0
LINE
  5
13E
330
70
100
AcDbEntity
  8
MAIN-1
 62
    18
420
        0
370
    25
100
AcDbLine
 10
1198.644974729965
 20
126.0998548485695
 30
0.0
 11
1198.644974729965
 21
46.9963927095996
 31
0.0
  0
LINE
  5
13F
330
70
100
AcDbEntity
  8
MAIN-1
 62
    18
420
        0
370
    25
100
AcDbLine
 10
1215.507294590176
 20
61.59959007528232
 30
0.0
 11
1215.507294590176
 21
121.2321223933413
 31
0.0
  0
LINE
  5
140
330
70
100
AcDbEntity
  8
MAIN-1
 62
    18
420
        0
370
    25
100
AcDbLine
 10
1259.316886687222
 20
40.43712812500234
 30
0.0
 11
1215.507294590157
 21
61.59959007518955
 31
0.0
  0
LINE
  5
141
330
70
100
AcDbEntity
  8
MAIN-1
 62
    18
420
        0
370
    25
100
AcDbLine
 10
1259.316886687222
 20
40.43712812500234
 30
0.0
 11
1259.316886687222
 21
25.15346373283865
 31
0.0
  0
LINE
  5
142
330
70
100
AcDbEntity
  8
MAIN-1
 62
    18
420
        0
370
    25
100
AcDbLine
 10
1242.454566827009
 20
25.83393075932145
 30
0.0
 11
1259.316886687222
 21
40.43712812500234
 31
0.0
  0
LINE
  5
143
330
70
100
AcDbEntity
  8
MAIN-1
 62
    18
420
        0
370
    25
100
AcDbLine
 10
1198.644974729965
 20
46.9963927095996
 30
0.0
 11
1215.507294590176
 21
61.59959007528232
 31
0.0
  0
LINE
  5
144
330
70
100
AcDbEntity
  8
MAIN-1
 62
    18
420
        0
370
    25
100
AcDbLine
 10
421.0328248922905
 20
392.4396459804757
 30
0.0
 11
479.8995229961528
 21
375.4462939821915
 31
0.0
  0
LINE
  5
145
330
70
100
AcDbEntity
  8
MAIN-1
 62
    18
420
        0
370
    25
100
AcDbLine
 10
421.0328248922905
 20
538.0925879897586
 30
0.0
 11
444.1347369566665
 21
588.6028792544967
 31
0.0
  0
LINE
  5
146
330
70
100
AcDbEntity
  8
MAIN-1
 62
    18
420
        0
370
    25
100
AcDbLine
 10
587.5698078658634
 20
894.418327446243
 30
0.0
 11
542.7292400183342
 21
796.3783844257904
 31
0.0
  0
LINE
  5
147
330
70
100
AcDbEntity
  8
MAIN-1
 62
    18
420
        0
370
    25
100
AcDbLine
 10
612.8632876561805
 20
916.3231234947652
 30
0.0
 11
587.5698078658634
 21
894.418327446243
 31
0.0
  0
LINE
  5
148
330
70
100
AcDbEntity
  8
MAIN-1
 62
    18
420
        0
370
    25
100
AcDbLine
 10
542.7292400184232
 20
796.3783844257286
 30
0.0
 11
525.8669201582115
 21
781.7751870600477
 31
0.0
  0
LINE
  5
149
330
70
100
AcDbEntity
  8
MAIN-1
 62
    18
420
        0
370
    25
100
AcDbLine
 10
771.5700946734523
 20
841.3020198865778
 30
0.0
 11
587.5698078658634
 21
894.418327446243
 31
0.0
  0
LINE
  5
14A
330
70
100
AcDbEntity
  8
MAIN-1
 62
    18
420
        0
370
    25
100
AcDbLine
 10
595.8794818742862
 20
781.0352312042414
 30
0.0
 11
542.7292400184232
 21
796.3783844257286
 31
0.0
  0
SPLINE
  5
14B
330
70
100
AcDbEntity
  8
MAIN-1
 62
    18
420
        0
370
    25
100
AcDbSpline
210
0.0
220
0.0
230
1.0
 70
     8
 71
     3
 72
    11
 73
     7
 74
     0
 42
0.0000000001
 43
0.0000000001
 40
0.0
 40
0.0
 40
0.0
 40
0.0
 40
1.0
 40
1.0
 40
1.0
 40
2.0
 40
2.0
 40
2.0
 40
2.0
 10
582.339633051788
 20
805.0175002693249
 30
0.0
 10
579.3183847229001
 20
798.4118075176302
 30
0.0
 10
582.9311758364319
 20
788.8576820645648
 30
0.0
 10
590.4090278561125
 20
783.6777637974155
 30
0.0
 10
592.1473467306005
 20
782.4736279481912
 30
0.0
 10
594.0046445742964
 20
781.5764501141584
 30
0.0
 10
595.8794818742862
 20
781.0352312042414
 30
0.0
  0
LINE
  5
14C
330
70
100
AcDbEntity
  8
MAIN-1
 62
    18
420
        0
370
    25
100
AcDbLine
 10
582.3396330518735
 20
805.0175002692666
 30
0.0
 11
603.5799020322956
 21
851.4574732789842
 31
0.0
  0
SPLINE
  5
14D
330
70
100
AcDbEntity
  8
MAIN-1
 62
    18
420
        0
370
    25
100
AcDbSpline
210
0.0
220
0.0
230
1.0
 70
     8
 71
     3
 72
     8
 73
     4
 74
     0
 42
0.0000000001
 43
0.0000000001
 40
0.0
 40
0.0
 40
0.0
 40
0.0
 40
1.0
 40
1.0
 40
1.0
 40
1.0
 10
606.0812712307733
 20
854.8255502144911
 30
0.0
 10
605.0278393271437
 20
853.9133799616228
 30
0.0
 10
604.1826615164555
 20
852.7753536789713
 30
0.0
 10
603.5799020322102
 20
851.4574732789897
 30
0.0
  0
SPLINE
  5
14E
330
70
100
AcDbEntity
  8
MAIN-1
 62
    18
420
        0
370
    25
100
AcDbSpline
210
0.0
220
0.0
230
1.0
 70
     8
 71
     3
 72
     8
 73
     4
 74
     0
 42
0.0000000001
 43
0.0000000001
 40
0.0
 40
0.0
 40
0.0
 40
0.0
 40
1.0
 40
1.0
 40
1.0
 40
1.0
 10
617.1197508547229
 20
856.6815989453006
 30
0.0
 10
612.8829793058157
 20
857.90464954243
 30
0.0
 10
608.8550567625389
 20
857.2273805000495
 30
0.0
 10
606.0812712307733
 20
854.8255502144911
 30
0.0
  0
LINE
  5
14F
330
70
100
AcDbEntity
  8
MAIN-1
 62
    18
420
        0
370
    25
100
AcDbLine
 10
617.1197508547229
 20
856.6815989453006
 30
0.0
 11
718.8105666095698
 21
827.3259890202153
 31
0.0
  0
SPLINE
  5
150
330
70
100
AcDbEntity
  8
MAIN-1
 62
    18
420
        0
370
    25
100
AcDbSpline
210
0.0
220
0.0
230
1.0
 70
     8
 71
     3
 72
    11
 73
     7
 74
     0
 42
0.0000000001
 43
0.0000000001
 40
0.0
 40
0.0
 40
0.0
 40
0.0
 40
1.0
 40
1.0
 40
1.0
 40
2.0
 40
2.0
 40
2.0
 40
2.0
 10
733.0019632130243
 20
805.1825965346106
 30
0.0
 10
734.9037512177528
 20
812.4712895492647
 30
0.0
 10
730.0917503277887
 20
821.7558030250129
 30
0.0
 10
722.2540584049002
 20
825.9201378004945
 30
0.0
 10
721.1266598147285
 20
826.5191489891295
 30
0.0
 10
719.9706796401687
 20
826.9910932349612
 30
0.0
 10
718.8105666095698
 20
827.3259890202153
 30
0.0
  0
LINE
  5
151
330
70
100
AcDbEntity
  8
MAIN-1
 62
    18
420
        0
370
    25
100
AcDbLine
 10
771.5700946734523
 20
841.3020198865778
 30
0.0
 11
754.7077748132415
 21
826.6988225208951
 31
0.0
  0
LINE
  5
152
330
70
100
AcDbEntity
  8
MAIN-1
 62
    18
420
        0
370
    25
100
AcDbLine
 10
635.4559406115385
 20
851.0175719711623
 30
0.0
 11
635.6057636076966
 21
851.3451467257146
 31
0.0
  0
SPLINE
  5
153
330
70
100
AcDbEntity
  8
MAIN-1
 62
    18
420
        0
370
    25
100
AcDbSpline
210
0.0
220
0.0
230
1.0
 70
     8
 71
     3
 72
    11
 73
     7
 74
     0
 42
0.0000000001
 43
0.0000000001
 40
0.0
 40
0.0
 40
0.0
 40
0.0
 40
1.0
 40
1.0
 40
1.0
 40
2.0
 40
2.0
 40
2.0
 40
2.0
 10
635.4559406114531
 20
851.0175719712224
 30
0.0
 10
632.4346922825652
 20
844.4118792195277
 30
0.0
 10
636.047483396097
 20
834.8577537664622
 30
0.0
 10
643.5253354157776
 20
829.6778354993129
 30
0.0
 10
645.2636542902646
 20
828.4736996500887
 30
0.0
 10
647.1209521339615
 20
827.5765218160559
 30
0.0
 10
648.9957894339513
 20
827.0353029061389
 30
0.0
  0
LINE
  5
154
330
70
100
AcDbEntity
  8
MAIN-1
 62
    18
420
        0
370
    25
100
AcDbLine
 10
723.731053386481
 20
805.4610905256632
 30
0.0
 11
648.9957894339513
 21
827.0353029061389
 31
0.0
  0
SPLINE
  5
155
330
70
100
AcDbEntity
  8
MAIN-1
 62
    18
420
        0
370
    25
100
AcDbSpline
210
0.0
220
0.0
230
1.0
 70
     8
 71
     3
 72
     8
 73
     4
 74
     0
 42
0.0000000001
 43
0.0000000001
 40
0.0
 40
0.0
 40
0.0
 40
0.0
 40
1.0
 40
1.0
 40
1.0
 40
1.0
 10
723.731053386481
 20
805.4610905256632
 30
0.0
 10
726.558721107036
 20
804.6448131658417
 30
0.0
 10
729.3714023396524
 20
804.243499061873
 30
0.0
 10
732.0810450465105
 20
804.2697115018563
 30
0.0
  0
LINE
  5
156
330
70
100
AcDbEntity
  8
MAIN-1
 62
    18
420
        0
370
    25
100
AcDbLine
 10
653.7524259666042
 20
744.8578214580848
 30
0.0
 11
723.731053386481
 21
805.4610905256632
 31
0.0
  0
LINE
  5
157
330
70
100
AcDbEntity
  8
MAIN-1
 62
    18
420
        0
370
    25
100
AcDbLine
 10
648.9957894339513
 20
827.0353029061389
 30
0.0
 11
595.8794818742862
 21
781.0352312042414
 31
0.0
  0
LINE
  5
158
330
70
100
AcDbEntity
  8
MAIN-1
 62
    18
420
        0
370
    25
100
AcDbLine
 10
635.4559406115385
 20
851.0175719711623
 30
0.0
 11
582.3396330518735
 21
805.0175002692666
 31
0.0
  0
LINE
  5
159
330
70
100
AcDbEntity
  8
MAIN-1
 62
    18
420
        0
370
    25
100
AcDbLine
 10
609.7711670779753
 20
856.819266090264
 30
0.0
 11
603.5799020321937
 21
851.4574732790551
 31
0.0
  0
LINE
  5
15A
330
70
100
AcDbEntity
  8
MAIN-1
 62
    18
420
        0
370
    25
100
AcDbLine
 10
766.3903327057869
 20
823.3263585488529
 30
0.0
 11
847.0726463159589
 21
893.1992917713651
 31
0.0
  0
LINE
  5
15B
330
70
100
AcDbEntity
  8
MAIN-1
 62
    18
420
        0
370
    25
100
AcDbLine
 10
924.8150497129717
 20
960.5261880644357
 30
0.0
 11
931.6410673358559
 21
966.4376927325339
 31
0.0
  0
LINE
  5
15C
330
70
100
AcDbEntity
  8
MAIN-1
 62
    18
420
        0
370
    25
100
AcDbLine
 10
931.6410673358559
 20
966.4376927325339
 30
0.0
 11
919.9585094433105
 21
969.810156704576
 31
0.0
  0
LINE
  5
15D
330
70
100
AcDbEntity
  8
MAIN-1
 62
    18
420
        0
370
    25
100
AcDbLine
 10
919.9585094433105
 20
969.810156704576
 30
0.0
 11
913.1949239159993
 21
963.9527198172563
 31
0.0
  0
LINE
  5
15E
330
70
100
AcDbEntity
  8
MAIN-1
 62
    18
420
        0
370
    25
100
AcDbLine
 10
871.1482045480316
 20
964.4295482189264
 30
0.0
 11
720.0405949387459
 21
1008.050557761187
 31
0.0
  0
LINE
  5
15F
330
70
100
AcDbEntity
  8
MAIN-1
 62
    18
420
        0
370
    25
100
AcDbLine
 10
744.4268405195535
 20
966.1836870177813
 30
0.0
 11
673.2231701010005
 21
904.5194995926195
 31
0.0
  0
LINE
  5
160
330
70
100
AcDbEntity
  8
MAIN-1
 62
    18
420
        0
370
    25
100
AcDbLine
 10
650.52822538707
 20
905.4501925257955
 30
0.0
 11
673.2231701010005
 21
904.5194995926195
 31
0.0
  0
LINE
  5
161
330
70
100
AcDbEntity
  8
MAIN-1
 62
    18
420
        0
370
    25
100
AcDbLine
 10
650.52822538707
 20
905.4501925257955
 30
0.0
 11
612.8632876561805
 21
916.3231234947652
 31
0.0
  0
LINE
  5
162
330
70
100
AcDbEntity
  8
MAIN-1
 62
    18
420
        0
370
    25
100
AcDbLine
 10
931.6410673358559
 20
966.4376927325339
 30
0.0
 11
931.6410673358559
 21
958.3144689849541
 31
0.0
  0
LINE
  5
163
330
70
100
AcDbEntity
  8
MAIN-1
 62
    18
420
        0
370
    25
100
AcDbLine
 10
1509.927683016851
 20
256.261784113085
 30
0.0
 11
1498.967175107713
 21
259.4258102089825
 31
0.0
  0
LINE
  5
164
330
70
100
AcDbEntity
  8
MAIN-1
 62
    18
420
        0
370
    25
100
AcDbLine
 10
1498.967175107713
 20
392.4226478346755
 30
0.0
 11
1493.065363156664
 21
412.011998994014
 31
0.0
  0
LINE
  5
165
330
70
100
AcDbEntity
  8
MAIN-1
 62
    18
420
        0
370
    25
100
AcDbLine
 10
1478.462165790957
 20
719.0177613605428
 30
0.0
 11
1493.06536315664
 21
700.1989840298083
 31
0.0
  0
LINE
  5
166
330
70
100
AcDbEntity
  8
MAIN-1
 62
    18
420
        0
370
    25
100
AcDbLine
 10
574.8949745054078
 20
953.5693866621295
 30
0.0
 11
574.8949745054078
 21
866.705923252759
 31
0.0
  0
LINE
  5
167
330
70
100
AcDbEntity
  8
MAIN-1
 62
    18
420
        0
370
    25
100
AcDbLine
 10
650.52822538707
 20
905.4501925257955
 30
0.0
 11
603.491988550998
 21
986.2030924073733
 31
0.0
  0
LINE
  5
168
330
70
100
AcDbEntity
  8
MAIN-1
 62
    18
420
        0
370
    25
100
AcDbLine
 10
603.4919885510608
 20
986.2030924073987
 30
0.0
 11
563.4199800695669
 21
997.7708848492785
 31
0.0
  0
LINE
  5
169
330
70
100
AcDbEntity
  8
MAIN-1
 62
    18
420
        0
370
    25
100
AcDbLine
 10
563.4199800695669
 20
997.7708848492785
 30
0.0
 11
557.3711376665896
 21
993.4681928411245
 31
0.0
  0
LINE
  5
16A
330
70
100
AcDbEntity
  8
MAIN-1
 62
    18
420
        0
370
    25
100
AcDbLine
 10
557.3711376665896
 20
993.4681928411245
 30
0.0
 11
557.3711376665896
 21
964.4693615664655
 31
0.0
  0
LINE
  5
16B
330
70
100
AcDbEntity
  8
MAIN-1
 62
    18
420
        0
370
    25
100
AcDbLine
 10
557.3711376665896
 20
964.4693615664655
 30
0.0
 11
569.0536955591351
 21
961.0968975944233
 31
0.0
  0
SPLINE
  5
16C
330
70
100
AcDbEntity
  8
MAIN-1
 62
    18
420
        0
370
    25
100
AcDbSpline
210
0.0
220
0.0
230
1.0
 70
     8
 71
     3
 72
     8
 73
     4
 74
     0
 42
0.0000000001
 43
0.0000000001
 40
0.0
 40
0.0
 40
0.0
 40
0.0
 40
1.0
 40
1.0
 40
1.0
 40
1.0
 10
574.8949745054078
 20
953.5693866621295
 30
0.0
 10
574.8949745054078
 20
956.7954359436644
 30
0.0
 10
572.2797448406691
 20
960.1656173838673
 30
0.0
 10
569.0536955591351
 20
961.0968975944233
 30
0.0
  0
LINE
  5
16D
330
70
100
AcDbEntity
  8
MAIN-1
 62
    18
420
        0
370
    25
100
AcDbLine
 10
557.3711376665896
 20
964.4693615664655
 30
0.0
 11
547.6356727561342
 21
972.9005214965727
 31
0.0
  0
LINE
  5
16E
330
70
100
AcDbEntity
  8
MAIN-1
 62
    18
420
        0
370
    25
100
AcDbLine
 10
633.4425405403727
 20
1080.0
 30
0.0
 11
618.8393431746899
 21
1069.612382599372
 31
0.0
  0
LINE
  5
16F
330
70
100
AcDbEntity
  8
MAIN-1
 62
    18
420
        0
370
    25
100
AcDbLine
 10
687.1653348059498
 20
1064.491565134574
 30
0.0
 11
633.4425405403727
 21
1080.0
 31
0.0
  0
LINE
  5
170
330
70
100
AcDbEntity
  8
MAIN-1
 62
    18
420
        0
370
    25
100
AcDbLine
 10
744.4268405195535
 20
966.1836870177813
 30
0.0
 11
687.1653348060081
 21
1064.491565134598
 31
0.0
  0
LINE
  5
171
330
70
100
AcDbEntity
  8
MAIN-1
 62
    18
420
        0
370
    25
100
AcDbLine
 10
687.1653348059498
 20
1064.491565134574
 30
0.0
 11
615.9616643873978
 21
1002.827377709412
 31
0.0
  0
LINE
  5
172
330
70
100
AcDbEntity
  8
MAIN-1
 62
    18
420
        0
370
    25
100
AcDbLine
 10
673.2231701010005
 20
904.5194995926195
 30
0.0
 11
615.961664387456
 21
1002.827377709438
 31
0.0
  0
LINE
  5
173
330
70
100
AcDbEntity
  8
MAIN-1
 62
    18
420
        0
370
    25
100
AcDbLine
 10
603.4919885510608
 20
986.2030924073987
 30
0.0
 11
615.9616643875197
 21
1002.8273777093
 31
0.0
  0
LINE
  5
174
330
70
100
AcDbEntity
  8
MAIN-1
 62
    18
420
        0
370
    25
100
AcDbLine
 10
615.9616643873978
 20
1002.827377709412
 30
0.0
 11
562.2388701218197
 21
1018.335812574838
 31
0.0
  0
LINE
  5
175
330
70
100
AcDbEntity
  8
MAIN-1
 62
    18
420
        0
370
    25
100
AcDbLine
 10
563.4199800695669
 20
997.7708848492785
 30
0.0
 11
562.2388701219152
 21
1018.335812574849
 31
0.0
  0
LINE
  5
176
330
70
100
AcDbEntity
  8
MAIN-1
 62
    18
420
        0
370
    25
100
AcDbLine
 10
562.2388701218197
 20
1018.335812574838
 30
0.0
 11
547.6356727561369
 21
1007.948195174211
 31
0.0
  0
LINE
  5
177
330
70
100
AcDbEntity
  8
MAIN-1
 62
    18
420
        0
370
    25
100
AcDbLine
 10
557.3711376665896
 20
993.4681928411245
 30
0.0
 11
547.6356727561151
 21
1007.948195174136
 31
0.0
  0
LINE
  5
178
330
70
100
AcDbEntity
  8
MAIN-1
 62
    18
420
        0
370
    25
100
AcDbLine
 10
547.6356727561379
 20
1007.948195174209
 30
0.0
 11
547.6356727561379
 21
972.9005214965745
 31
0.0
  0
LINE
  5
179
330
70
100
AcDbEntity
  8
MAIN-1
 62
    18
420
        0
370
    25
100
AcDbLine
 10
618.8393431746908
 20
1069.612382599371
 30
0.0
 11
547.6356727561379
 21
1007.948195174209
 31
0.0
  0
LINE
  5
17A
330
70
100
AcDbEntity
  8
MAIN-1
 62
    18
420
        0
370
    25
100
AcDbLine
 10
633.4425405403727
 20
1080.0
 30
0.0
 11
562.2388701218197
 21
1018.335812574838
 31
0.0
  0
LINE
  5
17B
330
70
100
AcDbEntity
  8
MAIN-1
 62
    18
420
        0
370
    25
100
AcDbLine
 10
1361.539268246994
 20
273.4065893043698
 30
0.0
 11
1355.637456295919
 21
268.2954702263814
 31
0.0
  0
LINE
  5
17C
330
70
100
AcDbEntity
  8
MAIN-1
 62
    18
420
        0
370
    25
100
AcDbLine
 10
1253.475607740947
 20
632.092533684563
 30
0.0
 11
1361.539268246994
 21
273.4065893043698
 31
0.0
  0
LINE
  5
17D
330
70
100
AcDbEntity
  8
MAIN-1
 62
    18
420
        0
370
    25
100
AcDbLine
 10
1314.451887740339
 20
359.1267047998681
 30
0.0
 11
1325.412395649475
 21
368.6187830875606
 31
0.0
  0
LINE
  5
17E
330
70
100
AcDbEntity
  8
MAIN-1
 62
    18
420
        0
370
    25
100
AcDbLine
 10
1355.637456295919
 20
268.2954702263814
 30
0.0
 11
1325.412395649602
 21
368.6187830875661
 31
0.0
  0
LINE
  5
17F
330
70
100
AcDbEntity
  8
MAIN-1
 62
    18
420
        0
370
    25
100
AcDbLine
 10
1363.225500233013
 20
247.957984749286
 30
0.0
 11
1363.225500233013
 21
106.7691041610669
 31
0.0
  0
LINE
  5
180
330
70
100
AcDbEntity
  8
MAIN-1
 62
    18
420
        0
370
    25
100
AcDbLine
 10
1373.342885716676
 20
274.5140692294626
 30
0.0
 11
1372.902101083642
 21
274.1152992292246
 31
0.0
  0
LINE
  5
181
330
70
100
AcDbEntity
  8
MAIN-1
 62
    18
420
        0
370
    25
100
AcDbLine
 10
1372.902101083642
 20
274.1152992292246
 30
0.0
 11
1372.461268207124
 21
273.6824645348133
 31
0.0
  0
LINE
  5
182
330
70
100
AcDbEntity
  8
MAIN-1
 62
    18
420
        0
370
    25
100
AcDbLine
 10
1372.461268207124
 20
273.6824645348133
 30
0.0
 11
1372.019904652279
 21
273.2149314816415
 31
0.0
  0
LINE
  5
183
330
70
100
AcDbEntity
  8
MAIN-1
 62
    18
420
        0
370
    25
100
AcDbLine
 10
1372.019904652279
 20
273.2149314816415
 30
0.0
 11
1371.578525016275
 21
272.7129159334672
 31
0.0
  0
LINE
  5
184
330
70
100
AcDbEntity
  8
MAIN-1
 62
    18
420
        0
370
    25
100
AcDbLine
 10
1371.578525016275
 20
272.7129159334672
 30
0.0
 11
1371.138705252924
 21
272.1775459525306
 31
0.0
  0
LINE
  5
185
330
70
100
AcDbEntity
  8
MAIN-1
 62
    18
420
        0
370
    25
100
AcDbLine
 10
1371.138705252924
 20
272.1775459525306
 30
0.0
 11
1370.701892666746
 21
271.6099078209809
 31
0.0
  0
LINE
  5
186
330
70
100
AcDbEntity
  8
MAIN-1
 62
    18
420
        0
370
    25
100
AcDbLine
 10
1370.701892666746
 20
271.6099078209809
 30
0.0
 11
1370.269229020203
 21
271.0111853078306
 31
0.0
  0
LINE
  5
187
330
70
100
AcDbEntity
  8
MAIN-1
 62
    18
420
        0
370
    25
100
AcDbLine
 10
1370.269229020203
 20
271.0111853078306
 30
0.0
 11
1369.841679182973
 21
270.3824786219302
 31
0.0
  0
LINE
  5
188
330
70
100
AcDbEntity
  8
MAIN-1
 62
    18
420
        0
370
    25
100
AcDbLine
 10
1369.841679182973
 20
270.3824786219302
 30
0.0
 11
1369.420320592868
 21
269.7251665060067
 31
0.0
  0
LINE
  5
189
330
70
100
AcDbEntity
  8
MAIN-1
 62
    18
420
        0
370
    25
100
AcDbLine
 10
1369.420320592868
 20
269.7251665060067
 30
0.0
 11
1369.006214606539
 21
269.0408087498217
 31
0.0
  0
LINE
  5
18A
330
70
100
AcDbEntity
  8
MAIN-1
 62
    18
420
        0
370
    25
100
AcDbLine
 10
1369.006214606539
 20
269.0408087498217
 30
0.0
 11
1368.60045474296
 21
268.3309999598677
 31
0.0
  0
LINE
  5
18B
330
70
100
AcDbEntity
  8
MAIN-1
 62
    18
420
        0
370
    25
100
AcDbLine
 10
1368.60045474296
 20
268.3309999598677
 30
0.0
 11
1368.20398979065
 21
267.597306889249
 31
0.0
  0
LINE
  5
18C
330
70
100
AcDbEntity
  8
MAIN-1
 62
    18
420
        0
370
    25
100
AcDbLine
 10
1368.20398979065
 20
267.597306889249
 30
0.0
 11
1367.817736375806
 21
266.8413032544158
 31
0.0
  0
LINE
  5
18D
330
70
100
AcDbEntity
  8
MAIN-1
 62
    18
420
        0
370
    25
100
AcDbLine
 10
1367.817736375806
 20
266.8413032544158
 30
0.0
 11
1367.442482475337
 21
266.0644931383522
 31
0.0
  0
LINE
  5
18E
330
70
100
AcDbEntity
  8
MAIN-1
 62
    18
420
        0
370
    25
100
AcDbLine
 10
1367.442482475337
 20
266.0644931383522
 30
0.0
 11
1367.078919579182
 21
265.2683806240384
 31
0.0
  0
LINE
  5
18F
330
70
100
AcDbEntity
  8
MAIN-1
 62
    18
420
        0
370
    25
100
AcDbLine
 10
1367.078919579182
 20
265.2683806240384
 30
0.0
 11
1366.727723096115
 21
264.4544280143691
 31
0.0
  0
LINE
  5
190
330
70
100
AcDbEntity
  8
MAIN-1
 62
    18
420
        0
370
    25
100
AcDbLine
 10
1366.727723096115
 20
264.4544280143691
 30
0.0
 11
1366.389664921886
 21
263.6241602823684
 31
0.0
  0
LINE
  5
191
330
70
100
AcDbEntity
  8
MAIN-1
 62
    18
420
        0
370
    25
100
AcDbLine
 10
1366.389664921886
 20
263.6241602823684
 30
0.0
 11
1366.065468708753
 21
262.7790675843225
 31
0.0
  0
LINE
  5
192
330
70
100
AcDbEntity
  8
MAIN-1
 62
    18
420
        0
370
    25
100
AcDbLine
 10
1366.065468708753
 20
262.7790675843225
 30
0.0
 11
1365.755825946657
 21
261.9207863068095
 31
0.0
  0
LINE
  5
193
330
70
100
AcDbEntity
  8
MAIN-1
 62
    18
420
        0
370
    25
100
AcDbLine
 10
1365.755825946657
 20
261.9207863068095
 30
0.0
 11
1365.461331638566
 21
261.0510363965677
 31
0.0
  0
LINE
  5
194
330
70
100
AcDbEntity
  8
MAIN-1
 62
    18
420
        0
370
    25
100
AcDbLine
 10
1365.461331638566
 20
261.0510363965677
 30
0.0
 11
1365.182596868613
 21
260.1715586903811
 31
0.0
  0
LINE
  5
195
330
70
100
AcDbEntity
  8
MAIN-1
 62
    18
420
        0
370
    25
100
AcDbLine
 10
1365.182596868613
 20
260.1715586903811
 30
0.0
 11
1364.920248802095
 21
259.2840731349934
 31
0.0
  0
LINE
  5
196
330
70
100
AcDbEntity
  8
MAIN-1
 62
    18
420
        0
370
    25
100
AcDbLine
 10
1364.920248802095
 20
259.2840731349934
 30
0.0
 11
1364.674882441977
 21
258.3902857504508
 31
0.0
  0
LINE
  5
197
330
70
100
AcDbEntity
  8
MAIN-1
 62
    18
420
        0
370
    25
100
AcDbLine
 10
1364.674882441977
 20
258.3902857504508
 30
0.0
 11
1364.447124953553
 21
257.4921323472554
 31
0.0
  0
LINE
  5
198
330
70
100
AcDbEntity
  8
MAIN-1
 62
    18
420
        0
370
    25
100
AcDbLine
 10
1364.447124953553
 20
257.4921323472554
 30
0.0
 11
1364.237507015152
 21
256.5916949662005
 31
0.0
  0
LINE
  5
199
330
70
100
AcDbEntity
  8
MAIN-1
 62
    18
420
        0
370
    25
100
AcDbLine
 10
1364.237507015152
 20
256.5916949662005
 30
0.0
 11
1364.04662362974
 21
255.6911809883277
 31
0.0
  0
LINE
  5
19A
330
70
100
AcDbEntity
  8
MAIN-1
 62
    18
420
        0
370
    25
100
AcDbLine
 10
1364.04662362974
 20
255.6911809883277
 30
0.0
 11
1363.874908988677
 21
254.7928813548424
 31
0.0
  0
LINE
  5
19B
330
70
100
AcDbEntity
  8
MAIN-1
 62
    18
420
        0
370
    25
100
AcDbLine
 10
1363.874908988677
 20
254.7928813548424
 30
0.0
 11
1363.722845526803
 21
253.8991984205059
 31
0.0
  0
LINE
  5
19C
330
70
100
AcDbEntity
  8
MAIN-1
 62
    18
420
        0
370
    25
100
AcDbLine
 10
1363.722845526803
 20
253.8991984205059
 30
0.0
 11
1363.590770948507
 21
253.0123465297074
 31
0.0
  0
LINE
  5
19D
330
70
100
AcDbEntity
  8
MAIN-1
 62
    18
420
        0
370
    25
100
AcDbLine
 10
1363.590770948507
 20
253.0123465297074
 30
0.0
 11
1363.47894255237
 21
252.134407723237
 31
0.0
  0
LINE
  5
19E
330
70
100
AcDbEntity
  8
MAIN-1
 62
    18
420
        0
370
    25
100
AcDbLine
 10
1363.47894255237
 20
252.134407723237
 30
0.0
 11
1363.387537231167
 21
251.2675615287498
 31
0.0
  0
LINE
  5
19F
330
70
100
AcDbEntity
  8
MAIN-1
 62
    18
420
        0
370
    25
100
AcDbLine
 10
1363.387537231167
 20
251.2675615287498
 30
0.0
 11
1363.316554984898
 21
250.4146002484449
 31
0.0
  0
LINE
  5
1A0
330
70
100
AcDbEntity
  8
MAIN-1
 62
    18
420
        0
370
    25
100
AcDbLine
 10
1363.316554984898
 20
250.4146002484449
 30
0.0
 11
1363.26594757008
 21
249.5783927813409
 31
0.0
  0
LINE
  5
1A1
330
70
100
AcDbEntity
  8
MAIN-1
 62
    18
420
        0
370
    25
100
AcDbLine
 10
1363.26594757008
 20
249.5783927813409
 30
0.0
 11
1363.235618499744
 21
248.7598443625647
 31
0.0
  0
LINE
  5
1A2
330
70
100
AcDbEntity
  8
MAIN-1
 62
    18
420
        0
370
    25
100
AcDbLine
 10
1363.235618499744
 20
248.7598443625647
 30
0.0
 11
1363.225503449246
 21
247.9579870868638
 31
0.0
  0
LINE
  5
1A3
330
70
100
AcDbEntity
  8
MAIN-1
 62
    18
420
        0
370
    25
100
AcDbLine
 10
1380.087820093226
 20
280.3553523834344
 30
0.0
 11
1373.342892149139
 21
274.5140734371616
 31
0.0
  0
LINE
  5
1A4
330
70
100
AcDbEntity
  8
MAIN-1
 62
    18
420
        0
370
    25
100
AcDbLine
 10
1361.539268246994
 20
586.2940445774911
 30
0.0
 11
1380.087820093226
 21
602.3575616797407
 31
0.0
  0
LINE
  5
1A5
330
70
100
AcDbEntity
  8
MAIN-1
 62
    18
420
        0
370
    25
100
AcDbLine
 10
1361.539268246994
 20
586.2940445774911
 30
0.0
 11
1361.539268246994
 21
273.4065893043698
 31
0.0
  0
LINE
  5
1A6
330
70
100
AcDbEntity
  8
MAIN-1
 62
    18
420
        0
370
    25
100
AcDbLine
 10
1355.637456295919
 20
122.6425282170985
 30
0.0
 11
1355.637456295919
 21
268.2954702263814
 31
0.0
  0
LINE
  5
1A7
330
70
100
AcDbEntity
  8
MAIN-1
 62
    18
420
        0
370
    25
100
AcDbLine
 10
1344.676948386781
 20
113.150449929406
 30
0.0
 11
1355.637456295919
 21
122.6425282170985
 31
0.0
  0
LINE
  5
1A8
330
70
100
AcDbEntity
  8
MAIN-1
 62
    18
420
        0
370
    25
100
AcDbLine
 10
1375.029124135162
 20
116.9913423170437
 30
0.0
 11
1375.029124135162
 21
113.7700965729673
 31
0.0
  0
LINE
  5
1A9
330
70
100
AcDbEntity
  8
MAIN-1
 62
    18
420
        0
370
    25
100
AcDbLine
 10
1375.029124135162
 20
116.9913423170437
 30
0.0
 11
1363.225500233013
 21
106.7691041610669
 31
0.0
  0
SPLINE
  5
1AA
330
70
100
AcDbEntity
  8
MAIN-1
 62
    18
420
        0
370
    25
100
AcDbSpline
210
0.0
220
0.0
230
1.0
 70
     8
 71
     3
 72
     8
 73
     4
 74
     0
 42
0.0000000001
 43
0.0000000001
 40
0.0
 40
0.0
 40
0.0
 40
0.0
 40
1.0
 40
1.0
 40
1.0
 40
1.0
 10
1363.225500233013
 20
247.9579847489076
 30
0.0
 10
1364.113425137624
 20
248.7269502729523
 30
0.0
 10
1364.580909845548
 20
249.5992258616952
 30
0.0
 10
1364.580973723186
 20
250.4871507657317
 30
0.0
  0
LINE
  5
1AB
330
70
100
AcDbEntity
  8
MAIN-1
 62
    18
420
        0
370
    25
100
AcDbLine
 10
1364.581223179844
 20
110.8639576532532
 30
0.0
 11
1364.557525773387
 21
110.1025417005821
 31
0.0
  0
LINE
  5
1AC
330
70
100
AcDbEntity
  8
MAIN-1
 62
    18
420
        0
370
    25
100
AcDbLine
 10
1364.557525773387
 20
110.1025417005821
 30
0.0
 11
1364.473828902619
 21
109.3645227822781
 31
0.0
  0
LINE
  5
1AD
330
70
100
AcDbEntity
  8
MAIN-1
 62
    18
420
        0
370
    25
100
AcDbLine
 10
1364.473828902619
 20
109.3645227822781
 30
0.0
 11
1364.321254860575
 21
108.6534060445719
 31
0.0
  0
LINE
  5
1AE
330
70
100
AcDbEntity
  8
MAIN-1
 62
    18
420
        0
370
    25
100
AcDbLine
 10
1364.321254860575
 20
108.6534060445719
 30
0.0
 11
1364.088366809377
 21
107.973625722645
 31
0.0
  0
LINE
  5
1AF
330
70
100
AcDbEntity
  8
MAIN-1
 62
    18
420
        0
370
    25
100
AcDbLine
 10
1364.088366809377
 20
107.973625722645
 30
0.0
 11
1363.739646457874
 21
107.3390792156406
 31
0.0
  0
LINE
  5
1B0
330
70
100
AcDbEntity
  8
MAIN-1
 62
    18
420
        0
370
    25
100
AcDbLine
 10
1363.739646457874
 20
107.3390792156406
 30
0.0
 11
1363.225503449246
 21
106.7691049208879
 31
0.0
  0
SPLINE
  5
1B1
330
70
100
AcDbEntity
  8
MAIN-1
 62
    18
420
        0
370
    25
100
AcDbSpline
210
0.0
220
0.0
230
1.0
 70
     8
 71
     3
 72
     8
 73
     4
 74
     0
 42
0.0000000001
 43
0.0000000001
 40
0.0
 40
0.0
 40
0.0
 40
0.0
 40
1.0
 40
1.0
 40
1.0
 40
1.0
 10
1371.205417388439
 20
269.3963030738232
 30
0.0
 10
1372.584077046334
 20
270.5908497205928
 30
0.0
 10
1373.342892975108
 20
272.4076878957985
 30
0.0
 10
1373.342892086817
 20
274.5140733831886
 30
0.0
  0
LINE
  5
1B2
330
70
100
AcDbEntity
  8
MAIN-1
 62
    18
420
        0
370
    25
100
AcDbLine
 10
1081.64648893852
 20
881.0813948436425
 30
0.0
 11
1081.64648893852
 21
922.066956585275
 31
0.0
  0
LINE
  5
1B3
330
70
100
AcDbEntity
  8
MAIN-1
 62
    18
420
        0
370
    25
100
AcDbLine
 10
1081.64648893852
 20
922.066956585275
 30
0.0
 11
955.1790899869374
 21
812.5429763426618
 31
0.0
  0
SPLINE
  5
1B4
330
70
100
AcDbEntity
  8
MAIN-1
 62
    18
420
        0
370
    25
100
AcDbSpline
210
0.0
220
0.0
230
1.0
 70
     8
 71
     3
 72
     8
 73
     4
 74
     0
 42
0.0000000001
 43
0.0000000001
 40
0.0
 40
0.0
 40
0.0
 40
0.0
 40
1.0
 40
1.0
 40
1.0
 40
1.0
 10
990.1668013344297
 20
1064.421254536599
 30
0.0
 10
988.4719061929226
 20
1064.910528619697
 30
0.0
 10
986.8605788648947
 20
1064.639505315013
 30
0.0
 10
985.7510597224337
 20
1063.678532146496
 30
0.0
  0
LINE
  5
1B5
330
70
100
AcDbEntity
  8
MAIN-1
 62
    18
420
        0
370
    25
100
AcDbLine
 10
1056.300597617159
 20
1045.330071993416
 30
0.0
 11
990.1668013344297
 21
1064.421254536599
 31
0.0
  0
SPLINE
  5
1B6
330
70
100
AcDbEntity
  8
MAIN-1
 62
    18
420
        0
370
    25
100
AcDbSpline
210
0.0
220
0.0
230
1.0
 70
     8
 71
     3
 72
     8
 73
     4
 74
     0
 42
0.0000000001
 43
0.0000000001
 40
0.0
 40
0.0
 40
0.0
 40
0.0
 40
1.0
 40
1.0
 40
1.0
 40
1.0
 10
1062.053134410971
 20
1038.842506158098
 30
0.0
 10
1061.560887747662
 20
1041.776275082544
 30
0.0
 10
1059.135333172513
 20
1044.511754325433
 30
0.0
 10
1056.300597617159
 20
1045.330071993416
 30
0.0
  0
LINE
  5
1B7
330
70
100
AcDbEntity
  8
MAIN-1
 62
    18
420
        0
370
    25
100
AcDbLine
 10
1062.053134410942
 20
1038.842506158102
 30
0.0
 11
1081.646488938488
 21
922.0669565852785
 31
0.0
  0
LINE
  5
1B8
330
70
100
AcDbEntity
  8
MAIN-1
 62
    18
420
        0
370
    25
100
AcDbLine
 10
1043.793387941583
 20
1023.029117080064
 30
0.0
 11
1046.343912175815
 21
1009.492364515761
 31
0.0
  0
LINE
  5
1B9
330
70
100
AcDbEntity
  8
MAIN-1
 62
    18
420
        0
370
    25
100
AcDbLine
 10
1046.343912175815
 20
1009.492364515761
 30
0.0
 11
1048.90882274075
 21
995.9692108684649
 31
0.0
  0
LINE
  5
1BA
330
70
100
AcDbEntity
  8
MAIN-1
 62
    18
420
        0
370
    25
100
AcDbLine
 10
1048.90882274075
 20
995.9692108684649
 30
0.0
 11
1051.488231665902
 21
982.4597491382846
 31
0.0
  0
LINE
  5
1BB
330
70
100
AcDbEntity
  8
MAIN-1
 62
    18
420
        0
370
    25
100
AcDbLine
 10
1051.488231665902
 20
982.4597491382846
 30
0.0
 11
1054.082227936276
 21
968.9640604087871
 31
0.0
  0
LINE
  5
1BC
330
70
100
AcDbEntity
  8
MAIN-1
 62
    18
420
        0
370
    25
100
AcDbLine
 10
1054.082227936276
 20
968.9640604087871
 30
0.0
 11
1056.690912059131
 21
955.4822317218112
 31
0.0
  0
LINE
  5
1BD
330
70
100
AcDbEntity
  8
MAIN-1
 62
    18
420
        0
370
    25
100
AcDbLine
 10
1056.690912059131
 20
955.4822317218112
 30
0.0
 11
1059.314381060052
 21
942.0143511242677
 31
0.0
  0
LINE
  5
1BE
330
70
100
AcDbEntity
  8
MAIN-1
 62
    18
420
        0
370
    25
100
AcDbLine
 10
1059.314381060052
 20
942.0143511242677
 30
0.0
 11
1061.952734907682
 21
928.5605290246403
 31
0.0
  0
LINE
  5
1BF
330
70
100
AcDbEntity
  8
MAIN-1
 62
    18
420
        0
370
    25
100
AcDbLine
 10
1056.206910526696
 20
906.008023692113
 30
0.0
 11
1056.60427857355
 21
906.3707251393426
 31
0.0
  0
LINE
  5
1C0
330
70
100
AcDbEntity
  8
MAIN-1
 62
    18
420
        0
370
    25
100
AcDbLine
 10
1056.60427857355
 20
906.3707251393426
 30
0.0
 11
1056.992603911678
 21
906.7626091243873
 31
0.0
  0
LINE
  5
1C1
330
70
100
AcDbEntity
  8
MAIN-1
 62
    18
420
        0
370
    25
100
AcDbLine
 10
1056.992603911678
 20
906.7626091243873
 30
0.0
 11
1057.372401638193
 21
907.1838147698672
 31
0.0
  0
LINE
  5
1C2
330
70
100
AcDbEntity
  8
MAIN-1
 62
    18
420
        0
370
    25
100
AcDbLine
 10
1057.372401638193
 20
907.1838147698672
 30
0.0
 11
1057.743234829982
 21
907.633465482635
 31
0.0
  0
LINE
  5
1C3
330
70
100
AcDbEntity
  8
MAIN-1
 62
    18
420
        0
370
    25
100
AcDbLine
 10
1057.743234829982
 20
907.633465482635
 30
0.0
 11
1058.103740781251
 21
908.1095360393993
 31
0.0
  0
LINE
  5
1C4
330
70
100
AcDbEntity
  8
MAIN-1
 62
    18
420
        0
370
    25
100
AcDbLine
 10
1058.103740781251
 20
908.1095360393993
 30
0.0
 11
1058.452754069076
 21
908.6102599379428
 31
0.0
  0
LINE
  5
1C5
330
70
100
AcDbEntity
  8
MAIN-1
 62
    18
420
        0
370
    25
100
AcDbLine
 10
1058.452754069076
 20
908.6102599379428
 30
0.0
 11
1058.790139042146
 21
909.1352724632942
 31
0.0
  0
LINE
  5
1C6
330
70
100
AcDbEntity
  8
MAIN-1
 62
    18
420
        0
370
    25
100
AcDbLine
 10
1058.790139042146
 20
909.1352724632942
 30
0.0
 11
1059.115970181487
 21
909.6843710676076
 31
0.0
  0
LINE
  5
1C7
330
70
100
AcDbEntity
  8
MAIN-1
 62
    18
420
        0
370
    25
100
AcDbLine
 10
1059.115970181487
 20
909.6843710676076
 30
0.0
 11
1059.429678932965
 21
910.2562622176574
 31
0.0
  0
LINE
  5
1C8
330
70
100
AcDbEntity
  8
MAIN-1
 62
    18
420
        0
370
    25
100
AcDbLine
 10
1059.429678932965
 20
910.2562622176574
 30
0.0
 11
1059.730064940908
 21
910.8483956738728
 31
0.0
  0
LINE
  5
1C9
330
70
100
AcDbEntity
  8
MAIN-1
 62
    18
420
        0
370
    25
100
AcDbLine
 10
1059.730064940908
 20
910.8483956738728
 30
0.0
 11
1060.016110128588
 21
911.4585863781085
 31
0.0
  0
LINE
  5
1CA
330
70
100
AcDbEntity
  8
MAIN-1
 62
    18
420
        0
370
    25
100
AcDbLine
 10
1060.016110128588
 20
911.4585863781085
 30
0.0
 11
1060.287728415385
 21
912.0863531764753
 31
0.0
  0
LINE
  5
1CB
330
70
100
AcDbEntity
  8
MAIN-1
 62
    18
420
        0
370
    25
100
AcDbLine
 10
1060.287728415385
 20
912.0863531764753
 30
0.0
 11
1060.545027521879
 21
912.7315860547879
 31
0.0
  0
LINE
  5
1CC
330
70
100
AcDbEntity
  8
MAIN-1
 62
    18
420
        0
370
    25
100
AcDbLine
 10
1060.545027521879
 20
912.7315860547879
 30
0.0
 11
1060.787702078634
 21
913.3930919097347
 31
0.0
  0
LINE
  5
1CD
330
70
100
AcDbEntity
  8
MAIN-1
 62
    18
420
        0
370
    25
100
AcDbLine
 10
1060.787702078634
 20
913.3930919097347
 30
0.0
 11
1061.015026124238
 21
914.0687591926143
 31
0.0
  0
LINE
  5
1CE
330
70
100
AcDbEntity
  8
MAIN-1
 62
    18
420
        0
370
    25
100
AcDbLine
 10
1061.015026124238
 20
914.0687591926143
 30
0.0
 11
1061.226356257551
 21
914.7566196419575
 31
0.0
  0
LINE
  5
1CF
330
70
100
AcDbEntity
  8
MAIN-1
 62
    18
420
        0
370
    25
100
AcDbLine
 10
1061.226356257551
 20
914.7566196419575
 30
0.0
 11
1061.421462417424
 21
915.4555373327584
 31
0.0
  0
LINE
  5
1D0
330
70
100
AcDbEntity
  8
MAIN-1
 62
    18
420
        0
370
    25
100
AcDbLine
 10
1061.421462417424
 20
915.4555373327584
 30
0.0
 11
1061.600216665811
 21
916.16450469548
 31
0.0
  0
LINE
  5
1D1
330
70
100
AcDbEntity
  8
MAIN-1
 62
    18
420
        0
370
    25
100
AcDbLine
 10
1061.600216665811
 20
916.16450469548
 30
0.0
 11
1061.76243747369
 21
916.8826828246055
 31
0.0
  0
LINE
  5
1D2
330
70
100
AcDbEntity
  8
MAIN-1
 62
    18
420
        0
370
    25
100
AcDbLine
 10
1061.76243747369
 20
916.8826828246055
 30
0.0
 11
1061.907888105204
 21
917.6091373379021
 31
0.0
  0
LINE
  5
1D3
330
70
100
AcDbEntity
  8
MAIN-1
 62
    18
420
        0
370
    25
100
AcDbLine
 10
1061.907888105204
 20
917.6091373379021
 30
0.0
 11
1062.036326438332
 21
918.3427497187349
 31
0.0
  0
LINE
  5
1D4
330
70
100
AcDbEntity
  8
MAIN-1
 62
    18
420
        0
370
    25
100
AcDbLine
 10
1062.036326438332
 20
918.3427497187349
 30
0.0
 11
1062.147458798523
 21
919.0814600327231
 31
0.0
  0
LINE
  5
1D5
330
70
100
AcDbEntity
  8
MAIN-1
 62
    18
420
        0
370
    25
100
AcDbLine
 10
1062.147458798523
 20
919.0814600327231
 30
0.0
 11
1062.240993627025
 21
919.8230266876908
 31
0.0
  0
LINE
  5
1D6
330
70
100
AcDbEntity
  8
MAIN-1
 62
    18
420
        0
370
    25
100
AcDbLine
 10
1062.240993627025
 20
919.8230266876908
 30
0.0
 11
1062.316747240344
 21
920.5663978574158
 31
0.0
  0
LINE
  5
1D7
330
70
100
AcDbEntity
  8
MAIN-1
 62
    18
420
        0
370
    25
100
AcDbLine
 10
1062.316747240344
 20
920.5663978574158
 30
0.0
 11
1062.374678646989
 21
921.3117292842945
 31
0.0
  0
LINE
  5
1D8
330
70
100
AcDbEntity
  8
MAIN-1
 62
    18
420
        0
370
    25
100
AcDbLine
 10
1062.374678646989
 20
921.3117292842945
 30
0.0
 11
1062.414722695055
 21
922.0587055354027
 31
0.0
  0
LINE
  5
1D9
330
70
100
AcDbEntity
  8
MAIN-1
 62
    18
420
        0
370
    25
100
AcDbLine
 10
1062.414722695055
 20
922.0587055354027
 30
0.0
 11
1062.43672957451
 21
922.8048769788948
 31
0.0
  0
LINE
  5
1DA
330
70
100
AcDbEntity
  8
MAIN-1
 62
    18
420
        0
370
    25
100
AcDbLine
 10
1062.43672957451
 20
922.8048769788948
 30
0.0
 11
1062.44055532277
 21
923.5473327140061
 31
0.0
  0
LINE
  5
1DB
330
70
100
AcDbEntity
  8
MAIN-1
 62
    18
420
        0
370
    25
100
AcDbLine
 10
1062.44055532277
 20
923.5473327140061
 30
0.0
 11
1062.426059363632
 21
924.2846556609256
 31
0.0
  0
LINE
  5
1DC
330
70
100
AcDbEntity
  8
MAIN-1
 62
    18
420
        0
370
    25
100
AcDbLine
 10
1062.426059363632
 20
924.2846556609256
 30
0.0
 11
1062.393163734401
 21
925.017077225959
 31
0.0
  0
LINE
  5
1DD
330
70
100
AcDbEntity
  8
MAIN-1
 62
    18
420
        0
370
    25
100
AcDbLine
 10
1062.393163734401
 20
925.017077225959
 30
0.0
 11
1062.341818287099
 21
925.7443704895448
 31
0.0
  0
LINE
  5
1DE
330
70
100
AcDbEntity
  8
MAIN-1
 62
    18
420
        0
370
    25
100
AcDbLine
 10
1062.341818287099
 20
925.7443704895448
 30
0.0
 11
1062.27208844155
 21
926.4642047353591
 31
0.0
  0
LINE
  5
1DF
330
70
100
AcDbEntity
  8
MAIN-1
 62
    18
420
        0
370
    25
100
AcDbLine
 10
1062.27208844155
 20
926.4642047353591
 30
0.0
 11
1062.184086456518
 21
927.1739386230292
 31
0.0
  0
LINE
  5
1E0
330
70
100
AcDbEntity
  8
MAIN-1
 62
    18
420
        0
370
    25
100
AcDbLine
 10
1062.184086456518
 20
927.1739386230292
 30
0.0
 11
1062.077718960721
 21
927.8724988976755
 31
0.0
  0
LINE
  5
1E1
330
70
100
AcDbEntity
  8
MAIN-1
 62
    18
420
        0
370
    25
100
AcDbLine
 10
1062.077718960721
 20
927.8724988976755
 30
0.0
 11
1061.952734907682
 21
928.5605290246403
 31
0.0
  0
LINE
  5
1E2
330
70
100
AcDbEntity
  8
MAIN-1
 62
    18
420
        0
370
    25
100
AcDbLine
 10
1056.206912699039
 20
906.0080291349587
 30
0.0
 11
978.8687666452425
 21
839.031229970782
 31
0.0
  0
LINE
  5
1E3
330
70
100
AcDbEntity
  8
MAIN-1
 62
    18
420
        0
370
    25
100
AcDbLine
 10
978.8687621214284
 20
839.0312224915014
 30
0.0
 11
978.4367153609473
 21
838.6784437241985
 31
0.0
  0
LINE
  5
1E4
330
70
100
AcDbEntity
  8
MAIN-1
 62
    18
420
        0
370
    25
100
AcDbLine
 10
978.4367153609473
 20
838.6784437241985
 30
0.0
 11
978.002556663765
 21
838.3663185087534
 31
0.0
  0
LINE
  5
1E5
330
70
100
AcDbEntity
  8
MAIN-1
 62
    18
420
        0
370
    25
100
AcDbLine
 10
978.002556663765
 20
838.3663185087534
 30
0.0
 11
977.5658362573086
 21
838.0941782195149
 31
0.0
  0
LINE
  5
1E6
330
70
100
AcDbEntity
  8
MAIN-1
 62
    18
420
        0
370
    25
100
AcDbLine
 10
977.5658362573086
 20
838.0941782195149
 30
0.0
 11
977.1275982624938
 21
837.8621578144921
 31
0.0
  0
LINE
  5
1E7
330
70
100
AcDbEntity
  8
MAIN-1
 62
    18
420
        0
370
    25
100
AcDbLine
 10
977.1275982624938
 20
837.8621578144921
 30
0.0
 11
976.6898773688353
 21
837.6709511852896
 31
0.0
  0
LINE
  5
1E8
330
70
100
AcDbEntity
  8
MAIN-1
 62
    18
420
        0
370
    25
100
AcDbLine
 10
976.6898773688353
 20
837.6709511852896
 30
0.0
 11
976.2538841450023
 21
837.5209330589331
 31
0.0
  0
LINE
  5
1E9
330
70
100
AcDbEntity
  8
MAIN-1
 62
    18
420
        0
370
    25
100
AcDbLine
 10
976.2538841450023
 20
837.5209330589331
 30
0.0
 11
975.8196844928189
 21
837.4118615840998
 31
0.0
  0
LINE
  5
1EA
330
70
100
AcDbEntity
  8
MAIN-1
 62
    18
420
        0
370
    25
100
AcDbLine
 10
975.8196844928189
 20
837.4118615840998
 30
0.0
 11
975.3875675458749
 21
837.3434490369254
 31
0.0
  0
LINE
  5
1EB
330
70
100
AcDbEntity
  8
MAIN-1
 62
    18
420
        0
370
    25
100
AcDbLine
 10
975.3875675458749
 20
837.3434490369254
 30
0.0
 11
974.9592506020526
 21
837.3156081925808
 31
0.0
  0
LINE
  5
1EC
330
70
100
AcDbEntity
  8
MAIN-1
 62
    18
420
        0
370
    25
100
AcDbLine
 10
974.9592506020526
 20
837.3156081925808
 30
0.0
 11
974.5367074305541
 21
837.3282984873549
 31
0.0
  0
LINE
  5
1ED
330
70
100
AcDbEntity
  8
MAIN-1
 62
    18
420
        0
370
    25
100
AcDbLine
 10
974.5367074305541
 20
837.3282984873549
 30
0.0
 11
974.1206307711836
 21
837.3812549532541
 31
0.0
  0
LINE
  5
1EE
330
70
100
AcDbEntity
  8
MAIN-1
 62
    18
420
        0
370
    25
100
AcDbLine
 10
974.1206307711836
 20
837.3812549532541
 30
0.0
 11
973.710961358147
 21
837.4741233203257
 31
0.0
  0
LINE
  5
1EF
330
70
100
AcDbEntity
  8
MAIN-1
 62
    18
420
        0
370
    25
100
AcDbLine
 10
973.710961358147
 20
837.4741233203257
 30
0.0
 11
973.3082185201475
 21
837.6065122752516
 31
0.0
  0
LINE
  5
1F0
330
70
100
AcDbEntity
  8
MAIN-1
 62
    18
420
        0
370
    25
100
AcDbLine
 10
973.3082185201475
 20
837.6065122752516
 30
0.0
 11
972.9138040679245
 21
837.7777664696296
 31
0.0
  0
LINE
  5
1F1
330
70
100
AcDbEntity
  8
MAIN-1
 62
    18
420
        0
370
    25
100
AcDbLine
 10
972.9138040679245
 20
837.7777664696296
 30
0.0
 11
972.5362814822766
 21
837.9829534568379
 31
0.0
  0
LINE
  5
1F2
330
70
100
AcDbEntity
  8
MAIN-1
 62
    18
420
        0
370
    25
100
AcDbLine
 10
972.5362814822766
 20
837.9829534568379
 30
0.0
 11
972.1686049109212
 21
838.2243300263381
 31
0.0
  0
LINE
  5
1F3
330
70
100
AcDbEntity
  8
MAIN-1
 62
    18
420
        0
370
    25
100
AcDbLine
 10
972.1686049109212
 20
838.2243300263381
 30
0.0
 11
971.8112030817101
 21
838.5013546142326
 31
0.0
  0
LINE
  5
1F4
330
70
100
AcDbEntity
  8
MAIN-1
 62
    18
420
        0
370
    25
100
AcDbLine
 10
971.8112030817101
 20
838.5013546142326
 30
0.0
 11
971.4645666426967
 21
838.8135513419657
 31
0.0
  0
LINE
  5
1F5
330
70
100
AcDbEntity
  8
MAIN-1
 62
    18
420
        0
370
    25
100
AcDbLine
 10
971.4645666426967
 20
838.8135513419657
 30
0.0
 11
971.1291999186505
 21
839.160579649797
 31
0.0
  0
LINE
  5
1F6
330
70
100
AcDbEntity
  8
MAIN-1
 62
    18
420
        0
370
    25
100
AcDbLine
 10
971.1291999186505
 20
839.160579649797
 30
0.0
 11
970.8057698731172
 21
839.5417177875533
 31
0.0
  0
LINE
  5
1F7
330
70
100
AcDbEntity
  8
MAIN-1
 62
    18
420
        0
370
    25
100
AcDbLine
 10
970.8057698731172
 20
839.5417177875533
 30
0.0
 11
970.4953057183665
 21
839.9555452272416
 31
0.0
  0
LINE
  5
1F8
330
70
100
AcDbEntity
  8
MAIN-1
 62
    18
420
        0
370
    25
100
AcDbLine
 10
970.4953057183665
 20
839.9555452272416
 30
0.0
 11
970.198729484713
 21
840.4008395019609
 31
0.0
  0
LINE
  5
1F9
330
70
100
AcDbEntity
  8
MAIN-1
 62
    18
420
        0
370
    25
100
AcDbLine
 10
970.198729484713
 20
840.4008395019609
 30
0.0
 11
969.9162507272012
 21
840.8774472737549
 31
0.0
  0
LINE
  5
1FA
330
70
100
AcDbEntity
  8
MAIN-1
 62
    18
420
        0
370
    25
100
AcDbLine
 10
969.9162507272012
 20
840.8774472737549
 30
0.0
 11
969.6478667914162
 21
841.3855735670676
 31
0.0
  0
LINE
  5
1FB
330
70
100
AcDbEntity
  8
MAIN-1
 62
    18
420
        0
370
    25
100
AcDbLine
 10
969.6478667914162
 20
841.3855735670676
 30
0.0
 11
969.3941301682771
 21
841.9241582986142
 31
0.0
  0
LINE
  5
1FC
330
70
100
AcDbEntity
  8
MAIN-1
 62
    18
420
        0
370
    25
100
AcDbLine
 10
969.3941301682771
 20
841.9241582986142
 30
0.0
 11
969.1561967375109
 21
842.4909737642375
 31
0.0
  0
LINE
  5
1FD
330
70
100
AcDbEntity
  8
MAIN-1
 62
    18
420
        0
370
    25
100
AcDbLine
 10
969.1561967375109
 20
842.4909737642375
 30
0.0
 11
968.9349442675666
 21
843.0843089133468
 31
0.0
  0
LINE
  5
1FE
330
70
100
AcDbEntity
  8
MAIN-1
 62
    18
420
        0
370
    25
100
AcDbLine
 10
968.9349442675666
 20
843.0843089133468
 30
0.0
 11
968.7304772859933
 21
843.7043099762322
 31
0.0
  0
LINE
  5
1FF
330
70
100
AcDbEntity
  8
MAIN-1
 62
    18
420
        0
370
    25
100
AcDbLine
 10
968.7304772859933
 20
843.7043099762322
 30
0.0
 11
968.5428427090682
 21
844.3510655384216
 31
0.0
  0
LINE
  5
200
330
70
100
AcDbEntity
  8
MAIN-1
 62
    18
420
        0
370
    25
100
AcDbLine
 10
968.5428427090682
 20
844.3510655384216
 30
0.0
 11
968.3726261899227
 21
845.0229860136042
 31
0.0
  0
LINE
  5
201
330
70
100
AcDbEntity
  8
MAIN-1
 62
    18
420
        0
370
    25
100
AcDbLine
 10
968.3726261899227
 20
845.0229860136042
 30
0.0
 11
968.2206665439643
 21
845.7174617186046
 31
0.0
  0
LINE
  5
202
330
70
100
AcDbEntity
  8
MAIN-1
 62
    18
420
        0
370
    25
100
AcDbLine
 10
968.2206665439643
 20
845.7174617186046
 30
0.0
 11
968.087471500301
 21
846.4334176383673
 31
0.0
  0
LINE
  5
203
330
70
100
AcDbEntity
  8
MAIN-1
 62
    18
420
        0
370
    25
100
AcDbLine
 10
968.087471500301
 20
846.4334176383673
 30
0.0
 11
967.9730730486244
 21
847.1717544156254
 31
0.0
  0
LINE
  5
204
330
70
100
AcDbEntity
  8
MAIN-1
 62
    18
420
        0
370
    25
100
AcDbLine
 10
967.9730730486244
 20
847.1717544156254
 30
0.0
 11
966.0000129278579
 21
861.2017377836927
 31
0.0
  0
LINE
  5
205
330
70
100
AcDbEntity
  8
MAIN-1
 62
    18
420
        0
370
    25
100
AcDbLine
 10
966.0000129278579
 20
861.2017377836927
 30
0.0
 11
964.0117337197207
 21
875.2197088780121
 31
0.0
  0
LINE
  5
206
330
70
100
AcDbEntity
  8
MAIN-1
 62
    18
420
        0
370
    25
100
AcDbLine
 10
964.0117337197207
 20
875.2197088780121
 30
0.0
 11
962.0083284295105
 21
889.2257244104312
 31
0.0
  0
LINE
  5
207
330
70
100
AcDbEntity
  8
MAIN-1
 62
    18
420
        0
370
    25
100
AcDbLine
 10
962.0083284295105
 20
889.2257244104312
 30
0.0
 11
959.9899050664461
 21
903.2198738993901
 31
0.0
  0
LINE
  5
208
330
70
100
AcDbEntity
  8
MAIN-1
 62
    18
420
        0
370
    25
100
AcDbLine
 10
959.9899050664461
 20
903.2198738993901
 30
0.0
 11
957.9565520769174
 21
917.202233941709
 31
0.0
  0
LINE
  5
209
330
70
100
AcDbEntity
  8
MAIN-1
 62
    18
420
        0
370
    25
100
AcDbLine
 10
957.9565520769174
 20
917.202233941709
 30
0.0
 11
955.9083774701466
 21
931.1728940558259
 31
0.0
  0
LINE
  5
20A
330
70
100
AcDbEntity
  8
MAIN-1
 62
    18
420
        0
370
    25
100
AcDbLine
 10
955.9083774701466
 20
931.1728940558259
 30
0.0
 11
953.8454822920085
 21
945.1319457703267
 31
0.0
  0
LINE
  5
20B
330
70
100
AcDbEntity
  8
MAIN-1
 62
    18
420
        0
370
    25
100
AcDbLine
 10
953.8454798276106
 20
945.1319284050041
 30
0.0
 11
935.585735459359
 21
929.3185259154888
 31
0.0
  0
LINE
  5
20C
330
70
100
AcDbEntity
  8
MAIN-1
 62
    18
420
        0
370
    25
100
AcDbLine
 10
1062.053134410942
 20
1038.842506158102
 30
0.0
 11
1043.79339004269
 21
1023.029103668585
 31
0.0
  0
SPLINE
  5
20D
330
70
100
AcDbEntity
  8
MAIN-1
 62
    18
420
        0
370
    25
100
AcDbSpline
210
0.0
220
0.0
230
1.0
 70
     8
 71
     3
 72
     8
 73
     4
 74
     0
 42
0.0000000001
 43
0.0000000001
 40
0.0
 40
0.0
 40
0.0
 40
0.0
 40
1.0
 40
1.0
 40
1.0
 40
1.0
 10
971.3620126349523
 20
1048.135829810053
 30
0.0
 10
991.3762694588294
 20
1040.156589994676
 30
0.0
 10
1013.66823173971
 20
1033.721454782861
 30
0.0
 10
1037.495808917656
 20
1029.044647266875
 30
0.0
  0
LINE
  5
20E
330
70
100
AcDbEntity
  8
MAIN-1
 62
    18
420
        0
370
    25
100
AcDbLine
 10
966.1545185120539
 20
1045.441528162422
 30
0.0
 11
966.2571019202987
 21
1045.910796925203
 31
0.0
  0
LINE
  5
20F
330
70
100
AcDbEntity
  8
MAIN-1
 62
    18
420
        0
370
    25
100
AcDbLine
 10
966.2571019202987
 20
1045.910796925203
 30
0.0
 11
966.4012359108165
 21
1046.351920744937
 31
0.0
  0
LINE
  5
210
330
70
100
AcDbEntity
  8
MAIN-1
 62
    18
420
        0
370
    25
100
AcDbLine
 10
966.4012359108165
 20
1046.351920744937
 30
0.0
 11
966.5859861838979
 21
1046.760968111284
 31
0.0
  0
LINE
  5
211
330
70
100
AcDbEntity
  8
MAIN-1
 62
    18
420
        0
370
    25
100
AcDbLine
 10
966.5859861838979
 20
1046.760968111284
 30
0.0
 11
966.8091070421432
 21
1047.133016623535
 31
0.0
  0
LINE
  5
212
330
70
100
AcDbEntity
  8
MAIN-1
 62
    18
420
        0
370
    25
100
AcDbLine
 10
966.8091070421432
 20
1047.133016623535
 30
0.0
 11
967.069541288707
 21
1047.46539115556
 31
0.0
  0
LINE
  5
213
330
70
100
AcDbEntity
  8
MAIN-1
 62
    18
420
        0
370
    25
100
AcDbLine
 10
967.069541288707
 20
1047.46539115556
 30
0.0
 11
967.3667325104506
 21
1047.756933936271
 31
0.0
  0
LINE
  5
214
330
70
100
AcDbEntity
  8
MAIN-1
 62
    18
420
        0
370
    25
100
AcDbLine
 10
967.3667325104506
 20
1047.756933936271
 30
0.0
 11
967.6461153075452
 21
1047.970442705982
 31
0.0
  0
LINE
  5
215
330
70
100
AcDbEntity
  8
MAIN-1
 62
    18
420
        0
370
    25
100
AcDbLine
 10
967.6461153075452
 20
1047.970442705982
 30
0.0
 11
967.9471177893193
 21
1048.149620267977
 31
0.0
  0
LINE
  5
216
330
70
100
AcDbEntity
  8
MAIN-1
 62
    18
420
        0
370
    25
100
AcDbLine
 10
967.9471177893193
 20
1048.149620267977
 30
0.0
 11
968.26930643977
 21
1048.293890790601
 31
0.0
  0
LINE
  5
217
330
70
100
AcDbEntity
  8
MAIN-1
 62
    18
420
        0
370
    25
100
AcDbLine
 10
968.26930643977
 20
1048.293890790601
 30
0.0
 11
968.6120187796987
 21
1048.403004503139
 31
0.0
  0
LINE
  5
218
330
70
100
AcDbEntity
  8
MAIN-1
 62
    18
420
        0
370
    25
100
AcDbLine
 10
968.6120187796987
 20
1048.403004503139
 30
0.0
 11
968.971946451351
 21
1048.475938855627
 31
0.0
  0
LINE
  5
219
330
70
100
AcDbEntity
  8
MAIN-1
 62
    18
420
        0
370
    25
100
AcDbLine
 10
968.971946451351
 20
1048.475938855627
 30
0.0
 11
969.3457323535422
 21
1048.511685369114
 31
0.0
  0
LINE
  5
21A
330
70
100
AcDbEntity
  8
MAIN-1
 62
    18
420
        0
370
    25
100
AcDbLine
 10
969.3457323535422
 20
1048.511685369114
 30
0.0
 11
969.7322343633841
 21
1048.51011416517
 31
0.0
  0
LINE
  5
21B
330
70
100
AcDbEntity
  8
MAIN-1
 62
    18
420
        0
370
    25
100
AcDbLine
 10
969.7322343633841
 20
1048.51011416517
 30
0.0
 11
970.1302897179193
 21
1048.471352004133
 31
0.0
  0
LINE
  5
21C
330
70
100
AcDbEntity
  8
MAIN-1
 62
    18
420
        0
370
    25
100
AcDbLine
 10
970.1302897179193
 20
1048.471352004133
 30
0.0
 11
970.5366840259067
 21
1048.395681530661
 31
0.0
  0
LINE
  5
21D
330
70
100
AcDbEntity
  8
MAIN-1
 62
    18
420
        0
370
    25
100
AcDbLine
 10
970.5366840259067
 20
1048.395681530661
 30
0.0
 11
970.9480210604924
 21
1048.283628212317
 31
0.0
  0
LINE
  5
21E
330
70
100
AcDbEntity
  8
MAIN-1
 62
    18
420
        0
370
    25
100
AcDbLine
 10
970.9480210604924
 20
1048.283628212317
 30
0.0
 11
971.3620116510064
 21
1048.135829664595
 31
0.0
  0
LINE
  5
21F
330
70
100
AcDbEntity
  8
MAIN-1
 62
    18
420
        0
370
    25
100
AcDbLine
 10
952.026927755438
 20
960.2933761997574
 30
0.0
 11
953.9999878762046
 21
972.4159977513863
 31
0.0
  0
LINE
  5
220
330
70
100
AcDbEntity
  8
MAIN-1
 62
    18
420
        0
370
    25
100
AcDbLine
 10
953.9999878762046
 20
972.4159977513863
 30
0.0
 11
955.9882670843418
 21
984.5525813139628
 31
0.0
  0
LINE
  5
221
330
70
100
AcDbEntity
  8
MAIN-1
 62
    18
420
        0
370
    25
100
AcDbLine
 10
955.9882670843418
 20
984.5525813139628
 30
0.0
 11
957.9916723745528
 21
996.7030144688578
 31
0.0
  0
LINE
  5
222
330
70
100
AcDbEntity
  8
MAIN-1
 62
    18
420
        0
370
    25
100
AcDbLine
 10
957.9916723745528
 20
996.7030144688578
 30
0.0
 11
960.0100997579065
 21
1008.867211179307
 31
0.0
  0
LINE
  5
223
330
70
100
AcDbEntity
  8
MAIN-1
 62
    18
420
        0
370
    25
100
AcDbLine
 10
960.0100997579065
 20
1008.867211179307
 30
0.0
 11
962.0434487271451
 21
1021.045084403471
 31
0.0
  0
LINE
  5
224
330
70
100
AcDbEntity
  8
MAIN-1
 62
    18
420
        0
370
    25
100
AcDbLine
 10
962.0434487271451
 20
1021.045084403471
 30
0.0
 11
964.0916233339158
 21
1033.236555067929
 31
0.0
  0
LINE
  5
225
330
70
100
AcDbEntity
  8
MAIN-1
 62
    18
420
        0
370
    25
100
AcDbLine
 10
964.0916233339158
 20
1033.236555067929
 30
0.0
 11
966.1545185120539
 21
1045.441528162422
 31
0.0
  0
SPLINE
  5
226
330
70
100
AcDbEntity
  8
MAIN-1
 62
    18
420
        0
370
    25
100
AcDbSpline
210
0.0
220
0.0
230
1.0
 70
     8
 71
     3
 72
     8
 73
     4
 74
     0
 42
0.0000000001
 43
0.0000000001
 40
0.0
 40
0.0
 40
0.0
 40
0.0
 40
1.0
 40
1.0
 40
1.0
 40
1.0
 10
952.0269304336579
 20
960.2933822375234
 30
0.0
 10
982.7680730213288
 20
945.2747604516881
 30
0.0
 10
1020.569147091015
 20
934.3625303067929
 30
0.0
 10
1061.952734377577
 20
928.5605359885686
 30
0.0
  0
LINE
  5
227
330
70
100
AcDbEntity
  8
MAIN-1
 62
    18
420
        0
370
    25
100
AcDbLine
 10
1037.495809157713
 20
1029.044646768081
 30
0.0
 11
1037.964533548897
 21
1028.93703788626
 31
0.0
  0
LINE
  5
228
330
70
100
AcDbEntity
  8
MAIN-1
 62
    18
420
        0
370
    25
100
AcDbLine
 10
1037.964533548897
 20
1028.93703788626
 30
0.0
 11
1038.431595009373
 21
1028.798416153222
 31
0.0
  0
LINE
  5
229
330
70
100
AcDbEntity
  8
MAIN-1
 62
    18
420
        0
370
    25
100
AcDbLine
 10
1038.431595009373
 20
1028.798416153222
 30
0.0
 11
1038.894728969437
 21
1028.629268173598
 31
0.0
  0
LINE
  5
22A
330
70
100
AcDbEntity
  8
MAIN-1
 62
    18
420
        0
370
    25
100
AcDbLine
 10
1038.894728969437
 20
1028.629268173598
 30
0.0
 11
1039.350486474406
 21
1028.431077009145
 31
0.0
  0
LINE
  5
22B
330
70
100
AcDbEntity
  8
MAIN-1
 62
    18
420
        0
370
    25
100
AcDbLine
 10
1039.350486474406
 20
1028.431077009145
 30
0.0
 11
1039.795244197281
 21
1028.205454976505
 31
0.0
  0
LINE
  5
22C
330
70
100
AcDbEntity
  8
MAIN-1
 62
    18
420
        0
370
    25
100
AcDbLine
 10
1039.795244197281
 20
1028.205454976505
 30
0.0
 11
1040.227339109289
 21
1027.95307248222
 31
0.0
  0
LINE
  5
22D
330
70
100
AcDbEntity
  8
MAIN-1
 62
    18
420
        0
370
    25
100
AcDbLine
 10
1040.227339109289
 20
1027.95307248222
 30
0.0
 11
1040.645854375709
 21
1027.674454158639
 31
0.0
  0
LINE
  5
22E
330
70
100
AcDbEntity
  8
MAIN-1
 62
    18
420
        0
370
    25
100
AcDbLine
 10
1040.645854375709
 20
1027.674454158639
 30
0.0
 11
1041.047906688827
 21
1027.371713600876
 31
0.0
  0
LINE
  5
22F
330
70
100
AcDbEntity
  8
MAIN-1
 62
    18
420
        0
370
    25
100
AcDbLine
 10
1041.047906688827
 20
1027.371713600876
 30
0.0
 11
1041.429455670733
 21
1027.04789262706
 31
0.0
  0
LINE
  5
230
330
70
100
AcDbEntity
  8
MAIN-1
 62
    18
420
        0
370
    25
100
AcDbLine
 10
1041.429455670733
 20
1027.04789262706
 30
0.0
 11
1041.788536425622
 21
1026.704589029132
 31
0.0
  0
LINE
  5
231
330
70
100
AcDbEntity
  8
MAIN-1
 62
    18
420
        0
370
    25
100
AcDbLine
 10
1041.788536425622
 20
1026.704589029132
 30
0.0
 11
1042.124937321317
 21
1026.341947460198
 31
0.0
  0
LINE
  5
232
330
70
100
AcDbEntity
  8
MAIN-1
 62
    18
420
        0
370
    25
100
AcDbLine
 10
1042.124937321317
 20
1026.341947460198
 30
0.0
 11
1042.437150927131
 21
1025.961921087697
 31
0.0
  0
LINE
  5
233
330
70
100
AcDbEntity
  8
MAIN-1
 62
    18
420
        0
370
    25
100
AcDbLine
 10
1042.437150927131
 20
1025.961921087697
 30
0.0
 11
1042.722100538811
 21
1025.56824840973
 31
0.0
  0
LINE
  5
234
330
70
100
AcDbEntity
  8
MAIN-1
 62
    18
420
        0
370
    25
100
AcDbLine
 10
1042.722100538811
 20
1025.56824840973
 30
0.0
 11
1042.97775295428
 21
1025.163531089622
 31
0.0
  0
LINE
  5
235
330
70
100
AcDbEntity
  8
MAIN-1
 62
    18
420
        0
370
    25
100
AcDbLine
 10
1042.97775295428
 20
1025.163531089622
 30
0.0
 11
1043.203859320198
 21
1024.748435170764
 31
0.0
  0
LINE
  5
236
330
70
100
AcDbEntity
  8
MAIN-1
 62
    18
420
        0
370
    25
100
AcDbLine
 10
1043.203859320198
 20
1024.748435170764
 30
0.0
 11
1043.399846160315
 21
1024.324296043809
 31
0.0
  0
LINE
  5
237
330
70
100
AcDbEntity
  8
MAIN-1
 62
    18
420
        0
370
    25
100
AcDbLine
 10
1043.399846160315
 20
1024.324296043809
 30
0.0
 11
1043.564149798543
 21
1023.894471140029
 31
0.0
  0
LINE
  5
238
330
70
100
AcDbEntity
  8
MAIN-1
 62
    18
420
        0
370
    25
100
AcDbLine
 10
1043.564149798543
 20
1023.894471140029
 30
0.0
 11
1043.695441196804
 21
1023.462013402743
 31
0.0
  0
LINE
  5
239
330
70
100
AcDbEntity
  8
MAIN-1
 62
    18
420
        0
370
    25
100
AcDbLine
 10
1043.695441196804
 20
1023.462013402743
 30
0.0
 11
1043.793387941583
 21
1023.029117080064
 31
0.0
  0
LINE
  5
23A
330
70
100
AcDbEntity
  8
MAIN-1
 62
    18
420
        0
370
    25
100
AcDbLine
 10
1056.300597617159
 20
1045.330071993416
 30
0.0
 11
1037.495808917683
 21
1029.044647266871
 31
0.0
  0
LINE
  5
23B
330
70
100
AcDbEntity
  8
MAIN-1
 62
    18
420
        0
370
    25
100
AcDbLine
 10
990.1668013344297
 20
1064.421254536599
 30
0.0
 11
971.362012634956
 21
1048.135829810055
 31
0.0
  0
LINE
  5
23C
330
70
100
AcDbEntity
  8
MAIN-1
 62
    18
420
        0
370
    25
100
AcDbLine
 10
949.428976475241
 20
951.7101477886299
 30
0.0
 11
949.735097949846
 21
952.4463869826432
 31
0.0
  0
LINE
  5
23D
330
70
100
AcDbEntity
  8
MAIN-1
 62
    18
420
        0
370
    25
100
AcDbLine
 10
949.735097949846
 20
952.4463869826432
 30
0.0
 11
950.0265332927265
 21
953.1830358567859
 31
0.0
  0
LINE
  5
23E
330
70
100
AcDbEntity
  8
MAIN-1
 62
    18
420
        0
370
    25
100
AcDbLine
 10
950.0265332927265
 20
953.1830358567859
 30
0.0
 11
950.3033052597492
 21
953.920324595807
 31
0.0
  0
LINE
  5
23F
330
70
100
AcDbEntity
  8
MAIN-1
 62
    18
420
        0
370
    25
100
AcDbLine
 10
950.3033052597492
 20
953.920324595807
 30
0.0
 11
950.5649797755705
 21
954.6571111772882
 31
0.0
  0
LINE
  5
240
330
70
100
AcDbEntity
  8
MAIN-1
 62
    18
420
        0
370
    25
100
AcDbLine
 10
950.5649797755705
 20
954.6571111772882
 30
0.0
 11
950.8104020376922
 21
955.3902287215024
 31
0.0
  0
LINE
  5
241
330
70
100
AcDbEntity
  8
MAIN-1
 62
    18
420
        0
370
    25
100
AcDbLine
 10
950.8104020376922
 20
955.3902287215024
 30
0.0
 11
951.0385356591923
 21
956.1168429013759
 31
0.0
  0
LINE
  5
242
330
70
100
AcDbEntity
  8
MAIN-1
 62
    18
420
        0
370
    25
100
AcDbLine
 10
951.0385356591923
 20
956.1168429013759
 30
0.0
 11
951.2491785869897
 21
956.8366081704734
 31
0.0
  0
LINE
  5
243
330
70
100
AcDbEntity
  8
MAIN-1
 62
    18
420
        0
370
    25
100
AcDbLine
 10
951.2491785869897
 20
956.8366081704734
 30
0.0
 11
951.442297292886
 21
957.5496781167275
 31
0.0
  0
LINE
  5
244
330
70
100
AcDbEntity
  8
MAIN-1
 62
    18
420
        0
370
    25
100
AcDbLine
 10
951.442297292886
 20
957.5496781167275
 30
0.0
 11
951.6173425563357
 21
958.2541640623949
 31
0.0
  0
LINE
  5
245
330
70
100
AcDbEntity
  8
MAIN-1
 62
    18
420
        0
370
    25
100
AcDbLine
 10
951.6173425563357
 20
958.2541640623949
 30
0.0
 11
951.7734206437417
 21
958.9470140951398
 31
0.0
  0
LINE
  5
246
330
70
100
AcDbEntity
  8
MAIN-1
 62
    18
420
        0
370
    25
100
AcDbLine
 10
951.7734206437417
 20
958.9470140951398
 30
0.0
 11
951.9099614058477
 21
959.6265637636951
 31
0.0
  0
LINE
  5
247
330
70
100
AcDbEntity
  8
MAIN-1
 62
    18
420
        0
370
    25
100
AcDbLine
 10
951.9099614058477
 20
959.6265637636951
 30
0.0
 11
952.026927755438
 21
960.2933761997574
 31
0.0
  0
SPLINE
  5
248
330
70
100
AcDbEntity
  8
MAIN-1
 62
    18
420
        0
370
    25
100
AcDbSpline
210
0.0
220
0.0
230
1.0
 70
     8
 71
     3
 72
     8
 73
     4
 74
     0
 42
0.0000000001
 43
0.0000000001
 40
0.0
 40
0.0
 40
0.0
 40
0.0
 40
1.0
 40
1.0
 40
1.0
 40
1.0
 10
955.688323283949
 20
932.6690595442705
 30
0.0
 10
985.0802485583553
 20
920.352726366671
 30
0.0
 10
1019.329333034046
 20
911.2686764609698
 30
0.0
 10
1056.206912699044
 20
906.0080291349622
 30
0.0
  0
SPLINE
  5
249
330
70
100
AcDbEntity
  8
MAIN-1
 62
    18
420
        0
370
    25
100
AcDbSpline
210
0.0
220
0.0
230
1.0
 70
     8
 71
     3
 72
     8
 73
     4
 74
     0
 42
0.0000000001
 43
0.0000000001
 40
0.0
 40
0.0
 40
0.0
 40
0.0
 40
1.0
 40
1.0
 40
1.0
 40
1.0
 10
978.868766645237
 20
839.0312299707783
 30
0.0
 10
975.5691125059929
 20
840.6287051843573
 30
0.0
 10
972.1894050250012
 20
842.184316927589
 30
0.0
 10
968.7328677819369
 20
843.6965814512387
 30
0.0
  0
SPLINE
  5
24A
330
70
100
AcDbEntity
  8
MAIN-1
 62
    18
420
        0
370
    25
100
AcDbSpline
210
0.0
220
0.0
230
1.0
 70
     8
 71
     3
 72
     8
 73
     4
 74
     0
 42
0.0000000001
 43
0.0000000001
 40
0.0
 40
0.0
 40
0.0
 40
0.0
 40
1.0
 40
1.0
 40
1.0
 40
1.0
 10
948.6379873650522
 20
952.0915164773487
 30
0.0
 10
928.623730541175
 20
960.0707562927237
 30
0.0
 10
906.3317682602937
 20
966.505891504541
 30
0.0
 10
882.5041910823474
 20
971.1826990205263
 30
0.0
  0
LINE
  5
24B
330
70
100
AcDbEntity
  8
MAIN-1
 62
    18
420
        0
370
    25
100
AcDbLine
 10
953.8454822920085
 20
945.1319457703267
 30
0.0
 11
953.7657354016046
 21
945.5806036292397
 31
0.0
  0
LINE
  5
24C
330
70
100
AcDbEntity
  8
MAIN-1
 62
    18
420
        0
370
    25
100
AcDbLine
 10
953.7657354016046
 20
945.5806036292397
 30
0.0
 11
953.6587788207807
 21
946.034135936623
 31
0.0
  0
LINE
  5
24D
330
70
100
AcDbEntity
  8
MAIN-1
 62
    18
420
        0
370
    25
100
AcDbLine
 10
953.6587788207807
 20
946.034135936623
 30
0.0
 11
953.5248323949199
 21
946.4902509575004
 31
0.0
  0
LINE
  5
24E
330
70
100
AcDbEntity
  8
MAIN-1
 62
    18
420
        0
370
    25
100
AcDbLine
 10
953.5248323949199
 20
946.4902509575004
 30
0.0
 11
953.3649075591656
 21
946.9456206963458
 31
0.0
  0
LINE
  5
24F
330
70
100
AcDbEntity
  8
MAIN-1
 62
    18
420
        0
370
    25
100
AcDbLine
 10
953.3649075591656
 20
946.9456206963458
 30
0.0
 11
953.1802222446367
 21
947.3965882979573
 31
0.0
  0
LINE
  5
250
330
70
100
AcDbEntity
  8
MAIN-1
 62
    18
420
        0
370
    25
100
AcDbLine
 10
953.1802222446367
 20
947.3965882979573
 30
0.0
 11
952.9711408724816
 21
947.8416373246583
 31
0.0
  0
LINE
  5
251
330
70
100
AcDbEntity
  8
MAIN-1
 62
    18
420
        0
370
    25
100
AcDbLine
 10
952.9711408724816
 20
947.8416373246583
 30
0.0
 11
952.737783646754
 21
948.279990319499
 31
0.0
  0
LINE
  5
252
330
70
100
AcDbEntity
  8
MAIN-1
 62
    18
420
        0
370
    25
100
AcDbLine
 10
952.737783646754
 20
948.279990319499
 30
0.0
 11
952.4817254564295
 21
948.7086487083743
 31
0.0
  0
LINE
  5
253
330
70
100
AcDbEntity
  8
MAIN-1
 62
    18
420
        0
370
    25
100
AcDbLine
 10
952.4817254564295
 20
948.7086487083743
 30
0.0
 11
952.2053836781424
 21
949.1233029987125
 31
0.0
  0
LINE
  5
254
330
70
100
AcDbEntity
  8
MAIN-1
 62
    18
420
        0
370
    25
100
AcDbLine
 10
952.2053836781424
 20
949.1233029987125
 30
0.0
 11
951.9098998961672
 21
949.5216831907873
 31
0.0
  0
LINE
  5
255
330
70
100
AcDbEntity
  8
MAIN-1
 62
    18
420
        0
370
    25
100
AcDbLine
 10
951.9098998961672
 20
949.5216831907873
 30
0.0
 11
951.5953329716394
 21
949.9035123278899
 31
0.0
  0
LINE
  5
256
330
70
100
AcDbEntity
  8
MAIN-1
 62
    18
420
        0
370
    25
100
AcDbLine
 10
951.5953329716394
 20
949.9035123278899
 30
0.0
 11
951.2632216495903
 21
950.2668235606853
 31
0.0
  0
LINE
  5
257
330
70
100
AcDbEntity
  8
MAIN-1
 62
    18
420
        0
370
    25
100
AcDbLine
 10
951.2632216495903
 20
950.2668235606853
 30
0.0
 11
950.9168102904441
 21
950.6078856996774
 31
0.0
  0
LINE
  5
258
330
70
100
AcDbEntity
  8
MAIN-1
 62
    18
420
        0
370
    25
100
AcDbLine
 10
950.9168102904441
 20
950.6078856996774
 30
0.0
 11
950.5583952395227
 21
950.9240768254112
 31
0.0
  0
LINE
  5
259
330
70
100
AcDbEntity
  8
MAIN-1
 62
    18
420
        0
370
    25
100
AcDbLine
 10
950.5583952395227
 20
950.9240768254112
 30
0.0
 11
950.1886601547093
 21
951.214670368472
 31
0.0
  0
LINE
  5
25A
330
70
100
AcDbEntity
  8
MAIN-1
 62
    18
420
        0
370
    25
100
AcDbLine
 10
950.1886601547093
 20
951.214670368472
 30
0.0
 11
949.8089343806768
 21
951.4787069434095
 31
0.0
  0
LINE
  5
25B
330
70
100
AcDbEntity
  8
MAIN-1
 62
    18
420
        0
370
    25
100
AcDbLine
 10
949.8089343806768
 20
951.4787069434095
 30
0.0
 11
949.4221819168105
 21
951.7140032391198
 31
0.0
  0
LINE
  5
25C
330
70
100
AcDbEntity
  8
MAIN-1
 62
    18
420
        0
370
    25
100
AcDbLine
 10
949.4221819168105
 20
951.7140032391198
 30
0.0
 11
949.0312366133675
 21
951.9185434977881
 31
0.0
  0
LINE
  5
25D
330
70
100
AcDbEntity
  8
MAIN-1
 62
    18
420
        0
370
    25
100
AcDbLine
 10
949.0312366133675
 20
951.9185434977881
 30
0.0
 11
948.6379851327656
 21
952.0915138374675
 31
0.0
  0
LINE
  5
25E
330
70
100
AcDbEntity
  8
MAIN-1
 62
    18
420
        0
370
    25
100
AcDbLine
 10
882.5041876260584
 20
971.182696733982
 30
0.0
 11
882.0107158954943
 21
971.2616625952978
 31
0.0
  0
LINE
  5
25F
330
70
100
AcDbEntity
  8
MAIN-1
 62
    18
420
        0
370
    25
100
AcDbLine
 10
882.0107158954943
 20
971.2616625952978
 30
0.0
 11
881.5192022106284
 21
971.3042808977116
 31
0.0
  0
LINE
  5
260
330
70
100
AcDbEntity
  8
MAIN-1
 62
    18
420
        0
370
    25
100
AcDbLine
 10
881.5192022106284
 20
971.3042808977116
 30
0.0
 11
881.0323900349413
 21
971.310307454838
 31
0.0
  0
LINE
  5
261
330
70
100
AcDbEntity
  8
MAIN-1
 62
    18
420
        0
370
    25
100
AcDbLine
 10
881.0323900349413
 20
971.310307454838
 30
0.0
 11
880.5544394504522
 21
971.279878317091
 31
0.0
  0
LINE
  5
262
330
70
100
AcDbEntity
  8
MAIN-1
 62
    18
420
        0
370
    25
100
AcDbLine
 10
880.5544394504522
 20
971.279878317091
 30
0.0
 11
880.0892683992087
 21
971.2133201326905
 31
0.0
  0
LINE
  5
263
330
70
100
AcDbEntity
  8
MAIN-1
 62
    18
420
        0
370
    25
100
AcDbLine
 10
880.0892683992087
 20
971.2133201326905
 30
0.0
 11
879.6383572471068
 21
971.1107811935089
 31
0.0
  0
LINE
  5
264
330
70
100
AcDbEntity
  8
MAIN-1
 62
    18
420
        0
370
    25
100
AcDbLine
 10
879.6383572471068
 20
971.1107811935089
 30
0.0
 11
879.2032059228759
 21
970.972701246923
 31
0.0
  0
LINE
  5
265
330
70
100
AcDbEntity
  8
MAIN-1
 62
    18
420
        0
370
    25
100
AcDbLine
 10
879.2032059228759
 20
970.972701246923
 30
0.0
 11
878.7879997075107
 21
970.8008059966378
 31
0.0
  0
LINE
  5
266
330
70
100
AcDbEntity
  8
MAIN-1
 62
    18
420
        0
370
    25
100
AcDbLine
 10
878.7879997075107
 20
970.8008059966378
 30
0.0
 11
878.3968670979957
 21
970.5968282540252
 31
0.0
  0
LINE
  5
267
330
70
100
AcDbEntity
  8
MAIN-1
 62
    18
420
        0
370
    25
100
AcDbLine
 10
878.3968670979957
 20
970.5968282540252
 30
0.0
 11
878.0307560141418
 21
970.3612649886254
 31
0.0
  0
LINE
  5
268
330
70
100
AcDbEntity
  8
MAIN-1
 62
    18
420
        0
370
    25
100
AcDbLine
 10
878.0307560141418
 20
970.3612649886254
 30
0.0
 11
877.690345209664
 21
970.0949044141779
 31
0.0
  0
LINE
  5
269
330
70
100
AcDbEntity
  8
MAIN-1
 62
    18
420
        0
370
    25
100
AcDbLine
 10
882.5041910823202
 20
971.1826990205281
 30
0.0
 11
863.6994023828457
 21
954.8972742939859
 31
0.0
  0
LINE
  5
26A
330
70
100
AcDbEntity
  8
MAIN-1
 62
    18
420
        0
370
    25
100
AcDbLine
 10
948.6379873650493
 20
952.091516477345
 30
0.0
 11
929.8331986655748
 21
935.8060917508028
 31
0.0
  0
LINE
  5
26B
330
70
100
AcDbEntity
  8
MAIN-1
 62
    18
420
        0
370
    25
100
AcDbLine
 10
1383.492723604771
 20
230.9817148602306
 30
0.0
 11
1365.801788878376
 21
258.7320116922037
 31
0.0
  0
LINE
  5
26C
330
70
100
AcDbEntity
  8
MAIN-1
 62
    18
420
        0
370
    25
100
AcDbLine
 10
1364.580973723163
 20
133.3804862352226
 30
0.0
 11
1375.02912413516
 21
116.9913423170437
 31
0.0
  0
LINE
  5
26D
330
70
100
AcDbEntity
  8
MAIN-1
 62
    18
420
        0
370
    25
100
AcDbLine
 10
1294.02068536367
 20
140.4297578592632
 30
0.0
 11
1355.637456295919
 21
122.6425282170985
 31
0.0
  0
SPLINE
  5
26E
330
70
100
AcDbEntity
  8
MAIN-1
 62
    18
420
        0
370
    25
100
AcDbSpline
210
0.0
220
0.0
230
1.0
 70
     8
 71
     3
 72
     8
 73
     4
 74
     0
 42
0.0000000001
 43
0.0000000001
 40
0.0
 40
0.0
 40
0.0
 40
0.0
 40
1.0
 40
1.0
 40
1.0
 40
1.0
 10
1285.39188017298
 20
153.2040889448999
 30
0.0
 10
1285.303307187709
 20
152.7273354022727
 30
0.0
 10
1285.258766944262
 20
152.2310957508816
 30
0.0
 10
1285.258766944262
 20
151.7210242577039
 30
0.0
  0
LINE
  5
26F
330
70
100
AcDbEntity
  8
MAIN-1
 62
    18
420
        0
370
    25
100
AcDbLine
 10
1274.431372263945
 20
143.7120106571583
 30
0.0
 11
1285.391880173083
 21
153.2040889448508
 31
0.0
  0
LINE
  5
270
330
70
100
AcDbEntity
  8
MAIN-1
 62
    18
420
        0
370
    25
100
AcDbLine
 10
1325.412395649475
 20
368.6187830875606
 30
0.0
 11
1285.391880172847
 21
153.2040889449618
 31
0.0
  0
LINE
  5
271
330
70
100
AcDbEntity
  8
MAIN-1
 62
    18
420
        0
370
    25
100
AcDbLine
 10
1361.539268246994
 20
586.2940445774911
 30
0.0
 11
1346.936070881311
 21
605.1128219082256
 31
0.0
  0
LINE
  5
272
330
70
100
AcDbEntity
  8
MAIN-1
 62
    18
420
        0
370
    25
100
AcDbLine
 10
1253.475607740947
 20
632.092533684563
 30
0.0
 11
1259.412470345167
 21
630.3787090732202
 31
0.0
  0
LINE
  5
273
330
70
100
AcDbEntity
  8
MAIN-1
 62
    18
420
        0
370
    25
100
AcDbLine
 10
1341.302946913232
 20
606.7389647278996
 30
0.0
 11
1346.936070881311
 21
605.1128219082256
 31
0.0
  0
LINE
  5
274
330
70
100
AcDbEntity
  8
MAIN-1
 62
    18
420
        0
370
    25
100
AcDbLine
 10
1346.936070881311
 20
605.1128219082256
 30
0.0
 11
1365.484622727543
 21
621.1763390104752
 31
0.0
  0
LINE
  5
275
330
70
100
AcDbEntity
  8
MAIN-1
 62
    18
420
        0
370
    25
100
AcDbLine
 10
1186.592556815934
 20
794.511341596135
 30
0.0
 11
1208.497352864457
 21
788.1879716485546
 31
0.0
  0
LINE
  5
276
330
70
100
AcDbEntity
  8
MAIN-1
 62
    18
420
        0
370
    25
100
AcDbLine
 10
1093.324700756859
 20
802.9380691674941
 30
0.0
 11
1093.324700756859
 21
791.2555112749487
 31
0.0
  0
LINE
  5
277
330
70
100
AcDbEntity
  8
MAIN-1
 62
    18
420
        0
370
    25
100
AcDbLine
 10
1098.593089194626
 20
789.7346585335781
 30
0.0
 11
1093.324700756859
 21
791.2555112749487
 31
0.0
  0
LINE
  5
278
330
70
100
AcDbEntity
  8
MAIN-1
 62
    18
420
        0
370
    25
100
AcDbLine
 10
1219.687586329328
 20
775.6228205690385
 30
0.0
 11
1208.497352864513
 21
788.1879716485618
 31
0.0
  0
LINE
  5
279
330
70
100
AcDbEntity
  8
MAIN-1
 62
    18
420
        0
370
    25
100
AcDbLine
 10
1188.262569032202
 20
770.6641348097382
 30
0.0
 11
1208.497352864457
 21
788.1879716485546
 31
0.0
  0
LINE
  5
27A
330
70
100
AcDbEntity
  8
MAIN-1
 62
    18
420
        0
370
    25
100
AcDbLine
 10
1189.335410580948
 20
749.3370653108104
 30
0.0
 11
1188.26256903226
 21
770.6641348097437
 31
0.0
  0
LINE
  5
27B
330
70
100
AcDbEntity
  8
MAIN-1
 62
    18
420
        0
370
    25
100
AcDbLine
 10
1189.335410580948
 20
749.3370653108104
 30
0.0
 11
1200.904097224544
 21
717.3639689140308
 31
0.0
  0
LINE
  5
27C
330
70
100
AcDbEntity
  8
MAIN-1
 62
    18
420
        0
370
    25
100
AcDbLine
 10
1152.537158606208
 20
759.9598056524737
 30
0.0
 11
1189.335410580948
 21
749.3370653108104
 31
0.0
  0
LINE
  5
27D
330
70
100
AcDbEntity
  8
MAIN-1
 62
    18
420
        0
370
    25
100
AcDbLine
 10
1136.005597235313
 20
736.0985521334042
 30
0.0
 11
1152.537158606226
 21
759.9598056524573
 31
0.0
  0
LINE
  5
27E
330
70
100
AcDbEntity
  8
MAIN-1
 62
    18
420
        0
370
    25
100
AcDbLine
 10
1152.537158606208
 20
759.9598056524737
 30
0.0
 11
1166.35777298367
 21
776.9875047573223
 31
0.0
  0
LINE
  5
27F
330
70
100
AcDbEntity
  8
MAIN-1
 62
    18
420
        0
370
    25
100
AcDbLine
 10
1166.35777298368
 20
776.9875047573168
 30
0.0
 11
1186.592556815934
 21
794.511341596135
 31
0.0
  0
LINE
  5
280
330
70
100
AcDbEntity
  8
MAIN-1
 62
    18
420
        0
370
    25
100
AcDbLine
 10
1186.592556815934
 20
794.511341596135
 30
0.0
 11
1208.497352864457
 21
788.1879716485546
 31
0.0
  0
LINE
  5
281
330
70
100
AcDbEntity
  8
MAIN-1
 62
    18
420
        0
370
    25
100
AcDbLine
 10
1166.35777298368
 20
776.9875047573168
 30
0.0
 11
1188.262569032202
 21
770.6641348097382
 31
0.0
  0
LINE
  5
282
330
70
100
AcDbEntity
  8
MAIN-1
 62
    18
420
        0
370
    25
100
AcDbLine
 10
1332.430192134141
 20
831.2689083663427
 30
0.0
 11
1320.861505490546
 21
863.2420047631221
 31
0.0
  0
LINE
  5
283
330
70
100
AcDbEntity
  8
MAIN-1
 62
    18
420
        0
370
    25
100
AcDbLine
 10
1320.861505490595
 20
863.2420047631276
 30
0.0
 11
1309.671272025778
 21
875.8071558426509
 31
0.0
  0
LINE
  5
284
330
70
100
AcDbEntity
  8
MAIN-1
 62
    18
420
        0
370
    25
100
AcDbLine
 10
1309.671272025723
 20
875.8071558426454
 30
0.0
 11
1289.43648819347
 21
858.2833190038272
 31
0.0
  0
LINE
  5
285
330
70
100
AcDbEntity
  8
MAIN-1
 62
    18
420
        0
370
    25
100
AcDbLine
 10
1290.509329742215
 20
836.9562495049013
 30
0.0
 11
1289.436488193527
 21
858.2833190038344
 31
0.0
  0
LINE
  5
286
330
70
100
AcDbEntity
  8
MAIN-1
 62
    18
420
        0
370
    25
100
AcDbLine
 10
1302.078016385762
 20
804.9831531081164
 30
0.0
 11
1290.509329742166
 21
836.9562495048958
 31
0.0
  0
LINE
  5
287
330
70
100
AcDbEntity
  8
MAIN-1
 62
    18
420
        0
370
    25
100
AcDbLine
 10
1290.509329742215
 20
836.9562495049013
 30
0.0
 11
1253.711077767475
 21
847.5789898465627
 31
0.0
  0
LINE
  5
288
330
70
100
AcDbEntity
  8
MAIN-1
 62
    18
420
        0
370
    25
100
AcDbLine
 10
1253.711077767475
 20
847.5789898465627
 30
0.0
 11
1237.179516396561
 21
823.7177363275096
 31
0.0
  0
LINE
  5
289
330
70
100
AcDbEntity
  8
MAIN-1
 62
    18
420
        0
370
    25
100
AcDbLine
 10
1253.711077767475
 20
847.5789898465627
 30
0.0
 11
1267.531692144937
 21
864.6066889514131
 31
0.0
  0
LINE
  5
28A
330
70
100
AcDbEntity
  8
MAIN-1
 62
    18
420
        0
370
    25
100
AcDbLine
 10
1287.766475977201
 20
882.130525790224
 30
0.0
 11
1267.531692144946
 21
864.6066889514058
 31
0.0
  0
LINE
  5
28B
330
70
100
AcDbEntity
  8
MAIN-1
 62
    18
420
        0
370
    25
100
AcDbLine
 10
1309.671272025723
 20
875.8071558426454
 30
0.0
 11
1287.766475977201
 21
882.130525790224
 31
0.0
  0
LINE
  5
28C
330
70
100
AcDbEntity
  8
MAIN-1
 62
    18
420
        0
370
    25
100
AcDbLine
 10
1289.43648819347
 20
858.2833190038272
 30
0.0
 11
1267.531692144946
 21
864.6066889514058
 31
0.0
  0
LINE
  5
28D
330
70
100
AcDbEntity
  8
MAIN-1
 62
    18
420
        0
370
    25
100
AcDbLine
 10
1380.087750630242
 20
296.5734905180016
 30
0.0
 11
1471.250246296317
 21
375.522527637213
 31
0.0
  0
LINE
  5
28E
330
70
100
AcDbEntity
  8
MAIN-1
 62
    18
420
        0
370
    25
100
AcDbLine
 10
1408.536319679036
 20
319.5588718751988
 30
0.0
 11
1380.088087905624
 21
294.9219804666754
 31
0.0
  0
LINE
  5
28F
330
70
100
AcDbEntity
  8
MAIN-1
 62
    18
420
        0
370
    25
100
AcDbLine
 10
1364.580973729731
 20
110.8008897452855
 30
0.0
 11
1364.580973729731
 21
250.4873322805579
 31
0.0
  0
LINE
  5
290
330
70
100
AcDbEntity
  8
MAIN-1
 62
    18
420
        0
370
    25
100
AcDbLine
 10
1371.205555947818
 20
269.3964195472072
 30
0.0
 11
1370.828934544135
 21
269.0300919557631
 31
0.0
  0
LINE
  5
291
330
70
100
AcDbEntity
  8
MAIN-1
 62
    18
420
        0
370
    25
100
AcDbLine
 10
1370.828934544135
 20
269.0300919557631
 30
0.0
 11
1370.260226769162
 21
268.3650730149366
 31
0.0
  0
LINE
  5
292
330
70
100
AcDbEntity
  8
MAIN-1
 62
    18
420
        0
370
    25
100
AcDbLine
 10
1370.260226769162
 20
268.3650730149366
 30
0.0
 11
1370.017064741814
 21
268.046065484632
 31
0.0
  0
LINE
  5
293
330
70
100
AcDbEntity
  8
MAIN-1
 62
    18
420
        0
370
    25
100
AcDbLine
 10
1370.017064741814
 20
268.046065484632
 30
0.0
 11
1369.477278996453
 21
267.2678689241675
 31
0.0
  0
LINE
  5
294
330
70
100
AcDbEntity
  8
MAIN-1
 62
    18
420
        0
370
    25
100
AcDbLine
 10
1369.477278996453
 20
267.2678689241675
 30
0.0
 11
1368.903146023469
 21
266.3349392113105
 31
0.0
  0
LINE
  5
295
330
70
100
AcDbEntity
  8
MAIN-1
 62
    18
420
        0
370
    25
100
AcDbLine
 10
1368.903146023469
 20
266.3349392113105
 30
0.0
 11
1368.194696081256
 21
265.0251203872431
 31
0.0
  0
LINE
  5
296
330
70
100
AcDbEntity
  8
MAIN-1
 62
    18
420
        0
370
    25
100
AcDbLine
 10
1368.194696081256
 20
265.0251203872431
 30
0.0
 11
1367.5008925808
 21
263.5492870923517
 31
0.0
  0
LINE
  5
297
330
70
100
AcDbEntity
  8
MAIN-1
 62
    18
420
        0
370
    25
100
AcDbLine
 10
1367.5008925808
 20
263.5492870923517
 30
0.0
 11
1366.853921057709
 21
261.961691026514
 31
0.0
  0
LINE
  5
298
330
70
100
AcDbEntity
  8
MAIN-1
 62
    18
420
        0
370
    25
100
AcDbLine
 10
1366.853921057709
 20
261.961691026514
 30
0.0
 11
1366.266830012617
 21
260.285713181409
 31
0.0
  0
LINE
  5
299
330
70
100
AcDbEntity
  8
MAIN-1
 62
    18
420
        0
370
    25
100
AcDbLine
 10
1366.266830012617
 20
260.285713181409
 30
0.0
 11
1365.755604572871
 21
258.5629895998991
 31
0.0
  0
LINE
  5
29A
330
70
100
AcDbEntity
  8
MAIN-1
 62
    18
420
        0
370
    25
100
AcDbLine
 10
1365.755604572871
 20
258.5629895998991
 30
0.0
 11
1365.330431267535
 21
256.828360484762
 31
0.0
  0
LINE
  5
29B
330
70
100
AcDbEntity
  8
MAIN-1
 62
    18
420
        0
370
    25
100
AcDbLine
 10
1365.330431267535
 20
256.828360484762
 30
0.0
 11
1364.997596449661
 21
255.1130684521413
 31
0.0
  0
LINE
  5
29C
330
70
100
AcDbEntity
  8
MAIN-1
 62
    18
420
        0
370
    25
100
AcDbLine
 10
1364.997596449661
 20
255.1130684521413
 30
0.0
 11
1364.762888039182
 21
253.4625520379341
 31
0.0
  0
LINE
  5
29D
330
70
100
AcDbEntity
  8
MAIN-1
 62
    18
420
        0
370
    25
100
AcDbLine
 10
1364.762888039182
 20
253.4625520379341
 30
0.0
 11
1364.624842899102
 21
251.8987944572509
 31
0.0
  0
LINE
  5
29E
330
70
100
AcDbEntity
  8
MAIN-1
 62
    18
420
        0
370
    25
100
AcDbLine
 10
1364.624842899102
 20
251.8987944572509
 30
0.0
 11
1364.58097024493
 21
250.4871438834925
 31
0.0
  0
LINE
  5
29F
330
70
100
AcDbEntity
  8
MAIN-1
 62
    18
420
        0
370
    25
100
AcDbLine
 10
1371.204355053151
 20
269.3953864379036
 30
0.0
 11
1377.949292645931
 21
275.2366737401917
 31
0.0
  0
LINE
  5
2A0
330
70
100
AcDbEntity
  8
MAIN-1
 62
    18
420
        0
370
    25
100
AcDbLine
 10
967.3566394122536
 20
1047.748520518082
 30
0.0
 11
985.7510606921733
 21
1063.678548593823
 31
0.0
  0
LINE
  5
2A1
330
70
100
AcDbEntity
  8
MAIN-1
 62
    18
420
        0
370
    25
100
AcDbLine
 10
859.2836677710247
 20
954.1545735737217
 30
0.0
 11
877.6780650735227
 21
970.0845969655693
 31
0.0
  0
SPLINE
  5
2A2
330
70
100
AcDbEntity
  8
MAIN-1
 62
    18
420
        0
370
    25
100
AcDbSpline
210
0.0
220
0.0
230
1.0
 70
     8
 71
     3
 72
     8
 73
     4
 74
     0
 42
0.0000000001
 43
0.0000000001
 40
0.0
 40
0.0
 40
0.0
 40
0.0
 40
1.0
 40
1.0
 40
1.0
 40
1.0
 10
1201.403044304979
 20
738.9884350673601
 30
0.0
 10
1201.403044304979
 20
736.8650811671013
 30
0.0
 10
1202.555287857167
 20
734.5763357215619
 30
0.0
 10
1204.412415023565
 20
733.0108068888129
 30
0.0
  0
SPLINE
  5
2A3
330
70
100
AcDbEntity
  8
MAIN-1
 62
    18
420
        0
370
    25
100
AcDbSpline
210
0.0
220
0.0
230
1.0
 70
     8
 71
     3
 72
     8
 73
     4
 74
     0
 42
0.0000000001
 43
0.0000000001
 40
0.0
 40
0.0
 40
0.0
 40
0.0
 40
1.0
 40
1.0
 40
1.0
 40
1.0
 10
1353.163923046879
 20
870.4172113584954
 30
0.0
 10
1353.163923046879
 20
868.2938574582367
 30
0.0
 10
1354.316166599066
 20
866.0051120126972
 30
0.0
 10
1356.173293765467
 20
864.4395831799483
 30
0.0
  0
LINE
  5
2A4
330
70
100
AcDbEntity
  8
MAIN-1
 62
    18
420
        0
370
    25
100
AcDbLine
 10
1356.173293765434
 20
864.4395831798993
 30
0.0
 11
1361.137259683582
 21
860.2550384108235
 31
0.0
  0
SPLINE
  5
2A5
330
70
100
AcDbEntity
  8
MAIN-1
 62
    18
420
        0
370
    25
100
AcDbSpline
210
0.0
220
0.0
230
1.0
 70
     8
 71
     3
 72
     8
 73
     4
 74
     0
 42
0.0000000001
 43
0.0000000001
 40
0.0
 40
0.0
 40
0.0
 40
0.0
 40
1.0
 40
1.0
 40
1.0
 40
1.0
 10
1368.461800911355
 20
885.8031640431182
 30
0.0
 10
1368.328119300824
 20
885.714149696747
 30
0.0
 10
1368.200568779886
 20
885.6170931834004
 30
0.0
 10
1368.079579766289
 20
885.5123220191508
 30
0.0
  0
LINE
  5
2A6
330
70
100
AcDbEntity
  8
MAIN-1
 62
    18
420
        0
370
    25
100
AcDbLine
 10
1429.799068333508
 20
926.645705856732
 30
0.0
 11
1368.461800911276
 21
885.8031640432383
 31
0.0
  0
SPLINE
  5
2A7
330
70
100
AcDbEntity
  8
MAIN-1
 62
    18
420
        0
370
    25
100
AcDbSpline
210
0.0
220
0.0
230
1.0
 70
     8
 71
     3
 72
     8
 73
     4
 74
     0
 42
0.0000000001
 43
0.0000000001
 40
0.0
 40
0.0
 40
0.0
 40
0.0
 40
1.0
 40
1.0
 40
1.0
 40
1.0
 10
1433.832325303534
 20
927.0973580248064
 30
0.0
 10
1432.330134467667
 20
927.5310031665377
 30
0.0
 10
1430.885687500846
 20
927.369251111255
 30
0.0
 10
1429.799068333568
 20
926.645705856632
 30
0.0
  0
LINE
  5
2A8
330
70
100
AcDbEntity
  8
MAIN-1
 62
    18
420
        0
370
    25
100
AcDbLine
 10
1466.087824417344
 20
917.7859974767052
 30
0.0
 11
1433.832325303534
 21
927.0973580248064
 31
0.0
  0
SPLINE
  5
2A9
330
70
100
AcDbEntity
  8
MAIN-1
 62
    18
420
        0
370
    25
100
AcDbSpline
210
0.0
220
0.0
230
1.0
 70
     8
 71
     3
 72
     8
 73
     4
 74
     0
 42
0.0000000001
 43
0.0000000001
 40
0.0
 40
0.0
 40
0.0
 40
0.0
 40
1.0
 40
1.0
 40
1.0
 40
1.0
 10
1471.14652037543
 20
913.4050382669556
 30
0.0
 10
1470.103076391157
 20
915.5135525952028
 30
0.0
 10
1468.174712385918
 20
917.1835648114919
 30
0.0
 10
1466.087824417344
 20
917.7859974767052
 30
0.0
  0
LINE
  5
2AA
330
70
100
AcDbEntity
  8
MAIN-1
 62
    18
420
        0
370
    25
100
AcDbLine
 10
1497.884100132693
 20
859.3757172209043
 30
0.0
 11
1471.146520375481
 21
913.4050382669702
 31
0.0
  0
SPLINE
  5
2AB
330
70
100
AcDbEntity
  8
MAIN-1
 62
    18
420
        0
370
    25
100
AcDbSpline
210
0.0
220
0.0
230
1.0
 70
     8
 71
     3
 72
     8
 73
     4
 74
     0
 42
0.0000000001
 43
0.0000000001
 40
0.0
 40
0.0
 40
0.0
 40
0.0
 40
1.0
 40
1.0
 40
1.0
 40
1.0
 10
1498.666683120809
 20
856.2291654983418
 30
0.0
 10
1498.666683120809
 20
857.2545241148509
 30
0.0
 10
1498.396779440854
 20
858.3397328427308
 30
0.0
 10
1497.8841001326
 20
859.3757172209317
 30
0.0
  0
LINE
  5
2AC
330
70
100
AcDbEntity
  8
MAIN-1
 62
    18
420
        0
370
    25
100
AcDbLine
 10
1498.666683120809
 20
856.2291654983418
 30
0.0
 11
1498.666683120809
 21
768.1905963449917
 31
0.0
  0
LINE
  5
2AD
330
70
100
AcDbEntity
  8
MAIN-1
 62
    18
420
        0
370
    25
100
AcDbLine
 10
1406.31956145796
 20
779.2721702637318
 30
0.0
 11
1403.398921984824
 21
780.1152862567432
 31
0.0
  0
LINE
  5
2AE
330
70
100
AcDbEntity
  8
MAIN-1
 62
    18
420
        0
370
    25
100
AcDbLine
 10
1403.398921984824
 20
780.1152862567432
 30
0.0
 11
1403.398921984824
 21
815.9626485220105
 31
0.0
  0
SPLINE
  5
2AF
330
70
100
AcDbEntity
  8
MAIN-1
 62
    18
420
        0
370
    25
100
AcDbSpline
210
0.0
220
0.0
230
1.0
 70
     8
 71
     3
 72
     8
 73
     4
 74
     0
 42
0.0000000001
 43
0.0000000001
 40
0.0
 40
0.0
 40
0.0
 40
0.0
 40
1.0
 40
1.0
 40
1.0
 40
1.0
 10
1409.240200931097
 20
820.1176954822622
 30
0.0
 10
1407.545383772118
 20
820.6069470537441
 30
0.0
 10
1405.934122631061
 20
820.3359721190173
 30
0.0
 10
1404.824605545544
 20
819.3750997348125
 30
0.0
  0
SPLINE
  5
2B0
330
70
100
AcDbEntity
  8
MAIN-1
 62
    18
420
        0
370
    25
100
AcDbSpline
210
0.0
220
0.0
230
1.0
 70
     8
 71
     3
 72
     8
 73
     4
 74
     0
 42
0.0000000001
 43
0.0000000001
 40
0.0
 40
0.0
 40
0.0
 40
0.0
 40
1.0
 40
1.0
 40
1.0
 40
1.0
 10
1404.824605545544
 20
819.3750997348125
 30
0.0
 10
1403.905064098169
 20
818.578751490655
 30
0.0
 10
1403.398921984824
 20
817.3672727894045
 30
0.0
 10
1403.398921984824
 20
815.9626485220105
 30
0.0
  0
LINE
  5
2B1
330
70
100
AcDbEntity
  8
MAIN-1
 62
    18
420
        0
370
    25
100
AcDbLine
 10
1409.240200931097
 20
820.1176954822622
 30
0.0
 11
1415.08147987737
 21
825.1763914403253
 31
0.0
  0
SPLINE
  5
2B2
330
70
100
AcDbEntity
  8
MAIN-1
 62
    18
420
        0
370
    25
100
AcDbSpline
210
0.0
220
0.0
230
1.0
 70
     8
 71
     3
 72
     8
 73
     4
 74
     0
 42
0.0000000001
 43
0.0000000001
 40
0.0
 40
0.0
 40
0.0
 40
0.0
 40
1.0
 40
1.0
 40
1.0
 40
1.0
 10
1409.240200931097
 20
820.1176954822622
 30
0.0
 10
1410.935018090075
 20
819.6284439107802
 30
0.0
 10
1412.546279231134
 20
819.899418845507
 30
0.0
 10
1413.655796316649
 20
820.860291229712
 30
0.0
  0
SPLINE
  5
2B3
330
70
100
AcDbEntity
  8
MAIN-1
 62
    18
420
        0
370
    25
100
AcDbSpline
210
0.0
220
0.0
230
1.0
 70
     8
 71
     3
 72
     8
 73
     4
 74
     0
 42
0.0000000001
 43
0.0000000001
 40
0.0
 40
0.0
 40
0.0
 40
0.0
 40
1.0
 40
1.0
 40
1.0
 40
1.0
 10
1413.655796316649
 20
820.860291229712
 30
0.0
 10
1414.575337764025
 20
821.6566394738693
 30
0.0
 10
1415.08147987737
 20
822.8681181751198
 30
0.0
 10
1415.08147987737
 20
824.2727424425138
 30
0.0
  0
LINE
  5
2B4
330
70
100
AcDbEntity
  8
MAIN-1
 62
    18
420
        0
370
    25
100
AcDbLine
 10
1406.31956145796
 20
779.2721702637318
 30
0.0
 11
1480.795868022936
 21
757.7727124419634
 31
0.0
  0
LINE
  5
2B5
330
70
100
AcDbEntity
  8
MAIN-1
 62
    18
420
        0
370
    25
100
AcDbLine
 10
1485.176827232641
 20
756.5080384524462
 30
0.0
 11
1480.795868022936
 21
757.7727124419634
 31
0.0
  0
LINE
  5
2B6
330
70
100
AcDbEntity
  8
MAIN-1
 62
    18
420
        0
370
    25
100
AcDbLine
 10
1485.176827232641
 20
844.5466076057964
 30
0.0
 11
1485.176827232641
 21
756.5080384524462
 31
0.0
  0
SPLINE
  5
2B7
330
70
100
AcDbEntity
  8
MAIN-1
 62
    18
420
        0
370
    25
100
AcDbSpline
210
0.0
220
0.0
230
1.0
 70
     8
 71
     3
 72
     8
 73
     4
 74
     0
 42
0.0000000001
 43
0.0000000001
 40
0.0
 40
0.0
 40
0.0
 40
0.0
 40
1.0
 40
1.0
 40
1.0
 40
1.0
 10
1485.176827232641
 20
844.5466076057964
 30
0.0
 10
1485.176827232642
 20
845.5719662222891
 30
0.0
 10
1484.906923552695
 20
846.6571749501527
 30
0.0
 10
1484.394244244455
 20
847.6931593283389
 30
0.0
  0
LINE
  5
2B8
330
70
100
AcDbEntity
  8
MAIN-1
 62
    18
420
        0
370
    25
100
AcDbLine
 10
1484.394244244522
 20
847.6931593283589
 30
0.0
 11
1457.656664487313
 21
901.7224803744248
 31
0.0
  0
SPLINE
  5
2B9
330
70
100
AcDbEntity
  8
MAIN-1
 62
    18
420
        0
370
    25
100
AcDbSpline
210
0.0
220
0.0
230
1.0
 70
     8
 71
     3
 72
     8
 73
     4
 74
     0
 42
0.0000000001
 43
0.0000000001
 40
0.0
 40
0.0
 40
0.0
 40
0.0
 40
1.0
 40
1.0
 40
1.0
 40
1.0
 10
1457.656664487238
 20
901.7224803744557
 30
0.0
 10
1456.613220502959
 20
903.8309947026828
 30
0.0
 10
1454.684856497733
 20
905.5010069189521
 30
0.0
 10
1452.597968529175
 20
906.1034395841598
 30
0.0
  0
LINE
  5
2BA
330
70
100
AcDbEntity
  8
MAIN-1
 62
    18
420
        0
370
    25
100
AcDbLine
 10
1452.597968529175
 20
906.1034395841598
 30
0.0
 11
1420.342469415365
 21
915.414800132261
 31
0.0
  0
SPLINE
  5
2BB
330
70
100
AcDbEntity
  8
MAIN-1
 62
    18
420
        0
370
    25
100
AcDbSpline
210
0.0
220
0.0
230
1.0
 70
     8
 71
     3
 72
     8
 73
     4
 74
     0
 42
0.0000000001
 43
0.0000000001
 40
0.0
 40
0.0
 40
0.0
 40
0.0
 40
1.0
 40
1.0
 40
1.0
 40
1.0
 10
1420.342469415365
 20
915.414800132261
 30
0.0
 10
1418.840278579502
 20
915.8484452739921
 30
0.0
 10
1417.395831612684
 20
915.6866932187112
 30
0.0
 10
1416.309212445409
 20
914.9631479640939
 30
0.0
  0
LINE
  5
2BC
330
70
100
AcDbEntity
  8
MAIN-1
 62
    18
420
        0
370
    25
100
AcDbLine
 10
1416.30921244534
 20
914.9631479641866
 30
0.0
 11
1354.971945023108
 21
874.1206061506945
 31
0.0
  0
SPLINE
  5
2BD
330
70
100
AcDbEntity
  8
MAIN-1
 62
    18
420
        0
370
    25
100
AcDbSpline
210
0.0
220
0.0
230
1.0
 70
     8
 71
     3
 72
     8
 73
     4
 74
     0
 42
0.0000000001
 43
0.0000000001
 40
0.0
 40
0.0
 40
0.0
 40
0.0
 40
1.0
 40
1.0
 40
1.0
 40
1.0
 10
1354.971945023186
 20
874.1206061505726
 30
0.0
 10
1354.838263412654
 20
874.0315918042014
 30
0.0
 10
1354.710712891714
 20
873.934535290853
 30
0.0
 10
1354.589723878116
 20
873.8297641266017
 30
0.0
  0
SPLINE
  5
2BE
330
70
100
AcDbEntity
  8
MAIN-1
 62
    18
420
        0
370
    25
100
AcDbSpline
210
0.0
220
0.0
230
1.0
 70
     8
 71
     3
 72
     8
 73
     4
 74
     0
 42
0.0000000001
 43
0.0000000001
 40
0.0
 40
0.0
 40
0.0
 40
0.0
 40
1.0
 40
1.0
 40
1.0
 40
1.0
 10
1354.589723878116
 20
873.8297641266017
 30
0.0
 10
1353.670109507358
 20
873.0334185294287
 30
0.0
 10
1353.163923046879
 20
871.8218972783233
 30
0.0
 10
1353.163923046879
 20
870.4172113584954
 30
0.0
  0
SPLINE
  5
2BF
330
70
100
AcDbEntity
  8
MAIN-1
 62
    18
420
        0
370
    25
100
AcDbSpline
210
0.0
220
0.0
230
1.0
 70
     8
 71
     3
 72
     8
 73
     4
 74
     0
 42
0.0000000001
 43
0.0000000001
 40
0.0
 40
0.0
 40
0.0
 40
0.0
 40
1.0
 40
1.0
 40
1.0
 40
1.0
 10
1361.137259683495
 20
860.2550384108672
 30
0.0
 10
1362.477522908511
 20
859.1252177070364
 30
0.0
 10
1363.926367843449
 20
858.1796357700477
 30
0.0
 10
1365.430608834033
 20
857.4530039708534
 30
0.0
  0
LINE
  5
2C0
330
70
100
AcDbEntity
  8
MAIN-1
 62
    18
420
        0
370
    25
100
AcDbLine
 10
1365.430608834053
 20
857.4530039709461
 30
0.0
 11
1410.354769498692
 21
835.75214360678
 31
0.0
  0
SPLINE
  5
2C1
330
70
100
AcDbEntity
  8
MAIN-1
 62
    18
420
        0
370
    25
100
AcDbSpline
210
0.0
220
0.0
230
1.0
 70
     8
 71
     3
 72
     8
 73
     4
 74
     0
 42
0.0000000001
 43
0.0000000001
 40
0.0
 40
0.0
 40
0.0
 40
0.0
 40
1.0
 40
1.0
 40
1.0
 40
1.0
 10
1415.08147987737
 20
828.653701652218
 30
0.0
 10
1415.08147987737
 20
831.4500129031566
 30
0.0
 10
1413.099704635968
 20
834.4261877458903
 30
0.0
 10
1410.354769498679
 20
835.7521436067145
 30
0.0
  0
LINE
  5
2C2
330
70
100
AcDbEntity
  8
MAIN-1
 62
    18
420
        0
370
    25
100
AcDbLine
 10
1415.08147987737
 20
824.2727424425138
 30
0.0
 11
1415.08147987737
 21
828.653701652218
 31
0.0
  0
LINE
  5
2C3
330
70
100
AcDbEntity
  8
MAIN-1
 62
    18
420
        0
370
    25
100
AcDbLine
 10
1368.461800911292
 20
885.8031640432182
 30
0.0
 11
1354.971945023124
 21
874.1206061506728
 31
0.0
  0
LINE
  5
2C4
330
70
100
AcDbEntity
  8
MAIN-1
 62
    18
420
        0
370
    25
100
AcDbLine
 10
1416.30921244534
 20
914.9631479641866
 30
0.0
 11
1429.799068333508
 21
926.645705856732
 31
0.0
  0
LINE
  5
2C5
330
70
100
AcDbEntity
  8
MAIN-1
 62
    18
420
        0
370
    25
100
AcDbLine
 10
1420.342469415365
 20
915.414800132261
 30
0.0
 11
1433.832325303534
 21
927.0973580248064
 31
0.0
  0
LINE
  5
2C6
330
70
100
AcDbEntity
  8
MAIN-1
 62
    18
420
        0
370
    25
100
AcDbLine
 10
1452.597968529175
 20
906.1034395841598
 30
0.0
 11
1466.087824417344
 21
917.7859974767052
 31
0.0
  0
LINE
  5
2C7
330
70
100
AcDbEntity
  8
MAIN-1
 62
    18
420
        0
370
    25
100
AcDbLine
 10
1457.656664487329
 20
901.7224803744284
 30
0.0
 11
1471.146520375498
 21
913.4050382669739
 31
0.0
  0
LINE
  5
2C8
330
70
100
AcDbEntity
  8
MAIN-1
 62
    18
420
        0
370
    25
100
AcDbLine
 10
1484.394244244522
 20
847.6931593283589
 30
0.0
 11
1497.884100132693
 21
859.3757172209043
 31
0.0
  0
LINE
  5
2C9
330
70
100
AcDbEntity
  8
MAIN-1
 62
    18
420
        0
370
    25
100
AcDbLine
 10
1485.176827232641
 20
844.5466076057964
 30
0.0
 11
1498.666683120809
 21
856.2291654983418
 31
0.0
  0
LINE
  5
2CA
330
70
100
AcDbEntity
  8
MAIN-1
 62
    18
420
        0
370
    25
100
AcDbLine
 10
1498.666683120809
 20
768.1905963449917
 30
0.0
 11
1485.176827232641
 21
756.5080384524462
 31
0.0
  0
LINE
  5
2CB
330
70
100
AcDbEntity
  8
MAIN-1
 62
    18
420
        0
370
    25
100
AcDbLine
 10
1475.737172064873
 20
744.6298348128493
 30
0.0
 11
1457.610178215147
 21
728.931397644741
 31
0.0
  0
LINE
  5
2CC
330
70
100
AcDbEntity
  8
MAIN-1
 62
    18
420
        0
370
    25
100
AcDbLine
 10
1475.737172064873
 20
721.2647190277585
 30
0.0
 11
1461.991137424851
 21
709.3603038281981
 31
0.0
  0
SPLINE
  5
2CD
330
70
100
AcDbEntity
  8
MAIN-1
 62
    18
420
        0
370
    25
100
AcDbSpline
210
0.0
220
0.0
230
1.0
 70
     8
 71
     3
 72
     8
 73
     4
 74
     0
 42
0.0000000001
 43
0.0000000001
 40
0.0
 40
0.0
 40
0.0
 40
0.0
 40
1.0
 40
1.0
 40
1.0
 40
1.0
 10
1475.737172064873
 20
721.2647190277585
 30
0.0
 10
1484.853780889245
 20
729.1599338660289
 30
0.0
 10
1492.618846765846
 20
747.3595654226683
 30
0.0
 10
1494.054340080944
 20
764.1961911300186
 30
0.0
  0
SPLINE
  5
2CE
330
70
100
AcDbEntity
  8
MAIN-1
 62
    18
420
        0
370
    25
100
AcDbSpline
210
0.0
220
0.0
230
1.0
 70
     8
 71
     3
 72
     8
 73
     4
 74
     0
 42
0.0000000001
 43
0.0000000001
 40
0.0
 40
0.0
 40
0.0
 40
0.0
 40
1.0
 40
1.0
 40
1.0
 40
1.0
 10
1475.737172064873
 20
744.6298348128493
 30
0.0
 10
1478.531012696543
 20
747.0493717739991
 30
0.0
 10
1480.795868022936
 20
752.9336385196621
 30
0.0
 10
1480.795868022936
 20
757.7727124419634
 30
0.0
  0
LINE
  5
2CF
330
70
100
AcDbEntity
  8
MAIN-1
 62
    18
420
        0
370
    25
100
AcDbLine
 10
1344.376456399879
 20
634.5713404490052
 30
0.0
 11
1347.583541127269
 21
633.6455348336694
 31
0.0
  0
LINE
  5
2D0
330
70
100
AcDbEntity
  8
MAIN-1
 62
    18
420
        0
370
    25
100
AcDbLine
 10
1365.710534976995
 20
649.3439720017759
 30
0.0
 11
1347.583541127269
 21
633.6455348336694
 31
0.0
  0
LINE
  5
2D1
330
70
100
AcDbEntity
  8
MAIN-1
 62
    18
420
        0
370
    25
100
AcDbLine
 10
1370.091494186701
 20
648.0792980122605
 30
0.0
 11
1365.710534976995
 21
649.3439720017759
 31
0.0
  0
LINE
  5
2D2
330
70
100
AcDbEntity
  8
MAIN-1
 62
    18
420
        0
370
    25
100
AcDbLine
 10
1461.991137424851
 20
727.6667236552257
 30
0.0
 11
1370.091494186701
 21
648.0792980122605
 31
0.0
  0
LINE
  5
2D3
330
70
100
AcDbEntity
  8
MAIN-1
 62
    18
420
        0
370
    25
100
AcDbLine
 10
1461.991137424851
 20
727.6667236552257
 30
0.0
 11
1457.610178215147
 21
728.931397644741
 31
0.0
  0
LINE
  5
2D4
330
70
100
AcDbEntity
  8
MAIN-1
 62
    18
420
        0
370
    25
100
AcDbLine
 10
1401.260865499897
 20
766.1292926346177
 30
0.0
 11
1475.737172064873
 21
744.6298348128493
 31
0.0
  0
LINE
  5
2D5
330
70
100
AcDbEntity
  8
MAIN-1
 62
    18
420
        0
370
    25
100
AcDbLine
 10
1401.260865499897
 20
766.1292926346177
 30
0.0
 11
1400.839307503393
 21
765.7642127004764
 31
0.0
  0
LINE
  5
2D6
330
70
100
AcDbEntity
  8
MAIN-1
 62
    18
420
        0
370
    25
100
AcDbLine
 10
1400.839307503393
 20
765.7642127004764
 30
0.0
 11
1380.786122685542
 21
771.553068526824
 31
0.0
  0
LINE
  5
2D7
330
70
100
AcDbEntity
  8
MAIN-1
 62
    18
420
        0
370
    25
100
AcDbLine
 10
1361.816012842804
 20
752.203832017296
 30
0.0
 11
1342.428225266945
 21
735.4135154534251
 31
0.0
  0
SPLINE
  5
2D8
330
70
100
AcDbEntity
  8
MAIN-1
 62
    18
420
        0
370
    25
100
AcDbSpline
210
0.0
220
0.0
230
1.0
 70
     8
 71
     3
 72
     8
 73
     4
 74
     0
 42
0.0000000001
 43
0.0000000001
 40
0.0
 40
0.0
 40
0.0
 40
0.0
 40
1.0
 40
1.0
 40
1.0
 40
1.0
 10
1375.636627220278
 20
754.0554432479694
 30
0.0
 10
1370.797553297976
 20
755.4523635638034
 30
0.0
 10
1364.609853474474
 20
754.6233689784457
 30
0.0
 10
1361.816012842804
 20
752.203832017296
 30
0.0
  0
LINE
  5
2D9
330
70
100
AcDbEntity
  8
MAIN-1
 62
    18
420
        0
370
    25
100
AcDbLine
 10
1419.446219317322
 20
741.4087033528103
 30
0.0
 11
1375.636627220278
 21
754.0554432479694
 31
0.0
  0
SPLINE
  5
2DA
330
70
100
AcDbEntity
  8
MAIN-1
 62
    18
420
        0
370
    25
100
AcDbSpline
210
0.0
220
0.0
230
1.0
 70
     8
 71
     3
 72
     8
 73
     4
 74
     0
 42
0.0000000001
 43
0.0000000001
 40
0.0
 40
0.0
 40
0.0
 40
0.0
 40
1.0
 40
1.0
 40
1.0
 40
1.0
 10
1424.504915268841
 20
737.0275621808996
 30
0.0
 10
1424.505045291187
 20
738.8349251843447
 30
0.0
 10
1422.576663869036
 20
740.5050218505021
 30
0.0
 10
1419.446219317322
 20
741.4087033528103
 30
0.0
  0
SPLINE
  5
2DB
330
70
100
AcDbEntity
  8
MAIN-1
 62
    18
420
        0
370
    25
100
AcDbSpline
210
0.0
220
0.0
230
1.0
 70
     8
 71
     3
 72
     8
 73
     4
 74
     0
 42
0.0000000001
 43
0.0000000001
 40
0.0
 40
0.0
 40
0.0
 40
0.0
 40
1.0
 40
1.0
 40
1.0
 40
1.0
 10
1423.149441778667
 20
734.4983961640736
 30
0.0
 10
1424.037366683278
 20
735.2673616881202
 30
0.0
 10
1424.504851391202
 20
736.1396372768631
 30
0.0
 10
1424.504915268841
 20
737.0275621808996
 30
0.0
  0
LINE
  5
2DC
330
70
100
AcDbEntity
  8
MAIN-1
 62
    18
420
        0
370
    25
100
AcDbLine
 10
1346.90580437891
 20
668.4694692989542
 30
0.0
 11
1423.149441778667
 21
734.4983961640736
 31
0.0
  0
LINE
  5
2DD
330
70
100
AcDbEntity
  8
MAIN-1
 62
    18
420
        0
370
    25
100
AcDbLine
 10
1255.830300583688
 20
637.254071357529
 30
0.0
 11
1253.475607740947
 21
637.9338126308357
 31
0.0
  0
SPLINE
  5
2DE
330
70
100
AcDbEntity
  8
MAIN-1
 62
    18
420
        0
370
    25
100
AcDbSpline
210
0.0
220
0.0
230
1.0
 70
     8
 71
     3
 72
     8
 73
     4
 74
     0
 42
0.0000000001
 43
0.0000000001
 40
0.0
 40
0.0
 40
0.0
 40
0.0
 40
1.0
 40
1.0
 40
1.0
 40
1.0
 10
1254.55868271606
 20
647.8433939725964
 30
0.0
 10
1254.55868271606
 20
637.1020569115753
 30
0.0
 10
1257.65791498637
 20
629.7553539669406
 30
0.0
 10
1262.817753653628
 20
628.2653386721794
 30
0.0
  0
SPLINE
  5
2DF
330
70
100
AcDbEntity
  8
MAIN-1
 62
    18
420
        0
370
    25
100
AcDbSpline
210
0.0
220
0.0
230
1.0
 70
     8
 71
     3
 72
     8
 73
     4
 74
     0
 42
0.0000000001
 43
0.0000000001
 40
0.0
 40
0.0
 40
0.0
 40
0.0
 40
1.0
 40
1.0
 40
1.0
 40
1.0
 10
1344.777319061269
 20
632.6870244159872
 30
0.0
 10
1345.60833243639
 20
632.4470512852494
 30
0.0
 10
1346.584761653259
 20
632.7805664363968
 30
0.0
 10
1347.583541127269
 20
633.6455348336676
 30
0.0
  0
SPLINE
  5
2E0
330
70
100
AcDbEntity
  8
MAIN-1
 62
    18
420
        0
370
    25
100
AcDbSpline
210
0.0
220
0.0
230
1.0
 70
     8
 71
     3
 72
     8
 73
     4
 74
     0
 42
0.0000000001
 43
0.0000000001
 40
0.0
 40
0.0
 40
0.0
 40
0.0
 40
1.0
 40
1.0
 40
1.0
 40
1.0
 10
1343.453131999158
 20
633.7717209387265
 30
0.0
 10
1343.811700117807
 20
633.2039403605558
 30
0.0
 10
1344.260580404329
 20
632.8362439075026
 30
0.0
 10
1344.777319061269
 20
632.6870244159872
 30
0.0
  0
SPLINE
  5
2E1
330
70
100
AcDbEntity
  8
MAIN-1
 62
    18
420
        0
370
    25
100
AcDbSpline
210
0.0
220
0.0
230
1.0
 70
     8
 71
     3
 72
     8
 73
     4
 74
     0
 42
0.0000000001
 43
0.0000000001
 40
0.0
 40
0.0
 40
0.0
 40
0.0
 40
1.0
 40
1.0
 40
1.0
 40
1.0
 10
1337.294060218604
 20
606.7658808504111
 30
0.0
 10
1340.341109260715
 20
605.8859793710398
 30
0.0
 10
1343.921349722564
 20
607.1088682585832
 30
0.0
 10
1347.583541127269
 20
610.2804190485785
 30
0.0
  0
SPLINE
  5
2E2
330
70
100
AcDbEntity
  8
MAIN-1
 62
    18
420
        0
370
    25
100
AcDbSpline
210
0.0
220
0.0
230
1.0
 70
     8
 71
     3
 72
     8
 73
     4
 74
     0
 42
0.0000000001
 43
0.0000000001
 40
0.0
 40
0.0
 40
0.0
 40
0.0
 40
1.0
 40
1.0
 40
1.0
 40
1.0
 10
1329.034989281037
 20
626.3439361508281
 30
0.0
 10
1329.034989281037
 20
615.6025990898069
 30
0.0
 10
1332.134221551347
 20
608.2558961451723
 30
0.0
 10
1337.294060218604
 20
606.7658808504111
 30
0.0
  0
LINE
  5
2E3
330
70
100
AcDbEntity
  8
MAIN-1
 62
    18
420
        0
370
    25
100
AcDbLine
 10
1365.710534976995
 20
625.978856216685
 30
0.0
 11
1347.583541127269
 21
610.2804190485785
 31
0.0
  0
LINE
  5
2E4
330
70
100
AcDbEntity
  8
MAIN-1
 62
    18
420
        0
370
    25
100
AcDbLine
 10
1365.710534976995
 20
625.978856216685
 30
0.0
 11
1365.710534976995
 21
649.3439720017759
 31
0.0
  0
LINE
  5
2E5
330
70
100
AcDbEntity
  8
MAIN-1
 62
    18
420
        0
370
    25
100
AcDbLine
 10
1370.091494186701
 20
624.7141822271697
 30
0.0
 11
1365.710534976995
 21
625.978856216685
 31
0.0
  0
LINE
  5
2E6
330
70
100
AcDbEntity
  8
MAIN-1
 62
    18
420
        0
370
    25
100
AcDbLine
 10
1370.091494186701
 20
624.7141822271697
 30
0.0
 11
1370.091494186701
 21
648.0792980122605
 31
0.0
  0
LINE
  5
2E7
330
70
100
AcDbEntity
  8
MAIN-1
 62
    18
420
        0
370
    25
100
AcDbLine
 10
1370.091494186701
 20
624.7141822271697
 30
0.0
 11
1461.991137424851
 21
704.3016078701348
 31
0.0
  0
LINE
  5
2E8
330
70
100
AcDbEntity
  8
MAIN-1
 62
    18
420
        0
370
    25
100
AcDbLine
 10
1461.991137424851
 20
704.3016078701348
 30
0.0
 11
1461.991137424851
 21
727.6667236552257
 31
0.0
  0
LINE
  5
2E9
330
70
100
AcDbEntity
  8
MAIN-1
 62
    18
420
        0
370
    25
100
AcDbLine
 10
1407.973353904477
 20
721.3555185349596
 30
0.0
 11
1375.636627220278
 21
730.6903274628784
 31
0.0
  0
SPLINE
  5
2EA
330
70
100
AcDbEntity
  8
MAIN-1
 62
    18
420
        0
370
    25
100
AcDbSpline
210
0.0
220
0.0
230
1.0
 70
     8
 71
     3
 72
     8
 73
     4
 74
     0
 42
0.0000000001
 43
0.0000000001
 40
0.0
 40
0.0
 40
0.0
 40
0.0
 40
1.0
 40
1.0
 40
1.0
 40
1.0
 10
1375.636627220278
 20
730.6903274628784
 30
0.0
 10
1370.797553297976
 20
732.0872477787125
 30
0.0
 10
1364.609853474474
 20
731.2582531933549
 30
0.0
 10
1361.816012842804
 20
728.8387162322051
 30
0.0
  0
LINE
  5
2EB
330
70
100
AcDbEntity
  8
MAIN-1
 62
    18
420
        0
370
    25
100
AcDbLine
 10
1361.816012842804
 20
728.8387162322051
 30
0.0
 11
1346.90580437891
 21
715.9260969267506
 31
0.0
  0
LINE
  5
2EC
330
70
100
AcDbEntity
  8
MAIN-1
 62
    18
420
        0
370
    25
100
AcDbLine
 10
1254.55868271606
 20
647.8433939725964
 30
0.0
 11
1329.034989281037
 21
626.3439361508281
 31
0.0
  0
LINE
  5
2ED
330
70
100
AcDbEntity
  8
MAIN-1
 62
    18
420
        0
370
    25
100
AcDbLine
 10
1254.55868271606
 20
647.8433939725964
 30
0.0
 11
1251.638043242925
 21
648.6865099656078
 31
0.0
  0
LINE
  5
2EE
330
70
100
AcDbEntity
  8
MAIN-1
 62
    18
420
        0
370
    25
100
AcDbLine
 10
1333.415948490741
 20
625.0792621613127
 30
0.0
 11
1329.034989281037
 21
626.3439361508281
 31
0.0
  0
LINE
  5
2EF
330
70
100
AcDbEntity
  8
MAIN-1
 62
    18
420
        0
370
    25
100
AcDbLine
 10
1333.415948490741
 20
625.0792621613127
 30
0.0
 11
1333.415948490741
 21
713.1178313146611
 31
0.0
  0
SPLINE
  5
2F0
330
70
100
AcDbEntity
  8
MAIN-1
 62
    18
420
        0
370
    25
100
AcDbSpline
210
0.0
220
0.0
230
1.0
 70
     8
 71
     3
 72
     8
 73
     4
 74
     0
 42
0.0000000001
 43
0.0000000001
 40
0.0
 40
0.0
 40
0.0
 40
0.0
 40
1.0
 40
1.0
 40
1.0
 40
1.0
 10
1333.415948490741
 20
713.1178313146611
 30
0.0
 10
1333.415948490741
 20
714.1431899311537
 30
0.0
 10
1333.146044810795
 20
715.2283986590173
 30
0.0
 10
1332.633365502555
 20
716.2643830372035
 30
0.0
  0
LINE
  5
2F1
330
70
100
AcDbEntity
  8
MAIN-1
 62
    18
420
        0
370
    25
100
AcDbLine
 10
1305.89578574543
 20
770.293704083293
 30
0.0
 11
1332.633365502641
 21
716.264383037229
 31
0.0
  0
SPLINE
  5
2F2
330
70
100
AcDbEntity
  8
MAIN-1
 62
    18
420
        0
370
    25
100
AcDbSpline
210
0.0
220
0.0
230
1.0
 70
     8
 71
     3
 72
     8
 73
     4
 74
     0
 42
0.0000000001
 43
0.0000000001
 40
0.0
 40
0.0
 40
0.0
 40
0.0
 40
1.0
 40
1.0
 40
1.0
 40
1.0
 10
1305.895785745339
 20
770.2937040833203
 30
0.0
 10
1304.85234176106
 20
772.4022184115474
 30
0.0
 10
1302.923977755834
 20
774.0722306278167
 30
0.0
 10
1300.837089787275
 20
774.6746632930244
 30
0.0
  0
LINE
  5
2F3
330
70
100
AcDbEntity
  8
MAIN-1
 62
    18
420
        0
370
    25
100
AcDbLine
 10
1300.837089787275
 20
774.6746632930244
 30
0.0
 11
1268.581590673466
 21
783.9860238411256
 31
0.0
  0
SPLINE
  5
2F4
330
70
100
AcDbEntity
  8
MAIN-1
 62
    18
420
        0
370
    25
100
AcDbSpline
210
0.0
220
0.0
230
1.0
 70
     8
 71
     3
 72
     8
 73
     4
 74
     0
 42
0.0000000001
 43
0.0000000001
 40
0.0
 40
0.0
 40
0.0
 40
0.0
 40
1.0
 40
1.0
 40
1.0
 40
1.0
 10
1268.581590673466
 20
783.9860238411256
 30
0.0
 10
1267.079399837603
 20
784.4196689828568
 30
0.0
 10
1265.634952870783
 20
784.2579169275759
 30
0.0
 10
1264.548333703509
 20
783.5343716729584
 30
0.0
  0
LINE
  5
2F5
330
70
100
AcDbEntity
  8
MAIN-1
 62
    18
420
        0
370
    25
100
AcDbLine
 10
1264.548333703438
 20
783.5343716730513
 30
0.0
 11
1203.211066281208
 21
742.6918298595592
 31
0.0
  0
SPLINE
  5
2F6
330
70
100
AcDbEntity
  8
MAIN-1
 62
    18
420
        0
370
    25
100
AcDbSpline
210
0.0
220
0.0
230
1.0
 70
     8
 71
     3
 72
     8
 73
     4
 74
     0
 42
0.0000000001
 43
0.0000000001
 40
0.0
 40
0.0
 40
0.0
 40
0.0
 40
1.0
 40
1.0
 40
1.0
 40
1.0
 10
1203.211066281285
 20
742.6918298594373
 30
0.0
 10
1203.077384670754
 20
742.6028155130661
 30
0.0
 10
1202.949834149815
 20
742.5057589997177
 30
0.0
 10
1202.828845136215
 20
742.4009878354663
 30
0.0
  0
SPLINE
  5
2F7
330
70
100
AcDbEntity
  8
MAIN-1
 62
    18
420
        0
370
    25
100
AcDbSpline
210
0.0
220
0.0
230
1.0
 70
     8
 71
     3
 72
     8
 73
     4
 74
     0
 42
0.0000000001
 43
0.0000000001
 40
0.0
 40
0.0
 40
0.0
 40
0.0
 40
1.0
 40
1.0
 40
1.0
 40
1.0
 10
1202.828845136215
 20
742.4009878354663
 30
0.0
 10
1201.909230765457
 20
741.6046422382933
 30
0.0
 10
1201.403044304979
 20
740.3931209871879
 30
0.0
 10
1201.403044304979
 20
738.9884350673601
 30
0.0
  0
LINE
  5
2F8
330
70
100
AcDbEntity
  8
MAIN-1
 62
    18
420
        0
370
    25
100
AcDbLine
 10
1204.412415023535
 20
733.0108068887657
 30
0.0
 11
1209.376380941681
 21
728.8262621196881
 31
0.0
  0
SPLINE
  5
2F9
330
70
100
AcDbEntity
  8
MAIN-1
 62
    18
420
        0
370
    25
100
AcDbSpline
210
0.0
220
0.0
230
1.0
 70
     8
 71
     3
 72
     8
 73
     4
 74
     0
 42
0.0000000001
 43
0.0000000001
 40
0.0
 40
0.0
 40
0.0
 40
0.0
 40
1.0
 40
1.0
 40
1.0
 40
1.0
 10
1209.376380941596
 20
728.8262621197318
 30
0.0
 10
1210.716644166612
 20
727.696441415901
 30
0.0
 10
1212.165489101549
 20
726.7508594789124
 30
0.0
 10
1213.669730092133
 20
726.0242276797198
 30
0.0
  0
LINE
  5
2FA
330
70
100
AcDbEntity
  8
MAIN-1
 62
    18
420
        0
370
    25
100
AcDbLine
 10
1213.669730092151
 20
726.0242276798126
 30
0.0
 11
1258.593890756792
 21
704.3233673156446
 31
0.0
  0
SPLINE
  5
2FB
330
70
100
AcDbEntity
  8
MAIN-1
 62
    18
420
        0
370
    25
100
AcDbSpline
210
0.0
220
0.0
230
1.0
 70
     8
 71
     3
 72
     8
 73
     4
 74
     0
 42
0.0000000001
 43
0.0000000001
 40
0.0
 40
0.0
 40
0.0
 40
0.0
 40
1.0
 40
1.0
 40
1.0
 40
1.0
 10
1263.32060113547
 20
697.2249253610844
 30
0.0
 10
1263.32060113547
 20
700.0212366120231
 30
0.0
 10
1261.338825894068
 20
702.9974114547549
 30
0.0
 10
1258.593890756779
 20
704.3233673155791
 30
0.0
  0
LINE
  5
2FC
330
70
100
AcDbEntity
  8
MAIN-1
 62
    18
420
        0
370
    25
100
AcDbLine
 10
1263.32060113547
 20
692.8439661513785
 30
0.0
 11
1263.32060113547
 21
697.2249253610826
 31
0.0
  0
SPLINE
  5
2FD
330
70
100
AcDbEntity
  8
MAIN-1
 62
    18
420
        0
370
    25
100
AcDbSpline
210
0.0
220
0.0
230
1.0
 70
     8
 71
     3
 72
     8
 73
     4
 74
     0
 42
0.0000000001
 43
0.0000000001
 40
0.0
 40
0.0
 40
0.0
 40
0.0
 40
1.0
 40
1.0
 40
1.0
 40
1.0
 10
1257.479322189196
 20
688.6889191911268
 30
0.0
 10
1259.174139348175
 20
688.1996676196467
 30
0.0
 10
1260.785400489234
 20
688.4706425543736
 30
0.0
 10
1261.894917574749
 20
689.4315149385765
 30
0.0
  0
SPLINE
  5
2FE
330
70
100
AcDbEntity
  8
MAIN-1
 62
    18
420
        0
370
    25
100
AcDbSpline
210
0.0
220
0.0
230
1.0
 70
     8
 71
     3
 72
     8
 73
     4
 74
     0
 42
0.0000000001
 43
0.0000000001
 40
0.0
 40
0.0
 40
0.0
 40
0.0
 40
1.0
 40
1.0
 40
1.0
 40
1.0
 10
1261.894917574749
 20
689.4315149385765
 30
0.0
 10
1262.814459022123
 20
690.2278631827357
 30
0.0
 10
1263.32060113547
 20
691.4393418839845
 30
0.0
 10
1263.32060113547
 20
692.8439661513785
 30
0.0
  0
SPLINE
  5
2FF
330
70
100
AcDbEntity
  8
MAIN-1
 62
    18
420
        0
370
    25
100
AcDbSpline
210
0.0
220
0.0
230
1.0
 70
     8
 71
     3
 72
     8
 73
     4
 74
     0
 42
0.0000000001
 43
0.0000000001
 40
0.0
 40
0.0
 40
0.0
 40
0.0
 40
1.0
 40
1.0
 40
1.0
 40
1.0
 10
1257.479322189196
 20
688.6889191911268
 30
0.0
 10
1255.784505030218
 20
689.1781707626087
 30
0.0
 10
1254.173243889159
 20
688.9071958278819
 30
0.0
 10
1253.063726803644
 20
687.946323443677
 30
0.0
  0
SPLINE
  5
300
330
70
100
AcDbEntity
  8
MAIN-1
 62
    18
420
        0
370
    25
100
AcDbSpline
210
0.0
220
0.0
230
1.0
 70
     8
 71
     3
 72
     8
 73
     4
 74
     0
 42
0.0000000001
 43
0.0000000001
 40
0.0
 40
0.0
 40
0.0
 40
0.0
 40
1.0
 40
1.0
 40
1.0
 40
1.0
 10
1253.063726803644
 20
687.946323443677
 30
0.0
 10
1252.14418535627
 20
687.1499751995197
 30
0.0
 10
1251.638043242925
 20
685.9384964982691
 30
0.0
 10
1251.638043242925
 20
684.5338722308752
 30
0.0
  0
LINE
  5
301
330
70
100
AcDbEntity
  8
MAIN-1
 62
    18
420
        0
370
    25
100
AcDbLine
 10
1251.638043242925
 20
648.6865099656078
 30
0.0
 11
1251.638043242925
 21
684.5338722308752
 31
0.0
  0
SPLINE
  5
302
330
70
100
AcDbEntity
  8
MAIN-1
 62
    18
420
        0
370
    25
100
AcDbSpline
210
0.0
220
0.0
230
1.0
 70
     8
 71
     3
 72
     8
 73
     4
 74
     0
 42
0.0000000001
 43
0.0000000001
 40
0.0
 40
0.0
 40
0.0
 40
0.0
 40
1.0
 40
1.0
 40
1.0
 40
1.0
 10
1216.700922169453
 20
754.3743877519828
 30
0.0
 10
1216.567240558925
 20
754.2853734056116
 30
0.0
 10
1216.439690037987
 20
754.188316892265
 30
0.0
 10
1216.318701024389
 20
754.0835457280154
 30
0.0
  0
LINE
  5
303
330
70
100
AcDbEntity
  8
MAIN-1
 62
    18
420
        0
370
    25
100
AcDbLine
 10
1278.038189591607
 20
795.2169295655967
 30
0.0
 11
1216.700922169377
 21
754.3743877521047
 31
0.0
  0
SPLINE
  5
304
330
70
100
AcDbEntity
  8
MAIN-1
 62
    18
420
        0
370
    25
100
AcDbSpline
210
0.0
220
0.0
230
1.0
 70
     8
 71
     3
 72
     8
 73
     4
 74
     0
 42
0.0000000001
 43
0.0000000001
 40
0.0
 40
0.0
 40
0.0
 40
0.0
 40
1.0
 40
1.0
 40
1.0
 40
1.0
 10
1282.071446561635
 20
795.6685817336711
 30
0.0
 10
1280.569255725768
 20
796.1022268754022
 30
0.0
 10
1279.124808758945
 20
795.9404748201195
 30
0.0
 10
1278.038189591669
 20
795.2169295654985
 30
0.0
  0
LINE
  5
305
330
70
100
AcDbEntity
  8
MAIN-1
 62
    18
420
        0
370
    25
100
AcDbLine
 10
1314.326945675444
 20
786.3572211855698
 30
0.0
 11
1282.071446561635
 21
795.6685817336711
 31
0.0
  0
SPLINE
  5
306
330
70
100
AcDbEntity
  8
MAIN-1
 62
    18
420
        0
370
    25
100
AcDbSpline
210
0.0
220
0.0
230
1.0
 70
     8
 71
     3
 72
     8
 73
     4
 74
     0
 42
0.0000000001
 43
0.0000000001
 40
0.0
 40
0.0
 40
0.0
 40
0.0
 40
1.0
 40
1.0
 40
1.0
 40
1.0
 10
1319.385641633531
 20
781.9762619758202
 30
0.0
 10
1318.342197649257
 20
784.0847763040674
 30
0.0
 10
1316.413833644019
 20
785.7547885203566
 30
0.0
 10
1314.326945675444
 20
786.3572211855698
 30
0.0
  0
LINE
  5
307
330
70
100
AcDbEntity
  8
MAIN-1
 62
    18
420
        0
370
    25
100
AcDbLine
 10
1319.385641633598
 20
781.9762619758384
 30
0.0
 11
1346.12322139081
 21
727.9469409297744
 31
0.0
  0
SPLINE
  5
308
330
70
100
AcDbEntity
  8
MAIN-1
 62
    18
420
        0
370
    25
100
AcDbSpline
210
0.0
220
0.0
230
1.0
 70
     8
 71
     3
 72
     8
 73
     4
 74
     0
 42
0.0000000001
 43
0.0000000001
 40
0.0
 40
0.0
 40
0.0
 40
0.0
 40
1.0
 40
1.0
 40
1.0
 40
1.0
 10
1346.90580437891
 20
724.8003892072065
 30
0.0
 10
1346.90580437891
 20
725.8257478237156
 30
0.0
 10
1346.635900698955
 20
726.9109565515955
 30
0.0
 10
1346.123221390701
 20
727.9469409297962
 30
0.0
  0
LINE
  5
309
330
70
100
AcDbEntity
  8
MAIN-1
 62
    18
420
        0
370
    25
100
AcDbLine
 10
1346.90580437891
 20
636.7618200538563
 30
0.0
 11
1346.90580437891
 21
724.8003892072065
 31
0.0
  0
LINE
  5
30A
330
70
100
AcDbEntity
  8
MAIN-1
 62
    18
420
        0
370
    25
100
AcDbLine
 10
1346.90580437891
 20
636.7618200538563
 30
0.0
 11
1333.415948490741
 21
625.0792621613127
 31
0.0
  0
LINE
  5
30B
330
70
100
AcDbEntity
  8
MAIN-1
 62
    18
420
        0
370
    25
100
AcDbLine
 10
1346.90580437891
 20
724.8003892072065
 30
0.0
 11
1333.415948490741
 21
713.1178313146611
 31
0.0
  0
LINE
  5
30C
330
70
100
AcDbEntity
  8
MAIN-1
 62
    18
420
        0
370
    25
100
AcDbLine
 10
1346.123221390791
 20
727.9469409297689
 30
0.0
 11
1332.633365502623
 21
716.2643830372235
 31
0.0
  0
LINE
  5
30D
330
70
100
AcDbEntity
  8
MAIN-1
 62
    18
420
        0
370
    25
100
AcDbLine
 10
1305.89578574543
 20
770.293704083293
 30
0.0
 11
1319.385641633598
 21
781.9762619758384
 31
0.0
  0
LINE
  5
30E
330
70
100
AcDbEntity
  8
MAIN-1
 62
    18
420
        0
370
    25
100
AcDbLine
 10
1300.837089787275
 20
774.6746632930244
 30
0.0
 11
1314.326945675444
 21
786.3572211855698
 31
0.0
  0
LINE
  5
30F
330
70
100
AcDbEntity
  8
MAIN-1
 62
    18
420
        0
370
    25
100
AcDbLine
 10
1268.581590673466
 20
783.9860238411256
 30
0.0
 11
1282.071446561635
 21
795.6685817336711
 31
0.0
  0
LINE
  5
310
330
70
100
AcDbEntity
  8
MAIN-1
 62
    18
420
        0
370
    25
100
AcDbLine
 10
1264.548333703438
 20
783.5343716730513
 30
0.0
 11
1278.038189591607
 21
795.2169295655967
 31
0.0
  0
LINE
  5
311
330
70
100
AcDbEntity
  8
MAIN-1
 62
    18
420
        0
370
    25
100
AcDbLine
 10
1203.211066281224
 20
742.6918298595373
 30
0.0
 11
1216.700922169393
 21
754.3743877520828
 31
0.0
  0
LINE
  5
312
330
70
100
AcDbEntity
  8
MAIN-1
 62
    18
420
        0
370
    25
100
AcDbLine
 10
1257.479322189196
 20
688.6889191911268
 30
0.0
 11
1263.320601135468
 21
693.74761514919
 31
0.0
  0
SPLINE
  5
313
330
70
100
AcDbEntity
  8
MAIN-1
 62
    18
420
        0
370
    25
100
AcDbSpline
210
0.0
220
0.0
230
1.0
 70
     8
 71
     3
 72
     8
 73
     4
 74
     0
 42
0.0000000001
 43
0.0000000001
 40
0.0
 40
0.0
 40
0.0
 40
0.0
 40
1.0
 40
1.0
 40
1.0
 40
1.0
 10
1401.260865499898
 20
766.1292926346177
 30
0.0
 10
1404.054706131566
 20
768.5488295957693
 30
0.0
 10
1406.31956145796
 20
774.4330963414304
 30
0.0
 10
1406.31956145796
 20
779.2721702637318
 30
0.0
  0
LINE
  5
314
330
70
100
AcDbEntity
  8
MAIN-1
 62
    18
420
        0
370
    25
100
AcDbLine
 10
1419.446219317322
 20
741.4087033528103
 30
0.0
 11
1419.446219317322
 21
731.2913114366838
 31
0.0
  0
LINE
  5
315
330
70
100
AcDbEntity
  8
MAIN-1
 62
    18
420
        0
370
    25
100
AcDbLine
 10
1375.636627220278
 20
754.0554432479694
 30
0.0
 11
1375.636627220278
 21
730.6903274628784
 31
0.0
  0
LINE
  5
316
330
70
100
AcDbEntity
  8
MAIN-1
 62
    18
420
        0
370
    25
100
AcDbLine
 10
1361.816012842804
 20
752.203832017296
 30
0.0
 11
1361.816012842804
 21
728.8387162322051
 31
0.0
  0
LINE
  5
317
330
70
100
AcDbEntity
  8
MAIN-1
 62
    18
420
        0
370
    25
100
AcDbLine
 10
1404.824603649445
 20
819.3750974722442
 30
0.0
 11
1415.081477679583
 21
828.2578109457608
 31
0.0
  0
LINE
  5
318
330
70
100
AcDbEntity
  8
MAIN-1
 62
    18
420
        0
370
    25
100
AcDbLine
 10
1354.589736179494
 20
873.8297500818152
 30
0.0
 11
1368.079591671916
 21
885.512307631634
 31
0.0
  0
LINE
  5
319
330
70
100
AcDbEntity
  8
MAIN-1
 62
    18
420
        0
370
    25
100
AcDbLine
 10
1262.818338072138
 20
628.2651699363377
 30
0.0
 11
1337.294650207792
 21
606.7657105064518
 31
0.0
  0
LINE
  5
31A
330
70
100
AcDbEntity
  8
MAIN-1
 62
    18
420
        0
370
    25
100
AcDbLine
 10
1202.82886346803
 20
742.4009790131894
 30
0.0
 11
1216.318706491269
 21
754.0835257643812
 31
0.0
  0
LINE
  5
31B
330
70
100
AcDbEntity
  8
MAIN-1
 62
    18
420
        0
370
    25
100
AcDbLine
 10
1253.063730937982
 20
687.9463264036203
 30
0.0
 11
1263.320601199097
 21
696.8290366130677
 31
0.0
  0
ENDSEC
  0
SECTION
  2
OBJECTS
  0
DICTIONARY
  5
C
330
0
100
AcDbDictionary
281
     1
  3
ACAD_COLOR
350
63
  3
ACAD_DETAILVIEWSTYLE
350
6A
  3
ACAD_GROUP
350
D
  3
ACAD_LAYOUT
350
62
  3
ACAD_MATERIAL
350
10
  3
ACAD_MLEADERSTYLE
350
66
  3
ACAD_MLINESTYLE
350
5F
  3
ACAD_PLOTSETTINGS
350
61
  3
ACAD_PLOTSTYLENAME
350
E
  3
ACAD_SCALELIST
350
42
  3
ACAD_SECTIONVIEWSTYLE
350
68
  3
ACAD_TABLESTYLE
350
64
  3
ACAD_VISUALSTYLE
350
29
  3
ACDB_RECOMPOSE_DATA
350
324
  3
AcDbVariableDictionary
350
31C
  0
DICTIONARY
  5
63
102
{ACAD_REACTORS
330
C
102
}
330
C
100
AcDbDictionary
281
     1
  0
DICTIONARY
  5
6A
102
{ACAD_REACTORS
330
C
102
}
330
C
100
AcDbDictionary
281
     1
  3
Imperial24
350
6B
  0
DICTIONARY
  5
D
102
{ACAD_REACTORS
330
C
102
}
330
C
100
AcDbDictionary
281
     1
  0
DICTIONARY
  5
62
102
{ACAD_REACTORS
330
C
102
}
330
C
100
AcDbDictionary
281
     1
  3
Layout1
350
6F
  3
Layout2
350
77
  3
Model
350
73
  0
DICTIONARY
  5
10
102
{ACAD_REACTORS
330
C
102
}
330
C
100
AcDbDictionary
281
     1
  3
ByBlock
350
19
  3
ByLayer
350
11
  3
Global
350
21
  0
DICTIONARY
  5
66
102
{ACAD_REACTORS
330
C
102
}
330
C
100
AcDbDictionary
281
     1
  3
Standard
350
67
  0
DICTIONARY
  5
5F
102
{ACAD_REACTORS
330
C
102
}
330
C
100
AcDbDictionary
281
     1
  3
Standard
350
60
  0
DICTIONARY
  5
61
102
{ACAD_REACTORS
330
C
102
}
330
C
100
AcDbDictionary
281
     1
  0
ACDBDICTIONARYWDFLT
  5
E
102
{ACAD_REACTORS
330
C
102
}
330
C
100
AcDbDictionary
281
     1
  3
Normal
350
F
100
AcDbDictionaryWithDefault
340
F
  0
DICTIONARY
  5
42
102
{ACAD_REACTORS
330
C
102
}
330
C
100
AcDbDictionary
281
     1
  3
A0
350
43
  3
A1
350
44
  3
A2
350
45
  3
A3
350
46
  3
A4
350
47
  3
A5
350
48
  3
A6
350
49
  3
A7
350
4A
  3
A8
350
4B
  3
A9
350
4C
  3
B0
350
4D
  3
B1
350
4E
  3
B2
350
4F
  3
B3
350
50
  3
B4
350
51
  3
B5
350
52
  3
B6
350
53
  0
DICTIONARY
  5
68
102
{ACAD_REACTORS
330
C
102
}
330
C
100
AcDbDictionary
281
     1
  3
Imperial24
350
69
  0
DICTIONARY
  5
64
102
{ACAD_REACTORS
330
C
102
}
330
C
100
AcDbDictionary
281
     1
  3
Standard
350
65
  0
DICTIONARY
  5
29
102
{ACAD_REACTORS
330
C
102
}
330
C
100
AcDbDictionary
281
     1
  3
2dWireframe
350
2F
  3
Basic
350
2E
  3
Brighten
350
35
  3
ColorChange
350
39
  3
Conceptual
350
32
  3
Dim
350
34
  3
EdgeColorOff
350
41
  3
Facepattern
350
38
  3
Flat
350
2A
  3
FlatWithEdges
350
2B
  3
Gouraud
350
2C
  3
GouraudWithEdges
350
2D
  3
Hidden
350
31
  3
JitterOff
350
3F
  3
Linepattern
350
37
  3
OverhangOff
350
40
  3
Realistic
350
33
  3
Shaded
350
3E
  3
Shaded with edges
350
3D
  3
Shades of Gray
350
3A
  3
Sketchy
350
3B
  3
Thicken
350
36
  3
Wireframe
350
30
  3
X-Ray
350
3C
  0
XRECORD
  5
324
102
{ACAD_REACTORS
330
C
102
}
330
C
100
AcDbXrecord
280
     1
 90
        1
330
65
  0
DICTIONARY
  5
31C
102
{ACAD_REACTORS
330
C
102
}
330
C
100
AcDbDictionary
281
     1
  3
CANNOSCALE
350
321
  3
CMLEADERSTYLE
350
31E
  3
CTABLESTYLE
350
31D
  3
CVIEWDETAILSTYLE
350
31F
  3
CVIEWSECTIONSTYLE
350
320
  0
ACDBDETAILVIEWSTYLE
  5
6B
102
{ACAD_REACTORS
330
6A
102
}
330
6A
100
AcDbModelDocViewStyle
 70
     0
  3
Imperial24
290
     1
300
Imperial24
 90
        0
100
AcDbDetailViewStyle
 70
     0
 71
     0
 90
        3
 71
     1
340
55
 62
   256
 40
0.24
340
0
 62
   256
 40
0.24
300

 40
0.36
280
     3
 71
     2
340
5D
 90
       25
 62
   256
 71
     3
340
55
 62
   256
 40
0.24
 90
        1
 40
0.75
 90
        1
300
%<\AcVar ViewType \f "%tc1">% %<\AcVar ViewDetailId>%\PSCALE %<\AcVar ViewScale \f "%sn">%
 71
     4
340
5D
 90
       25
 62
   256
340
5D
 90
       25
 62
   256
280
     0
  0
LAYOUT
  5
6F
102
{ACAD_REACTORS
330
62
102
}
330
62
100
AcDbPlotSettings
  1

  2

  4

  6

 40
0.0
 41
0.0
 42
0.0
 43
0.0
 44
0.0
 45
0.0
 46
0.0
 47
0.0
 48
0.0
 49
0.0
140
0.0
141
0.0
142
1.0
143
1.0
 70
   688
 72
     0
 73
     0
 74
     5
  7

 75
    16
147
1.0
 76
     0
 77
     2
 78
   300
148
0.0
149
0.0
100
AcDbLayout
  1
Layout1
 70
     1
 71
     1
 10
0.0
 20
0.0
 11
12.0
 21
9.0
 12
0.0
 22
0.0
 32
0.0
 14
0.0
 24
0.0
 34
0.0
 15
0.0
 25
0.0
 35
0.0
146
0.0
 13
0.0
 23
0.0
 33
0.0
 16
1.0
 26
0.0
 36
0.0
 17
0.0
 27
1.0
 37
0.0
 76
     0
330
6C
  0
LAYOUT
  5
77
102
{ACAD_REACTORS
330
62
102
}
330
62
100
AcDbPlotSettings
  1

  2

  4

  6

 40
0.0
 41
0.0
 42
0.0
 43
0.0
 44
0.0
 45
0.0
 46
0.0
 47
0.0
 48
0.0
 49
0.0
140
0.0
141
0.0
142
1.0
143
1.0
 70
   688
 72
     0
 73
     0
 74
     5
  7

 75
    16
147
1.0
 76
     0
 77
     2
 78
   300
148
0.0
149
0.0
100
AcDbLayout
  1
Layout2
 70
     1
 71
     2
 10
0.0
 20
0.0
 11
12.0
 21
9.0
 12
0.0
 22
0.0
 32
0.0
 14
0.0
 24
0.0
 34
0.0
 15
0.0
 25
0.0
 35
0.0
146
0.0
 13
0.0
 23
0.0
 33
0.0
 16
1.0
 26
0.0
 36
0.0
 17
0.0
 27
1.0
 37
0.0
 76
     0
330
74
  0
LAYOUT
  5
73
102
{ACAD_REACTORS
330
62
102
}
330
62
100
AcDbPlotSettings
  1

  2

  4

  6

 40
0.0
 41
0.0
 42
0.0
 43
0.0
 44
0.0
 45
0.0
 46
0.0
 47
0.0
 48
0.0
 49
0.0
140
0.0
141
0.0
142
1.0
143
1.0
 70
  1712
 72
     0
 73
     0
 74
     0
  7

 75
     0
147
1.0
 76
     0
 77
     2
 78
   300
148
0.0
149
0.0
100
AcDbLayout
  1
Model
 70
     1
 71
     0
 10
0.0
 20
0.0
 11
12.0
 21
9.0
 12
0.0
 22
0.0
 32
0.0
 14
0.0
 24
0.0
 34
0.0
 15
0.0
 25
0.0
 35
0.0
146
0.0
 13
0.0
 23
0.0
 33
0.0
 16
1.0
 26
0.0
 36
0.0
 17
0.0
 27
1.0
 37
0.0
 76
     0
330
70
  0
MATERIAL
  5
19
102
{ACAD_XDICTIONARY
360
1A
102
}
102
{ACAD_REACTORS
330
10
102
}
330
10
100
AcDbMaterial
  1
ByBlock
 72
     0
 43
0.0208333333333333
 43
0.0
 43
0.0
 43
0.0
 43
0.0
 43
0.0208333333333333
 43
0.0
 43
0.0
 43
0.0
 43
0.0
 43
1.0
 43
0.0
 43
0.0
 43
0.0
 43
0.0
 43
1.0
 77
     0
 47
0.0208333333333333
 47
0.0
 47
0.0
 47
0.0
 47
0.0
 47
0.0208333333333333
 47
0.0
 47
0.0
 47
0.0
 47
0.0
 47
1.0
 47
0.0
 47
0.0
 47
0.0
 47
0.0
 47
1.0
171
     0
 49
0.0208333333333333
 49
0.0
 49
0.0
 49
0.0
 49
0.0
 49
0.0208333333333333
 49
0.0
 49
0.0
 49
0.0
 49
0.0
 49
1.0
 49
0.0
 49
0.0
 49
0.0
 49
0.0
 49
1.0
175
     0
142
0.0208333333333333
142
0.0
142
0.0
142
0.0
142
0.0
142
0.0208333333333333
142
0.0
142
0.0
142
0.0
142
0.0
142
1.0
142
0.0
142
0.0
142
0.0
142
0.0
142
1.0
179
     0
144
0.0208333333333333
144
0.0
144
0.0
144
0.0
144
0.0
144
0.0208333333333333
144
0.0
144
0.0
144
0.0
144
0.0
144
1.0
144
0.0
144
0.0
144
0.0
144
0.0
144
1.0
147
0.0208333333333333
147
0.0
147
0.0
147
0.0
147
0.0
147
0.0208333333333333
147
0.0
147
0.0
147
0.0
147
0.0
147
1.0
147
0.0
147
0.0
147
0.0
147
0.0
147
1.0
  0
MATERIAL
  5
11
102
{ACAD_XDICTIONARY
360
12
102
}
102
{ACAD_REACTORS
330
10
102
}
330
10
100
AcDbMaterial
  1
ByLayer
 72
     0
 43
0.0208333333333333
 43
0.0
 43
0.0
 43
0.0
 43
0.0
 43
0.0208333333333333
 43
0.0
 43
0.0
 43
0.0
 43
0.0
 43
1.0
 43
0.0
 43
0.0
 43
0.0
 43
0.0
 43
1.0
 77
     0
 47
0.0208333333333333
 47
0.0
 47
0.0
 47
0.0
 47
0.0
 47
0.0208333333333333
 47
0.0
 47
0.0
 47
0.0
 47
0.0
 47
1.0
 47
0.0
 47
0.0
 47
0.0
 47
0.0
 47
1.0
171
     0
 49
0.0208333333333333
 49
0.0
 49
0.0
 49
0.0
 49
0.0
 49
0.0208333333333333
 49
0.0
 49
0.0
 49
0.0
 49
0.0
 49
1.0
 49
0.0
 49
0.0
 49
0.0
 49
0.0
 49
1.0
175
     0
142
0.0208333333333333
142
0.0
142
0.0
142
0.0
142
0.0
142
0.0208333333333333
142
0.0
142
0.0
142
0.0
142
0.0
142
1.0
142
0.0
142
0.0
142
0.0
142
0.0
142
1.0
179
     0
144
0.0208333333333333
144
0.0
144
0.0
144
0.0
144
0.0
144
0.0208333333333333
144
0.0
144
0.0
144
0.0
144
0.0
144
1.0
144
0.0
144
0.0
144
0.0
144
0.0
144
1.0
147
0.0208333333333333
147
0.0
147
0.0
147
0.0
147
0.0
147
0.0208333333333333
147
0.0
147
0.0
147
0.0
147
0.0
147
1.0
147
0.0
147
0.0
147
0.0
147
0.0
147
1.0
  0
MATERIAL
  5
21
102
{ACAD_XDICTIONARY
360
22
102
}
102
{ACAD_REACTORS
330
10
102
}
330
10
100
AcDbMaterial
  1
Global
 72
     0
 43
0.0208333333333333
 43
0.0
 43
0.0
 43
0.0
 43
0.0
 43
0.0208333333333333
 43
0.0
 43
0.0
 43
0.0
 43
0.0
 43
1.0
 43
0.0
 43
0.0
 43
0.0
 43
0.0
 43
1.0
 77
     0
 47
0.0208333333333333
 47
0.0
 47
0.0
 47
0.0
 47
0.0
 47
0.0208333333333333
 47
0.0
 47
0.0
 47
0.0
 47
0.0
 47
1.0
 47
0.0
 47
0.0
 47
0.0
 47
0.0
 47
1.0
171
     0
 49
0.0208333333333333
 49
0.0
 49
0.0
 49
0.0
 49
0.0
 49
0.0208333333333333
 49
0.0
 49
0.0
 49
0.0
 49
0.0
 49
1.0
 49
0.0
 49
0.0
 49
0.0
 49
0.0
 49
1.0
175
     0
142
0.0208333333333333
142
0.0
142
0.0
142
0.0
142
0.0
142
0.0208333333333333
142
0.0
142
0.0
142
0.0
142
0.0
142
1.0
142
0.0
142
0.0
142
0.0
142
0.0
142
1.0
179
     0
144
0.0208333333333333
144
0.0
144
0.0
144
0.0
144
0.0
144
0.0208333333333333
144
0.0
144
0.0
144
0.0
144
0.0
144
1.0
144
0.0
144
0.0
144
0.0
144
0.0
144
1.0
147
0.0208333333333333
147
0.0
147
0.0
147
0.0
147
0.0
147
0.0208333333333333
147
0.0
147
0.0
147
0.0
147
0.0
147
1.0
147
0.0
147
0.0
147
0.0
147
0.0
147
1.0
  0
MLEADERSTYLE
  5
67
102
{ACAD_REACTORS
330
66
102
}
330
66
100
AcDbMLeaderStyle
179
     2
170
     2
171
     1
172
     0
 90
        2
 40
0.0
 41
0.0
173
     1
 91
-1056964608
340
5B
 92
       -2
290
     1
 42
0.09
291
     1
 43
0.36
  3
Standard
 44
0.18
300

342
55
174
     1
178
     6
175
     1
176
     0
 93
-1056964608
 45
0.18
292
     0
297
     0
 46
0.18
 94
-1056964608
 47
1.0
 49
1.0
140
1.0
293
     1
141
0.0
294
     1
177
     0
142
1.0
295
     1
296
     0
143
0.125
271
     0
272
     9
273
     9
298
     1
  0
MLINESTYLE
  5
60
102
{ACAD_REACTORS
330
5F
102
}
330
5F
100
AcDbMlineStyle
  2
STANDARD
 70
     0
  3

 62
   256
 51
90.0
 52
90.0
 71
     2
 49
0.5
 62
   256
  6
BYLAYER
 49
-0.5
 62
   256
  6
BYLAYER
  0
ACDBPLACEHOLDER
  5
F
102
{ACAD_REACTORS
330
E
102
}
330
E
  0
SCALE
  5
43
102
{ACAD_REACTORS
330
42
102
}
330
42
100
AcDbScale
 70
     0
300
1:1
140
1.0
141
1.0
290
     1
  0
SCALE
  5
44
102
{ACAD_REACTORS
330
42
102
}
330
42
100
AcDbScale
 70
     0
300
1/128" = 1'-0"
140
0.0078125
141
12.0
290
     0
  0
SCALE
  5
45
102
{ACAD_REACTORS
330
42
102
}
330
42
100
AcDbScale
 70
     0
300
1/64" = 1'-0"
140
0.015625
141
12.0
290
     0
  0
SCALE
  5
46
102
{ACAD_REACTORS
330
42
102
}
330
42
100
AcDbScale
 70
     0
300
1/32" = 1'-0"
140
0.03125
141
12.0
290
     0
  0
SCALE
  5
47
102
{ACAD_REACTORS
330
42
102
}
330
42
100
AcDbScale
 70
     0
300
1/16" = 1'-0"
140
0.0625
141
12.0
290
     0
  0
SCALE
  5
48
102
{ACAD_REACTORS
330
42
102
}
330
42
100
AcDbScale
 70
     0
300
3/32" = 1'-0"
140
0.09375
141
12.0
290
     0
  0
SCALE
  5
49
102
{ACAD_REACTORS
330
42
102
}
330
42
100
AcDbScale
 70
     0
300
1/8" = 1'-0"
140
0.125
141
12.0
290
     0
  0
SCALE
  5
4A
102
{ACAD_REACTORS
330
42
102
}
330
42
100
AcDbScale
 70
     0
300
3/16" = 1'-0"
140
0.1875
141
12.0
290
     0
  0
SCALE
  5
4B
102
{ACAD_REACTORS
330
42
102
}
330
42
100
AcDbScale
 70
     0
300
1/4" = 1'-0"
140
0.25
141
12.0
290
     0
  0
SCALE
  5
4C
102
{ACAD_REACTORS
330
42
102
}
330
42
100
AcDbScale
 70
     0
300
3/8" = 1'-0"
140
0.375
141
12.0
290
     0
  0
SCALE
  5
4D
102
{ACAD_REACTORS
330
42
102
}
330
42
100
AcDbScale
 70
     0
300
1/2" = 1'-0"
140
0.5
141
12.0
290
     0
  0
SCALE
  5
4E
102
{ACAD_REACTORS
330
42
102
}
330
42
100
AcDbScale
 70
     0
300
3/4" = 1'-0"
140
0.75
141
12.0
290
     0
  0
SCALE
  5
4F
102
{ACAD_REACTORS
330
42
102
}
330
42
100
AcDbScale
 70
     0
300
1" = 1'-0"
140
1.0
141
12.0
290
     0
  0
SCALE
  5
50
102
{ACAD_REACTORS
330
42
102
}
330
42
100
AcDbScale
 70
     0
300
1-1/2" = 1'-0"
140
1.5
141
12.0
290
     0
  0
SCALE
  5
51
102
{ACAD_REACTORS
330
42
102
}
330
42
100
AcDbScale
 70
     0
300
3" = 1'-0"
140
3.0
141
12.0
290
     0
  0
SCALE
  5
52
102
{ACAD_REACTORS
330
42
102
}
330
42
100
AcDbScale
 70
     0
300
6" = 1'-0"
140
6.0
141
12.0
290
     0
  0
SCALE
  5
53
102
{ACAD_REACTORS
330
42
102
}
330
42
100
AcDbScale
 70
     0
300
1'-0" = 1'-0"
140
12.0
141
12.0
290
     0
  0
ACDBSECTIONVIEWSTYLE
  5
69
102
{ACAD_REACTORS
330
68
102
}
330
68
100
AcDbModelDocViewStyle
 70
     0
  3
Imperial24
290
     1
300
Imperial24
 90
        0
100
AcDbSectionViewStyle
 70
     0
 71
     0
 90
       78
 71
     1
340
55
 62
   256
 40
0.24
340
0
340
0
 62
   256
 40
0.24
300
I, O, Q, S, X, Z
 40
0.48
 90
        3
 40
0.18
 90
        1
 71
     2
340
5D
 90
       25
 62
   256
340
5D
 90
       50
 62
   256
 40
0.24
 40
0.0
 40
0.24
 71
     3
340
55
 62
   256
 40
0.24
 90
        1
 40
0.75
 90
        1
300
%<\AcVar ViewType \f "%tc1">% %<\AcVar ViewSectionStartId>%-%<\AcVar ViewSectionEndId>%\PSCALE %<\AcVar ViewScale \f "%sn">%
 71
     4
 62
   256
 62
   257
300
ANSI31
 40
1.0
 90
        0
290
     0
290
     0
 90
        6
 40
0.0
 40
1.570796326794896
 40
0.2617993877991494
 40
1.308996938995747
 40
-0.2617993877991494
 40
1.832595714594046
  0
TABLESTYLE
  5
65
102
{ACAD_XDICTIONARY
360
322
102
}
102
{ACAD_REACTORS
330
64
102
}
330
64
100
AcDbTableStyle
280
     0
  3
Standard
 70
     0
 71
     0
 40
0.06
 41
0.06
280
     0
281
     0
  7
Standard
140
0.18
170
     2
 62
     0
 63
     7
283
     0
 90
      512
 91
        0
  1

274
    -2
284
     1
 64
     0
275
    -2
285
     1
 65
     0
276
    -2
286
     1
 66
     0
277
    -2
287
     1
 67
     0
278
    -2
288
     1
 68
     0
279
    -2
289
     1
 69
     0
  7
Standard
140
0.25
170
     5
 62
     0
 63
     7
283
     0
 90
      512
 91
        0
  1

274
    -2
284
     1
 64
     0
275
    -2
285
     1
 65
     0
276
    -2
286
     1
 66
     0
277
    -2
287
     1
 67
     0
278
    -2
288
     1
 68
     0
279
    -2
289
     1
 69
     0
  7
Standard
140
0.18
170
     5
 62
     0
 63
     7
283
     0
 90
      512
 91
        0
  1

274
    -2
284
     1
 64
     0
275
    -2
285
     1
 65
     0
276
    -2
286
     1
 66
     0
277
    -2
287
     1
 67
     0
278
    -2
288
     1
 68
     0
279
    -2
289
     1
 69
     0
  0
VISUALSTYLE
  5
2F
102
{ACAD_REACTORS
330
29
102
}
330
29
100
AcDbVisualStyle
  2
2dWireframe
 70
     4
177
     3
291
     0
 70
    58
 90
        0
176
     1
 90
        2
176
     1
 90
        0
176
     1
 90
        0
176
     1
 40
0.6
176
     1
 40
30.0
176
     1
 62
     7
420
 16777215
176
     1
 90
        1
176
     1
 90
        4
176
     1
 62
     7
176
     1
 62
   257
176
     1
 90
        1
176
     1
 90
        1
176
     1
 40
1.0
176
     1
 90
        0
176
     1
 62
   257
176
     1
 40
1.0
176
     1
 90
        1
176
     1
 90
        6
176
     1
 90
        2
176
     1
 62
     7
176
     1
 90
        5
176
     1
 90
        0
176
     1
 90
        0
176
     1
290
     0
176
     1
 90
        1
176
     1
 40
0.0
176
     1
 90
        0
176
     1
290
     1
176
     1
290
     1
176
     1
290
     0
176
     1
290
     0
176
     1
290
     0
176
     1
290
     0
176
     1
290
     0
176
     1
290
     0
176
     1
290
     0
176
     1
 90
       50
176
     1
 40
0.0
176
     1
 40
1.0
176
     1
 90
        0
176
     1
 62
    18
420
        0
176
     1
 90
       50
176
     1
 90
        3
176
     1
 62
     5
420
      255
176
     1
290
     0
176
     1
 90
       50
176
     1
 90
       50
176
     1
 90
       50
176
     1
290
     0
176
     1
 90
       50
176
     1
 62
   256
176
     0
 40
1.0
176
     0
 90
        2
176
     1
  1
strokes_ogs.tif
176
     1
290
     0
176
     1
 40
1.0
176
     1
 40
1.0
176
     1
  0
VISUALSTYLE
  5
2E
102
{ACAD_REACTORS
330
29
102
}
330
29
100
AcDbVisualStyle
  2
Basic
 70
     7
177
     3
291
     1
 70
    58
 90
        1
176
     1
 90
        0
176
     1
 90
        1
176
     1
 90
        0
176
     1
 40
0.6
176
     1
 40
30.0
176
     1
 62
     7
420
 16777215
176
     1
 90
        0
176
     1
 90
        4
176
     1
 62
     7
176
     1
 62
   257
176
     1
 90
        1
176
     1
 90
        1
176
     1
 40
1.0
176
     1
 90
        8
176
     1
 62
     7
176
     1
 40
1.0
176
     1
 90
        1
176
     1
 90
        6
176
     1
 90
        2
176
     1
 62
     7
176
     1
 90
        5
176
     1
 90
        0
176
     1
 90
        0
176
     1
290
     0
176
     1
 90
        1
176
     1
 40
0.0
176
     1
 90
        0
176
     1
290
     0
176
     1
290
     1
176
     1
290
     1
176
     1
290
     0
176
     1
290
     0
176
     1
290
     0
176
     1
290
     0
176
     1
290
     0
176
     1
290
     0
176
     1
 90
       50
176
     1
 40
0.0
176
     1
 40
1.0
176
     1
 90
        0
176
     1
 62
    18
420
        0
176
     1
 90
       50
176
     1
 90
        3
176
     1
 62
     5
420
      255
176
     1
290
     0
176
     1
 90
       50
176
     1
 90
       50
176
     1
 90
       50
176
     1
290
     0
176
     1
 90
       50
176
     1
 62
   256
176
     0
 40
1.0
176
     0
 90
        2
176
     1
  1
strokes_ogs.tif
176
     1
290
     0
176
     1
 40
1.0
176
     1
 40
1.0
176
     1
  0
VISUALSTYLE
  5
35
102
{ACAD_REACTORS
330
29
102
}
330
29
100
AcDbVisualStyle
  2
Brighten
 70
    12
177
     3
291
     1
 70
    58
 90
        2
176
     1
 90
        2
176
     1
 90
        0
176
     1
 90
        0
176
     1
 40
0.6
176
     1
 40
30.0
176
     1
 62
     7
420
 16777215
176
     1
 90
        1
176
     1
 90
        4
176
     1
 62
     7
176
     1
 62
   257
176
     1
 90
        1
176
     1
 90
        1
176
     1
 40
1.0
176
     1
 90
        8
176
     1
 62
     7
176
     1
 40
1.0
176
     1
 90
        1
176
     1
 90
        6
176
     1
 90
        2
176
     1
 62
     7
176
     1
 90
        5
176
     1
 90
        0
176
     1
 90
        0
176
     1
290
     0
176
     1
 90
        1
176
     1
 40
50.0
176
     1
 90
        0
176
     1
290
     0
176
     1
290
     1
176
     1
290
     1
176
     1
290
     0
176
     1
290
     0
176
     1
290
     0
176
     1
290
     0
176
     1
290
     0
176
     1
290
     0
176
     1
 90
       50
176
     1
 40
0.0
176
     1
 40
1.0
176
     1
 90
        0
176
     1
 62
    18
420
        0
176
     1
 90
       50
176
     1
 90
        3
176
     1
 62
     5
420
      255
176
     1
290
     0
176
     1
 90
       50
176
     1
 90
       50
176
     1
 90
       50
176
     1
290
     0
176
     1
 90
       50
176
     1
 62
   256
176
     0
 40
1.0
176
     0
 90
        2
176
     1
  1
strokes_ogs.tif
176
     1
290
     0
176
     1
 40
1.0
176
     1
 40
1.0
176
     1
  0
VISUALSTYLE
  5
39
102
{ACAD_REACTORS
330
29
102
}
330
29
100
AcDbVisualStyle
  2
ColorChange
 70
    16
177
     3
291
     1
 70
    58
 90
        2
176
     1
 90
        2
176
     1
 90
        3
176
     1
 90
        0
176
     1
 40
0.6
176
     1
 40
30.0
176
     1
 62
     8
420
  8421504
176
     1
 90
        1
176
     1
 90
        4
176
     1
 62
     7
176
     1
 62
   257
176
     1
 90
        1
176
     1
 90
        1
176
     1
 40
1.0
176
     1
 90
        8
176
     1
 62
     8
420
  8421504
176
     1
 40
1.0
176
     1
 90
        1
176
     1
 90
        6
176
     1
 90
        2
176
     1
 62
     7
176
     1
 90
        5
176
     1
 90
        0
176
     1
 90
        0
176
     1
290
     0
176
     1
 90
        1
176
     1
 40
0.0
176
     1
 90
        0
176
     1
290
     0
176
     1
290
     1
176
     1
290
     1
176
     1
290
     0
176
     1
290
     0
176
     1
290
     0
176
     1
290
     0
176
     1
290
     0
176
     1
290
     0
176
     1
 90
       50
176
     1
 40
0.0
176
     1
 40
1.0
176
     1
 90
        0
176
     1
 62
    18
420
        0
176
     1
 90
       50
176
     1
 90
        3
176
     1
 62
     5
420
      255
176
     1
290
     0
176
     1
 90
       50
176
     1
 90
       50
176
     1
 90
       50
176
     1
290
     0
176
     1
 90
       50
176
     1
 62
   256
176
     0
 40
1.0
176
     0
 90
        2
176
     1
  1
strokes_ogs.tif
176
     1
290
     0
176
     1
 40
1.0
176
     1
 40
1.0
176
     1
  0
VISUALSTYLE
  5
32
102
{ACAD_REACTORS
330
29
102
}
330
29
100
AcDbVisualStyle
  2
Conceptual
 70
     9
177
     3
291
     0
 70
    58
 90
        3
176
     1
 90
        2
176
     1
 90
        0
176
     1
 90
        0
176
     1
 40
0.6
176
     1
 40
30.0
176
     1
 62
     7
420
 16777215
176
     1
 90
        2
176
     1
 90
        2
176
     1
 62
     7
176
     1
 62
   257
176
     1
 90
        1
176
     1
 90
        1
176
     1
 40
179.0
176
     1
 90
        8
176
     1
 62
     7
176
     1
 40
1.0
176
     1
 90
        1
176
     1
 90
        6
176
     1
 90
        2
176
     1
 62
     7
176
     1
 90
        3
176
     1
 90
        0
176
     1
 90
        0
176
     1
290
     0
176
     1
 90
        1
176
     1
 40
0.0
176
     1
 90
        0
176
     1
290
     0
176
     1
290
     1
176
     1
290
     1
176
     1
290
     0
176
     1
290
     0
176
     1
290
     0
176
     1
290
     0
176
     1
290
     0
176
     1
290
     0
176
     1
 90
       50
176
     1
 40
0.0
176
     1
 40
1.0
176
     1
 90
        0
176
     1
 62
    18
420
        0
176
     1
 90
       50
176
     1
 90
        3
176
     1
 62
     5
420
      255
176
     1
290
     0
176
     1
 90
       50
176
     1
 90
       50
176
     1
 90
       50
176
     1
290
     0
176
     1
 90
       50
176
     1
 62
   256
176
     0
 40
1.0
176
     0
 90
        2
176
     1
  1
strokes_ogs.tif
176
     1
290
     0
176
     1
 40
1.0
176
     1
 40
1.0
176
     1
  0
VISUALSTYLE
  5
34
102
{ACAD_REACTORS
330
29
102
}
330
29
100
AcDbVisualStyle
  2
Dim
 70
    11
177
     3
291
     1
 70
    58
 90
        2
176
     1
 90
        2
176
     1
 90
        0
176
     1
 90
        0
176
     1
 40
0.6
176
     1
 40
30.0
176
     1
 62
     7
420
 16777215
176
     1
 90
        1
176
     1
 90
        4
176
     1
 62
     7
176
     1
 62
   257
176
     1
 90
        1
176
     1
 90
        1
176
     1
 40
1.0
176
     1
 90
        8
176
     1
 62
     7
176
     1
 40
1.0
176
     1
 90
        1
176
     1
 90
        6
176
     1
 90
        2
176
     1
 62
     7
176
     1
 90
        5
176
     1
 90
        0
176
     1
 90
        0
176
     1
290
     0
176
     1
 90
        1
176
     1
 40
-50.0
176
     1
 90
        0
176
     1
290
     0
176
     1
290
     1
176
     1
290
     1
176
     1
290
     0
176
     1
290
     0
176
     1
290
     0
176
     1
290
     0
176
     1
290
     0
176
     1
290
     0
176
     1
 90
       50
176
     1
 40
0.0
176
     1
 40
1.0
176
     1
 90
        0
176
     1
 62
    18
420
        0
176
     1
 90
       50
176
     1
 90
        3
176
     1
 62
     5
420
      255
176
     1
290
     0
176
     1
 90
       50
176
     1
 90
       50
176
     1
 90
       50
176
     1
290
     0
176
     1
 90
       50
176
     1
 62
   256
176
     0
 40
1.0
176
     0
 90
        2
176
     1
  1
strokes_ogs.tif
176
     1
290
     0
176
     1
 40
1.0
176
     1
 40
1.0
176
     1
  0
VISUALSTYLE
  5
41
102
{ACAD_REACTORS
330
29
102
}
330
29
100
AcDbVisualStyle
  2
EdgeColorOff
 70
    22
177
     3
291
     1
 70
    58
 90
        2
176
     0
 90
        2
176
     0
 90
        0
176
     0
 90
        0
176
     0
 40
0.6
176
     0
 40
30.0
176
     0
 62
     7
420
 16777215
176
     0
 90
        1
176
     0
 90
        4
176
     0
 62
     7
176
     0
 62
   257
176
     0
 90
        1
176
     0
 90
        1
176
     0
 40
1.0
176
     0
 90
        8
176
     2
 62
     7
176
     0
 40
1.0
176
     0
 90
        1
176
     0
 90
        6
176
     0
 90
        2
176
     0
 62
     7
176
     0
 90
        5
176
     0
 90
        0
176
     0
 90
        0
176
     0
290
     0
176
     0
 90
        1
176
     0
 40
0.0
176
     0
 90
        0
176
     0
290
     0
176
     0
290
     1
176
     0
290
     1
176
     0
290
     0
176
     0
290
     0
176
     0
290
     0
176
     0
290
     0
176
     0
290
     0
176
     0
290
     0
176
     0
 90
       50
176
     0
 40
0.0
176
     0
 40
1.0
176
     0
 90
        0
176
     0
 62
    18
420
        0
176
     0
 90
       50
176
     0
 90
        3
176
     0
 62
     5
420
      255
176
     0
290
     0
176
     0
 90
       50
176
     0
 90
       50
176
     0
 90
       50
176
     0
290
     0
176
     0
 90
       50
176
     0
 62
   256
176
     0
 40
1.0
176
     0
 90
        2
176
     0
  1
strokes_ogs.tif
176
     0
290
     0
176
     0
 40
1.0
176
     0
 40
1.0
176
     0
  0
VISUALSTYLE
  5
38
102
{ACAD_REACTORS
330
29
102
}
330
29
100
AcDbVisualStyle
  2
Facepattern
 70
    15
177
     3
291
     1
 70
    58
 90
        2
176
     1
 90
        2
176
     1
 90
        0
176
     1
 90
        0
176
     1
 40
0.6
176
     1
 40
30.0
176
     1
 62
     7
420
 16777215
176
     1
 90
        1
176
     1
 90
        4
176
     1
 62
     7
176
     1
 62
   257
176
     1
 90
        1
176
     1
 90
        1
176
     1
 40
1.0
176
     1
 90
        8
176
     1
 62
     7
176
     1
 40
1.0
176
     1
 90
        1
176
     1
 90
        6
176
     1
 90
        2
176
     1
 62
     7
176
     1
 90
        5
176
     1
 90
        0
176
     1
 90
        0
176
     1
290
     0
176
     1
 90
        1
176
     1
 40
0.0
176
     1
 90
        0
176
     1
290
     0
176
     1
290
     1
176
     1
290
     1
176
     1
290
     0
176
     1
290
     0
176
     1
290
     0
176
     1
290
     0
176
     1
290
     0
176
     1
290
     0
176
     1
 90
       50
176
     1
 40
0.0
176
     1
 40
1.0
176
     1
 90
        0
176
     1
 62
    18
420
        0
176
     1
 90
       50
176
     1
 90
        3
176
     1
 62
     5
420
      255
176
     1
290
     0
176
     1
 90
       50
176
     1
 90
       50
176
     1
 90
       50
176
     1
290
     0
176
     1
 90
       50
176
     1
 62
   256
176
     0
 40
1.0
176
     0
 90
        2
176
     1
  1
strokes_ogs.tif
176
     1
290
     0
176
     1
 40
1.0
176
     1
 40
1.0
176
     1
  0
VISUALSTYLE
  5
2A
102
{ACAD_REACTORS
330
29
102
}
330
29
100
AcDbVisualStyle
  2
Flat
 70
     0
177
     3
291
     1
 70
    58
 90
        2
176
     1
 90
        1
176
     1
 90
        1
176
     1
 90
        2
176
     1
 40
0.6
176
     1
 40
30.0
176
     1
 62
     7
420
 16777215
176
     1
 90
        0
176
     1
 90
        0
176
     1
 62
     7
176
     1
 62
   257
176
     1
 90
        1
176
     1
 90
        1
176
     1
 40
1.0
176
     1
 90
        8
176
     1
 62
     7
176
     1
 40
1.0
176
     1
 90
        1
176
     1
 90
        6
176
     1
 90
        2
176
     1
 62
     7
176
     1
 90
        5
176
     1
 90
        0
176
     1
 90
        0
176
     1
290
     0
176
     1
 90
       13
176
     1
 40
0.0
176
     1
 90
        0
176
     1
290
     0
176
     1
290
     1
176
     1
290
     1
176
     1
290
     0
176
     1
290
     0
176
     1
290
     0
176
     1
290
     0
176
     1
290
     0
176
     1
290
     0
176
     1
 90
       50
176
     1
 40
0.0
176
     1
 40
1.0
176
     1
 90
        0
176
     1
 62
    18
420
        0
176
     1
 90
       50
176
     1
 90
        3
176
     1
 62
     5
420
      255
176
     1
290
     0
176
     1
 90
       50
176
     1
 90
       50
176
     1
 90
       50
176
     1
290
     0
176
     1
 90
       50
176
     1
 62
   256
176
     0
 40
1.0
176
     0
 90
        2
176
     1
  1
strokes_ogs.tif
176
     1
290
     0
176
     1
 40
1.0
176
     1
 40
1.0
176
     1
  0
VISUALSTYLE
  5
2B
102
{ACAD_REACTORS
330
29
102
}
330
29
100
AcDbVisualStyle
  2
FlatWithEdges
 70
     1
177
     3
291
     1
 70
    58
 90
        2
176
     1
 90
        1
176
     1
 90
        1
176
     1
 90
        2
176
     1
 40
0.6
176
     1
 40
30.0
176
     1
 62
     7
420
 16777215
176
     1
 90
        1
176
     1
 90
        0
176
     1
 62
     7
176
     1
 62
   257
176
     1
 90
        1
176
     1
 90
        1
176
     1
 40
1.0
176
     1
 90
        0
176
     1
 62
   257
176
     1
 40
1.0
176
     1
 90
        1
176
     1
 90
        6
176
     1
 90
        2
176
     1
 62
     7
176
     1
 90
        5
176
     1
 90
        0
176
     1
 90
        0
176
     1
290
     0
176
     1
 90
       13
176
     1
 40
0.0
176
     1
 90
        0
176
     1
290
     0
176
     1
290
     1
176
     1
290
     1
176
     1
290
     0
176
     1
290
     0
176
     1
290
     0
176
     1
290
     0
176
     1
290
     0
176
     1
290
     0
176
     1
 90
       50
176
     1
 40
0.0
176
     1
 40
1.0
176
     1
 90
        0
176
     1
 62
    18
420
        0
176
     1
 90
       50
176
     1
 90
        3
176
     1
 62
     5
420
      255
176
     1
290
     0
176
     1
 90
       50
176
     1
 90
       50
176
     1
 90
       50
176
     1
290
     0
176
     1
 90
       50
176
     1
 62
   256
176
     0
 40
1.0
176
     0
 90
        2
176
     1
  1
strokes_ogs.tif
176
     1
290
     0
176
     1
 40
1.0
176
     1
 40
1.0
176
     1
  0
VISUALSTYLE
  5
2C
102
{ACAD_REACTORS
330
29
102
}
330
29
100
AcDbVisualStyle
  2
Gouraud
 70
     2
177
     3
291
     1
 70
    58
 90
        2
176
     1
 90
        2
176
     1
 90
        1
176
     1
 90
        2
176
     1
 40
0.6
176
     1
 40
30.0
176
     1
 62
     7
420
 16777215
176
     1
 90
        0
176
     1
 90
        0
176
     1
 62
     7
176
     1
 62
   257
176
     1
 90
        1
176
     1
 90
        1
176
     1
 40
1.0
176
     1
 90
        0
176
     1
 62
     7
176
     1
 40
1.0
176
     1
 90
        1
176
     1
 90
        6
176
     1
 90
        2
176
     1
 62
     7
176
     1
 90
        5
176
     1
 90
        0
176
     1
 90
        0
176
     1
290
     0
176
     1
 90
       13
176
     1
 40
0.0
176
     1
 90
        0
176
     1
290
     0
176
     1
290
     1
176
     1
290
     1
176
     1
290
     0
176
     1
290
     0
176
     1
290
     0
176
     1
290
     0
176
     1
290
     0
176
     1
290
     0
176
     1
 90
       50
176
     1
 40
0.0
176
     1
 40
1.0
176
     1
 90
        0
176
     1
 62
    18
420
        0
176
     1
 90
       50
176
     1
 90
        3
176
     1
 62
     5
420
      255
176
     1
290
     0
176
     1
 90
       50
176
     1
 90
       50
176
     1
 90
       50
176
     1
290
     0
176
     1
 90
       50
176
     1
 62
   256
176
     0
 40
1.0
176
     0
 90
        2
176
     1
  1
strokes_ogs.tif
176
     1
290
     0
176
     1
 40
1.0
176
     1
 40
1.0
176
     1
  0
VISUALSTYLE
  5
2D
102
{ACAD_REACTORS
330
29
102
}
330
29
100
AcDbVisualStyle
  2
GouraudWithEdges
 70
     3
177
     3
291
     1
 70
    58
 90
        2
176
     1
 90
        2
176
     1
 90
        1
176
     1
 90
        2
176
     1
 40
0.6
176
     1
 40
30.0
176
     1
 62
     7
420
 16777215
176
     1
 90
        1
176
     1
 90
        0
176
     1
 62
     7
176
     1
 62
   257
176
     1
 90
        1
176
     1
 90
        1
176
     1
 40
1.0
176
     1
 90
        0
176
     1
 62
   257
176
     1
 40
1.0
176
     1
 90
        1
176
     1
 90
        6
176
     1
 90
        2
176
     1
 62
     7
176
     1
 90
        5
176
     1
 90
        0
176
     1
 90
        0
176
     1
290
     0
176
     1
 90
       13
176
     1
 40
0.0
176
     1
 90
        0
176
     1
290
     0
176
     1
290
     1
176
     1
290
     1
176
     1
290
     0
176
     1
290
     0
176
     1
290
     0
176
     1
290
     0
176
     1
290
     0
176
     1
290
     0
176
     1
 90
       50
176
     1
 40
0.0
176
     1
 40
1.0
176
     1
 90
        0
176
     1
 62
    18
420
        0
176
     1
 90
       50
176
     1
 90
        3
176
     1
 62
     5
420
      255
176
     1
290
     0
176
     1
 90
       50
176
     1
 90
       50
176
     1
 90
       50
176
     1
290
     0
176
     1
 90
       50
176
     1
 62
   256
176
     0
 40
1.0
176
     0
 90
        2
176
     1
  1
strokes_ogs.tif
176
     1
290
     0
176
     1
 40
1.0
176
     1
 40
1.0
176
     1
  0
VISUALSTYLE
  5
31
102
{ACAD_REACTORS
330
29
102
}
330
29
100
AcDbVisualStyle
  2
Hidden
 70
     6
177
     3
291
     0
 70
    58
 90
        1
176
     1
 90
        2
176
     1
 90
        2
176
     1
 90
        0
176
     1
 40
0.6
176
     1
 40
30.0
176
     1
 62
     7
420
 16777215
176
     1
 90
        2
176
     1
 90
        2
176
     1
 62
     7
176
     1
 62
   257
176
     1
 90
        2
176
     1
 90
        1
176
     1
 40
40.0
176
     1
 90
        0
176
     1
 62
   257
176
     1
 40
1.0
176
     1
 90
        1
176
     1
 90
        6
176
     1
 90
        2
176
     1
 62
     7
176
     1
 90
        3
176
     1
 90
        0
176
     1
 90
        0
176
     1
290
     0
176
     1
 90
        1
176
     1
 40
0.0
176
     1
 90
        0
176
     1
290
     0
176
     1
290
     1
176
     1
290
     1
176
     1
290
     0
176
     1
290
     0
176
     1
290
     0
176
     1
290
     0
176
     1
290
     0
176
     1
290
     0
176
     1
 90
       50
176
     1
 40
0.0
176
     1
 40
1.0
176
     1
 90
        0
176
     1
 62
    18
420
        0
176
     1
 90
       50
176
     1
 90
        3
176
     1
 62
     5
420
      255
176
     1
290
     0
176
     1
 90
       50
176
     1
 90
       50
176
     1
 90
       50
176
     1
290
     0
176
     1
 90
       50
176
     1
 62
   256
176
     0
 40
1.0
176
     0
 90
        2
176
     1
  1
strokes_ogs.tif
176
     1
290
     0
176
     1
 40
1.0
176
     1
 40
1.0
176
     1
  0
VISUALSTYLE
  5
3F
102
{ACAD_REACTORS
330
29
102
}
330
29
100
AcDbVisualStyle
  2
JitterOff
 70
    20
177
     3
291
     1
 70
    58
 90
        2
176
     0
 90
        2
176
     0
 90
        0
176
     0
 90
        0
176
     0
 40
0.6
176
     0
 40
30.0
176
     0
 62
     7
420
 16777215
176
     0
 90
        1
176
     0
 90
        4
176
     0
 62
     7
176
     0
 62
   257
176
     0
 90
        1
176
     0
 90
        1
176
     0
 40
1.0
176
     0
 90
       10
176
     2
 62
     7
176
     0
 40
1.0
176
     0
 90
        1
176
     0
 90
        6
176
     0
 90
        2
176
     0
 62
     7
176
     0
 90
        5
176
     0
 90
        0
176
     0
 90
        0
176
     0
290
     0
176
     0
 90
        1
176
     0
 40
0.0
176
     0
 90
        0
176
     0
290
     0
176
     0
290
     1
176
     0
290
     1
176
     0
290
     0
176
     0
290
     0
176
     0
290
     0
176
     0
290
     0
176
     0
290
     0
176
     0
290
     0
176
     0
 90
       50
176
     0
 40
0.0
176
     0
 40
1.0
176
     0
 90
        0
176
     0
 62
    18
420
        0
176
     0
 90
       50
176
     0
 90
        3
176
     0
 62
     5
420
      255
176
     0
290
     0
176
     0
 90
       50
176
     0
 90
       50
176
     0
 90
       50
176
     0
290
     0
176
     0
 90
       50
176
     0
 62
   256
176
     0
 40
1.0
176
     0
 90
        2
176
     0
  1
strokes_ogs.tif
176
     0
290
     0
176
     0
 40
1.0
176
     0
 40
1.0
176
     0
  0
VISUALSTYLE
  5
37
102
{ACAD_REACTORS
330
29
102
}
330
29
100
AcDbVisualStyle
  2
Linepattern
 70
    14
177
     3
291
     1
 70
    58
 90
        2
176
     1
 90
        2
176
     1
 90
        0
176
     1
 90
        0
176
     1
 40
0.6
176
     1
 40
30.0
176
     1
 62
     7
420
 16777215
176
     1
 90
        1
176
     1
 90
        4
176
     1
 62
     7
176
     1
 62
   257
176
     1
 90
        7
176
     1
 90
        7
176
     1
 40
1.0
176
     1
 90
        8
176
     1
 62
     7
176
     1
 40
1.0
176
     1
 90
        1
176
     1
 90
        6
176
     1
 90
        2
176
     1
 62
     7
176
     1
 90
        5
176
     1
 90
        0
176
     1
 90
        0
176
     1
290
     0
176
     1
 90
        1
176
     1
 40
0.0
176
     1
 90
        0
176
     1
290
     0
176
     1
290
     1
176
     1
290
     1
176
     1
290
     0
176
     1
290
     0
176
     1
290
     0
176
     1
290
     0
176
     1
290
     0
176
     1
290
     0
176
     1
 90
       50
176
     1
 40
0.0
176
     1
 40
1.0
176
     1
 90
        0
176
     1
 62
    18
420
        0
176
     1
 90
       50
176
     1
 90
        3
176
     1
 62
     5
420
      255
176
     1
290
     0
176
     1
 90
       50
176
     1
 90
       50
176
     1
 90
       50
176
     1
290
     0
176
     1
 90
       50
176
     1
 62
   256
176
     0
 40
1.0
176
     0
 90
        2
176
     1
  1
strokes_ogs.tif
176
     1
290
     0
176
     1
 40
1.0
176
     1
 40
1.0
176
     1
  0
VISUALSTYLE
  5
40
102
{ACAD_REACTORS
330
29
102
}
330
29
100
AcDbVisualStyle
  2
OverhangOff
 70
    21
177
     3
291
     1
 70
    58
 90
        2
176
     0
 90
        2
176
     0
 90
        0
176
     0
 90
        0
176
     0
 40
0.6
176
     0
 40
30.0
176
     0
 62
     7
420
 16777215
176
     0
 90
        1
176
     0
 90
        4
176
     0
 62
     7
176
     0
 62
   257
176
     0
 90
        1
176
     0
 90
        1
176
     0
 40
1.0
176
     0
 90
        9
176
     2
 62
     7
176
     0
 40
1.0
176
     0
 90
        1
176
     0
 90
        6
176
     0
 90
        2
176
     0
 62
     7
176
     0
 90
        5
176
     0
 90
        0
176
     0
 90
        0
176
     0
290
     0
176
     0
 90
        1
176
     0
 40
0.0
176
     0
 90
        0
176
     0
290
     0
176
     0
290
     1
176
     0
290
     1
176
     0
290
     0
176
     0
290
     0
176
     0
290
     0
176
     0
290
     0
176
     0
290
     0
176
     0
290
     0
176
     0
 90
       50
176
     0
 40
0.0
176
     0
 40
1.0
176
     0
 90
        0
176
     0
 62
    18
420
        0
176
     0
 90
       50
176
     0
 90
        3
176
     0
 62
     5
420
      255
176
     0
290
     0
176
     0
 90
       50
176
     0
 90
       50
176
     0
 90
       50
176
     0
290
     0
176
     0
 90
       50
176
     0
 62
   256
176
     0
 40
1.0
176
     0
 90
        2
176
     0
  1
strokes_ogs.tif
176
     0
290
     0
176
     0
 40
1.0
176
     0
 40
1.0
176
     0
  0
VISUALSTYLE
  5
33
102
{ACAD_REACTORS
330
29
102
}
330
29
100
AcDbVisualStyle
  2
Realistic
 70
     8
177
     3
291
     0
 70
    58
 90
        2
176
     1
 90
        3
176
     1
 90
        0
176
     1
 90
        2
176
     1
 40
0.6
176
     1
 40
30.0
176
     1
 62
     7
420
 16777215
176
     1
 90
        0
176
     1
 90
        0
176
     1
 62
     7
176
     1
 62
   257
176
     1
 90
        1
176
     1
 90
        1
176
     1
 40
1.0
176
     1
 90
        8
176
     1
 62
   257
176
     1
 40
1.0
176
     1
 90
        1
176
     1
 90
        6
176
     1
 90
        2
176
     1
 62
     7
176
     1
 90
        3
176
     1
 90
        0
176
     1
 90
        0
176
     1
290
     0
176
     1
 90
       13
176
     1
 40
0.0
176
     1
 90
        0
176
     1
290
     0
176
     1
290
     1
176
     1
290
     1
176
     1
290
     0
176
     1
290
     0
176
     1
290
     0
176
     1
290
     0
176
     1
290
     0
176
     1
290
     0
176
     1
 90
       50
176
     1
 40
0.0
176
     1
 40
1.0
176
     1
 90
        0
176
     1
 62
    18
420
        0
176
     1
 90
       50
176
     1
 90
        3
176
     1
 62
     5
420
      255
176
     1
290
     0
176
     1
 90
       50
176
     1
 90
       50
176
     1
 90
       50
176
     1
290
     0
176
     1
 90
       50
176
     1
 62
   256
176
     0
 40
1.0
176
     0
 90
        2
176
     1
  1
strokes_ogs.tif
176
     1
290
     0
176
     1
 40
1.0
176
     1
 40
1.0
176
     1
  0
VISUALSTYLE
  5
3E
102
{ACAD_REACTORS
330
29
102
}
330
29
100
AcDbVisualStyle
  2
Shaded
 70
    27
177
     3
291
     0
 70
    58
 90
        2
176
     1
 90
        2
176
     1
 90
        1
176
     1
 90
        2
176
     1
 40
0.6
176
     1
 40
30.0
176
     1
 62
     7
420
 16777215
176
     1
 90
        0
176
     1
 90
        4
176
     1
 62
     7
176
     1
 62
   257
176
     1
 90
        1
176
     1
 90
        1
176
     1
 40
1.0
176
     1
 90
        8
176
     1
 62
   257
176
     1
 40
1.0
176
     1
 90
        1
176
     1
 90
        6
176
     1
 90
        2
176
     1
 62
     8
420
  7895160
176
     1
 90
        3
176
     1
 90
        0
176
     1
 90
        0
176
     1
290
     0
176
     1
 90
        5
176
     1
 40
0.0
176
     1
 90
        0
176
     1
290
     0
176
     1
290
     1
176
     1
290
     1
176
     1
290
     0
176
     1
290
     0
176
     1
290
     0
176
     1
290
     0
176
     1
290
     0
176
     1
290
     0
176
     1
 90
       50
176
     1
 40
0.0
176
     1
 40
1.0
176
     1
 90
        0
176
     1
 62
    18
420
        0
176
     1
 90
       50
176
     1
 90
        3
176
     1
 62
     5
420
      255
176
     1
290
     0
176
     1
 90
       50
176
     1
 90
       50
176
     1
 90
       50
176
     1
290
     0
176
     1
 90
       50
176
     1
 62
   256
176
     0
 40
1.0
176
     0
 90
        2
176
     1
  1
strokes_ogs.tif
176
     1
290
     0
176
     1
 40
1.0
176
     1
 40
1.0
176
     1
  0
VISUALSTYLE
  5
3D
102
{ACAD_REACTORS
330
29
102
}
330
29
100
AcDbVisualStyle
  2
Shaded with edges
 70
    26
177
     3
291
     0
 70
    58
 90
        2
176
     1
 90
        2
176
     1
 90
        1
176
     1
 90
        2
176
     1
 40
0.6
176
     1
 40
30.0
176
     1
 62
     7
420
 16777215
176
     1
 90
        1
176
     1
 90
        2
176
     1
 62
     7
176
     1
 62
   257
176
     1
 90
        2
176
     1
 90
        1
176
     1
 40
1.0
176
     1
 90
        8
176
     1
 62
   257
176
     1
 40
1.0
176
     1
 90
        1
176
     1
 90
        6
176
     1
 90
        2
176
     1
 62
     7
176
     1
 90
        3
176
     1
 90
        0
176
     1
 90
        0
176
     1
290
     0
176
     1
 90
        5
176
     1
 40
0.0
176
     1
 90
        0
176
     1
290
     0
176
     1
290
     1
176
     1
290
     1
176
     1
290
     0
176
     1
290
     0
176
     1
290
     0
176
     1
290
     0
176
     1
290
     0
176
     1
290
     0
176
     1
 90
       50
176
     1
 40
0.0
176
     1
 40
1.0
176
     1
 90
        0
176
     1
 62
    18
420
        0
176
     1
 90
       50
176
     1
 90
        3
176
     1
 62
     5
420
      255
176
     1
290
     0
176
     1
 90
       50
176
     1
 90
       50
176
     1
 90
       50
176
     1
290
     0
176
     1
 90
       50
176
     1
 62
   256
176
     0
 40
1.0
176
     0
 90
        2
176
     1
  1
strokes_ogs.tif
176
     1
290
     0
176
     1
 40
1.0
176
     1
 40
1.0
176
     1
  0
VISUALSTYLE
  5
3A
102
{ACAD_REACTORS
330
29
102
}
330
29
100
AcDbVisualStyle
  2
Shades of Gray
 70
    23
177
     3
291
     0
 70
    58
 90
        2
176
     1
 90
        2
176
     1
 90
        3
176
     1
 90
        0
176
     1
 40
0.6
176
     1
 40
30.0
176
     1
 62
     7
420
 16777215
176
     1
 90
        2
176
     1
 90
        2
176
     1
 62
     7
176
     1
 62
     7
176
     1
 90
        1
176
     1
 90
        1
176
     1
 40
40.0
176
     1
 90
        8
176
     1
 62
     7
176
     1
 40
1.0
176
     1
 90
        1
176
     1
 90
        6
176
     1
 90
        2
176
     1
 62
     7
176
     1
 90
        3
176
     1
 90
        0
176
     1
 90
        0
176
     1
290
     0
176
     1
 90
        1
176
     1
 40
0.0
176
     1
 90
        0
176
     1
290
     0
176
     1
290
     1
176
     1
290
     1
176
     1
290
     0
176
     1
290
     0
176
     1
290
     0
176
     1
290
     0
176
     1
290
     0
176
     1
290
     0
176
     1
 90
       50
176
     1
 40
0.0
176
     1
 40
1.0
176
     1
 90
        0
176
     1
 62
    18
420
        0
176
     1
 90
       50
176
     1
 90
        3
176
     1
 62
     5
420
      255
176
     1
290
     0
176
     1
 90
       50
176
     1
 90
       50
176
     1
 90
       50
176
     1
290
     0
176
     1
 90
       50
176
     1
 62
   256
176
     0
 40
1.0
176
     0
 90
        2
176
     1
  1
strokes_ogs.tif
176
     1
290
     0
176
     1
 40
1.0
176
     1
 40
1.0
176
     1
  0
VISUALSTYLE
  5
3B
102
{ACAD_REACTORS
330
29
102
}
330
29
100
AcDbVisualStyle
  2
Sketchy
 70
    24
177
     3
291
     0
 70
    58
 90
        1
176
     1
 90
        2
176
     1
 90
        2
176
     1
 90
        0
176
     1
 40
0.6
176
     1
 40
30.0
176
     1
 62
     7
420
 16777215
176
     1
 90
        2
176
     1
 90
        2
176
     1
 62
     7
176
     1
 62
     7
176
     1
 90
        1
176
     1
 90
        1
176
     1
 40
40.0
176
     1
 90
       11
176
     1
 62
     7
176
     1
 40
1.0
176
     1
 90
        1
176
     1
 90
        6
176
     1
 90
        2
176
     1
 62
     7
176
     1
 90
        6
176
     1
 90
        0
176
     1
 90
        0
176
     1
290
     0
176
     1
 90
        1
176
     1
 40
0.0
176
     1
 90
        0
176
     1
290
     0
176
     1
290
     1
176
     1
290
     1
176
     1
290
     0
176
     1
290
     0
176
     1
290
     0
176
     1
290
     0
176
     1
290
     0
176
     1
290
     0
176
     1
 90
       50
176
     1
 40
0.0
176
     1
 40
1.0
176
     1
 90
        0
176
     1
 62
    18
420
        0
176
     1
 90
       50
176
     1
 90
        3
176
     1
 62
     5
420
      255
176
     1
290
     0
176
     1
 90
       50
176
     1
 90
       50
176
     1
 90
       50
176
     1
290
     0
176
     1
 90
       50
176
     1
 62
   256
176
     0
 40
1.0
176
     0
 90
        2
176
     1
  1
strokes_ogs.tif
176
     1
290
     0
176
     1
 40
1.0
176
     1
 40
1.0
176
     1
  0
VISUALSTYLE
  5
36
102
{ACAD_REACTORS
330
29
102
}
330
29
100
AcDbVisualStyle
  2
Thicken
 70
    13
177
     3
291
     1
 70
    58
 90
        2
176
     1
 90
        2
176
     1
 90
        0
176
     1
 90
        0
176
     1
 40
0.6
176
     1
 40
30.0
176
     1
 62
     7
420
 16777215
176
     1
 90
        1
176
     1
 90
        4
176
     1
 62
     7
176
     1
 62
   257
176
     1
 90
        1
176
     1
 90
        1
176
     1
 40
1.0
176
     1
 90
       12
176
     1
 62
     7
176
     1
 40
1.0
176
     1
 90
        1
176
     1
 90
        6
176
     1
 90
        2
176
     1
 62
     7
176
     1
 90
        5
176
     1
 90
        0
176
     1
 90
        0
176
     1
290
     0
176
     1
 90
        1
176
     1
 40
0.0
176
     1
 90
        0
176
     1
290
     0
176
     1
290
     1
176
     1
290
     1
176
     1
290
     0
176
     1
290
     0
176
     1
290
     0
176
     1
290
     0
176
     1
290
     0
176
     1
290
     0
176
     1
 90
       50
176
     1
 40
0.0
176
     1
 40
1.0
176
     1
 90
        0
176
     1
 62
    18
420
        0
176
     1
 90
       50
176
     1
 90
        3
176
     1
 62
     5
420
      255
176
     1
290
     0
176
     1
 90
       50
176
     1
 90
       50
176
     1
 90
       50
176
     1
290
     0
176
     1
 90
       50
176
     1
 62
   256
176
     0
 40
1.0
176
     0
 90
        2
176
     1
  1
strokes_ogs.tif
176
     1
290
     0
176
     1
 40
1.0
176
     1
 40
1.0
176
     1
  0
VISUALSTYLE
  5
30
102
{ACAD_REACTORS
330
29
102
}
330
29
100
AcDbVisualStyle
  2
Wireframe
 70
     5
177
     3
291
     0
 70
    58
 90
        0
176
     1
 90
        2
176
     1
 90
        0
176
     1
 90
        0
176
     1
 40
0.6
176
     1
 40
30.0
176
     1
 62
     7
420
 16777215
176
     1
 90
        1
176
     1
 90
        4
176
     1
 62
     7
176
     1
 62
   257
176
     1
 90
        1
176
     1
 90
        1
176
     1
 40
1.0
176
     1
 90
        0
176
     1
 62
   257
176
     1
 40
1.0
176
     1
 90
        1
176
     1
 90
        6
176
     1
 90
        2
176
     1
 62
     7
176
     1
 90
        3
176
     1
 90
        0
176
     1
 90
        0
176
     1
290
     0
176
     1
 90
        1
176
     1
 40
0.0
176
     1
 90
        0
176
     1
290
     0
176
     1
290
     1
176
     1
290
     1
176
     1
290
     0
176
     1
290
     0
176
     1
290
     0
176
     1
290
     0
176
     1
290
     0
176
     1
290
     0
176
     1
 90
       50
176
     1
 40
0.0
176
     1
 40
1.0
176
     1
 90
        0
176
     1
 62
    18
420
        0
176
     1
 90
       50
176
     1
 90
        3
176
     1
 62
     5
420
      255
176
     1
290
     0
176
     1
 90
       50
176
     1
 90
       50
176
     1
 90
       50
176
     1
290
     0
176
     1
 90
       50
176
     1
 62
   256
176
     0
 40
1.0
176
     0
 90
        2
176
     1
  1
strokes_ogs.tif
176
     1
290
     0
176
     1
 40
1.0
176
     1
 40
1.0
176
     1
  0
VISUALSTYLE
  5
3C
102
{ACAD_REACTORS
330
29
102
}
330
29
100
AcDbVisualStyle
  2
X-Ray
 70
    25
177
     3
291
     0
 70
    58
 90
        2
176
     1
 90
        2
176
     1
 90
        1
176
     1
 90
        1
176
     1
 40
0.5
176
     1
 40
30.0
176
     1
 62
     7
420
 16777215
176
     1
 90
        1
176
     1
 90
        0
176
     1
 62
     7
176
     1
 62
   257
176
     1
 90
        1
176
     1
 90
        1
176
     1
 40
1.0
176
     1
 90
        8
176
     1
 62
     7
176
     1
 40
1.0
176
     1
 90
        1
176
     1
 90
        6
176
     1
 90
        2
176
     1
 62
     7
176
     1
 90
        3
176
     1
 90
        0
176
     1
 90
        0
176
     1
290
     0
176
     1
 90
       13
176
     1
 40
0.0
176
     1
 90
        0
176
     1
290
     0
176
     1
290
     1
176
     1
290
     1
176
     1
290
     0
176
     1
290
     0
176
     1
290
     0
176
     1
290
     0
176
     1
290
     0
176
     1
290
     0
176
     1
 90
       50
176
     1
 40
0.0
176
     1
 40
1.0
176
     1
 90
        0
176
     1
 62
    18
420
        0
176
     1
 90
       50
176
     1
 90
        3
176
     1
 62
     5
420
      255
176
     1
290
     0
176
     1
 90
       50
176
     1
 90
       50
176
     1
 90
       50
176
     1
290
     0
176
     1
 90
       50
176
     1
 62
   256
176
     0
 40
1.0
176
     0
 90
        2
176
     1
  1
strokes_ogs.tif
176
     1
290
     0
176
     1
 40
1.0
176
     1
 40
1.0
176
     1
  0
DICTIONARYVAR
  5
321
102
{ACAD_REACTORS
330
31C
102
}
330
31C
100
DictionaryVariables
280
     0
  1
1:1
  0
DICTIONARYVAR
  5
31E
102
{ACAD_REACTORS
330
31C
102
}
330
31C
100
DictionaryVariables
280
     0
  1
STANDARD
  0
DICTIONARYVAR
  5
31D
102
{ACAD_REACTORS
330
31C
102
}
330
31C
100
DictionaryVariables
280
     0
  1
STANDARD
  0
DICTIONARYVAR
  5
31F
102
{ACAD_REACTORS
330
31C
102
}
330
31C
100
DictionaryVariables
280
     0
  1
Imperial24
  0
DICTIONARYVAR
  5
320
102
{ACAD_REACTORS
330
31C
102
}
330
31C
100
DictionaryVariables
280
     0
  1
Imperial24
  0
DICTIONARY
  5
1A
330
19
100
AcDbDictionary
280
     1
281
     1
  3
BUMPTILE
360
1C
  3
DIFFUSETILE
360
1B
  3
OPACITYTILE
360
1F
  3
REFLECTIONTILE
360
1E
  3
REFRACTIONTILE
360
20
  3
SPECULARTILE
360
1D
  0
DICTIONARY
  5
12
330
11
100
AcDbDictionary
280
     1
281
     1
  3
BUMPTILE
360
14
  3
DIFFUSETILE
360
13
  3
OPACITYTILE
360
17
  3
REFLECTIONTILE
360
16
  3
REFRACTIONTILE
360
18
  3
SPECULARTILE
360
15
  0
DICTIONARY
  5
22
330
21
100
AcDbDictionary
280
     1
281
     1
  3
BUMPTILE
360
24
  3
DIFFUSETILE
360
23
  3
OPACITYTILE
360
27
  3
REFLECTIONTILE
360
26
  3
REFRACTIONTILE
360
28
  3
SPECULARTILE
360
25
  0
DICTIONARY
  5
322
330
65
100
AcDbDictionary
280
     1
281
     1
  3
ACAD_ROUNDTRIP_2008_TABLESTYLE_CELLSTYLEMAP
360
323
  0
XRECORD
  5
1C
102
{ACAD_REACTORS
330
1A
102
}
330
1A
100
AcDbXrecord
280
     1
270
     1
271
     1
  0
XRECORD
  5
1B
102
{ACAD_REACTORS
330
1A
102
}
330
1A
100
AcDbXrecord
280
     1
270
     1
271
     1
  0
XRECORD
  5
1F
102
{ACAD_REACTORS
330
1A
102
}
330
1A
100
AcDbXrecord
280
     1
270
     1
271
     1
  0
XRECORD
  5
1E
102
{ACAD_REACTORS
330
1A
102
}
330
1A
100
AcDbXrecord
280
     1
270
     1
271
     1
  0
XRECORD
  5
20
102
{ACAD_REACTORS
330
1A
102
}
330
1A
100
AcDbXrecord
280
     1
270
     1
271
     1
  0
XRECORD
  5
1D
102
{ACAD_REACTORS
330
1A
102
}
330
1A
100
AcDbXrecord
280
     1
270
     1
271
     1
  0
XRECORD
  5
14
102
{ACAD_REACTORS
330
12
102
}
330
12
100
AcDbXrecord
280
     1
270
     1
271
     1
  0
XRECORD
  5
13
102
{ACAD_REACTORS
330
12
102
}
330
12
100
AcDbXrecord
280
     1
270
     1
271
     1
  0
XRECORD
  5
17
102
{ACAD_REACTORS
330
12
102
}
330
12
100
AcDbXrecord
280
     1
270
     1
271
     1
  0
XRECORD
  5
16
102
{ACAD_REACTORS
330
12
102
}
330
12
100
AcDbXrecord
280
     1
270
     1
271
     1
  0
XRECORD
  5
18
102
{ACAD_REACTORS
330
12
102
}
330
12
100
AcDbXrecord
280
     1
270
     1
271
     1
  0
XRECORD
  5
15
102
{ACAD_REACTORS
330
12
102
}
330
12
100
AcDbXrecord
280
     1
270
     1
271
     1
  0
XRECORD
  5
24
102
{ACAD_REACTORS
330
22
102
}
330
22
100
AcDbXrecord
280
     1
270
     1
271
     1
  0
XRECORD
  5
23
102
{ACAD_REACTORS
330
22
102
}
330
22
100
AcDbXrecord
280
     1
270
     1
271
     1
  0
XRECORD
  5
27
102
{ACAD_REACTORS
330
22
102
}
330
22
100
AcDbXrecord
280
     1
270
     1
271
     1
  0
XRECORD
  5
26
102
{ACAD_REACTORS
330
22
102
}
330
22
100
AcDbXrecord
280
     1
270
     1
271
     1
  0
XRECORD
  5
28
102
{ACAD_REACTORS
330
22
102
}
330
22
100
AcDbXrecord
280
     1
270
     1
271
     1
  0
XRECORD
  5
25
102
{ACAD_REACTORS
330
22
102
}
330
22
100
AcDbXrecord
280
     1
270
     1
271
     1
  0
CELLSTYLEMAP
  5
323
102
{ACAD_REACTORS
330
322
102
}
330
322
100
AcDbCellStyleMap
 90
        3
300
CELLSTYLE
  1
TABLEFORMAT_BEGIN
 90
        5
170
     1
 91
        0
 92
    32768
 62
   257
 93
        1
300
CONTENTFORMAT
  1
CONTENTFORMAT_BEGIN
 90
        0
 91
        0
 92
      512
 93
        0
300

 40
0.0
140
1.0
 94
        5
 62
     0
340
55
144
0.25
309
CONTENTFORMAT_END
171
     0
 94
        0
309
TABLEFORMAT_END
  1
CELLSTYLE_BEGIN
 90
        1
 91
        1
300
_TITLE
309
CELLSTYLE_END
300
CELLSTYLE
  1
TABLEFORMAT_BEGIN
 90
        5
170
     1
 91
        0
 92
        0
 62
   257
 93
        1
300
CONTENTFORMAT
  1
CONTENTFORMAT_BEGIN
 90
        0
 91
        0
 92
      512
 93
        0
300

 40
0.0
140
1.0
 94
        5
 62
     0
340
55
144
0.18
309
CONTENTFORMAT_END
171
     0
 94
        0
309
TABLEFORMAT_END
  1
CELLSTYLE_BEGIN
 90
        2
 91
        1
300
_HEADER
309
CELLSTYLE_END
300
CELLSTYLE
  1
TABLEFORMAT_BEGIN
 90
        5
170
     1
 91
        0
 92
        0
 62
   257
 93
        1
300
CONTENTFORMAT
  1
CONTENTFORMAT_BEGIN
 90
        0
 91
        0
 92
      512
 93
        0
300

 40
0.0
140
1.0
 94
        2
 62
     0
340
55
144
0.18
309
CONTENTFORMAT_END
171
     0
 94
        0
309
TABLEFORMAT_END
  1
CELLSTYLE_BEGIN
 90
        3
 91
        2
300
_DATA
309
CELLSTYLE_END
  0
ENDSEC
  0
EOF
