999
DXF file: C:\Users\sesa63760\Dev\_Creo\CAD\MCADID0002733_3D-CAD\drw0001_5.dxf
999
Pro/ENGINEER 2019471 by Parametric Technology Corporation
  0
SECTION
  2
HEADER
  9
$ACADVER
  1
AC1024
  9
$DWGCODEPAGE
  3
ANSI_1252
  9
$EXTMAX
 10
58.3767221133
 20
82.5613641317
 30
0.0
  9
$EXTMIN
 10
0.0
 20
0.0
 30
0.0
  9
$LIMMIN
 10
0.0
 20
0.0
  9
$LIMMAX
 10
58.3767221133
 20
82.5613641317
  9
$VIEWCTR
 10
29.1883610567
 20
41.2806820658
  9
$VIEWSIZE
 40
82.5613641317
  9
$CLAYER
  8
0
  9
$LTSCALE
 40
5.3817778101
  9
$CELTYPE
  6
BYLAYER
  9
$DIMSCALE
 40
1.0
  9
$DIMASZ
 40
0.6949609775
  9
$DIMEXO
 40
1.0
  9
$DIMDLI
 40
3.7183192142
  9
$DIMEXE
 40
1.0
  9
$DIMCEN
 40
0.8806545507
  9
$DIMLFAC
 40
1.0
  9
$DIMBLK
  1
_FILLED
  9
$DIMALT
 70
0
  9
$DIMALTF
 40
0.0393700787
  9
$DIMTXT
 40
0.9729453686
  9
$DIMTOL
 70
1
  9
$DIMLIM
 70
0
  9
$DIMTFAC
 40
1.0
  9
$DIMTP
 40
0.01
  9
$DIMTM
 40
0.01
  9
$DIMGAP
 40
0.625
  9
$DIMDSEP
 70
46
  9
$AUNITS
 70
0
  9
$PDMODE
 70
3
  9
$PDSIZE
 40
0.3125
  9
$HANDSEED
  5
3C8
  9
$TILEMODE
 70
1
  9
$MEASUREMENT
 70
1
  9
$INSUNITS
 70
4
  0
ENDSEC
  0
SECTION
  2
CLASSES
  0
CLASS
  1
ACDBDICTIONARYWDFLT
  2
AcDbDictionaryWithDefault
  3
AutoCAD 2000
 90
0
 91
1
280
0
281
0
  0
CLASS
  1
ACDBPLACEHOLDER
  2
AcDbPlaceHolder
  3
AutoCAD 2000
 90
0
 91
1
280
0
281
0
  0
CLASS
  1
LAYOUT
  2
AcDbLayout
  3
AutoCAD 2000
 90
0
 91
0
280
0
281
0
  0
ENDSEC
  0
SECTION
  2
TABLES
  0
TABLE
  2
VPORT
  5
8
100
AcDbSymbolTable
 70
2
  0
VPORT
  5
1F4
100
AcDbSymbolTableRecord
100
AcDbViewportTableRecord
  2
*ACTIVE
 70
0
 10
0.0
 20
0.0
 11
1.0
 21
1.0
 12
29.1883610567
 22
41.2806820658
 13
0.0
 23
0.0
 14
1.0
 24
1.0
 15
0.0
 25
0.0
 16
0.0
 26
0.0
 36
1.0
 17
0.0
 27
0.0
 37
0.0
 40
82.5613641317
 41
0.7070707071
 42
50.0
 43
0.0
 44
0.0
 50
0.0
 51
0.0
 71
0
 72
100
 73
1
 74
1
 75
0
 76
0
 77
0
 78
0
  0
ENDTAB
  0
TABLE
  2
LTYPE
  5
5
100
AcDbSymbolTable
 70
6
  0
LTYPE
  5
14
100
AcDbSymbolTableRecord
100
AcDbLinetypeTableRecord
  2
BYBLOCK
 70
0
  3

 72
65
 73
0
 40
0.0
  0
LTYPE
  5
15
100
AcDbSymbolTableRecord
100
AcDbLinetypeTableRecord
  2
BYLAYER
 70
0
  3

 72
65
 73
0
 40
0.0
  0
LTYPE
  5
16
100
AcDbSymbolTableRecord
100
AcDbLinetypeTableRecord
  2
CONTINUOUS
 70
64
  3
Solid line
 72
65
 73
0
 40
0.0
  0
LTYPE
  5
1F5
100
AcDbSymbolTableRecord
100
AcDbLinetypeTableRecord
  2
CENTER
 70
64
  3
____ _ ____ _ ____ _ ____ _ ____ _ ____ _ ____
 72
65
 73
4
 40
0.6
 49
0.375
 74
0
 49
-0.075
 74
0
 49
0.075
 74
0
 49
-0.075
 74
0
  0
LTYPE
  5
1F6
100
AcDbSymbolTableRecord
100
AcDbLinetypeTableRecord
  2
HIDDEN
 70
64
  3
- - - - - - - - - - - - - - - - - - - -
 72
65
 73
2
 40
0.2
 49
0.1
 74
0
 49
-0.1
 74
0
  0
LTYPE
  5
1F7
100
AcDbSymbolTableRecord
100
AcDbLinetypeTableRecord
  2
PHANTOM
 70
64
  3
_____ _ _ _____ _ _ _____ _ _ _____
 72
65
 73
6
 40
0.8
 49
0.45
 74
0
 49
-0.05
 74
0
 49
0.1
 74
0
 49
-0.05
 74
0
 49
0.1
 74
0
 49
-0.05
 74
0
  0
LTYPE
  5
1F8
100
AcDbSymbolTableRecord
100
AcDbLinetypeTableRecord
  2
DOT
 70
64
  3
. . . . . . . . . . . . . . . . . . . .
 72
65
 73
2
 40
0.2
 49
0.1
 74
0
 49
-0.1
 74
0
  0
LTYPE
  5
1F9
100
AcDbSymbolTableRecord
100
AcDbLinetypeTableRecord
  2
DASHED
 70
64
  3
- - - - - - - - - - - - - - - - - - - -
 72
65
 73
2
 40
0.2
 49
0.1
 74
0
 49
-0.1
 74
0
  0
ENDTAB
  0
TABLE
  2
LAYER
  5
2
100
AcDbSymbolTable
 70
36
  0
LAYER
  5
10
100
AcDbSymbolTableRecord
100
AcDbLayerTableRecord
  2
0
 70
0
 62
7
  6
CONTINUOUS
370
-3
390
F
  0
LAYER
  5
1FA
100
AcDbSymbolTableRecord
100
AcDbLayerTableRecord
  2
DEFAULT_1
 70
0
 62
7
  6
CENTER
370
-3
390
F
  0
LAYER
  5
1FB
100
AcDbSymbolTableRecord
100
AcDbLayerTableRecord
  2
DEFAULT_2
 70
0
 62
7
  6
HIDDEN
370
-3
390
F
  0
LAYER
  5
1FC
100
AcDbSymbolTableRecord
100
AcDbLayerTableRecord
  2
DEFAULT_3
 70
0
 62
7
  6
PHANTOM
370
-3
390
F
  0
LAYER
  5
1FD
100
AcDbSymbolTableRecord
100
AcDbLayerTableRecord
  2
00_COMPONENTS
 70
0
 62
7
  6
CONTINUOUS
370
-3
390
F
  0
LAYER
  5
1FE
100
AcDbSymbolTableRecord
100
AcDbLayerTableRecord
  2
01_1_DEFAULT_DATUMS
 70
0
 62
7
  6
CONTINUOUS
370
-3
390
F
  0
LAYER
  5
1FF
100
AcDbSymbolTableRecord
100
AcDbLayerTableRecord
  2
01_PLANES
 70
0
 62
7
  6
CONTINUOUS
370
-3
390
F
  0
LAYER
  5
200
100
AcDbSymbolTableRecord
100
AcDbLayerTableRecord
  2
02_COORD_SYS
 70
0
 62
7
  6
CONTINUOUS
370
-3
390
F
  0
LAYER
  5
201
100
AcDbSymbolTableRecord
100
AcDbLayerTableRecord
  2
03_AXES
 70
0
 62
7
  6
CONTINUOUS
370
-3
390
F
  0
LAYER
  5
202
100
AcDbSymbolTableRecord
100
AcDbLayerTableRecord
  2
04_POINTS
 70
0
 62
7
  6
CONTINUOUS
370
-3
390
F
  0
LAYER
  5
203
100
AcDbSymbolTableRecord
100
AcDbLayerTableRecord
  2
05_CURVES
 70
0
 62
7
  6
CONTINUOUS
370
-3
390
F
  0
LAYER
  5
204
100
AcDbSymbolTableRecord
100
AcDbLayerTableRecord
  2
06_SURFS
 70
0
 62
7
  6
CONTINUOUS
370
-3
390
F
  0
LAYER
  5
205
100
AcDbSymbolTableRecord
100
AcDbLayerTableRecord
  2
07_COSMETICS
 70
0
 62
7
  6
CONTINUOUS
370
-3
390
F
  0
LAYER
  5
206
100
AcDbSymbolTableRecord
100
AcDbLayerTableRecord
  2
10_NOTES
 70
0
 62
7
  6
CONTINUOUS
370
-3
390
F
  0
LAYER
  5
207
100
AcDbSymbolTableRecord
100
AcDbLayerTableRecord
  2
11_NOTES_PUB
 70
0
 62
7
  6
CONTINUOUS
370
-3
390
F
  0
LAYER
  5
208
100
AcDbSymbolTableRecord
100
AcDbLayerTableRecord
  2
13_REF_GTOL
 70
0
 62
7
  6
CONTINUOUS
370
-3
390
F
  0
LAYER
  5
209
100
AcDbSymbolTableRecord
100
AcDbLayerTableRecord
  2
16_MISC
 70
0
 62
7
  6
CONTINUOUS
370
-3
390
F
  0
LAYER
  5
20A
100
AcDbSymbolTableRecord
100
AcDbLayerTableRecord
  2
17_NO_PRINT
 70
0
 62
7
  6
CONTINUOUS
370
-3
390
F
  0
LAYER
  5
20B
100
AcDbSymbolTableRecord
100
AcDbLayerTableRecord
  2
18_DATUM_CAMS_JOINTS
 70
0
 62
7
  6
CONTINUOUS
370
-3
390
F
  0
LAYER
  5
20C
100
AcDbSymbolTableRecord
100
AcDbLayerTableRecord
  2
19_DATUM_FUNCTIONAL
 70
0
 62
7
  6
CONTINUOUS
370
-3
390
F
  0
LAYER
  5
20D
100
AcDbSymbolTableRecord
100
AcDbLayerTableRecord
  2
20_DATUM_KINEMATIC_SCHEME
 70
0
 62
7
  6
CONTINUOUS
370
-3
390
F
  0
ENDTAB
  0
TABLE
  2
STYLE
  5
3
100
AcDbSymbolTable
 70
1
  0
STYLE
  5
11
100
AcDbSymbolTableRecord
100
AcDbTextStyleTableRecord
  2
STANDARD
 70
0
 40
0.0
 41
1.0
 50
0.0
 71
0
 42
0.2
  3
ARIAL.TTF
  4

  0
STYLE
  5
20E
100
AcDbSymbolTableRecord
100
AcDbTextStyleTableRecord
  2
TEXTSTYLE_1
 70
0
 40
0.0
 41
0.8
 50
0.0
 71
0
 42
0.2
  3
gdt
  4

  0
ENDTAB
  0
TABLE
  2
VIEW
  5
6
100
AcDbSymbolTable
 70
0
  0
ENDTAB
  0
TABLE
  2
UCS
  5
7
100
AcDbSymbolTable
 70
0
  0
ENDTAB
  0
TABLE
  2
APPID
  5
9
100
AcDbSymbolTable
 70
1
  0
APPID
  5
20F
100
AcDbSymbolTableRecord
100
AcDbRegAppTableRecord
  2
ACAD
 70
0
  0
ENDTAB
  0
TABLE
  2
BLOCK_RECORD
  5
1
100
AcDbSymbolTable
 70
0
  0
BLOCK_RECORD
  5
210
100
AcDbSymbolTableRecord
100
AcDbBlockTableRecord
  2
*Model_Space
  0
BLOCK_RECORD
  5
211
100
AcDbSymbolTableRecord
100
AcDbBlockTableRecord
  2
*Paper_Space
  0
BLOCK_RECORD
  5
212
100
AcDbSymbolTableRecord
100
AcDbBlockTableRecord
  2
_FILLED
  0
ENDTAB
  0
TABLE
  2
DIMSTYLE
  5
A
100
AcDbSymbolTable
 70
1
100
AcDbDimStyleTable
 71
0
  0
DIMSTYLE
105
213
100
AcDbSymbolTableRecord
100
AcDbDimStyleTableRecord
  2
STANDARD
 70
0
  3

  4

 40
1.0
 41
0.6949609775
 42
1.0
 43
0.38
 44
1.0
 45
0.0
 46
0.0
 47
0.01
 48
0.01
140
0.9729453686
141
0.09
142
0.0
143
25.4
144
1.0
145
0.0
146
1.0
147
0.625
 71
1
 72
0
 73
0
 74
0
 75
0
 76
0
 77
1
 78
8
 79
2
170
0
171
1
172
0
173
0
174
0
175
0
176
0
177
0
178
0
270
2
179
2
271
2
272
2
273
2
274
2
275
0
280
0
281
0
282
0
283
1
284
8
285
0
286
0
287
3
288
0
340
11
278
46
341
212
342
212
343
212
344
212
  0
ENDTAB
  0
ENDSEC
  0
SECTION
  2
BLOCKS
  0
BLOCK
  5
20
100
AcDbEntity
  8
0
100
AcDbBlockBegin
  2
*Model_Space
 70
0
 10
0.0
 20
0.0
 30
0.0
  3
*Model_Space
  1

  0
ENDBLK
  5
21
100
AcDbEntity
  8
0
100
AcDbBlockEnd
  0
BLOCK
  5
1C
100
AcDbEntity
  8
0
100
AcDbBlockBegin
  2
*Paper_Space
 70
0
 10
0.0
 20
0.0
 30
0.0
  3
*Paper_Space
  1

  0
ENDBLK
  5
1D
100
AcDbEntity
  8
0
100
AcDbBlockEnd
  0
BLOCK
  5
214
100
AcDbEntity
  8
0
100
AcDbBlockBegin
  2
_FILLED
 70
64
 10
0.0
 20
0.0
  3
_FILLED
  1

  0
SOLID
  5
215
100
AcDbEntity
  8
0
  6
BYBLOCK
 62
0
100
AcDbTrace
 10
0.0
 20
0.0
 11
-1.0
 21
0.25
 12
-1.0
 22
-0.25
 13
-1.0
 23
-0.25
  0
ENDBLK
  5
216
100
AcDbEntity
  8
0
  6
BYBLOCK
 62
0
100
AcDbBlockEnd
  0
ENDSEC
  0
SECTION
  2
ENTITIES
  0
LINE
  5
217
100
AcDbEntity
  8
0
100
AcDbLine
 62
7
  6
BYLAYER
 10
6.804833327
 20
45.1817361984
 11
6.804833327
 21
47.3817361864
  0
LINE
  5
218
100
AcDbEntity
  8
0
100
AcDbLine
 62
7
  6
BYLAYER
 10
8.0048333568
 20
45.1817361984
 11
8.0048332155
 21
44.3674501623
  0
LINE
  5
219
100
AcDbEntity
  8
0
100
AcDbLine
 62
7
  6
BYLAYER
 10
8.0048333568
 20
32.5025471817
 11
8.0048332155
 21
38.3960224499
  0
LINE
  5
21A
100
AcDbEntity
  8
0
100
AcDbLine
 62
7
  6
BYLAYER
 10
8.0048333568
 20
47.3817361864
 11
8.0048333568
 21
50.5025916858
  0
LINE
  5
21B
100
AcDbEntity
  8
0
100
AcDbLine
 62
7
  6
BYLAYER
 10
8.2861116413
 20
38.7693375736
 11
8.2861116413
 21
39.0913203076
  0
LINE
  5
21C
100
AcDbEntity
  8
0
100
AcDbLine
 62
7
  6
BYLAYER
 10
8.2861116413
 20
43.6721521329
 11
8.2861116413
 21
43.9941293947
  0
LINE
  5
21D
100
AcDbEntity
  8
0
100
AcDbLine
 62
7
  6
BYLAYER
 10
8.3048328471
 20
50.5025916858
 11
8.3048328471
 21
51.3817321867
  0
LINE
  5
21E
100
AcDbEntity
  8
0
100
AcDbLine
 62
7
  6
BYLAYER
 10
11.6048328293
 20
46.6495632495
 11
11.6048328293
 21
42.8817363801
  0
LINE
  5
21F
100
AcDbEntity
  8
0
100
AcDbLine
 62
7
  6
BYLAYER
 10
11.6048328293
 20
39.8817363541
 11
11.6048328293
 21
36.1139094847
  0
LINE
  5
220
100
AcDbEntity
  8
0
100
AcDbLine
 62
7
  6
BYLAYER
 10
11.654833327
 20
42.8817363801
 11
11.654833327
 21
39.8817363541
  0
LINE
  5
221
100
AcDbEntity
  8
0
100
AcDbLine
 62
7
  6
BYLAYER
 10
13.4048332748
 20
53.3765378288
 11
13.414833327
 21
53.4447123662
  0
LINE
  5
222
100
AcDbEntity
  8
0
100
AcDbLine
 62
7
  6
BYLAYER
 10
13.4048332748
 20
29.3869349054
 11
13.414833327
 21
29.318760368
  0
LINE
  5
223
100
AcDbEntity
  8
0
100
AcDbLine
 62
7
  6
BYLAYER
 10
13.184832753
 20
36.1139094847
 11
13.184832753
 21
46.6495632495
  0
LINE
  5
224
100
AcDbEntity
  8
0
100
AcDbLine
 62
7
  6
BYLAYER
 10
13.4048332748
 20
29.3869349054
 11
13.4048332748
 21
53.3765312059
  0
LINE
  5
225
100
AcDbEntity
  8
0
100
AcDbLine
 62
7
  6
BYLAYER
 10
13.414833327
 20
26.6817387091
 11
13.414833327
 21
29.5806605427
  0
LINE
  5
226
100
AcDbEntity
  8
0
100
AcDbLine
 62
7
  6
BYLAYER
 10
13.414833327
 20
32.4346665449
 11
13.414833327
 21
37.6462617733
  0
LINE
  5
227
100
AcDbEntity
  8
0
100
AcDbLine
 62
7
  6
BYLAYER
 10
13.414833327
 20
45.1172108512
 11
13.414833327
 21
50.328806076
  0
LINE
  5
228
100
AcDbEntity
  8
0
100
AcDbLine
 62
7
  6
BYLAYER
 10
13.414833327
 20
53.1828121754
 11
13.414833327
 21
56.0817340251
  0
LINE
  5
229
100
AcDbEntity
  8
0
100
AcDbLine
 62
7
  6
BYLAYER
 10
13.6022272831
 20
29.3691836743
 11
13.6022272831
 21
32.4346057193
  0
LINE
  5
22A
100
AcDbEntity
  8
0
100
AcDbLine
 62
7
  6
BYLAYER
 10
13.6022272831
 20
37.5405233814
 11
13.6022272831
 21
45.2229492728
  0
LINE
  5
22B
100
AcDbEntity
  8
0
100
AcDbLine
 62
7
  6
BYLAYER
 10
13.6022272831
 20
50.3288669018
 11
13.6022272831
 21
53.3942890484
  0
LINE
  5
22C
100
AcDbEntity
  8
0
100
AcDbLine
 62
7
  6
BYLAYER
 10
50.8612064797
 20
27.4853744673
 11
37.9387576067
 21
27.1469882347
  0
LINE
  5
22D
100
AcDbEntity
  8
0
100
AcDbLine
 62
7
  6
BYLAYER
 10
17.9048333139
 20
26.6817363671
 11
13.414833327
 21
26.6817363671
  0
LINE
  5
22E
100
AcDbEntity
  8
0
100
AcDbLine
 62
7
  6
BYLAYER
 10
13.414833327
 20
26.723804189
 11
17.9048333139
 21
26.723804189
  0
LINE
  5
22F
100
AcDbEntity
  8
0
100
AcDbLine
 62
7
  6
BYLAYER
 10
19.404833327
 20
26.6317362777
 11
17.9048333139
 21
26.6738041184
  0
LINE
  5
230
100
AcDbEntity
  8
0
100
AcDbLine
 62
7
  6
BYLAYER
 10
20.009833327
 20
28.7319893507
 11
19.969833327
 21
28.7317364357
  0
LINE
  5
231
100
AcDbEntity
  8
0
100
AcDbLine
 62
7
  6
BYLAYER
 10
26.9048335318
 20
27.1317363634
 11
36.7909091502
 21
27.1317363634
  0
LINE
  5
232
100
AcDbEntity
  8
0
100
AcDbLine
 62
7
  6
BYLAYER
 10
25.654833327
 20
27.80673661
 11
26.9048335318
 21
27.80673661
  0
LINE
  5
233
100
AcDbEntity
  8
0
100
AcDbLine
 62
7
  6
BYLAYER
 10
16.5392184465
 20
28.2195261054
 11
13.414833327
 21
28.2195261054
  0
LINE
  5
234
100
AcDbEntity
  8
0
100
AcDbLine
 62
7
  6
BYLAYER
 10
19.969833327
 20
28.7317364357
 11
19.404833327
 21
28.7317364357
  0
LINE
  5
235
100
AcDbEntity
  8
0
100
AcDbLine
 62
7
  6
BYLAYER
 10
17.9048333139
 20
26.6738041184
 11
17.9048333139
 21
56.0896686158
  0
LINE
  5
236
100
AcDbEntity
  8
0
100
AcDbLine
 62
7
  6
BYLAYER
 10
24.0418452365
 20
50.8531625065
 11
24.6701306368
 21
51.12501531
  0
LINE
  5
237
100
AcDbEntity
  8
0
100
AcDbLine
 62
7
  6
BYLAYER
 10
19.9886016342
 20
28.73187087
 11
19.969833327
 21
28.7317364357
  0
LINE
  5
238
100
AcDbEntity
  8
0
100
AcDbLine
 62
7
  6
BYLAYER
 10
37.2087576066
 20
28.9074434739
 11
37.9387576062
 21
28.9074434739
  0
LINE
  5
239
100
AcDbEntity
  8
0
100
AcDbLine
 62
7
  6
BYLAYER
 10
51.5073206203
 20
29.2353959877
 11
37.9387576068
 21
29.2353959877
  0
LINE
  5
23A
100
AcDbEntity
  8
0
100
AcDbLine
 62
7
  6
BYLAYER
 10
37.4350592183
 20
29.6189096733
 11
37.9387576023
 21
29.6189096733
  0
LINE
  5
23B
100
AcDbEntity
  8
0
100
AcDbLine
 62
7
  6
BYLAYER
 10
22.954833327
 20
30.5067363671
 11
25.654833327
 21
30.5067363671
  0
LINE
  5
23C
100
AcDbEntity
  8
0
100
AcDbLine
 62
7
  6
BYLAYER
 10
19.404833327
 20
56.1317364565
 11
19.404833327
 21
26.6317362777
  0
LINE
  5
23D
100
AcDbEntity
  8
0
100
AcDbLine
 62
7
  6
BYLAYER
 10
20.009833327
 20
28.7731530495
 11
20.009833327
 21
28.7870979683
  0
LINE
  5
23E
100
AcDbEntity
  8
0
100
AcDbLine
 62
7
  6
BYLAYER
 10
20.009833327
 20
28.9102756286
 11
20.009833327
 21
28.938059337
  0
LINE
  5
23F
100
AcDbEntity
  8
0
100
AcDbLine
 62
7
  6
BYLAYER
 10
20.009833327
 20
29.1423135545
 11
20.009833327
 21
29.1837246017
  0
LINE
  5
240
100
AcDbEntity
  8
0
100
AcDbLine
 62
7
  6
BYLAYER
 10
20.009833327
 20
29.4675008783
 11
20.009833327
 21
29.5222241012
  0
LINE
  5
241
100
AcDbEntity
  8
0
100
AcDbLine
 62
7
  6
BYLAYER
 10
20.009833327
 20
29.8833627282
 11
20.009833327
 21
29.9509816501
  0
LINE
  5
242
100
AcDbEntity
  8
0
100
AcDbLine
 62
7
  6
BYLAYER
 10
20.009833327
 20
30.3867341444
 11
20.009833327
 21
30.4667341444
  0
LINE
  5
243
100
AcDbEntity
  8
0
100
AcDbLine
 62
7
  6
BYLAYER
 10
20.009833327
 20
30.9737841665
 11
20.009833327
 21
31.0655563963
  0
LINE
  5
244
100
AcDbEntity
  8
0
100
AcDbLine
 62
7
  6
BYLAYER
 10
20.009833327
 20
31.6400449893
 11
20.009833327
 21
31.7428910069
  0
LINE
  5
245
100
AcDbEntity
  8
0
100
AcDbLine
 62
7
  6
BYLAYER
 10
20.009833327
 20
32.3804459657
 11
20.009833327
 21
32.4935830507
  0
LINE
  5
246
100
AcDbEntity
  8
0
100
AcDbLine
 62
7
  6
BYLAYER
 10
20.009833327
 20
33.1893521972
 11
20.009833327
 21
33.3119193081
  0
LINE
  5
247
100
AcDbEntity
  8
0
100
AcDbLine
 62
7
  6
BYLAYER
 10
20.009833327
 20
34.0606074189
 11
20.009833327
 21
34.191671746
  0
LINE
  5
248
100
AcDbEntity
  8
0
100
AcDbLine
 62
7
  6
BYLAYER
 10
20.009833327
 20
34.9875808526
 11
20.009833327
 21
35.1261449172
  0
LINE
  5
249
100
AcDbEntity
  8
0
100
AcDbLine
 62
7
  6
BYLAYER
 10
20.009833327
 20
35.9632176706
 11
20.009833327
 21
36.1082269165
  0
LINE
  5
24A
100
AcDbEntity
  8
0
100
AcDbLine
 62
7
  6
BYLAYER
 10
20.009833327
 20
36.9800926876
 11
20.009833327
 21
37.1304435069
  0
LINE
  5
24B
100
AcDbEntity
  8
0
100
AcDbLine
 62
7
  6
BYLAYER
 10
20.009833327
 20
38.0304668709
 11
20.009833327
 21
38.1850150031
  0
LINE
  5
24C
100
AcDbEntity
  8
0
100
AcDbLine
 62
7
  6
BYLAYER
 10
20.009833327
 20
39.1063462385
 11
20.009833327
 21
39.263915479
  0
LINE
  5
24D
100
AcDbEntity
  8
0
100
AcDbLine
 62
7
  6
BYLAYER
 10
20.009833327
 20
40.199542699
 11
20.009833327
 21
40.3346371731
  0
LINE
  5
24E
100
AcDbEntity
  8
0
100
AcDbLine
 62
7
  6
BYLAYER
 10
20.009833327
 20
42.4288355612
 11
20.009833327
 21
42.5639300352
  0
LINE
  5
24F
100
AcDbEntity
  8
0
100
AcDbLine
 62
7
  6
BYLAYER
 10
20.009833327
 20
43.4995572552
 11
20.009833327
 21
43.6571264957
  0
LINE
  5
250
100
AcDbEntity
  8
0
100
AcDbLine
 62
7
  6
BYLAYER
 10
20.009833327
 20
44.5784577311
 11
20.009833327
 21
44.7330058634
  0
LINE
  5
251
100
AcDbEntity
  8
0
100
AcDbLine
 62
7
  6
BYLAYER
 10
20.009833327
 20
45.6330292273
 11
20.009833327
 21
45.7833800466
  0
LINE
  5
252
100
AcDbEntity
  8
0
100
AcDbLine
 62
7
  6
BYLAYER
 10
20.009833327
 20
46.6552458177
 11
20.009833327
 21
46.8002550637
  0
LINE
  5
253
100
AcDbEntity
  8
0
100
AcDbLine
 62
7
  6
BYLAYER
 10
20.009833327
 20
47.6373278171
 11
20.009833327
 21
47.7758918817
  0
LINE
  5
254
100
AcDbEntity
  8
0
100
AcDbLine
 62
7
  6
BYLAYER
 10
20.009833327
 20
48.5718009882
 11
20.009833327
 21
48.7028653153
  0
LINE
  5
255
100
AcDbEntity
  8
0
100
AcDbLine
 62
7
  6
BYLAYER
 10
20.009833327
 20
49.4515534261
 11
20.009833327
 21
49.574120537
  0
LINE
  5
256
100
AcDbEntity
  8
0
100
AcDbLine
 62
7
  6
BYLAYER
 10
20.009833327
 20
50.2698896835
 11
20.009833327
 21
50.3830267685
  0
LINE
  5
257
100
AcDbEntity
  8
0
100
AcDbLine
 62
7
  6
BYLAYER
 10
20.009833327
 20
51.0205817273
 11
20.009833327
 21
51.1234277449
  0
LINE
  5
258
100
AcDbEntity
  8
0
100
AcDbLine
 62
7
  6
BYLAYER
 10
20.009833327
 20
51.6979163379
 11
20.009833327
 21
51.7896885677
  0
LINE
  5
259
100
AcDbEntity
  8
0
100
AcDbLine
 62
7
  6
BYLAYER
 10
20.009833327
 20
52.2967385898
 11
20.009833327
 21
52.3767385898
  0
LINE
  5
25A
100
AcDbEntity
  8
0
100
AcDbLine
 62
7
  6
BYLAYER
 10
20.009833327
 20
52.8124910841
 11
20.009833327
 21
52.880110006
  0
LINE
  5
25B
100
AcDbEntity
  8
0
100
AcDbLine
 62
7
  6
BYLAYER
 10
20.009833327
 20
53.241248633
 11
20.009833327
 21
53.2959718559
  0
LINE
  5
25C
100
AcDbEntity
  8
0
100
AcDbLine
 62
7
  6
BYLAYER
 10
20.009833327
 20
53.5797481325
 11
20.009833327
 21
53.6211591797
  0
LINE
  5
25D
100
AcDbEntity
  8
0
100
AcDbLine
 62
7
  6
BYLAYER
 10
20.009833327
 20
53.8254133972
 11
20.009833327
 21
53.8531971056
  0
LINE
  5
25E
100
AcDbEntity
  8
0
100
AcDbLine
 62
7
  6
BYLAYER
 10
20.009833327
 20
53.9763747659
 11
20.009833327
 21
53.9903196848
  0
LINE
  5
25F
100
AcDbEntity
  8
0
100
AcDbLine
 62
7
  6
BYLAYER
 10
20.4048333745
 20
54.0228151686
 11
20.4048333745
 21
47.3380144612
  0
LINE
  5
260
100
AcDbEntity
  8
0
100
AcDbLine
 62
7
  6
BYLAYER
 10
20.4048333745
 20
47.2909137011
 11
20.4048333745
 21
46.4989981119
  0
LINE
  5
261
100
AcDbEntity
  8
0
100
AcDbLine
 62
7
  6
BYLAYER
 10
20.4048333745
 20
46.293590874
 11
20.4048333745
 21
45.6210363108
  0
LINE
  5
262
100
AcDbEntity
  8
0
100
AcDbLine
 62
7
  6
BYLAYER
 10
20.4048333745
 20
45.2588859104
 11
20.4048333745
 21
44.7108108773
  0
LINE
  5
263
100
AcDbEntity
  8
0
100
AcDbLine
 62
7
  6
BYLAYER
 10
20.4048333745
 20
44.1946734977
 11
20.4048333745
 21
43.7752491767
  0
LINE
  5
264
100
AcDbEntity
  8
0
100
AcDbLine
 62
7
  6
BYLAYER
 10
20.4048333745
 20
43.109052935
 11
20.4048333745
 21
42.8214713984
  0
LINE
  5
265
100
AcDbEntity
  8
0
100
AcDbLine
 62
7
  6
BYLAYER
 10
20.4048333745
 20
42.0102864976
 11
20.4048333745
 21
41.8567363671
  0
LINE
  5
266
100
AcDbEntity
  8
0
100
AcDbLine
 62
7
  6
BYLAYER
 10
20.4048333745
 20
40.9067363196
 11
20.4048333745
 21
40.7531862366
  0
LINE
  5
267
100
AcDbEntity
  8
0
100
AcDbLine
 62
7
  6
BYLAYER
 10
20.4048333745
 20
39.9420013356
 11
20.4048333745
 21
39.6544197522
  0
LINE
  5
268
100
AcDbEntity
  8
0
100
AcDbLine
 62
7
  6
BYLAYER
 10
20.4048333745
 20
38.9882235111
 11
20.4048333745
 21
38.5687991901
  0
LINE
  5
269
100
AcDbEntity
  8
0
100
AcDbLine
 62
7
  6
BYLAYER
 10
20.4048333745
 20
38.0526618115
 11
20.4048333745
 21
37.5045867785
  0
LINE
  5
26A
100
AcDbEntity
  8
0
100
AcDbLine
 62
7
  6
BYLAYER
 10
20.4048333745
 20
37.1424364234
 11
20.4048333745
 21
36.4698818163
  0
LINE
  5
26B
100
AcDbEntity
  8
0
100
AcDbLine
 62
7
  6
BYLAYER
 10
20.4048333745
 20
36.2644745802
 11
20.4048333745
 21
35.4725590332
  0
LINE
  5
26C
100
AcDbEntity
  8
0
100
AcDbLine
 62
7
  6
BYLAYER
 10
20.4048333745
 20
35.4254582329
 11
20.4048333745
 21
28.7473617091
  0
LINE
  5
26D
100
AcDbEntity
  8
0
100
AcDbLine
 62
7
  6
BYLAYER
 10
20.3816013622
 20
47.3183234997
 11
20.404833327
 21
47.3380144612
  0
LINE
  5
26E
100
AcDbEntity
  8
0
100
AcDbLine
 62
7
  6
BYLAYER
 10
22.404833327
 20
30.8817363671
 11
22.704833327
 21
30.8817363671
  0
LINE
  5
26F
100
AcDbEntity
  8
0
100
AcDbLine
 62
7
  6
BYLAYER
 10
20.4048333745
 20
31.2817363671
 11
22.404833327
 21
31.2817363671
  0
LINE
  5
270
100
AcDbEntity
  8
0
100
AcDbLine
 62
7
  6
BYLAYER
 10
11.6048328293
 20
31.7256500359
 11
13.4048332748
 21
31.7256500359
  0
LINE
  5
271
100
AcDbEntity
  8
0
100
AcDbLine
 62
7
  6
BYLAYER
 10
17.9048333139
 20
32.4346057193
 11
13.414833327
 21
32.4346057193
  0
LINE
  5
272
100
AcDbEntity
  8
0
100
AcDbLine
 62
7
  6
BYLAYER
 10
20.4048333745
 20
35.4254582329
 11
20.3816036756
 21
35.4450904405
  0
LINE
  5
273
100
AcDbEntity
  8
0
100
AcDbLine
 62
7
  6
BYLAYER
 10
22.304833327
 20
51.6317363671
 11
22.304833327
 21
43.1317363671
  0
LINE
  5
274
100
AcDbEntity
  8
0
100
AcDbLine
 62
7
  6
BYLAYER
 10
22.304833327
 20
39.6317363671
 11
22.304833327
 21
31.2817363671
  0
LINE
  5
275
100
AcDbEntity
  8
0
100
AcDbLine
 62
7
  6
BYLAYER
 10
22.404833327
 20
30.8817398946
 11
22.404833327
 21
31.2817363671
  0
LINE
  5
276
100
AcDbEntity
  8
0
100
AcDbLine
 62
7
  6
BYLAYER
 10
22.404833327
 20
51.4817363671
 11
22.404833327
 21
51.8817328396
  0
LINE
  5
277
100
AcDbEntity
  8
0
100
AcDbLine
 62
7
  6
BYLAYER
 10
22.704833327
 20
30.7567363671
 11
22.704833327
 21
52.0067363671
  0
LINE
  5
278
100
AcDbEntity
  8
0
100
AcDbLine
 62
7
  6
BYLAYER
 10
20.4048333507
 20
41.8567363909
 11
20.009833327
 21
41.4617363671
  0
LINE
  5
279
100
AcDbEntity
  8
0
100
AcDbLine
 62
7
  6
BYLAYER
 10
20.009833327
 20
42.4288355612
 11
20.0174443685
 21
42.4364126325
  0
LINE
  5
27A
100
AcDbEntity
  8
0
100
AcDbLine
 62
7
  6
BYLAYER
 10
13.414833327
 20
33.0887042625
 11
17.9048333139
 21
33.0887042625
  0
LINE
  5
27B
100
AcDbEntity
  8
0
100
AcDbLine
 62
7
  6
BYLAYER
 10
24.869182851
 20
34.1681908246
 11
25.654833327
 21
34.1681503088
  0
LINE
  5
27C
100
AcDbEntity
  8
0
100
AcDbLine
 62
7
  6
BYLAYER
 10
20.0174442006
 20
40.3270639782
 11
20.009833327
 21
40.3346371731
  0
LINE
  5
27D
100
AcDbEntity
  8
0
100
AcDbLine
 62
7
  6
BYLAYER
 10
20.009833327
 20
41.3017363671
 11
20.4048333745
 21
40.9067363196
  0
LINE
  5
27E
100
AcDbEntity
  8
0
100
AcDbLine
 62
7
  6
BYLAYER
 10
22.954833327
 20
30.5067363671
 11
22.954833327
 21
52.2567363671
  0
LINE
  5
27F
100
AcDbEntity
  8
0
100
AcDbLine
 62
7
  6
BYLAYER
 10
23.0448333274
 20
50.0539740557
 11
23.0448333274
 21
49.8466777939
  0
LINE
  5
280
100
AcDbEntity
  8
0
100
AcDbLine
 62
7
  6
BYLAYER
 10
23.0448333274
 20
36.0906848033
 11
23.0448333274
 21
35.7990898068
  0
LINE
  5
281
100
AcDbEntity
  8
0
100
AcDbLine
 62
7
  6
BYLAYER
 10
24.404833327
 20
52.2566364968
 11
24.404833327
 21
52.0214320864
  0
LINE
  5
282
100
AcDbEntity
  8
0
100
AcDbLine
 62
7
  6
BYLAYER
 10
24.6701306368
 20
51.12501531
 11
24.6701306368
 21
48.484095958
  0
LINE
  5
283
100
AcDbEntity
  8
0
100
AcDbLine
 62
7
  6
BYLAYER
 10
24.6701306368
 20
37.881579432
 11
24.6701306368
 21
34.2149372966
  0
LINE
  5
284
100
AcDbEntity
  8
0
100
AcDbLine
 62
7
  6
BYLAYER
 10
13.414833327
 20
35.0168362936
 11
17.9048333139
 21
35.0168362936
  0
LINE
  5
285
100
AcDbEntity
  8
0
100
AcDbLine
 62
7
  6
BYLAYER
 10
13.184832753
 20
36.1139094847
 11
11.6048328293
 21
36.1139094847
  0
LINE
  5
286
100
AcDbEntity
  8
0
100
AcDbLine
 62
7
  6
BYLAYER
 10
24.869182851
 20
34.1682313427
 11
24.869182851
 21
37.9405652282
  0
LINE
  5
287
100
AcDbEntity
  8
0
100
AcDbLine
 62
7
  6
BYLAYER
 10
24.869182851
 20
48.4368509342
 11
24.869182851
 21
51.1615416327
  0
LINE
  5
288
100
AcDbEntity
  8
0
100
AcDbLine
 62
7
  6
BYLAYER
 10
24.904833327
 20
52.0214320864
 11
24.904833327
 21
53.2117363671
  0
LINE
  5
289
100
AcDbEntity
  8
0
100
AcDbLine
 62
7
  6
BYLAYER
 10
25.654833327
 20
27.80673661
 11
25.654833327
 21
54.9567361242
  0
LINE
  5
28A
100
AcDbEntity
  8
0
100
AcDbLine
 62
7
  6
BYLAYER
 10
26.904833327
 20
36.3299427841
 11
25.654833327
 21
36.3299427841
  0
LINE
  5
28B
100
AcDbEntity
  8
0
100
AcDbLine
 62
7
  6
BYLAYER
 10
16.5392182284
 20
36.9656948677
 11
13.414833327
 21
36.9656948677
  0
LINE
  5
28C
100
AcDbEntity
  8
0
100
AcDbLine
 62
7
  6
BYLAYER
 10
25.654833327
 20
37.9406679558
 11
24.869182851
 21
37.9406165967
  0
LINE
  5
28D
100
AcDbEntity
  8
0
100
AcDbLine
 62
7
  6
BYLAYER
 10
26.9048335318
 20
27.1317363597
 11
26.9048335318
 21
55.6317363746
  0
LINE
  5
28E
100
AcDbEntity
  8
0
100
AcDbLine
 62
7
  6
BYLAYER
 10
28.104833327
 20
40.3317363671
 11
28.104833327
 21
42.4317363671
  0
LINE
  5
28F
100
AcDbEntity
  8
0
100
AcDbLine
 62
7
  6
BYLAYER
 10
22.704833327
 20
39.6317363671
 11
20.3819307112
 21
39.6317363671
  0
LINE
  5
290
100
AcDbEntity
  8
0
100
AcDbLine
 62
7
  6
BYLAYER
 10
8.077148214
 20
38.7693861724
 11
8.2861116413
 21
38.7693375736
  0
LINE
  5
291
100
AcDbEntity
  8
0
100
AcDbLine
 62
7
  6
BYLAYER
 10
8.7969213438
 20
43.3893025267
 11
11.1848333565
 21
42.8817363801
  0
LINE
  5
292
100
AcDbEntity
  8
0
100
AcDbLine
 62
7
  6
BYLAYER
 10
28.104833327
 20
40.3317363671
 11
26.904833327
 21
40.2267363671
  0
LINE
  5
293
100
AcDbEntity
  8
0
100
AcDbLine
 62
7
  6
BYLAYER
 10
13.184832753
 20
39.8817363541
 11
11.1848333565
 21
39.8817363541
  0
LINE
  5
294
100
AcDbEntity
  8
0
100
AcDbLine
 62
7
  6
BYLAYER
 10
11.1848333565
 20
42.8817363801
 11
13.184832753
 21
42.8817363801
  0
LINE
  5
295
100
AcDbEntity
  8
0
100
AcDbLine
 62
7
  6
BYLAYER
 10
20.3819307112
 20
43.1317363671
 11
22.704833327
 21
43.1317363671
  0
LINE
  5
296
100
AcDbEntity
  8
0
100
AcDbLine
 62
7
  6
BYLAYER
 10
26.904833327
 20
42.5367363671
 11
28.104833327
 21
42.4317363671
  0
LINE
  5
297
100
AcDbEntity
  8
0
100
AcDbLine
 62
7
  6
BYLAYER
 10
11.1848333565
 20
39.8817363541
 11
8.7969213438
 21
39.3741697419
  0
LINE
  5
298
100
AcDbEntity
  8
0
100
AcDbLine
 62
7
  6
BYLAYER
 10
8.2861116413
 20
43.9941293947
 11
8.0771330699
 21
43.9941239608
  0
LINE
  5
299
100
AcDbEntity
  8
0
100
AcDbLine
 62
7
  6
BYLAYER
 10
8.0048333568
 20
45.1817361984
 11
6.804833327
 21
45.1817361984
  0
LINE
  5
29A
100
AcDbEntity
  8
0
100
AcDbLine
 62
7
  6
BYLAYER
 10
13.414833327
 20
45.7977779885
 11
16.5392184471
 21
45.7977779885
  0
LINE
  5
29B
100
AcDbEntity
  8
0
100
AcDbLine
 62
7
  6
BYLAYER
 10
25.654833327
 20
46.4335299501
 11
26.904833327
 21
46.4335299501
  0
LINE
  5
29C
100
AcDbEntity
  8
0
100
AcDbLine
 62
7
  6
BYLAYER
 10
11.6048328293
 20
46.6495632495
 11
13.184832753
 21
46.6495632495
  0
LINE
  5
29D
100
AcDbEntity
  8
0
100
AcDbLine
 62
7
  6
BYLAYER
 10
36.7909091502
 20
55.6317363708
 11
36.7909091502
 21
27.1317363634
  0
LINE
  5
29E
100
AcDbEntity
  8
0
100
AcDbLine
 62
7
  6
BYLAYER
 10
37.2048332644
 20
53.5374267514
 11
37.2048332644
 21
29.2312935734
  0
LINE
  5
29F
100
AcDbEntity
  8
0
100
AcDbLine
 62
7
  6
BYLAYER
 10
37.2087576066
 20
28.5225411628
 11
37.2087576066
 21
29.6180023784
  0
LINE
  5
2A0
100
AcDbEntity
  8
0
100
AcDbLine
 62
7
  6
BYLAYER
 10
37.2087576066
 20
53.1460089131
 11
37.2087576066
 21
54.2423475915
  0
LINE
  5
2A1
100
AcDbEntity
  8
0
100
AcDbLine
 62
7
  6
BYLAYER
 10
37.4348336187
 20
53.1460089131
 11
37.4348336187
 21
28.9074434939
  0
LINE
  5
2A2
100
AcDbEntity
  8
0
100
AcDbLine
 62
7
  6
BYLAYER
 10
6.804833327
 20
47.3817361864
 11
8.0048333568
 21
47.3817361864
  0
LINE
  5
2A3
100
AcDbEntity
  8
0
100
AcDbLine
 62
7
  6
BYLAYER
 10
13.414833327
 20
47.7466364407
 11
17.9048333139
 21
47.7466364407
  0
LINE
  5
2A4
100
AcDbEntity
  8
0
100
AcDbLine
 62
7
  6
BYLAYER
 10
24.869182851
 20
48.4368097227
 11
25.654833327
 21
48.4367685209
  0
LINE
  5
2A5
100
AcDbEntity
  8
0
100
AcDbLine
 62
7
  6
BYLAYER
 10
37.9351488758
 20
49.7102770494
 11
37.9351488758
 21
33.0532887159
  0
LINE
  5
2A6
100
AcDbEntity
  8
0
100
AcDbLine
 62
7
  6
BYLAYER
 10
37.9387576063
 20
27.1470932394
 11
37.9387576065
 21
29.6189096733
  0
LINE
  5
2A7
100
AcDbEntity
  8
0
100
AcDbLine
 62
7
  6
BYLAYER
 10
37.9387576049
 20
53.1460089131
 11
37.9387576044
 21
55.6170934468
  0
LINE
  5
2A8
100
AcDbEntity
  8
0
100
AcDbLine
 62
7
  6
BYLAYER
 10
38.044833327
 20
55.6151207537
 11
38.044833327
 21
55.601084071
  0
LINE
  5
2A9
100
AcDbEntity
  8
0
100
AcDbLine
 62
7
  6
BYLAYER
 10
38.0948333002
 20
55.6011281282
 11
38.0948333002
 21
55.6138115077
  0
LINE
  5
2AA
100
AcDbEntity
  8
0
100
AcDbLine
 62
7
  6
BYLAYER
 10
13.414833327
 20
49.6747684717
 11
17.9048333139
 21
49.6747684717
  0
LINE
  5
2AB
100
AcDbEntity
  8
0
100
AcDbLine
 62
7
  6
BYLAYER
 10
17.9048333139
 20
50.3288669018
 11
13.414833327
 21
50.3288669018
  0
LINE
  5
2AC
100
AcDbEntity
  8
0
100
AcDbLine
 62
7
  6
BYLAYER
 10
8.3048328471
 20
50.5025916858
 11
8.0048333568
 21
50.5025916858
  0
LINE
  5
2AD
100
AcDbEntity
  8
0
100
AcDbLine
 62
7
  6
BYLAYER
 10
24.8586605545
 20
51.1616516147
 11
24.6701306368
 21
51.12501531
  0
LINE
  5
2AE
100
AcDbEntity
  8
0
100
AcDbLine
 62
7
  6
BYLAYER
 10
24.869182851
 20
51.1615416327
 11
25.654833327
 21
51.1616697114
  0
LINE
  5
2AF
100
AcDbEntity
  8
0
100
AcDbLine
 62
7
  6
BYLAYER
 10
13.4048332748
 20
51.3817363671
 11
8.3048328471
 21
51.3817363671
  0
LINE
  5
2B0
100
AcDbEntity
  8
0
100
AcDbLine
 62
7
  6
BYLAYER
 10
22.404833327
 20
51.4817363671
 11
20.4048333745
 21
51.4817363671
  0
LINE
  5
2B1
100
AcDbEntity
  8
0
100
AcDbLine
 62
7
  6
BYLAYER
 10
20.4048333745
 20
51.6317363671
 11
22.304833327
 21
51.6317363671
  0
LINE
  5
2B2
100
AcDbEntity
  8
0
100
AcDbLine
 62
7
  6
BYLAYER
 10
22.404833327
 20
51.8817363671
 11
22.704833327
 21
51.8817363671
  0
LINE
  5
2B3
100
AcDbEntity
  8
0
100
AcDbLine
 62
7
  6
BYLAYER
 10
25.654833327
 20
52.0214320864
 11
24.404833327
 21
52.0214320864
  0
LINE
  5
2B4
100
AcDbEntity
  8
0
100
AcDbLine
 62
7
  6
BYLAYER
 10
22.954833327
 20
52.2567363671
 11
24.404833327
 21
52.2567363671
  0
LINE
  5
2B5
100
AcDbEntity
  8
0
100
AcDbLine
 62
7
  6
BYLAYER
 10
24.869182851
 20
51.1615416327
 11
24.8586605545
 21
51.1616516147
  0
LINE
  5
2B6
100
AcDbEntity
  8
0
100
AcDbLine
 62
7
  6
BYLAYER
 10
37.2087576066
 20
54.2424434738
 11
36.7996269728
 21
55.6171916832
  0
LINE
  5
2B7
100
AcDbEntity
  8
0
100
AcDbLine
 62
7
  6
BYLAYER
 10
37.9387576006
 20
53.1460089131
 11
37.4348336187
 21
53.14579179
  0
LINE
  5
2B8
100
AcDbEntity
  8
0
100
AcDbLine
 62
7
  6
BYLAYER
 10
24.904833327
 20
53.2117363671
 11
25.654833327
 21
53.2117363671
  0
LINE
  5
2B9
100
AcDbEntity
  8
0
100
AcDbLine
 62
7
  6
BYLAYER
 10
51.5646903228
 20
53.3107363799
 11
37.9387576006
 21
53.3107363799
  0
LINE
  5
2BA
100
AcDbEntity
  8
0
100
AcDbLine
 62
7
  6
BYLAYER
 10
37.2087576066
 20
53.8574434739
 11
37.9387576045
 21
53.8574434739
  0
LINE
  5
2BB
100
AcDbEntity
  8
0
100
AcDbLine
 62
7
  6
BYLAYER
 10
19.404833327
 20
54.0317362986
 11
19.969833327
 21
54.0317362986
  0
LINE
  5
2BC
100
AcDbEntity
  8
0
100
AcDbLine
 62
7
  6
BYLAYER
 10
19.969833327
 20
54.0317362986
 11
20.009833327
 21
54.0314833836
  0
LINE
  5
2BD
100
AcDbEntity
  8
0
100
AcDbLine
 62
7
  6
BYLAYER
 10
13.414833327
 20
54.5439468659
 11
16.5392190271
 21
54.5439468659
  0
LINE
  5
2BE
100
AcDbEntity
  8
0
100
AcDbLine
 62
7
  6
BYLAYER
 10
26.9048335318
 20
54.9567361242
 11
25.654833327
 21
54.9567361242
  0
LINE
  5
2BF
100
AcDbEntity
  8
0
100
AcDbLine
 62
7
  6
BYLAYER
 10
37.9605663407
 20
55.3498335091
 11
37.9387576066
 21
55.3498335091
  0
LINE
  5
2C0
100
AcDbEntity
  8
0
100
AcDbLine
 62
7
  6
BYLAYER
 10
37.9387576057
 20
55.6171918702
 11
37.9657501761
 21
55.6171918702
  0
LINE
  5
2C1
100
AcDbEntity
  8
0
100
AcDbLine
 62
7
  6
BYLAYER
 10
36.7909091502
 20
55.6317363708
 11
26.9048335318
 21
55.6317363708
  0
LINE
  5
2C2
100
AcDbEntity
  8
0
100
AcDbLine
 62
7
  6
BYLAYER
 10
13.414833327
 20
56.0396685453
 11
17.9048333139
 21
56.0396685453
  0
LINE
  5
2C3
100
AcDbEntity
  8
0
100
AcDbLine
 62
7
  6
BYLAYER
 10
17.9048333139
 20
56.0817363671
 11
13.414833327
 21
56.0817363671
  0
LINE
  5
2C4
100
AcDbEntity
  8
0
100
AcDbLine
 62
7
  6
BYLAYER
 10
50.8612064797
 20
55.2795124804
 11
38.0948333002
 21
55.6138117272
  0
LINE
  5
2C5
100
AcDbEntity
  8
0
100
AcDbLine
 62
7
  6
BYLAYER
 10
38.044833327
 20
55.6151210226
 11
37.9657515175
 21
55.6171918527
  0
LINE
  5
2C6
100
AcDbEntity
  8
0
100
AcDbLine
 62
7
  6
BYLAYER
 10
17.9048333139
 20
56.0896686158
 11
19.404833327
 21
56.1317364565
  0
LINE
  5
2C7
100
AcDbEntity
  8
0
100
AcDbLine
 62
7
  6
BYLAYER
 10
50.8612064797
 20
55.2795124804
 11
50.8612064797
 21
55.227544752
  0
LINE
  5
2C8
100
AcDbEntity
  8
0
100
AcDbLine
 62
7
  6
BYLAYER
 10
50.8612064797
 20
55.223117543
 11
50.8612064797
 21
54.7612068121
  0
LINE
  5
2C9
100
AcDbEntity
  8
0
100
AcDbLine
 62
7
  6
BYLAYER
 10
50.8612064797
 20
28.003561243
 11
50.8612064797
 21
27.4853744673
  0
LINE
  5
2CA
100
AcDbEntity
  8
0
100
AcDbLine
 62
7
  6
BYLAYER
 10
51.2574801827
 20
27.707994948
 11
51.2574801827
 21
28.2965535742
  0
LINE
  5
2CB
100
AcDbEntity
  8
0
100
AcDbLine
 62
7
  6
BYLAYER
 10
51.2574801827
 20
54.4692479126
 11
51.2574801827
 21
54.9995761984
  0
LINE
  5
2CC
100
AcDbEntity
  8
0
100
AcDbLine
 62
7
  6
BYLAYER
 10
51.2574801827
 20
55.0040751472
 11
51.2574801827
 21
55.0568919998
  0
LINE
  5
2CD
100
AcDbEntity
  8
0
100
AcDbLine
 62
7
  6
BYLAYER
 10
51.3756496277
 20
28.0399007825
 11
51.3756496277
 21
28.6983306781
  0
LINE
  5
2CE
100
AcDbEntity
  8
0
100
AcDbLine
 62
7
  6
BYLAYER
 10
51.3756496277
 20
54.0690731407
 11
51.3756496277
 21
54.6662372761
  0
LINE
  5
2CF
100
AcDbEntity
  8
0
100
AcDbLine
 62
7
  6
BYLAYER
 10
51.3756496277
 20
54.6708500151
 11
51.3756496277
 21
54.7249861653
  0
LINE
  5
2D0
100
AcDbEntity
  8
0
100
AcDbLine
 62
7
  6
BYLAYER
 10
52.918950585
 20
46.4027754912
 11
52.9202639402
 21
46.3903044744
  0
LINE
  5
2D1
100
AcDbEntity
  8
0
100
AcDbLine
 62
7
  6
BYLAYER
 10
53.1570903909
 20
42.6331710046
 11
53.1585807853
 21
42.5831449268
  0
LINE
  5
2D2
100
AcDbEntity
  8
0
100
AcDbLine
 62
7
  6
BYLAYER
 10
53.1573786314
 20
42.6331778858
 11
53.1585807853
 21
42.5831449268
  0
LINE
  5
2D3
100
AcDbEntity
  8
0
100
AcDbLine
 62
7
  6
BYLAYER
 10
53.1738831624
 20
41.3817363671
 11
53.1706826788
 21
40.0567728452
  0
LINE
  5
2D4
100
AcDbEntity
  8
0
100
AcDbLine
 62
7
  6
BYLAYER
 10
52.8184093156
 20
47.3078118941
 11
52.8326401612
 21
47.1930999796
  0
LINE
  5
2D5
100
AcDbEntity
  8
0
100
AcDbLine
 62
7
  6
BYLAYER
 10
52.8204636155
 20
47.3080572478
 11
52.8340396613
 21
47.1932638557
  0
LINE
  5
2D6
100
AcDbEntity
  8
0
100
AcDbLine
 62
7
  6
BYLAYER
 10
51.2574801827
 20
27.707994948
 11
51.3756496277
 21
28.0399007825
  0
ARC
  5
2D7
100
AcDbEntity
  8
0
100
AcDbCircle
 62
7
  6
BYLAYER
 10
-122.0143702089
 20
-100.5547426968
 40
202.293143049
100
AcDbArc
 50
45.249261305
 51
45.4065807212
  0
ARC
  5
2D8
100
AcDbEntity
  8
0
100
AcDbCircle
 62
7
  6
BYLAYER
 10
-71.9583732964
 20
-50.4726165551
 40
132.2605676401
100
AcDbArc
 50
45.7058077585
 51
45.9443909131
  0
ARC
  5
2D9
100
AcDbEntity
  8
0
100
AcDbCircle
 62
7
  6
BYLAYER
 10
-46.1261835442
 20
-24.5853410093
 40
96.4603143591
100
AcDbArc
 50
46.3917160383
 51
46.7148826237
  0
ARC
  5
2DA
100
AcDbEntity
  8
0
100
AcDbCircle
 62
7
  6
BYLAYER
 10
-30.0572148373
 20
-8.4245931997
 40
74.4345214136
100
AcDbArc
 50
47.3172191845
 51
47.7294622715
  0
ARC
  5
2DB
100
AcDbEntity
  8
0
100
AcDbCircle
 62
7
  6
BYLAYER
 10
-5.4220544068
 20
-28.0241075144
 40
60.378305394
100
AcDbArc
 50
67.2727028543
 51
68.6730987266
  0
ARC
  5
2DC
100
AcDbEntity
  8
0
100
AcDbCircle
 62
7
  6
BYLAYER
 10
-18.9450115452
 20
2.820512111
 40
59.3803579397
100
AcDbArc
 50
48.495839584
 51
49.0027808003
  0
ARC
  5
2DD
100
AcDbEntity
  8
0
100
AcDbCircle
 62
7
  6
BYLAYER
 10
3.0075798822
 20
41.3578056295
 40
50.1668958205
100
AcDbArc
 50
13.358303006
 51
15.3892733788
  0
ARC
  5
2DE
100
AcDbEntity
  8
0
100
AcDbCircle
 62
7
  6
BYLAYER
 10
3.0206849609
 20
41.3571688221
 40
50.1542925697
100
AcDbArc
 50
12.9176124833
 51
13.3624697312
  0
ARC
  5
2DF
100
AcDbEntity
  8
0
100
AcDbCircle
 62
7
  6
BYLAYER
 10
3.035253569
 20
41.3615842316
 40
50.1535083753
100
AcDbArc
 50
14.71868131
 51
15.4531294081
  0
ARC
  5
2E0
100
AcDbEntity
  8
0
100
AcDbCircle
 62
7
  6
BYLAYER
 10
3.035253569
 20
41.3615842316
 40
50.1535083753
100
AcDbArc
 50
9.7334837307
 51
10.7881284415
  0
ARC
  5
2E1
100
AcDbEntity
  8
0
100
AcDbCircle
 62
7
  6
BYLAYER
 10
3.035253569
 20
41.3615842316
 40
50.1535083753
100
AcDbArc
 50
4.7243143104
 51
5.6116121672
  0
ARC
  5
2E2
100
AcDbEntity
  8
0
100
AcDbCircle
 62
7
  6
BYLAYER
 10
3.035253569
 20
41.3615842316
 40
50.1535083753
100
AcDbArc
 50
0.0238297702
 51
0.5005472237
  0
ARC
  5
2E3
100
AcDbEntity
  8
0
100
AcDbCircle
 62
7
  6
BYLAYER
 10
3.0287242309
 20
41.3604007724
 40
50.1457370654
100
AcDbArc
 50
10.8767057287
 51
11.3751270508
  0
ARC
  5
2E4
100
AcDbEntity
  8
0
100
AcDbCircle
 62
7
  6
BYLAYER
 10
3.0398297504
 20
41.3625349734
 40
50.1344267258
100
AcDbArc
 50
6.8108272396
 51
10.8766244961
  0
ARC
  5
2E5
100
AcDbEntity
  8
0
100
AcDbCircle
 62
7
  6
BYLAYER
 10
3.0432482589
 20
41.362953092
 40
50.1309827559
100
AcDbArc
 50
5.7700184307
 51
6.6787018791
  0
ARC
  5
2E6
100
AcDbEntity
  8
0
100
AcDbCircle
 62
7
  6
BYLAYER
 10
3.0702969134
 20
41.3692415574
 40
50.1032373183
100
AcDbArc
 50
11.374592244
 51
12.916838908
  0
ARC
  5
2E7
100
AcDbEntity
  8
0
100
AcDbCircle
 62
7
  6
BYLAYER
 10
-10.7380505007
 20
11.2018908441
 40
48.3936209026
100
AcDbArc
 50
49.9442389485
 51
50.5525235878
  0
ARC
  5
2E8
100
AcDbEntity
  8
0
100
AcDbCircle
 62
7
  6
BYLAYER
 10
-4.4144459805
 20
17.7371688064
 40
40.0293343874
100
AcDbArc
 50
51.6818733059
 51
52.3989620748
  0
ARC
  5
2E9
100
AcDbEntity
  8
0
100
AcDbCircle
 62
7
  6
BYLAYER
 10
0.5934556714
 20
22.9845957542
 40
33.4885500742
100
AcDbArc
 50
53.7303203534
 51
54.5641187556
  0
ARC
  5
2EA
100
AcDbEntity
  8
0
100
AcDbCircle
 62
7
  6
BYLAYER
 10
4.6294090825
 20
27.273018984
 40
28.2931826804
100
AcDbArc
 50
56.1121006393
 51
57.0703521307
  0
ARC
  5
2EB
100
AcDbEntity
  8
0
100
AcDbCircle
 62
7
  6
BYLAYER
 10
7.9180269551
 20
30.8064172605
 40
24.1384861794
100
AcDbArc
 50
58.8487756145
 51
59.9381386049
  0
ARC
  5
2EC
100
AcDbEntity
  8
0
100
AcDbCircle
 62
7
  6
BYLAYER
 10
10.6171237686
 20
33.7161560597
 40
20.8197271837
100
AcDbArc
 50
61.9581024839
 51
63.1828495882
  0
ARC
  5
2ED
100
AcDbEntity
  8
0
100
AcDbCircle
 62
7
  6
BYLAYER
 10
12.8457748451
 20
36.0890661159
 40
18.1933140631
100
AcDbArc
 50
65.4501045405
 51
66.8104513274
  0
ARC
  5
2EE
100
AcDbEntity
  8
0
100
AcDbCircle
 62
7
  6
BYLAYER
 10
14.7001897978
 20
37.9834318251
 40
16.1552866935
100
AcDbArc
 50
69.3221543244
 51
70.8123603721
  0
ARC
  5
2EF
100
AcDbEntity
  8
0
100
AcDbCircle
 62
7
  6
BYLAYER
 10
16.2630426963
 20
39.4384983062
 40
14.6291963785
100
AcDbArc
 50
73.553607427
 51
75.1601980635
  0
ARC
  5
2F0
100
AcDbEntity
  8
0
100
AcDbCircle
 62
7
  6
BYLAYER
 10
17.6090967682
 20
40.4802679004
 40
13.5593674025
100
AcDbArc
 50
78.1011303312
 51
79.8018053567
  0
ARC
  5
2F1
100
AcDbEntity
  8
0
100
AcDbCircle
 62
7
  6
BYLAYER
 10
18.8086729765
 20
41.1250930122
 40
12.9072936319
100
AcDbArc
 50
82.896422235
 51
84.6602947857
  0
ARC
  5
2F2
100
AcDbEntity
  8
0
100
AcDbCircle
 62
7
  6
BYLAYER
 10
9.0048328817
 20
38.3960224499
 40
0.9999996662
100
AcDbArc
 50
158.0767751153
 51
180.0
  0
ARC
  5
2F3
100
AcDbEntity
  8
0
100
AcDbCircle
 62
7
  6
BYLAYER
 10
9.0048328817
 20
38.3960224499
 40
0.9999996662
100
AcDbArc
 50
101.9999951071
 51
135.9490241196
  0
ARC
  5
2F4
100
AcDbEntity
  8
0
100
AcDbCircle
 62
7
  6
BYLAYER
 10
160.2141445944
 20
-98.8680115372
 40
199.9266462213
100
AcDbArc
 50
134.3711134197
 51
134.5296896294
  0
ARC
  5
2F5
100
AcDbEntity
  8
0
100
AcDbCircle
 62
7
  6
BYLAYER
 10
143.009992472
 20
-81.6677885491
 40
175.4080407589
100
AcDbArc
 50
134.3445170075
 51
134.499656559
  0
ARC
  5
2F6
100
AcDbEntity
  8
0
100
AcDbCircle
 62
7
  6
BYLAYER
 10
110.2369518658
 20
-48.8341616783
 40
129.983644208
100
AcDbArc
 50
133.7175039628
 51
133.9588922876
  0
ARC
  5
2F7
100
AcDbEntity
  8
0
100
AcDbCircle
 62
7
  6
BYLAYER
 10
99.0191464181
 20
-37.6208422503
 40
113.8363357172
100
AcDbArc
 50
133.6768849126
 51
133.8631971964
  0
ARC
  5
2F8
100
AcDbEntity
  8
0
100
AcDbCircle
 62
7
  6
BYLAYER
 10
84.4972435951
 20
-22.9992593207
 40
94.2850866331
100
AcDbArc
 50
132.8258689352
 51
133.1540237867
  0
ARC
  5
2F9
100
AcDbEntity
  8
0
100
AcDbCircle
 62
7
  6
BYLAYER
 10
76.3153539579
 20
-14.8194266137
 40
82.334900715
100
AcDbArc
 50
132.7704051358
 51
132.9534791305
  0
ARC
  5
2FA
100
AcDbEntity
  8
0
100
AcDbCircle
 62
7
  6
BYLAYER
 10
68.5367512621
 20
-6.8995154863
 40
72.3776700468
100
AcDbArc
 50
131.6831387361
 51
132.1032022201
  0
ARC
  5
2FB
100
AcDbEntity
  8
0
100
AcDbCircle
 62
7
  6
BYLAYER
 10
62.1826010795
 20
-0.5369715295
 40
62.9107647266
100
AcDbArc
 50
131.6117684307
 51
131.7501000931
  0
ARC
  5
2FC
100
AcDbEntity
  8
0
100
AcDbCircle
 62
7
  6
BYLAYER
 10
57.5475035011
 20
4.2747605609
 40
57.4580291021
100
AcDbArc
 50
130.2730766964
 51
130.7913198011
  0
ARC
  5
2FD
100
AcDbEntity
  8
0
100
AcDbCircle
 62
7
  6
BYLAYER
 10
49.4750459755
 20
12.5753034064
 40
46.6197327953
100
AcDbArc
 50
128.5765921296
 51
129.2002782342
  0
ARC
  5
2FE
100
AcDbEntity
  8
0
100
AcDbCircle
 62
7
  6
BYLAYER
 10
90.9848509628
 20
19.2721127346
 40
40.7153830281
100
AcDbArc
 50
165.8355622424
 51
166.6137231781
  0
ARC
  5
2FF
100
AcDbEntity
  8
0
100
AcDbCircle
 62
7
  6
BYLAYER
 10
43.2938333084
 20
19.0199907313
 40
38.4148344175
100
AcDbArc
 50
126.5723605886
 51
127.3094803871
  0
ARC
  5
300
100
AcDbEntity
  8
0
100
AcDbCircle
 62
7
  6
BYLAYER
 10
38.432140209
 20
24.1675582142
 40
32.0411014539
100
AcDbArc
 50
124.2379230824
 51
125.096733084
  0
ARC
  5
301
100
AcDbEntity
  8
0
100
AcDbCircle
 62
7
  6
BYLAYER
 10
34.541936604
 20
28.3474888882
 40
27.0171319066
100
AcDbArc
 50
121.551476737
 51
122.5397604674
  0
ARC
  5
302
100
AcDbEntity
  8
0
100
AcDbCircle
 62
7
  6
BYLAYER
 10
31.3942985831
 20
31.7645066475
 40
23.0350593684
100
AcDbArc
 50
118.4945796943
 51
119.6185531866
  0
ARC
  5
303
100
AcDbEntity
  8
0
100
AcDbCircle
 62
7
  6
BYLAYER
 10
28.827214216
 20
34.5508104489
 40
19.8874312024
100
AcDbArc
 50
115.0559261237
 51
116.3187470127
  0
ARC
  5
304
100
AcDbEntity
  8
0
100
AcDbCircle
 62
7
  6
BYLAYER
 10
26.7176647886
 20
36.7941336955
 40
17.4285293924
100
AcDbArc
 50
111.2361364558
 51
112.6360736927
  0
ARC
  5
305
100
AcDbEntity
  8
0
100
AcDbCircle
 62
7
  6
BYLAYER
 10
24.9658771988
 20
38.5537206351
 40
15.5530171323
100
AcDbArc
 50
107.0530978015
 51
108.581593584
  0
ARC
  5
306
100
AcDbEntity
  8
0
100
AcDbCircle
 62
7
  6
BYLAYER
 10
23.4861056008
 20
39.8698250065
 40
14.183922605
100
AcDbArc
 50
102.5467981968
 51
104.1868803601
  0
ARC
  5
307
100
AcDbEntity
  8
0
100
AcDbCircle
 62
7
  6
BYLAYER
 10
22.2011036571
 20
40.7694936009
 40
13.2659324233
100
AcDbArc
 50
97.782025555
 51
99.5077070104
  0
ARC
  5
308
100
AcDbEntity
  8
0
100
AcDbCircle
 62
7
  6
BYLAYER
 10
21.038732724
 20
41.2701523527
 40
12.761711912
100
AcDbArc
 50
92.8471659807
 51
94.6244302734
  0
ARC
  5
309
100
AcDbEntity
  8
0
100
AcDbCircle
 62
7
  6
BYLAYER
 10
19.9298230349
 20
41.3812673683
 40
12.650468986
100
AcDbArc
 50
87.848104727
 51
89.6376195522
  0
ARC
  5
30A
100
AcDbEntity
  8
0
100
AcDbCircle
 62
7
  6
BYLAYER
 10
50.8410992903
 20
27.9851681662
 40
0.5001980013
100
AcDbArc
 50
272.3038228556
 51
326.3493942124
  0
ARC
  5
30B
100
AcDbEntity
  8
0
100
AcDbCircle
 62
7
  6
BYLAYER
 10
20.0451332043
 20
29.1918929074
 40
0.2838210736
100
AcDbArc
 50
261.8065172127
 51
262.8554107377
  0
ARC
  5
30C
100
AcDbEntity
  8
0
100
AcDbCircle
 62
7
  6
BYLAYER
 10
22.954833327
 20
30.7567363671
 40
0.25
100
AcDbArc
 50
180.0
 51
270.0
  0
ARC
  5
30D
100
AcDbEntity
  8
0
100
AcDbCircle
 62
7
  6
BYLAYER
 10
20.0697270383
 20
40.4147709747
 40
0.1000434088
100
AcDbArc
 50
223.4219733332
 51
233.2247797886
  0
ARC
  5
30E
100
AcDbEntity
  8
0
100
AcDbCircle
 62
7
  6
BYLAYER
 10
20.069833327
 20
41.3817363671
 40
0.1
100
AcDbArc
 50
126.8698976458
 51
233.1301023542
  0
ARC
  5
30F
100
AcDbEntity
  8
0
100
AcDbCircle
 62
7
  6
BYLAYER
 10
20.0692550805
 20
40.2792530554
 40
0.0994217604
100
AcDbArc
 50
126.7364661018
 51
233.2965430913
  0
ARC
  5
310
100
AcDbEntity
  8
0
100
AcDbCircle
 62
7
  6
BYLAYER
 10
-46.2810352778
 20
107.5122977173
 40
96.6854935472
100
AcDbArc
 50
313.2854937091
 51
313.607907603
  0
ARC
  5
311
100
AcDbEntity
  8
0
100
AcDbCircle
 62
7
  6
BYLAYER
 10
-30.2058460006
 20
91.3504010955
 40
74.6546198058
100
AcDbArc
 50
312.2711454273
 51
312.6821731002
  0
ARC
  5
312
100
AcDbEntity
  8
0
100
AcDbCircle
 62
7
  6
BYLAYER
 10
-19.0837240945
 20
80.1011281378
 40
59.5907320609
100
AcDbArc
 50
310.9981140318
 51
311.5032656042
  0
ARC
  5
313
100
AcDbEntity
  8
0
100
AcDbCircle
 62
7
  6
BYLAYER
 10
3.035253569
 20
41.4033027162
 40
50.1535083753
100
AcDbArc
 50
358.9243434611
 51
359.9761702298
  0
ARC
  5
314
100
AcDbEntity
  8
0
100
AcDbCircle
 62
7
  6
BYLAYER
 10
3.035253569
 20
41.4033027162
 40
50.1535083753
100
AcDbArc
 50
344.5468705919
 51
358.4615285891
  0
ARC
  5
315
100
AcDbEntity
  8
0
100
AcDbCircle
 62
7
  6
BYLAYER
 10
3.5633111844
 20
41.4057027041
 40
49.6092553992
100
AcDbArc
 50
1.4178065123
 51
5.7667980869
  0
ARC
  5
316
100
AcDbEntity
  8
0
100
AcDbCircle
 62
7
  6
BYLAYER
 10
-10.8642515306
 20
71.7133134238
 40
48.5909735444
100
AcDbArc
 50
309.4487116942
 51
310.0545257939
  0
ARC
  5
317
100
AcDbEntity
  8
0
100
AcDbCircle
 62
7
  6
BYLAYER
 10
-8.5172787403
 20
41.3824434739
 40
47.5
100
AcDbArc
 50
342.5598934233
 51
344.2918820562
  0
ARC
  5
318
100
AcDbEntity
  8
0
100
AcDbCircle
 62
7
  6
BYLAYER
 10
5.7036711515
 20
41.4263260169
 40
47.3758618825
100
AcDbArc
 50
3.9731286981
 51
14.5280356424
  0
ARC
  5
319
100
AcDbEntity
  8
0
100
AcDbCircle
 62
7
  6
BYLAYER
 10
-4.5263515693
 20
65.169744995
 40
40.2112599499
100
AcDbArc
 50
307.6026600958
 51
308.3165044949
  0
ARC
  5
31A
100
AcDbEntity
  8
0
100
AcDbCircle
 62
7
  6
BYLAYER
 10
0.4969367925
 20
59.9124441845
 40
33.653336789
100
AcDbArc
 50
305.4379226745
 51
306.2676381832
  0
ARC
  5
31B
100
AcDbEntity
  8
0
100
AcDbCircle
 62
7
  6
BYLAYER
 10
4.5487346698
 20
55.6127621705
 40
28.4396962194
100
AcDbArc
 50
302.9321162417
 51
303.8854310267
  0
ARC
  5
31C
100
AcDbEntity
  8
0
100
AcDbCircle
 62
7
  6
BYLAYER
 10
7.8530589536
 20
52.0668817301
 40
24.2660839227
100
AcDbArc
 50
300.0647255767
 51
301.1483601603
  0
ARC
  5
31D
100
AcDbEntity
  8
0
100
AcDbCircle
 62
7
  6
BYLAYER
 10
10.5671577999
 20
49.1435893388
 40
20.9281877157
100
AcDbArc
 50
296.8203241757
 51
298.0387237032
  0
ARC
  5
31E
100
AcDbEntity
  8
0
100
AcDbCircle
 62
7
  6
BYLAYER
 10
12.8095835009
 20
46.7561936969
 40
18.2827445833
100
AcDbArc
 50
293.1928758999
 51
294.5465682865
  0
ARC
  5
31F
100
AcDbEntity
  8
0
100
AcDbCircle
 62
7
  6
BYLAYER
 10
14.6760731233
 20
44.8465437074
 40
16.2260213639
100
AcDbArc
 50
289.1908879788
 51
290.6745972651
  0
ARC
  5
320
100
AcDbEntity
  8
0
100
AcDbCircle
 62
7
  6
BYLAYER
 10
16.2488857759
 20
43.375531982
 40
14.6816934718
100
AcDbArc
 50
284.8426744376
 51
286.4435201362
  0
ARC
  5
321
100
AcDbEntity
  8
0
100
AcDbCircle
 62
7
  6
BYLAYER
 10
17.6024417857
 20
42.3172876129
 40
13.5940900134
100
AcDbArc
 50
280.2003667539
 51
281.8966976263
  0
ARC
  5
322
100
AcDbEntity
  8
0
100
AcDbCircle
 62
7
  6
BYLAYER
 10
18.806796585
 20
41.6555916466
 40
12.9246054853
100
AcDbArc
 50
275.3408866163
 51
277.102396363
  0
ARC
  5
323
100
AcDbEntity
  8
0
100
AcDbCircle
 62
7
  6
BYLAYER
 10
9.004833306
 20
44.3674501623
 40
1.0000000906
100
AcDbArc
 50
224.0509660449
 51
257.999985205
  0
ARC
  5
324
100
AcDbEntity
  8
0
100
AcDbCircle
 62
7
  6
BYLAYER
 10
9.004833306
 20
44.3674501623
 40
1.0000000906
100
AcDbArc
 50
180.0
 51
201.9221389427
  0
ARC
  5
325
100
AcDbEntity
  8
0
100
AcDbCircle
 62
7
  6
BYLAYER
 10
-122.1595361736
 20
183.4650526282
 40
202.4996236522
100
AcDbArc
 50
314.5934994866
 51
314.750658481
  0
ARC
  5
326
100
AcDbEntity
  8
0
100
AcDbCircle
 62
7
  6
BYLAYER
 10
-72.1137894714
 20
133.3960473806
 40
132.4835935649
100
AcDbArc
 50
314.0558099077
 51
314.2939914111
  0
ARC
  5
327
100
AcDbEntity
  8
0
100
AcDbCircle
 62
7
  6
BYLAYER
 10
-6.2759987838
 20
112.898292423
 40
62.6550532419
100
AcDbArc
 50
291.3523462163
 51
292.7018521287
  0
ARC
  5
328
100
AcDbEntity
  8
0
100
AcDbCircle
 62
7
  6
BYLAYER
 10
84.6905243828
 20
105.9700732614
 40
94.5685424178
100
AcDbArc
 50
226.8464680166
 51
227.1736392483
  0
ARC
  5
329
100
AcDbEntity
  8
0
100
AcDbCircle
 62
7
  6
BYLAYER
 10
76.2157437
 20
97.4755630905
 40
82.1884656754
100
AcDbArc
 50
227.0463577948
 51
227.2297579498
  0
ARC
  5
32A
100
AcDbEntity
  8
0
100
AcDbCircle
 62
7
  6
BYLAYER
 10
68.7119631612
 20
89.8583118985
 40
72.6400621711
100
AcDbArc
 50
227.8975564606
 51
228.3161026
  0
ARC
  5
32B
100
AcDbEntity
  8
0
100
AcDbCircle
 62
7
  6
BYLAYER
 10
62.1826129224
 20
83.3004575624
 40
62.9107825342
100
AcDbArc
 50
228.249899925
 51
228.3882315773
  0
ARC
  5
32C
100
AcDbEntity
  8
0
100
AcDbCircle
 62
7
  6
BYLAYER
 10
57.7044911847
 20
78.6723120925
 40
57.6995924987
100
AcDbArc
 50
229.2097650266
 51
229.7258385173
  0
ARC
  5
32D
100
AcDbEntity
  8
0
100
AcDbCircle
 62
7
  6
BYLAYER
 10
49.6134019316
 20
70.3597065639
 40
46.840109659
100
AcDbArc
 50
230.8011889505
 51
231.4219407356
  0
ARC
  5
32E
100
AcDbEntity
  8
0
100
AcDbCircle
 62
7
  6
BYLAYER
 10
91.4094798359
 20
63.6461079758
 40
41.163420137
100
AcDbArc
 50
193.4536612772
 51
194.5415165935
  0
ARC
  5
32F
100
AcDbEntity
  8
0
100
AcDbCircle
 62
7
  6
BYLAYER
 10
43.4132902338
 20
63.9023472498
 40
38.6135968318
100
AcDbArc
 50
232.6924167834
 51
233.4257422703
  0
ARC
  5
330
100
AcDbEntity
  8
0
100
AcDbCircle
 62
7
  6
BYLAYER
 10
38.5327529152
 20
58.7413948911
 40
32.217979116
100
AcDbArc
 50
234.9056243975
 51
235.7597194704
  0
ARC
  5
331
100
AcDbEntity
  8
0
100
AcDbCircle
 62
7
  6
BYLAYER
 10
34.624164648
 20
54.5473433619
 40
27.1720996372
100
AcDbArc
 50
237.463057769
 51
238.4457051057
  0
ARC
  5
332
100
AcDbEntity
  8
0
100
AcDbCircle
 62
7
  6
BYLAYER
 10
31.4590403978
 20
51.1154919429
 40
23.1683563228
100
AcDbArc
 50
240.384680243
 51
241.5021869211
  0
ARC
  5
333
100
AcDbEntity
  8
0
100
AcDbCircle
 62
7
  6
BYLAYER
 10
28.8758158003
 20
48.3137060538
 40
19.9995491714
100
AcDbArc
 50
243.6847928196
 51
244.9405340945
  0
ARC
  5
334
100
AcDbEntity
  8
0
100
AcDbCircle
 62
7
  6
BYLAYER
 10
26.7518943829
 20
46.0543330042
 40
17.5201503118
100
AcDbArc
 50
247.3675869182
 51
248.7602030453
  0
ARC
  5
335
100
AcDbEntity
  8
0
100
AcDbCircle
 62
7
  6
BYLAYER
 10
24.9878832512
 20
44.2782216899
 40
15.6249298241
100
AcDbArc
 50
251.4219240078
 51
252.9433846678
  0
ARC
  5
336
100
AcDbEntity
  8
0
100
AcDbCircle
 62
7
  6
BYLAYER
 10
23.4983627825
 20
42.945230365
 40
14.2369361254
100
AcDbArc
 50
255.8161733697
 51
257.4501482047
  0
ARC
  5
337
100
AcDbEntity
  8
0
100
AcDbCircle
 62
7
  6
BYLAYER
 10
22.2063407416
 20
42.0284252323
 40
13.3007704231
100
AcDbArc
 50
260.4945531184
 51
262.2157144544
  0
ARC
  5
338
100
AcDbEntity
  8
0
100
AcDbCircle
 62
7
  6
BYLAYER
 10
21.0398546535
 20
41.5105029775
 40
12.7789290288
100
AcDbArc
 50
265.3767670811
 51
267.1516366648
  0
ARC
  5
339
100
AcDbEntity
  8
0
100
AcDbCircle
 62
7
  6
BYLAYER
 10
19.9298230349
 20
41.382205366
 40
12.6504689861
100
AcDbArc
 50
270.3623804478
 51
272.151895273
  0
ARC
  5
33A
100
AcDbEntity
  8
0
100
AcDbCircle
 62
7
  6
BYLAYER
 10
49.4180669408
 20
54.1593281804
 40
2.0222519694
100
AcDbArc
 50
14.517702167
 51
24.5672451416
  0
ARC
  5
33B
100
AcDbEntity
  8
0
100
AcDbCircle
 62
7
  6
BYLAYER
 10
49.4215711819
 20
54.1648360073
 40
2.0186331237
100
AcDbArc
 50
14.5180404429
 51
24.5699078907
  0
ARC
  5
33C
100
AcDbEntity
  8
0
100
AcDbCircle
 62
7
  6
BYLAYER
 10
49.4383441998
 20
54.2222304451
 40
2.0014783624
100
AcDbArc
 50
14.548070676
 51
24.6467490591
  0
ARC
  5
33D
100
AcDbEntity
  8
0
100
AcDbCircle
 62
7
  6
BYLAYER
 10
50.8410992903
 20
54.7797187815
 40
0.5001980013
100
AcDbArc
 50
33.6506057876
 51
87.6961771444
  0
ARC
  5
33E
100
AcDbEntity
  8
0
100
AcDbCircle
 62
7
  6
BYLAYER
 10
50.840558976
 20
54.7233893589
 40
0.5001724764
100
AcDbArc
 50
33.586808221
 51
87.6447645084
  0
ARC
  5
33F
100
AcDbEntity
  8
0
100
AcDbCircle
 62
7
  6
BYLAYER
 10
50.8406093637
 20
54.7279062699
 40
0.5000639516
100
AcDbArc
 50
33.5380902312
 51
87.628786008
  0
ARC
  5
340
100
AcDbEntity
  8
0
100
AcDbCircle
 62
7
  6
BYLAYER
 10
22.954833327
 20
52.0067363671
 40
0.25
100
AcDbArc
 50
90.0
 51
180.0
  0
ARC
  5
341
100
AcDbEntity
  8
0
100
AcDbCircle
 62
7
  6
BYLAYER
 10
20.0697387256
 20
42.3486882265
 40
0.1000612456
100
AcDbArc
 50
126.775941385
 51
136.7443845058
  0
ARC
  5
342
100
AcDbEntity
  8
0
100
AcDbCircle
 62
7
  6
BYLAYER
 10
20.0692550807
 20
42.4842196787
 40
0.0994217606
100
AcDbArc
 50
126.7034569736
 51
233.2635339622
  0
ARC
  5
343
100
AcDbEntity
  8
0
100
AcDbCircle
 62
7
  6
BYLAYER
 10
160.4513500006
 20
181.8732845786
 40
200.2653696688
100
AcDbArc
 50
225.4704444749
 51
225.6287524823
  0
ARC
  5
344
100
AcDbEntity
  8
0
100
AcDbCircle
 62
7
  6
BYLAYER
 10
142.793931714
 20
164.2107973748
 40
175.0993557881
100
AcDbArc
 50
225.5002066921
 51
225.6556197522
  0
ARC
  5
345
100
AcDbEntity
  8
0
100
AcDbCircle
 62
7
  6
BYLAYER
 10
110.4493851888
 20
131.8188623998
 40
130.2903514342
100
AcDbArc
 50
226.0413918279
 51
226.2822119313
  0
ARC
  5
346
100
AcDbEntity
  8
0
100
AcDbCircle
 62
7
  6
BYLAYER
 10
98.8666557361
 20
120.2251326417
 40
113.6158991103
100
AcDbArc
 50
226.1366220627
 51
226.3232958448
  0
ARC
  5
347
100
AcDbEntity
  8
0
100
AcDbCircle
 62
7
  6
BYLAYER
 10
502.3991240132
 20
-1190.9065805589
 40
1336.8645662199
100
AcDbArc
 50
111.3111420823
 51
111.4463072966
  0
ARC
  5
348
100
AcDbEntity
  8
0
100
AcDbCircle
 62
7
  6
BYLAYER
 10
502.399428299
 20
1273.6708599762
 40
1336.8654283167
100
AcDbArc
 50
248.5536932064
 51
248.6888583064
  0
LINE
  5
349
100
AcDbEntity
  8
0
100
AcDbLine
 62
7
  6
BYLAYER
 10
20.009833327
 20
42.4045388835
 11
20.404833327
 21
42.0102864976
  0
SPLINE
  5
34A
100
AcDbEntity
  8
0
100
AcDbSpline
 62
7
  6
BYLAYER
 70
0
 71
3
 72
9
 73
5
 74
0
 42
0.0000001
 43
0.0000001
 44
0.0000000001
 40
0.0
 40
0.0
 40
0.0
 40
0.0
 40
0.2501794607
 40
1.0
 40
1.0
 40
1.0
 40
1.0
 10
20.0174443685
 20
42.4364126325
 30
0.0
 10
20.0497253831
 20
42.4685486029
 30
0.0
 10
20.178781354
 20
42.5969756266
 30
0.0
 10
20.3079354864
 20
42.7253040086
 30
0.0
 10
20.404833327
 20
42.8214713984
 30
0.0
  0
SPLINE
  5
34B
100
AcDbEntity
  8
0
100
AcDbSpline
 62
7
  6
BYLAYER
 70
0
 71
3
 72
9
 73
5
 74
0
 42
0.0000001
 43
0.0000001
 44
0.0000000001
 40
0.0
 40
0.0
 40
0.0
 40
0.0
 40
0.4985930476
 40
1.0
 40
1.0
 40
1.0
 40
1.0
 10
19.969833327
 20
43.5783858027
 30
0.0
 10
19.969833327
 20
43.5632838953
 30
0.0
 10
19.977131071
 20
43.5325651801
 30
0.0
 10
19.9976219381
 20
43.5085867237
 30
0.0
 10
20.009833327
 20
43.4995572642
 30
0.0
  0
SPLINE
  5
34C
100
AcDbEntity
  8
0
100
AcDbSpline
 62
7
  6
BYLAYER
 70
0
 71
3
 72
9
 73
5
 74
0
 42
0.0000001
 43
0.0000001
 44
0.0000000001
 40
0.0
 40
0.0
 40
0.0
 40
0.0
 40
0.4967905129
 40
1.0
 40
1.0
 40
1.0
 40
1.0
 10
19.969833327
 20
44.6557972699
 30
0.0
 10
19.969833327
 20
44.6409667753
 30
0.0
 10
19.9772047706
 20
44.6106843804
 30
0.0
 10
19.9976751465
 20
44.5872805939
 30
0.0
 10
20.009833327
 20
44.5784577446
 30
0.0
  0
SPLINE
  5
34D
100
AcDbEntity
  8
0
100
AcDbSpline
 62
7
  6
BYLAYER
 70
0
 71
3
 72
9
 73
5
 74
0
 42
0.0000001
 43
0.0000001
 44
0.0000000001
 40
0.0
 40
0.0
 40
0.0
 40
0.0
 40
0.4941778759
 40
1.0
 40
1.0
 40
1.0
 40
1.0
 10
19.969833327
 20
45.7082911567
 30
0.0
 10
19.969833327
 20
45.6938381493
 30
0.0
 10
19.9773129114
 20
45.6641634019
 30
0.0
 10
19.9977503617
 20
45.6415645494
 30
0.0
 10
20.009833327
 20
45.633029245
 30
0.0
  0
SPLINE
  5
34E
100
AcDbEntity
  8
0
100
AcDbSpline
 62
7
  6
BYLAYER
 70
0
 71
3
 72
9
 73
5
 74
0
 42
0.0000001
 43
0.0000001
 44
0.0000000001
 40
0.0
 40
0.0
 40
0.0
 40
0.0
 40
0.4906466859
 40
1.0
 40
1.0
 40
1.0
 40
1.0
 10
19.969833327
 20
46.7278573492
 30
0.0
 10
19.969833327
 20
46.713884481
 30
0.0
 10
19.9774617561
 20
46.6849837891
 30
0.0
 10
19.9978479368
 20
46.6634167015
 30
0.0
 10
20.009833327
 20
46.6552458397
 30
0.0
  0
SPLINE
  5
34F
100
AcDbEntity
  8
0
100
AcDbSpline
 62
7
  6
BYLAYER
 70
0
 71
3
 72
10
 73
6
 74
0
 42
0.0000001
 43
0.0000001
 44
0.0000000001
 40
0.0
 40
0.0
 40
0.0
 40
0.0
 40
0.241849357
 40
0.488191019
 40
1.0
 40
1.0
 40
1.0
 40
1.0
 10
19.969833327
 20
47.7067363328
 30
0.0
 10
19.969833327
 20
47.7000434545
 30
0.0
 10
19.9716897057
 20
47.6864626089
 30
0.0
 10
19.9824859351
 20
47.660725535
 30
0.0
 10
19.997968145
 20
47.6450626408
 30
0.0
 10
20.009833327
 20
47.637327843
 30
0.0
  0
SPLINE
  5
350
100
AcDbEntity
  8
0
100
AcDbSpline
 62
7
  6
BYLAYER
 70
0
 71
3
 72
10
 73
6
 74
0
 42
0.0000001
 43
0.0000001
 44
0.0000000001
 40
0.0
 40
0.0
 40
0.0
 40
0.0
 40
0.2381022761
 40
0.4825214299
 40
1.0
 40
1.0
 40
1.0
 40
1.0
 10
19.969833327
 20
48.6374782476
 30
0.0
 10
19.969833327
 20
48.631140295
 30
0.0
 10
19.9717062948
 20
48.6182238427
 30
0.0
 10
19.9826417506
 20
48.5936755576
 30
0.0
 10
19.9981110085
 20
48.5790346766
 30
0.0
 10
20.009833327
 20
48.571801018
 30
0.0
  0
LINE
  5
351
100
AcDbEntity
  8
0
100
AcDbLine
 62
7
  6
BYLAYER
 10
20.404833327
 20
40.7531862366
 11
20.009833327
 21
40.3589338507
  0
SPLINE
  5
352
100
AcDbEntity
  8
0
100
AcDbSpline
 62
7
  6
BYLAYER
 70
0
 71
3
 72
9
 73
5
 74
0
 42
0.0000001
 43
0.0000001
 44
0.0000000001
 40
0.0
 40
0.0
 40
0.0
 40
0.0
 40
0.2498109106
 40
1.0
 40
1.0
 40
1.0
 40
1.0
 10
20.404833327
 20
39.9420013359
 30
0.0
 10
20.372550752
 20
39.9740405532
 30
0.0
 10
20.2433473463
 20
40.10231925
 30
0.0
 10
20.1142423427
 20
40.2306970577
 30
0.0
 10
20.0174443685
 20
40.3270601018
 30
0.0
  0
SPLINE
  5
353
100
AcDbEntity
  8
0
100
AcDbSpline
 62
7
  6
BYLAYER
 70
0
 71
3
 72
9
 73
5
 74
0
 42
0.0000001
 43
0.0000001
 44
0.0000000001
 40
0.0
 40
0.0
 40
0.0
 40
0.0
 40
0.5014070731
 40
1.0
 40
1.0
 40
1.0
 40
1.0
 10
20.009833327
 20
39.26391547
 30
0.0
 10
19.9976219351
 20
39.2548860083
 30
0.0
 10
19.977131069
 20
39.2309075501
 30
0.0
 10
19.969833327
 20
39.2001888353
 30
0.0
 10
19.969833327
 20
39.1850869315
 30
0.0
  0
SPLINE
  5
354
100
AcDbEntity
  8
0
100
AcDbSpline
 62
7
  6
BYLAYER
 70
0
 71
3
 72
10
 73
6
 74
0
 42
0.0000001
 43
0.0000001
 44
0.0000000001
 40
0.0
 40
0.0
 40
0.0
 40
0.0
 40
0.2333452681
 40
0.4753645409
 40
1.0
 40
1.0
 40
1.0
 40
1.0
 10
19.969833327
 20
49.5129995856
 30
0.0
 10
19.969833327
 20
49.5070633726
 30
0.0
 10
19.9717290078
 20
49.4948957924
 30
0.0
 10
19.9828419124
 20
49.4717048369
 30
0.0
 10
19.9982760587
 20
49.4582287277
 30
0.0
 10
20.009833327
 20
49.4515534595
 30
0.0
  0
SPLINE
  5
355
100
AcDbEntity
  8
0
100
AcDbSpline
 62
7
  6
BYLAYER
 70
0
 71
3
 72
9
 73
5
 74
0
 42
0.0000001
 43
0.0000001
 44
0.0000000001
 40
0.0
 40
0.0
 40
0.0
 40
0.0
 40
0.5032096077
 40
1.0
 40
1.0
 40
1.0
 40
1.0
 10
20.009833327
 20
38.1850149896
 30
0.0
 10
19.9976751436
 20
38.1761921382
 30
0.0
 10
19.9772047686
 20
38.1527883499
 30
0.0
 10
19.969833327
 20
38.1225059553
 30
0.0
 10
19.969833327
 20
38.1076754643
 30
0.0
  0
SPLINE
  5
356
100
AcDbEntity
  8
0
100
AcDbSpline
 62
7
  6
BYLAYER
 70
0
 71
3
 72
11
 73
7
 74
0
 42
0.0000001
 43
0.0000001
 44
0.0000000001
 40
0.0
 40
0.0
 40
0.0
 40
0.0
 40
0.2265125352
 40
0.4647082932
 40
0.7218395679
 40
1.0
 40
1.0
 40
1.0
 40
1.0
 10
19.969833327
 20
50.3266371007
 30
0.0
 10
19.969833327
 20
50.3211460724
 30
0.0
 10
19.9717568075
 20
50.3098081225
 30
0.0
 10
19.979988603
 20
50.2940917163
 30
0.0
 10
19.9929799646
 20
50.2803043164
 30
0.0
 10
20.0038844368
 20
50.2730645455
 30
0.0
 10
20.009833327
 20
50.2698897202
 30
0.0
  0
SPLINE
  5
357
100
AcDbEntity
  8
0
100
AcDbSpline
 62
7
  6
BYLAYER
 70
0
 71
3
 72
9
 73
5
 74
0
 42
0.0000001
 43
0.0000001
 44
0.0000000001
 40
0.0
 40
0.0
 40
0.0
 40
0.0
 40
0.5058222444
 40
1.0
 40
1.0
 40
1.0
 40
1.0
 10
20.009833327
 20
37.1304434892
 30
0.0
 10
19.9977503588
 20
37.1219081827
 30
0.0
 10
19.9773129093
 20
37.0993093284
 30
0.0
 10
19.969833327
 20
37.0696345814
 30
0.0
 10
19.969833327
 20
37.0551815775
 30
0.0
  0
SPLINE
  5
358
100
AcDbEntity
  8
0
100
AcDbSpline
 62
7
  6
BYLAYER
 70
0
 71
3
 72
9
 73
5
 74
0
 42
0.0000001
 43
0.0000001
 44
0.0000000001
 40
0.0
 40
0.0
 40
0.0
 40
0.0
 40
0.5093534341
 40
1.0
 40
1.0
 40
1.0
 40
1.0
 10
20.009833327
 20
36.1082268945
 30
0.0
 10
19.997847934
 20
36.1000560308
 30
0.0
 10
19.9774617539
 20
36.0784889414
 30
0.0
 10
19.969833327
 20
36.0495882498
 30
0.0
 10
19.969833327
 20
36.0356153851
 30
0.0
  0
SPLINE
  5
359
100
AcDbEntity
  8
0
100
AcDbSpline
 62
7
  6
BYLAYER
 70
0
 71
3
 72
11
 73
7
 74
0
 42
0.0000001
 43
0.0000001
 44
0.0000000001
 40
0.0
 40
0.0
 40
0.0
 40
0.0
 40
0.2189444868
 40
0.453534986
 40
0.7131429292
 40
1.0
 40
1.0
 40
1.0
 40
1.0
 10
19.969833327
 20
51.0721985201
 30
0.0
 10
19.969833327
 20
51.0671922723
 30
0.0
 10
19.9718047459
 20
51.0567472651
 30
0.0
 10
19.9801256359
 20
51.0424334348
 30
0.0
 10
19.9931425084
 20
51.0299407561
 30
0.0
 10
20.0039333899
 20
51.0234475068
 30
0.0
 10
20.009833327
 20
51.0205817671
 30
0.0
  0
SPLINE
  5
35A
100
AcDbEntity
  8
0
100
AcDbSpline
 62
7
  6
BYLAYER
 70
0
 71
3
 72
10
 73
6
 74
0
 42
0.0000001
 43
0.0000001
 44
0.0000000001
 40
0.0
 40
0.0
 40
0.0
 40
0.0
 40
0.5118090999
 40
0.7581506967
 40
1.0
 40
1.0
 40
1.0
 40
1.0
 10
20.009833327
 20
35.1261448912
 30
0.0
 10
19.9979681422
 20
35.1184100916
 30
0.0
 10
19.9824859328
 20
35.1027471946
 30
0.0
 10
19.9716897029
 20
35.0770101209
 30
0.0
 10
19.969833327
 20
35.0634292783
 30
0.0
 10
19.969833327
 20
35.0567364014
 30
0.0
  0
SPLINE
  5
35B
100
AcDbEntity
  8
0
100
AcDbSpline
 62
7
  6
BYLAYER
 70
0
 71
3
 72
11
 73
7
 74
0
 42
0.0000001
 43
0.0000001
 44
0.0000000001
 40
0.0
 40
0.0
 40
0.0
 40
0.0
 40
0.2093722711
 40
0.4396079791
 40
0.7024687949
 40
1.0
 40
1.0
 40
1.0
 40
1.0
 10
19.969833327
 20
51.7440096712
 30
0.0
 10
19.969833327
 20
51.7395234006
 30
0.0
 10
19.9718743529
 20
51.7300299022
 30
0.0
 10
19.9802998894
 20
51.7172505179
 30
0.0
 10
19.9933255464
 20
51.70616134
 30
0.0
 10
20.0039852258
 20
51.7004548497
 30
0.0
 10
20.009833327
 20
51.6979163805
 30
0.0
  0
SPLINE
  5
35C
100
AcDbEntity
  8
0
100
AcDbSpline
 62
7
  6
BYLAYER
 70
0
 71
3
 72
10
 73
6
 74
0
 42
0.0000001
 43
0.0000001
 44
0.0000000001
 40
0.0
 40
0.0
 40
0.0
 40
0.0
 40
0.5174786886
 40
0.761897777
 40
1.0
 40
1.0
 40
1.0
 40
1.0
 10
20.009833327
 20
34.1916717162
 30
0.0
 10
19.9981110058
 20
34.184438056
 30
0.0
 10
19.9826417483
 20
34.1697971723
 30
0.0
 10
19.9717062919
 20
34.1452488874
 30
0.0
 10
19.969833327
 20
34.1323324378
 30
0.0
 10
19.969833327
 20
34.1259944866
 30
0.0
  0
SPLINE
  5
35D
100
AcDbEntity
  8
0
100
AcDbSpline
 62
7
  6
BYLAYER
 70
0
 71
3
 72
10
 73
6
 74
0
 42
0.0000001
 43
0.0000001
 44
0.0000000001
 40
0.0
 40
0.0
 40
0.0
 40
0.0
 40
0.524635577
 40
0.7666547845
 40
1.0
 40
1.0
 40
1.0
 40
1.0
 10
20.009833327
 20
33.3119192747
 30
0.0
 10
19.998276056
 20
33.305244005
 30
0.0
 10
19.9828419102
 20
33.2917678932
 30
0.0
 10
19.971729005
 20
33.2685769379
 30
0.0
 10
19.969833327
 20
33.2564093603
 30
0.0
 10
19.969833327
 20
33.2504731486
 30
0.0
  0
SPLINE
  5
35E
100
AcDbEntity
  8
0
100
AcDbSpline
 62
7
  6
BYLAYER
 70
0
 71
3
 72
11
 73
7
 74
0
 42
0.0000001
 43
0.0000001
 44
0.0000000001
 40
0.0
 40
0.0
 40
0.0
 40
0.0
 40
0.1972418892
 40
0.422301112
 40
0.689448308
 40
1.0
 40
1.0
 40
1.0
 40
1.0
 10
19.969833327
 20
52.3369576656
 30
0.0
 10
19.969833327
 20
52.3330214635
 30
0.0
 10
19.9719786788
 20
52.324528777
 30
0.0
 10
19.9805192004
 20
52.3134203205
 30
0.0
 10
19.9935247143
 20
52.3038281069
 30
0.0
 10
20.0040383482
 20
52.2989355531
 30
0.0
 10
20.009833327
 20
52.2967386348
 30
0.0
  0
SPLINE
  5
35F
100
AcDbEntity
  8
0
100
AcDbSpline
 62
7
  6
BYLAYER
 70
0
 71
3
 72
11
 73
7
 74
0
 42
0.0000001
 43
0.0000001
 44
0.0000000001
 40
0.0
 40
0.0
 40
0.0
 40
0.0
 40
0.2781604875
 40
0.5352918235
 40
0.7734875166
 40
1.0
 40
1.0
 40
1.0
 40
1.0
 10
20.009833327
 20
32.493583014
 30
0.0
 10
20.0038844356
 20
32.4904081881
 30
0.0
 10
19.9929799619
 20
32.4831684141
 30
0.0
 10
19.9799885998
 20
32.4693810132
 30
0.0
 10
19.9717568047
 20
32.453664608
 30
0.0
 10
19.969833327
 20
32.4423266606
 30
0.0
 10
19.969833327
 20
32.4368356336
 30
0.0
  0
SPLINE
  5
360
100
AcDbEntity
  8
0
100
AcDbSpline
 62
7
  6
BYLAYER
 70
0
 71
3
 72
11
 73
7
 74
0
 42
0.0000001
 43
0.0000001
 44
0.0000000001
 40
0.0
 40
0.0
 40
0.0
 40
0.0
 40
0.181869203
 40
0.4009414899
 40
0.6737299184
 40
1.0
 40
1.0
 40
1.0
 40
1.0
 10
19.969833327
 20
52.846529811
 30
0.0
 10
19.969833327
 20
52.843167598
 30
0.0
 10
19.9721403143
 20
52.835718835
 30
0.0
 10
19.9807887067
 20
52.8264276681
 30
0.0
 10
19.9937315625
 20
52.8184000565
 30
0.0
 10
20.0040906503
 20
52.8143360348
 30
0.0
 10
20.009833327
 20
52.8124911312
 30
0.0
  0
SPLINE
  5
361
100
AcDbEntity
  8
0
100
AcDbSpline
 62
7
  6
BYLAYER
 70
0
 71
3
 72
11
 73
7
 74
0
 42
0.0000001
 43
0.0000001
 44
0.0000000001
 40
0.0
 40
0.0
 40
0.0
 40
0.0
 40
0.2868571261
 40
0.5464651299
 40
0.7810555641
 40
1.0
 40
1.0
 40
1.0
 40
1.0
 10
20.009833327
 20
31.7428909671
 30
0.0
 10
20.0039333888
 20
31.7400252269
 30
0.0
 10
19.9931425057
 20
31.7335319748
 30
0.0
 10
19.9801256327
 20
31.7210392951
 30
0.0
 10
19.971804743
 20
31.7067254657
 30
0.0
 10
19.969833327
 20
31.6962804608
 30
0.0
 10
19.969833327
 20
31.6912742142
 30
0.0
  0
SPLINE
  5
362
100
AcDbEntity
  8
0
100
AcDbSpline
 62
7
  6
BYLAYER
 70
0
 71
3
 72
11
 73
7
 74
0
 42
0.0000001
 43
0.0000001
 44
0.0000000001
 40
0.0
 40
0.0
 40
0.0
 40
0.0
 40
0.2975312603
 40
0.560392136
 40
0.7906277788
 40
1.0
 40
1.0
 40
1.0
 40
1.0
 10
20.009833327
 20
31.0655563538
 30
0.0
 10
20.0039852247
 20
31.0630178841
 30
0.0
 10
19.9933255437
 20
31.0573113913
 30
0.0
 10
19.9802998863
 20
31.0462222125
 30
0.0
 10
19.9718743499
 20
31.033442829
 30
0.0
 10
19.969833327
 20
31.0239493326
 30
0.0
 10
19.969833327
 20
31.019463063
 30
0.0
  0
SPLINE
  5
363
100
AcDbEntity
  8
0
100
AcDbSpline
 62
7
  6
BYLAYER
 70
0
 71
3
 72
11
 73
7
 74
0
 42
0.0000001
 43
0.0000001
 44
0.0000000001
 40
0.0
 40
0.0
 40
0.0
 40
0.0
 40
0.1624921221
 40
0.3749750024
 40
0.6551090983
 40
1.0
 40
1.0
 40
1.0
 40
1.0
 10
19.969833327
 20
53.2688479556
 30
0.0
 10
19.969833327
 20
53.2660755419
 30
0.0
 10
19.9723987973
 20
53.2597185057
 30
0.0
 10
19.9811025868
 20
53.2524022697
 30
0.0
 10
19.9939340449
 20
53.2459643866
 30
0.0
 10
20.0041395526
 20
53.2427345958
 30
0.0
 10
20.009833327
 20
53.2412486818
 30
0.0
  0
SPLINE
  5
364
100
AcDbEntity
  8
0
100
AcDbSpline
 62
7
  6
BYLAYER
 70
0
 71
3
 72
11
 73
7
 74
0
 42
0.0000001
 43
0.0000001
 44
0.0000000001
 40
0.0
 40
0.0
 40
0.0
 40
0.0
 40
0.3105517473
 40
0.5776990022
 40
0.8027581595
 40
1.0
 40
1.0
 40
1.0
 40
1.0
 10
20.009833327
 20
30.4667340994
 30
0.0
 10
20.0040383471
 20
30.4645371807
 30
0.0
 10
19.9935247116
 20
30.4596446248
 30
0.0
 10
19.9805191972
 20
30.4500524103
 30
0.0
 10
19.9719786758
 20
30.4389439546
 30
0.0
 10
19.969833327
 20
30.4304512698
 30
0.0
 10
19.969833327
 20
30.4265150686
 30
0.0
  0
SPLINE
  5
365
100
AcDbEntity
  8
0
100
AcDbSpline
 62
7
  6
BYLAYER
 70
0
 71
3
 72
12
 73
8
 74
0
 42
0.0000001
 43
0.0000001
 44
0.0000000001
 40
0.0
 40
0.0
 40
0.0
 40
0.0
 40
0.1383980255
 40
0.2315351742
 40
0.3448819322
 40
0.6340902445
 40
1.0
 40
1.0
 40
1.0
 40
1.0
 10
19.969833327
 20
53.6006980035
 30
0.0
 10
19.969833327
 20
53.5985187766
 30
0.0
 10
19.9718368406
 20
53.5949845245
 30
0.0
 10
19.9759970474
 20
53.5915543849
 30
0.0
 10
19.9827457697
 20
53.5875384391
 30
0.0
 10
19.994142973
 20
53.5833038014
 30
0.0
 10
20.0041821553
 20
53.580871044
 30
0.0
 10
20.009833327
 20
53.5797481827
 30
0.0
  0
SPLINE
  5
366
100
AcDbEntity
  8
0
100
AcDbSpline
 62
7
  6
BYLAYER
 70
0
 71
3
 72
11
 73
7
 74
0
 42
0.0000001
 43
0.0000001
 44
0.0000000001
 40
0.0
 40
0.0
 40
0.0
 40
0.0
 40
0.3262701371
 40
0.5990586234
 40
0.8181308445
 40
1.0
 40
1.0
 40
1.0
 40
1.0
 10
20.009833327
 20
29.950981603
 30
0.0
 10
20.0040906492
 20
29.949136699
 30
0.0
 10
19.9937315598
 20
29.9450726755
 30
0.0
 10
19.9807887035
 20
29.9370450633
 30
0.0
 10
19.9721403113
 20
29.9277538969
 30
0.0
 10
19.969833327
 20
29.9203051354
 30
0.0
 10
19.969833327
 20
29.9169429232
 30
0.0
  0
SPLINE
  5
367
100
AcDbEntity
  8
0
100
AcDbSpline
 62
7
  6
BYLAYER
 70
0
 71
3
 72
11
 73
7
 74
0
 42
0.0000001
 43
0.0000001
 44
0.0000000001
 40
0.0
 40
0.0
 40
0.0
 40
0.0
 40
0.3448909574
 40
0.6250251104
 40
0.8375079241
 40
1.0
 40
1.0
 40
1.0
 40
1.0
 10
20.009833327
 20
29.5222240524
 30
0.0
 10
20.0041395517
 20
29.5207381381
 30
0.0
 10
19.9939340421
 20
29.5175083459
 30
0.0
 10
19.9811025837
 20
29.5110704622
 30
0.0
 10
19.9723987941
 20
29.5037542266
 30
0.0
 10
19.969833327
 20
29.4973971916
 30
0.0
 10
19.969833327
 20
29.4946247786
 30
0.0
  0
SPLINE
  5
368
100
AcDbEntity
  8
0
100
AcDbSpline
 62
7
  6
BYLAYER
 70
0
 71
3
 72
12
 73
8
 74
0
 42
0.0000001
 43
0.0000001
 44
0.0000000001
 40
0.0
 40
0.0
 40
0.0
 40
0.0
 40
0.1101847279
 40
0.1980080878
 40
0.3110060007
 40
0.6112875951
 40
1.0
 40
1.0
 40
1.0
 40
1.0
 10
19.969833327
 20
53.8395543752
 30
0.0
 10
19.969833327
 20
53.8379475219
 30
0.0
 10
19.9722172965
 20
53.8354728193
 30
0.0
 10
19.9760836008
 20
53.8333726129
 30
0.0
 10
19.9829371184
 20
53.8306195403
 30
0.0
 10
19.9942852687
 20
53.8278100769
 30
0.0
 10
20.0042155211
 20
53.826171328
 30
0.0
 10
20.009833327
 20
53.8254134483
 30
0.0
  0
SPLINE
  5
369
100
AcDbEntity
  8
0
100
AcDbSpline
 62
7
  6
BYLAYER
 70
0
 71
3
 72
12
 73
8
 74
0
 42
0.0000001
 43
0.0000001
 44
0.0000000001
 40
0.0
 40
0.0
 40
0.0
 40
0.0
 40
0.3659098126
 40
0.6551181816
 40
0.7684649048
 40
0.8616020196
 40
1.0
 40
1.0
 40
1.0
 40
1.0
 10
20.009833327
 20
29.1837245515
 30
0.0
 10
20.0041821544
 20
29.1826016901
 30
0.0
 10
19.9941429706
 20
29.1801689313
 30
0.0
 10
19.9827457655
 20
29.1759342936
 30
0.0
 10
19.9759970442
 20
29.1719183467
 30
0.0
 10
19.9718368379
 20
29.1684882088
 30
0.0
 10
19.969833327
 20
29.1649539569
 30
0.0
 10
19.969833327
 20
29.1627747308
 30
0.0
  0
SPLINE
  5
36A
100
AcDbEntity
  8
0
100
AcDbSpline
 62
7
  6
BYLAYER
 70
0
 71
3
 72
12
 73
8
 74
0
 42
0.0000001
 43
0.0000001
 44
0.0000000001
 40
0.0
 40
0.0
 40
0.0
 40
0.0
 40
0.0294918816
 40
0.0839531859
 40
0.2809599999
 40
0.5915954448
 40
1.0
 40
1.0
 40
1.0
 40
1.0
 10
19.969833327
 20
53.9835992297
 30
0.0
 10
19.969833327
 20
53.9831941187
 30
0.0
 10
19.9707737083
 20
53.9822350733
 30
0.0
 10
19.974270002
 20
53.9808510045
 30
0.0
 10
19.981950938
 20
53.9791945578
 30
0.0
 10
19.9943729507
 20
53.9776075649
 30
0.0
 10
20.004237067
 20
53.9767670673
 30
0.0
 10
20.009833327
 20
53.9763748177
 30
0.0
  0
SPLINE
  5
36B
100
AcDbEntity
  8
0
100
AcDbSpline
 62
7
  6
BYLAYER
 70
0
 71
3
 72
12
 73
8
 74
0
 42
0.0000001
 43
0.0000001
 44
0.0000000001
 40
0.0
 40
0.0
 40
0.0
 40
0.0
 40
0.3887124635
 40
0.688994115
 40
0.8019919894
 40
0.8898153181
 40
1.0
 40
1.0
 40
1.0
 40
1.0
 10
20.009833327
 20
28.9380592859
 30
0.0
 10
20.0042155202
 20
28.9373014061
 30
0.0
 10
19.9942852663
 20
28.9356626561
 30
0.0
 10
19.9829371144
 20
28.9328531931
 30
0.0
 10
19.9760835975
 20
28.9301001194
 30
0.0
 10
19.9722172939
 20
28.9279999145
 30
0.0
 10
19.969833327
 20
28.9255252117
 30
0.0
 10
19.969833327
 20
28.923918359
 30
0.0
  0
SPLINE
  5
36C
100
AcDbEntity
  8
0
100
AcDbSpline
 62
7
  6
BYLAYER
 70
0
 71
3
 72
12
 73
8
 74
0
 42
0.0000001
 43
0.0000001
 44
0.0000000001
 40
0.0
 40
0.0
 40
0.0
 40
0.0
 40
0.4084046162
 40
0.7190401195
 40
0.9160468635
 40
0.9705081316
 40
1.0
 40
1.0
 40
1.0
 40
1.0
 10
20.009833327
 20
28.7870979166
 30
0.0
 10
20.0042370662
 20
28.7867056669
 30
0.0
 10
19.9943729482
 20
28.7858651689
 30
0.0
 10
19.9819509345
 20
28.7842781758
 30
0.0
 10
19.9742699996
 20
28.7826217294
 30
0.0
 10
19.9707737069
 20
28.7812376607
 30
0.0
 10
19.969833327
 20
28.7802786153
 30
0.0
 10
19.969833327
 20
28.7798735045
 30
0.0
  0
SPLINE
  5
36D
100
AcDbEntity
  8
0
100
AcDbSpline
 62
7
  6
BYLAYER
 70
0
 71
3
 72
11
 73
7
 74
0
 42
0.0000001
 43
0.0000001
 44
0.0000000001
 40
0.0
 40
0.0
 40
0.0
 40
0.0
 40
0.2781731974
 40
0.5350402302
 40
0.7730816599
 40
1.0
 40
1.0
 40
1.0
 40
1.0
 10
20.009833327
 20
50.3830268052
 30
0.0
 10
20.0038889734
 20
50.3798942703
 30
0.0
 10
19.9929883508
 20
50.3727446481
 30
0.0
 10
19.9799860063
 20
50.3590706369
 30
0.0
 10
19.9717488368
 20
50.3434239303
 30
0.0
 10
19.969833327
 20
50.3321182814
 30
0.0
 10
19.969833327
 20
50.3266371007
 30
0.0
  0
SPLINE
  5
36E
100
AcDbEntity
  8
0
100
AcDbSpline
 62
7
  6
BYLAYER
 70
0
 71
3
 72
11
 73
7
 74
0
 42
0.0000001
 43
0.0000001
 44
0.0000000001
 40
0.0
 40
0.0
 40
0.0
 40
0.0
 40
0.2097411366
 40
0.4397082917
 40
0.7022999348
 40
1.0
 40
1.0
 40
1.0
 40
1.0
 10
19.969833327
 20
31.019463063
 30
0.0
 10
19.969833327
 20
31.0149881212
 30
0.0
 10
19.9718642613
 20
31.0055294454
 30
0.0
 10
19.9803005974
 20
30.9928324112
 30
0.0
 10
19.9933381323
 20
30.9818792908
 30
0.0
 10
20.0039904914
 20
30.9762749096
 30
0.0
 10
20.009833327
 20
30.9737841239
 30
0.0
  0
SPLINE
  5
36F
100
AcDbEntity
  8
0
100
AcDbSpline
 62
7
  6
BYLAYER
 70
0
 71
3
 72
9
 73
5
 74
0
 42
0.0000001
 43
0.0000001
 44
0.0000000001
 40
0.0
 40
0.0
 40
0.0
 40
0.0
 40
0.4943750141
 40
1.0
 40
1.0
 40
1.0
 40
1.0
 10
19.969833327
 20
37.0551815775
 30
0.0
 10
19.969833327
 20
37.0407461061
 30
0.0
 10
19.9772991556
 20
37.0111105579
 30
0.0
 10
19.997756101
 20
36.9885847398
 30
0.0
 10
20.009833327
 20
36.9800926699
 30
0.0
  0
SPLINE
  5
370
100
AcDbEntity
  8
0
100
AcDbSpline
 62
7
  6
BYLAYER
 70
0
 71
3
 72
11
 73
7
 74
0
 42
0.0000001
 43
0.0000001
 44
0.0000000001
 40
0.0
 40
0.0
 40
0.0
 40
0.0
 40
0.345465477
 40
0.6254888173
 40
0.8374897056
 40
1.0
 40
1.0
 40
1.0
 40
1.0
 10
20.009833327
 20
53.2959719047
 30
0.0
 10
20.004144335
 20
53.2945379459
 30
0.0
 10
19.9939489233
 20
53.291416978
 30
0.0
 10
19.981114908
 20
53.2851402276
 30
0.0
 10
19.972389667
 20
53.277933177
 30
0.0
 10
19.969833327
 20
53.2716078161
 30
0.0
 10
19.969833327
 20
53.2688479556
 30
0.0
  0
SPLINE
  5
371
100
AcDbEntity
  8
0
100
AcDbSpline
 62
7
  6
BYLAYER
 70
0
 71
3
 72
11
 73
7
 74
0
 42
0.0000001
 43
0.0000001
 44
0.0000000001
 40
0.0
 40
0.0
 40
0.0
 40
0.0
 40
0.1948218188
 40
0.4269458323
 40
0.6978989557
 40
1.0
 40
1.0
 40
1.0
 40
1.0
 10
13.414833327
 20
45.1168479918
 30
0.0
 10
13.4214632447
 20
45.1296307099
 30
0.0
 10
13.4416498855
 20
45.1547834919
 30
0.0
 10
13.4844505285
 20
45.1843728208
 30
0.0
 10
13.5393711977
 20
45.2080042013
 30
0.0
 10
13.5805002626
 20
45.2187951877
 30
0.0
 10
13.6024318781
 20
45.2229893905
 30
0.0
  0
SPLINE
  5
372
100
AcDbEntity
  8
0
100
AcDbSpline
 62
7
  6
BYLAYER
 70
0
 71
3
 72
11
 73
7
 74
0
 42
0.0000001
 43
0.0000001
 44
0.0000000001
 40
0.0
 40
0.0
 40
0.0
 40
0.0
 40
0.1975422184
 40
0.4222595934
 40
0.689162115
 40
1.0
 40
1.0
 40
1.0
 40
1.0
 10
19.969833327
 20
30.4265150686
 30
0.0
 10
19.969833327
 20
30.4225907692
 30
0.0
 10
19.9719678684
 20
30.4141328238
 30
0.0
 10
19.9805229521
 20
30.4031138453
 30
0.0
 10
19.9935390979
 20
30.3936681441
 30
0.0
 10
20.0040437248
 20
30.388881421
 30
0.0
 10
20.009833327
 20
30.3867340994
 30
0.0
  0
SPLINE
  5
373
100
AcDbEntity
  8
0
100
AcDbSpline
 62
7
  6
BYLAYER
 70
0
 71
3
 72
9
 73
5
 74
0
 42
0.0000001
 43
0.0000001
 44
0.0000000001
 40
0.0
 40
0.0
 40
0.0
 40
0.0
 40
0.5013023724
 40
1.0
 40
1.0
 40
1.0
 40
1.0
 10
20.009833327
 20
43.6571265047
 30
0.0
 10
19.9976246575
 20
43.6481191649
 30
0.0
 10
19.9771239034
 20
43.6241770573
 30
0.0
 10
19.969833327
 20
43.5934787794
 30
0.0
 10
19.969833327
 20
43.5783858027
 30
0.0
  0
SPLINE
  5
374
100
AcDbEntity
  8
0
100
AcDbSpline
 62
7
  6
BYLAYER
 70
0
 71
3
 72
10
 73
6
 74
0
 42
0.0000001
 43
0.0000001
 44
0.0000000001
 40
0.0
 40
0.0
 40
0.0
 40
0.0
 40
0.5115332876
 40
0.7578211029
 40
1.0
 40
1.0
 40
1.0
 40
1.0
 10
20.009833327
 20
47.7758919076
 30
0.0
 10
19.9979773924
 20
47.7682193663
 30
0.0
 10
19.982481516
 20
47.7526472376
 30
0.0
 10
19.9716849002
 20
47.7269789289
 30
0.0
 10
19.969833327
 20
47.7134222164
 30
0.0
 10
19.969833327
 20
47.7067363328
 30
0.0
  0
SPLINE
  5
375
100
AcDbEntity
  8
0
100
AcDbSpline
 62
7
  6
BYLAYER
 70
0
 71
3
 72
9
 73
5
 74
0
 42
0.0000001
 43
0.0000001
 44
0.0000000001
 40
0.0
 40
0.0
 40
0.0
 40
0.0
 40
0.4908803856
 40
1.0
 40
1.0
 40
1.0
 40
1.0
 10
19.969833327
 20
36.0356153851
 30
0.0
 10
19.969833327
 20
36.0216641373
 30
0.0
 10
19.977445187
 20
35.9928108993
 30
0.0
 10
19.9978553647
 20
35.9713354313
 30
0.0
 10
20.009833327
 20
35.9632176486
 30
0.0
  0
SPLINE
  5
376
100
AcDbEntity
  8
0
100
AcDbSpline
 62
7
  6
BYLAYER
 70
0
 71
3
 72
10
 73
6
 74
0
 42
0.0000001
 43
0.0000001
 44
0.0000000001
 40
0.0
 40
0.0
 40
0.0
 40
0.0
 40
0.6361886155
 40
0.8506876388
 40
1.0
 40
1.0
 40
1.0
 40
1.0
 10
20.009833327
 20
53.6211592299
 30
0.0
 10
20.0005435144
 20
53.6193985014
 30
0.0
 10
19.9880466576
 20
53.6163916697
 30
0.0
 10
19.9749090592
 20
53.6094015439
 30
0.0
 10
19.9710410201
 20
53.6052029351
 30
0.0
 10
19.9702771265
 20
53.6031194394
 30
0.0
  0
SPLINE
  5
377
100
AcDbEntity
  8
0
100
AcDbSpline
 62
7
  6
BYLAYER
 70
0
 71
3
 72
8
 73
4
 74
0
 42
0.0000001
 43
0.0000001
 44
0.0000000001
 40
0.0
 40
0.0
 40
0.0
 40
0.0
 40
1.0
 40
1.0
 40
1.0
 40
1.0
 10
19.9702771265
 20
53.6031194394
 30
0.0
 10
19.9699946525
 20
53.6023490004
 30
0.0
 10
19.969833327
 20
53.6015185934
 30
0.0
 10
19.969833327
 20
53.6006980035
 30
0.0
  0
SPLINE
  5
378
100
AcDbEntity
  8
0
100
AcDbSpline
 62
7
  6
BYLAYER
 70
0
 71
3
 72
9
 73
5
 74
0
 42
0.0000001
 43
0.0000001
 44
0.0000000001
 40
0.0
 40
0.0
 40
0.0
 40
0.0
 40
0.4976829399
 40
1.0
 40
1.0
 40
1.0
 40
1.0
 10
16.5368490152
 20
45.7977779885
 30
0.0
 10
16.767658741
 20
45.842910766
 30
0.0
 10
17.2286239482
 20
45.9486073875
 30
0.0
 10
17.6810413579
 20
46.0870300293
 30
0.0
 10
17.9048333139
 20
46.1661633403
 30
0.0
  0
SPLINE
  5
379
100
AcDbEntity
  8
0
100
AcDbSpline
 62
7
  6
BYLAYER
 70
0
 71
3
 72
11
 73
7
 74
0
 42
0.0000001
 43
0.0000001
 44
0.0000000001
 40
0.0
 40
0.0
 40
0.0
 40
0.0
 40
0.1820548165
 40
0.4007084659
 40
0.6733034737
 40
1.0
 40
1.0
 40
1.0
 40
1.0
 10
19.969833327
 20
29.9169429232
 30
0.0
 10
19.969833327
 20
29.9135930402
 30
0.0
 10
19.9721295423
 20
29.9061778957
 30
0.0
 10
19.9807965008
 20
29.8969848632
 30
0.0
 10
19.9937469086
 20
29.889112649
 30
0.0
 10
20.0040958844
 20
29.885156581
 30
0.0
 10
20.009833327
 20
29.8833626811
 30
0.0
  0
SPLINE
  5
37A
100
AcDbEntity
  8
0
100
AcDbSpline
 62
7
  6
BYLAYER
 70
0
 71
3
 72
11
 73
7
 74
0
 42
0.0000001
 43
0.0000001
 44
0.0000000001
 40
0.0
 40
0.0
 40
0.0
 40
0.0
 40
0.2869353425
 40
0.5462696659
 40
0.780654575
 40
1.0
 40
1.0
 40
1.0
 40
1.0
 10
20.009833327
 20
51.1234277847
 30
0.0
 10
20.0039383541
 20
51.1206072898
 30
0.0
 10
19.9931529794
 20
51.114210854
 30
0.0
 10
19.9801242851
 20
51.1018430667
 30
0.0
 10
19.9717956731
 20
51.0876051796
 30
0.0
 10
19.969833327
 20
51.0771941292
 30
0.0
 10
19.969833327
 20
51.0721985201
 30
0.0
  0
SPLINE
  5
37B
100
AcDbEntity
  8
0
100
AcDbSpline
 62
7
  6
BYLAYER
 70
0
 71
3
 72
11
 73
7
 74
0
 42
0.0000001
 43
0.0000001
 44
0.0000000001
 40
0.0
 40
0.0
 40
0.0
 40
0.0
 40
0.2499535178
 40
0.4999166593
 40
0.7499370846
 40
1.0
 40
1.0
 40
1.0
 40
1.0
 10
13.6024318799
 20
37.5404832634
 30
0.0
 10
13.8470953896
 20
37.4924747581
 30
0.0
 10
14.3364519127
 20
37.3965582914
 30
0.0
 10
15.0705294728
 20
37.2525798181
 30
0.0
 10
15.8047908327
 20
37.1089717906
 30
0.0
 10
16.2944161617
 20
37.0135637025
 30
0.0
 10
16.5392182284
 20
36.9656948677
 30
0.0
  0
SPLINE
  5
37C
100
AcDbEntity
  8
0
100
AcDbSpline
 62
7
  6
BYLAYER
 70
0
 71
3
 72
11
 73
7
 74
0
 42
0.0000001
 43
0.0000001
 44
0.0000000001
 40
0.0
 40
0.0
 40
0.0
 40
0.0
 40
0.2500629155
 40
0.5000833408
 40
0.7500464823
 40
1.0
 40
1.0
 40
1.0
 40
1.0
 10
16.5392184471
 20
45.7977779885
 30
0.0
 10
16.2944163619
 20
45.7499091369
 30
0.0
 10
15.8047909958
 20
45.6545010158
 30
0.0
 10
15.0705295808
 20
45.5108929378
 30
0.0
 10
14.3364519657
 20
45.3669144135
 30
0.0
 10
13.8470954061
 20
45.2709979129
 30
0.0
 10
13.6024318781
 20
45.2229893905
 30
0.0
  0
SPLINE
  5
37D
100
AcDbEntity
  8
0
100
AcDbSpline
 62
7
  6
BYLAYER
 70
0
 71
3
 72
9
 73
5
 74
0
 42
0.0000001
 43
0.0000001
 44
0.0000000001
 40
0.0
 40
0.0
 40
0.0
 40
0.0
 40
0.4349757286
 40
1.0
 40
1.0
 40
1.0
 40
1.0
 10
19.969833327
 20
29.4946247786
 30
0.0
 10
19.969833327
 20
29.4919007274
 30
0.0
 10
19.9723052183
 20
29.4856653111
 30
0.0
 10
19.9772271316
 20
29.4815743769
 30
0.0
 10
19.9801437624
 20
29.4795708452
 30
0.0
  0
SPLINE
  5
37E
100
AcDbEntity
  8
0
100
AcDbSpline
 62
7
  6
BYLAYER
 70
0
 71
3
 72
9
 73
5
 74
0
 42
0.0000001
 43
0.0000001
 44
0.0000000001
 40
0.0
 40
0.0
 40
0.0
 40
0.0
 40
0.4468375074
 40
1.0
 40
1.0
 40
1.0
 40
1.0
 10
19.9801437624
 20
29.4795708452
 30
0.0
 10
19.9840925364
 20
29.4768582998
 30
0.0
 10
19.9938162335
 20
29.4721102353
 30
0.0
 10
20.0040825613
 20
29.4689503588
 30
0.0
 10
20.009833327
 20
29.4675008295
 30
0.0
  0
SPLINE
  5
37F
100
AcDbEntity
  8
0
100
AcDbSpline
 62
7
  6
BYLAYER
 70
0
 71
3
 72
9
 73
5
 74
0
 42
0.0000001
 43
0.0000001
 44
0.0000000001
 40
0.0
 40
0.0
 40
0.0
 40
0.0
 40
0.5030562571
 40
1.0
 40
1.0
 40
1.0
 40
1.0
 10
20.009833327
 20
44.7330058768
 30
0.0
 10
19.9976793215
 20
44.7242158948
 30
0.0
 10
19.9771941907
 20
44.7008667345
 30
0.0
 10
19.969833327
 20
44.6706144696
 30
0.0
 10
19.969833327
 20
44.6557972699
 30
0.0
  0
SPLINE
  5
380
100
AcDbEntity
  8
0
100
AcDbSpline
 62
7
  6
BYLAYER
 70
0
 71
3
 72
10
 73
6
 74
0
 42
0.0000001
 43
0.0000001
 44
0.0000000001
 40
0.0
 40
0.0
 40
0.0
 40
0.0
 40
0.2421789509
 40
0.4884668312
 40
1.0
 40
1.0
 40
1.0
 40
1.0
 10
19.969833327
 20
35.0567364014
 30
0.0
 10
19.969833327
 20
35.0500505163
 30
0.0
 10
19.971684903
 20
35.0364938009
 30
0.0
 10
19.9824815182
 20
35.010825492
 30
0.0
 10
19.9979773951
 20
34.9952533661
 30
0.0
 10
20.009833327
 20
34.9875808266
 30
0.0
  0
SPLINE
  5
381
100
AcDbEntity
  8
0
100
AcDbSpline
 62
7
  6
BYLAYER
 70
0
 71
3
 72
10
 73
6
 74
0
 42
0.0000001
 43
0.0000001
 44
0.0000000001
 40
0.0
 40
0.0
 40
0.0
 40
0.0
 40
0.5993535162
 40
0.826507187
 40
1.0
 40
1.0
 40
1.0
 40
1.0
 10
20.009833327
 20
53.8531971568
 30
0.0
 10
20.0026239528
 20
53.8522919076
 30
0.0
 10
19.9926899525
 20
53.85075367
 30
0.0
 10
19.9809845916
 20
53.8475802468
 30
0.0
 10
19.9764366539
 20
53.8458005603
 30
0.0
 10
19.9745832902
 20
53.8448062031
 30
0.0
  0
SPLINE
  5
382
100
AcDbEntity
  8
0
100
AcDbSpline
 62
7
  6
BYLAYER
 70
0
 71
3
 72
9
 73
5
 74
0
 42
0.0000001
 43
0.0000001
 44
0.0000000001
 40
0.0
 40
0.0
 40
0.0
 40
0.0
 40
0.3365327932
 40
1.0
 40
1.0
 40
1.0
 40
1.0
 10
19.9745832902
 20
53.8448062031
 30
0.0
 10
19.9738691894
 20
53.8444230774
 30
0.0
 10
19.9718637958
 20
53.8432434877
 30
0.0
 10
19.969833327
 20
53.8411520336
 30
0.0
 10
19.969833327
 20
53.8395543752
 30
0.0
  0
SPLINE
  5
383
100
AcDbEntity
  8
0
100
AcDbSpline
 62
7
  6
BYLAYER
 70
0
 71
3
 72
9
 73
5
 74
0
 42
0.0000001
 43
0.0000001
 44
0.0000000001
 40
0.0
 40
0.0
 40
0.0
 40
0.0
 40
0.5023170641
 40
1.0
 40
1.0
 40
1.0
 40
1.0
 10
17.9048333139
 20
36.5973094298
 30
0.0
 10
17.6810413219
 20
36.6764427606
 30
0.0
 10
17.2286238411
 20
36.814865434
 30
0.0
 10
16.7676585605
 20
36.9205620804
 30
0.0
 10
16.5368487995
 20
36.9656948677
 30
0.0
  0
SPLINE
  5
384
100
AcDbEntity
  8
0
100
AcDbSpline
 62
7
  6
BYLAYER
 70
0
 71
3
 72
10
 73
6
 74
0
 42
0.0000001
 43
0.0000001
 44
0.0000000001
 40
0.0
 40
0.0
 40
0.0
 40
0.0
 40
0.517185927
 40
0.7615283202
 40
1.0
 40
1.0
 40
1.0
 40
1.0
 10
20.009833327
 20
48.7028653451
 30
0.0
 10
19.998122196
 20
48.6957023047
 30
0.0
 10
19.9826378163
 20
48.6811672659
 30
0.0
 10
19.9717004948
 20
48.6566972837
 30
0.0
 10
19.969833327
 20
48.6438081848
 30
0.0
 10
19.969833327
 20
48.6374782476
 30
0.0
  0
SPLINE
  5
385
100
AcDbEntity
  8
0
100
AcDbSpline
 62
7
  6
BYLAYER
 70
0
 71
3
 72
10
 73
6
 74
0
 42
0.0000001
 43
0.0000001
 44
0.0000000001
 40
0.0
 40
0.0
 40
0.0
 40
0.0
 40
0.3486975478
 40
0.635248136
 40
1.0
 40
1.0
 40
1.0
 40
1.0
 10
19.969833327
 20
29.1627747308
 30
0.0
 10
19.969833327
 20
29.1586421572
 30
0.0
 10
19.9768233858
 20
29.1525835402
 30
0.0
 10
19.9872649019
 20
29.1480762198
 30
0.0
 10
19.9947831116
 20
29.145771117
 30
0.0
 10
19.9989722835
 20
29.144704445
 30
0.0
  0
LINE
  5
386
100
AcDbEntity
  8
0
100
AcDbLine
 62
7
  6
BYLAYER
 10
19.9989722835
 20
29.144704445
 11
20.009833327
 21
29.1423135043
  0
SPLINE
  5
387
100
AcDbEntity
  8
0
100
AcDbSpline
 62
7
  6
BYLAYER
 70
0
 71
3
 72
11
 73
7
 74
0
 42
0.0000001
 43
0.0000001
 44
0.0000000001
 40
0.0
 40
0.0
 40
0.0
 40
0.0
 40
0.2977001199
 40
0.5602918233
 40
0.7902589137
 40
1.0
 40
1.0
 40
1.0
 40
1.0
 10
20.009833327
 20
51.7896886103
 30
0.0
 10
20.0039904903
 20
51.7871978242
 30
0.0
 10
19.9933381296
 20
51.7815934406
 30
0.0
 10
19.9803005942
 20
51.7706403192
 30
0.0
 10
19.9718642584
 20
51.7579432857
 30
0.0
 10
19.969833327
 20
51.7484846119
 30
0.0
 10
19.969833327
 20
51.7440096712
 30
0.0
  0
SPLINE
  5
388
100
AcDbEntity
  8
0
100
AcDbSpline
 62
7
  6
BYLAYER
 70
0
 71
3
 72
10
 73
6
 74
0
 42
0.0000001
 43
0.0000001
 44
0.0000000001
 40
0.0
 40
0.0
 40
0.0
 40
0.0
 40
0.2384717331
 40
0.4828141913
 40
1.0
 40
1.0
 40
1.0
 40
1.0
 10
19.969833327
 20
34.1259944866
 30
0.0
 10
19.969833327
 20
34.119664548
 30
0.0
 10
19.9717004976
 20
34.1067754463
 30
0.0
 10
19.9826378186
 20
34.082305464
 30
0.0
 10
19.9981221987
 20
34.0677704279
 30
0.0
 10
20.009833327
 20
34.0606073891
 30
0.0
  0
SPLINE
  5
389
100
AcDbEntity
  8
0
100
AcDbSpline
 62
7
  6
BYLAYER
 70
0
 71
3
 72
12
 73
8
 74
0
 42
0.0000001
 43
0.0000001
 44
0.0000000001
 40
0.0
 40
0.0
 40
0.0
 40
0.0
 40
0.1132746885
 40
0.2009043683
 40
0.313077925
 40
0.6111140019
 40
1.0
 40
1.0
 40
1.0
 40
1.0
 10
19.969833327
 20
28.923918359
 30
0.0
 10
19.969833327
 20
28.9224674084
 30
0.0
 10
19.9718314575
 20
28.9201931123
 30
0.0
 10
19.9752260493
 20
28.9182495593
 30
0.0
 10
19.9811580758
 20
28.9157498904
 30
0.0
 10
19.991072287
 20
28.9131844431
 30
0.0
 10
19.9997537684
 20
28.9116799307
 30
0.0
 10
20.0046840612
 20
28.9109689521
 30
0.0
  0
SPLINE
  5
38A
100
AcDbEntity
  8
0
100
AcDbSpline
 62
7
  6
BYLAYER
 70
0
 71
3
 72
9
 73
5
 74
0
 42
0.0000001
 43
0.0000001
 44
0.0000000001
 40
0.0
 40
0.0
 40
0.0
 40
0.0
 40
0.6069219988
 40
1.0
 40
1.0
 40
1.0
 40
1.0
 10
20.009833327
 20
53.9903197365
 30
0.0
 10
20.0026612343
 20
53.9898848048
 30
0.0
 10
19.9908772398
 20
53.9889336203
 30
0.0
 10
19.9790810616
 20
53.9874107808
 30
0.0
 10
19.9745832902
 20
53.9862166182
 30
0.0
  0
SPLINE
  5
38B
100
AcDbEntity
  8
0
100
AcDbSpline
 62
7
  6
BYLAYER
 70
0
 71
3
 72
9
 73
5
 74
0
 42
0.0000001
 43
0.0000001
 44
0.0000000001
 40
0.0
 40
0.0
 40
0.0
 40
0.0
 40
0.4999300273
 40
1.0
 40
1.0
 40
1.0
 40
1.0
 10
13.6024318799
 20
29.3691034381
 30
0.0
 10
13.5726088515
 20
29.3805101532
 30
0.0
 10
13.5165054004
 20
29.4134379957
 30
0.0
 10
13.4727990041
 20
29.4615722856
 30
0.0
 10
13.4554172469
 20
29.488367277
 30
0.0
  0
SPLINE
  5
38C
100
AcDbEntity
  8
0
100
AcDbSpline
 62
7
  6
BYLAYER
 70
0
 71
3
 72
9
 73
5
 74
0
 42
0.0000001
 43
0.0000001
 44
0.0000000001
 40
0.0
 40
0.0
 40
0.0
 40
0.0
 40
0.2505189866
 40
1.0
 40
1.0
 40
1.0
 40
1.0
 10
13.4554172469
 20
29.488367277
 30
0.0
 10
13.450793736
 20
29.4954946884
 30
0.0
 10
13.4335716834
 20
29.5247336684
 30
0.0
 10
13.4212136136
 20
29.5567834152
 30
0.0
 10
13.414833327
 20
29.5813862592
 30
0.0
  0
LINE
  5
38D
100
AcDbEntity
  8
0
100
AcDbLine
 62
7
  6
BYLAYER
 10
20.009833327
 20
40.199542699
 11
20.404833327
 21
39.8068012734
  0
SPLINE
  5
38E
100
AcDbEntity
  8
0
100
AcDbSpline
 62
7
  6
BYLAYER
 70
0
 71
3
 72
12
 73
8
 74
0
 42
0.0000001
 43
0.0000001
 44
0.0000000001
 40
0.0
 40
0.0
 40
0.0
 40
0.0
 40
0.0293347099
 40
0.0835720495
 40
0.2803355087
 40
0.5910961233
 40
1.0
 40
1.0
 40
1.0
 40
1.0
 10
19.969833327
 20
28.7798735045
 30
0.0
 10
19.969833327
 20
28.7794714009
 30
0.0
 10
19.9707747395
 20
28.7785212196
 30
0.0
 10
19.9742777427
 20
28.7771963067
 30
0.0
 10
19.9819577017
 20
28.7756487063
 30
0.0
 10
19.9943789597
 20
28.7742264371
 30
0.0
 10
20.0042385808
 20
28.7734922756
 30
0.0
 10
20.009833327
 20
28.7731529977
 30
0.0
  0
SPLINE
  5
38F
100
AcDbEntity
  8
0
100
AcDbSpline
 62
7
  6
BYLAYER
 70
0
 71
3
 72
11
 73
7
 74
0
 42
0.0000001
 43
0.0000001
 44
0.0000000001
 40
0.0
 40
0.0
 40
0.0
 40
0.0
 40
0.3021010331
 40
0.5730541589
 40
0.8051781828
 40
1.0
 40
1.0
 40
1.0
 40
1.0
 10
13.6024318799
 20
37.5404832634
 30
0.0
 10
13.5805002667
 20
37.5446774645
 30
0.0
 10
13.5393712065
 20
37.555468452
 30
0.0
 10
13.4844505362
 20
37.5790998184
 30
0.0
 10
13.441649892
 20
37.6086891396
 30
0.0
 10
13.4214632456
 20
37.6338419152
 30
0.0
 10
13.414833327
 20
37.6466246314
 30
0.0
  0
SPLINE
  5
390
100
AcDbEntity
  8
0
100
AcDbSpline
 62
7
  6
BYLAYER
 70
0
 71
3
 72
10
 73
6
 74
0
 42
0.0000001
 43
0.0000001
 44
0.0000000001
 40
0.0
 40
0.0
 40
0.0
 40
0.0
 40
0.2337442885
 40
0.4756561459
 40
1.0
 40
1.0
 40
1.0
 40
1.0
 10
19.969833327
 20
33.2504731486
 30
0.0
 10
19.969833327
 20
33.2445459039
 30
0.0
 10
19.9717221352
 20
33.2324084713
 30
0.0
 10
19.9828392453
 20
33.2093047177
 30
0.0
 10
19.9982892592
 20
33.1959494235
 30
0.0
 10
20.009833327
 20
33.1893521638
 30
0.0
  0
SPLINE
  5
391
100
AcDbEntity
  8
0
100
AcDbSpline
 62
7
  6
BYLAYER
 70
0
 71
3
 72
9
 73
5
 74
0
 42
0.0000001
 43
0.0000001
 44
0.0000000001
 40
0.0
 40
0.0
 40
0.0
 40
0.0
 40
0.4986977483
 40
1.0
 40
1.0
 40
1.0
 40
1.0
 10
19.969833327
 20
39.1850869315
 30
0.0
 10
19.969833327
 20
39.1699939512
 30
0.0
 10
19.9771239054
 20
39.1392956729
 30
0.0
 10
19.9976246604
 20
39.1153535672
 30
0.0
 10
20.009833327
 20
39.1063462295
 30
0.0
  0
SPLINE
  5
392
100
AcDbEntity
  8
0
100
AcDbSpline
 62
7
  6
BYLAYER
 70
0
 71
3
 72
11
 73
7
 74
0
 42
0.0000001
 43
0.0000001
 44
0.0000000001
 40
0.0
 40
0.0
 40
0.0
 40
0.0
 40
0.3108379397
 40
0.5777405206
 40
0.8024578308
 40
1.0
 40
1.0
 40
1.0
 40
1.0
 10
20.009833327
 20
52.3767386348
 30
0.0
 10
20.0040437237
 20
52.3745913128
 30
0.0
 10
19.9935390951
 20
52.3698045876
 30
0.0
 10
19.9805229489
 20
52.3603588856
 30
0.0
 10
19.9719678655
 20
52.3493399078
 30
0.0
 10
19.969833327
 20
52.3408819641
 30
0.0
 10
19.969833327
 20
52.3369576656
 30
0.0
  0
SPLINE
  5
393
100
AcDbEntity
  8
0
100
AcDbSpline
 62
7
  6
BYLAYER
 70
0
 71
3
 72
11
 73
7
 74
0
 42
0.0000001
 43
0.0000001
 44
0.0000000001
 40
0.0
 40
0.0
 40
0.0
 40
0.0
 40
0.2269183921
 40
0.4649598864
 40
0.7218268575
 40
1.0
 40
1.0
 40
1.0
 40
1.0
 10
19.969833327
 20
32.4368356336
 30
0.0
 10
19.969833327
 20
32.4313544516
 30
0.0
 10
19.9717488396
 20
32.4200488002
 30
0.0
 10
19.9799860095
 20
32.4044020926
 30
0.0
 10
19.9929883535
 20
32.3907280825
 30
0.0
 10
20.0038889746
 20
32.3835784633
 30
0.0
 10
20.009833327
 20
32.380445929
 30
0.0
  0
SPLINE
  5
394
100
AcDbEntity
  8
0
100
AcDbSpline
 62
7
  6
BYLAYER
 70
0
 71
3
 72
10
 73
6
 74
0
 42
0.0000001
 43
0.0000001
 44
0.0000000001
 40
0.0
 40
0.0
 40
0.0
 40
0.0
 40
0.5243439718
 40
0.7662557644
 40
1.0
 40
1.0
 40
1.0
 40
1.0
 10
20.009833327
 20
49.5741205704
 30
0.0
 10
19.9982892566
 20
49.5675233092
 30
0.0
 10
19.982839243
 20
49.5541680124
 30
0.0
 10
19.9717221324
 20
49.5310642589
 30
0.0
 10
19.969833327
 20
49.518926829
 30
0.0
 10
19.969833327
 20
49.5129995856
 30
0.0
  0
SPLINE
  5
395
100
AcDbEntity
  8
0
100
AcDbSpline
 62
7
  6
BYLAYER
 70
0
 71
3
 72
9
 73
5
 74
0
 42
0.0000001
 43
0.0000001
 44
0.0000000001
 40
0.0
 40
0.0
 40
0.0
 40
0.0
 40
0.5056251062
 40
1.0
 40
1.0
 40
1.0
 40
1.0
 10
20.009833327
 20
45.7833800644
 30
0.0
 10
19.9977560981
 20
45.7748879924
 30
0.0
 10
19.9772991536
 20
45.7523621725
 30
0.0
 10
19.969833327
 20
45.7227266246
 30
0.0
 10
19.969833327
 20
45.7082911567
 30
0.0
  0
SPLINE
  5
396
100
AcDbEntity
  8
0
100
AcDbSpline
 62
7
  6
BYLAYER
 70
0
 71
3
 72
9
 73
5
 74
0
 42
0.0000001
 43
0.0000001
 44
0.0000000001
 40
0.0
 40
0.0
 40
0.0
 40
0.0
 40
0.4969438634
 40
1.0
 40
1.0
 40
1.0
 40
1.0
 10
19.969833327
 20
38.1076754643
 30
0.0
 10
19.969833327
 20
38.092858261
 30
0.0
 10
19.9771941928
 20
38.0626059958
 30
0.0
 10
19.9976793244
 20
38.0392568373
 30
0.0
 10
20.009833327
 20
38.0304668574
 30
0.0
  0
SPLINE
  5
397
100
AcDbEntity
  8
0
100
AcDbSpline
 62
7
  6
BYLAYER
 70
0
 71
3
 72
11
 73
7
 74
0
 42
0.0000001
 43
0.0000001
 44
0.0000000001
 40
0.0
 40
0.0
 40
0.0
 40
0.0
 40
0.3266965812
 40
0.5992916472
 40
0.8179452315
 40
1.0
 40
1.0
 40
1.0
 40
1.0
 10
20.009833327
 20
52.8801100531
 30
0.0
 10
20.0040958834
 20
52.8783161529
 30
0.0
 10
19.9937469059
 20
52.8743600832
 30
0.0
 10
19.9807964977
 20
52.8664878682
 30
0.0
 10
19.9721295393
 20
52.8572948362
 30
0.0
 10
19.969833327
 20
52.8498796932
 30
0.0
 10
19.969833327
 20
52.846529811
 30
0.0
  0
LINE
  5
398
100
AcDbEntity
  8
0
100
AcDbLine
 62
7
  6
BYLAYER
 10
20.404833327
 20
42.9566714608
 11
20.009833327
 21
42.5639300352
  0
SPLINE
  5
399
100
AcDbEntity
  8
0
100
AcDbSpline
 62
7
  6
BYLAYER
 70
0
 71
3
 72
11
 73
7
 74
0
 42
0.0000001
 43
0.0000001
 44
0.0000000001
 40
0.0
 40
0.0
 40
0.0
 40
0.0
 40
0.2193454763
 40
0.45373045
 40
0.7130647123
 40
1.0
 40
1.0
 40
1.0
 40
1.0
 10
19.969833327
 20
31.6912742142
 30
0.0
 10
19.969833327
 20
31.6862786038
 30
0.0
 10
19.971795676
 20
31.6758675513
 30
0.0
 10
19.9801242883
 20
31.6616296633
 30
0.0
 10
19.9931529822
 20
31.6492618769
 30
0.0
 10
20.0039383553
 20
31.6428654438
 30
0.0
 10
20.009833327
 20
31.6400449495
 30
0.0
  0
SPLINE
  5
39A
100
AcDbEntity
  8
0
100
AcDbSpline
 62
7
  6
BYLAYER
 70
0
 71
3
 72
9
 73
5
 74
0
 42
0.0000001
 43
0.0000001
 44
0.0000000001
 40
0.0
 40
0.0
 40
0.0
 40
0.0
 40
0.7494810178
 40
1.0
 40
1.0
 40
1.0
 40
1.0
 10
13.414833327
 20
53.1820864565
 30
0.0
 10
13.4212135618
 20
53.2066891013
 30
0.0
 10
13.4335714964
 20
53.238738594
 30
0.0
 10
13.4507933394
 20
53.2679773779
 30
0.0
 10
13.455416793
 20
53.2751047443
 30
0.0
  0
SPLINE
  5
39B
100
AcDbEntity
  8
0
100
AcDbSpline
 62
7
  6
BYLAYER
 70
0
 71
3
 72
9
 73
5
 74
0
 42
0.0000001
 43
0.0000001
 44
0.0000000001
 40
0.0
 40
0.0
 40
0.0
 40
0.0
 40
0.5000699594
 40
1.0
 40
1.0
 40
1.0
 40
1.0
 10
13.455416793
 20
53.2751047443
 30
0.0
 10
13.4727985502
 20
53.3018998985
 30
0.0
 10
13.5165050352
 20
53.3500345011
 30
0.0
 10
13.5726087206
 20
53.3829625192
 30
0.0
 10
13.6024318781
 20
53.3943692839
 30
0.0
  0
SPLINE
  5
39C
100
AcDbEntity
  8
0
100
AcDbSpline
 62
7
  6
BYLAYER
 70
0
 71
3
 72
9
 73
5
 74
0
 42
0.0000001
 43
0.0000001
 44
0.0000000001
 40
0.0
 40
0.0
 40
0.0
 40
0.0
 40
0.5091197344
 40
1.0
 40
1.0
 40
1.0
 40
1.0
 10
20.009833327
 20
46.8002550856
 30
0.0
 10
19.9978553619
 20
46.792137301
 30
0.0
 10
19.9774451849
 20
46.7706618312
 30
0.0
 10
19.969833327
 20
46.7418085935
 30
0.0
 10
19.969833327
 20
46.7278573492
 30
0.0
  0
LINE
  5
39D
100
AcDbEntity
  8
0
100
AcDbLine
 62
7
  6
BYLAYER
 10
50.8611127891
 20
55.2231200067
 11
39.6948324449
 21
55.5166860554
  0
SPLINE
  5
39E
100
AcDbEntity
  8
0
100
AcDbSpline
 62
7
  6
BYLAYER
 70
0
 71
3
 72
19
 73
15
 74
0
 42
0.0000001
 43
0.0000001
 44
0.0000000001
 40
0.0
 40
0.0
 40
0.0
 40
0.0
 40
0.0312515319
 40
0.046877371
 40
0.0625032709
 40
0.0937548085
 40
0.1250063993
 40
0.187509056
 40
0.2500117206
 40
0.3750136
 40
0.5000157596
 40
0.7499923455
 40
0.8749957213
 40
1.0
 40
1.0
 40
1.0
 40
1.0
 10
53.156120232
 20
42.6331421013
 30
0.0
 10
53.1529141889
 20
42.7601236478
 30
0.0
 10
53.1483462777
 20
42.9506060734
 30
0.0
 10
53.1392846867
 20
43.2044914314
 30
0.0
 10
53.1293660547
 20
43.4583424914
 30
0.0
 10
53.1154097486
 20
43.7755950812
 30
0.0
 10
53.0889793619
 20
44.2829978417
 30
0.0
 10
53.0488085432
 20
44.9168611912
 30
0.0
 10
52.9690595698
 20
45.9299121197
 30
0.0
 10
52.8405205634
 20
47.1938063531
 30
0.0
 10
52.5734967245
 20
49.2085866866
 30
0.0
 10
52.2147169187
 20
51.2103856965
 30
0.0
 10
51.7651790593
 20
53.1924503139
 30
0.0
 10
51.5105729163
 20
54.1763989012
 30
0.0
 10
51.375748883
 20
54.6662645085
 30
0.0
  0
SPLINE
  5
39F
100
AcDbEntity
  8
0
100
AcDbSpline
 62
7
  6
BYLAYER
 70
0
 71
3
 72
11
 73
7
 74
0
 42
0.0000001
 43
0.0000001
 44
0.0000000001
 40
0.0
 40
0.0
 40
0.0
 40
0.0
 40
0.2499999168
 40
0.5000000805
 40
0.7499999263
 40
1.0
 40
1.0
 40
1.0
 40
1.0
 10
53.1717394517
 20
41.3067363671
 30
0.0
 10
53.1719091543
 20
41.4172822155
 30
0.0
 10
53.1727851566
 20
41.6383771497
 30
0.0
 10
53.1693159337
 20
41.9700024824
 30
0.0
 10
53.1647963241
 20
42.3016136616
 30
0.0
 10
53.1589104171
 20
42.522631271
 30
0.0
 10
53.156120232
 20
42.6331421013
 30
0.0
  0
SPLINE
  5
3A0
100
AcDbEntity
  8
0
100
AcDbSpline
 62
7
  6
BYLAYER
 70
0
 71
3
 72
9
 73
5
 74
0
 42
0.0000001
 43
0.0000001
 44
0.0000000001
 40
0.0
 40
0.0
 40
0.0
 40
0.0
 40
0.4899365107
 40
1.0
 40
1.0
 40
1.0
 40
1.0
 10
24.6699934596
 20
34.2150001686
 30
0.0
 10
24.6983449259
 20
34.2002006095
 30
0.0
 10
24.7598210096
 20
34.1764061739
 30
0.0
 10
24.8253649647
 20
34.1680920992
 30
0.0
 10
24.8586605545
 20
34.1680920992
 30
0.0
  0
LINE
  5
3A1
100
AcDbEntity
  8
0
100
AcDbLine
 62
7
  6
BYLAYER
 10
24.8586605545
 20
34.1680920992
 11
24.869182851
 21
34.1681908246
  0
SPLINE
  5
3A2
100
AcDbEntity
  8
0
100
AcDbSpline
 62
7
  6
BYLAYER
 70
0
 71
3
 72
12
 73
8
 74
0
 42
0.0000001
 43
0.0000001
 44
0.0000000001
 40
0.0
 40
0.0
 40
0.0
 40
0.0
 40
0.2507214393
 40
0.3761125659
 40
0.5014016903
 40
0.7513236685
 40
1.0
 40
1.0
 40
1.0
 40
1.0
 10
52.9656725323
 20
44.708933911
 30
0.0
 10
53.0564912507
 20
43.407642664
 30
0.0
 10
53.1128352329
 20
41.4487209025
 30
0.0
 10
53.0272686045
 20
38.840910694
 30
0.0
 10
52.8356324098
 20
36.2427545011
 30
0.0
 10
52.3983409838
 20
33.022592145
 30
0.0
 10
51.8385239258
 20
30.4861017429
 30
0.0
 10
51.5073206203
 20
29.2353959877
 30
0.0
  0
SPLINE
  5
3A3
100
AcDbEntity
  8
0
100
AcDbSpline
 62
7
  6
BYLAYER
 70
0
 71
3
 72
12
 73
8
 74
0
 42
0.0000001
 43
0.0000001
 44
0.0000000001
 40
0.0
 40
0.0
 40
0.0
 40
0.0
 40
0.1348203012
 40
0.2660230115
 40
0.5164671978
 40
0.7587331001
 40
1.0
 40
1.0
 40
1.0
 40
1.0
 10
50.8612049986
 20
28.0035631391
 30
0.0
 10
50.8842716366
 20
28.0048408611
 30
0.0
 10
50.9296637979
 20
28.0117129422
 30
0.0
 10
51.0137122449
 20
28.0405874307
 30
0.0
 10
51.1053497397
 20
28.0985662158
 30
0.0
 10
51.1931396633
 20
28.1898036373
 30
0.0
 10
51.2382353158
 20
28.259963955
 30
0.0
 10
51.2574801827
 20
28.2965535742
 30
0.0
  0
SPLINE
  5
3A4
100
AcDbEntity
  8
0
100
AcDbSpline
 62
7
  6
BYLAYER
 70
0
 71
3
 72
9
 73
5
 74
0
 42
0.0000001
 43
0.0000001
 44
0.0000000001
 40
0.0
 40
0.0
 40
0.0
 40
0.0
 40
0.241384351
 40
1.0
 40
1.0
 40
1.0
 40
1.0
 10
51.2574801827
 20
28.2965535742
 30
0.0
 10
51.268968978
 20
28.3282443371
 30
0.0
 10
51.3147495136
 20
28.4601745509
 30
0.0
 10
51.3525640091
 20
28.5949369327
 30
0.0
 10
51.3756496277
 20
28.6983306781
 30
0.0
  0
LINE
  5
3A5
100
AcDbEntity
  8
0
100
AcDbLine
 62
7
  6
BYLAYER
 10
24.869182851
 20
37.9406165967
 11
24.8586605545
 21
37.9407417446
  0
SPLINE
  5
3A6
100
AcDbEntity
  8
0
100
AcDbSpline
 62
7
  6
BYLAYER
 70
0
 71
3
 72
15
 73
11
 74
0
 42
0.0000001
 43
0.0000001
 44
0.0000000001
 40
0.0
 40
0.0
 40
0.0
 40
0.0
 40
0.1387535784
 40
0.2751377167
 40
0.4084592425
 40
0.5379661119
 40
0.6625832095
 40
0.7813122397
 40
0.8935135784
 40
1.0
 40
1.0
 40
1.0
 40
1.0
 10
24.0418149605
 20
50.8531823473
 30
0.0
 10
23.9859468565
 20
50.8290028353
 30
0.0
 10
23.8759200067
 20
50.7792818655
 30
0.0
 10
23.7154897121
 20
50.6993051366
 30
0.0
 10
23.5627195017
 20
50.6134646377
 30
0.0
 10
23.419912146
 20
50.5209800115
 30
0.0
 10
23.2905457492
 20
50.4204513662
 30
0.0
 10
23.1789856421
 20
50.3106569767
 30
0.0
 10
23.0921254631
 20
50.1896872559
 30
0.0
 10
23.0554649373
 20
50.0994676144
 30
0.0
 10
23.0448333274
 20
50.0539740557
 30
0.0
  0
SPLINE
  5
3A7
100
AcDbEntity
  8
0
100
AcDbSpline
 62
7
  6
BYLAYER
 70
0
 71
3
 72
9
 73
5
 74
0
 42
0.0000001
 43
0.0000001
 44
0.0000000001
 40
0.0
 40
0.0
 40
0.0
 40
0.0
 40
0.4993544765
 40
1.0
 40
1.0
 40
1.0
 40
1.0
 10
37.4350592183
 20
29.6189096733
 30
0.0
 10
37.6028886668
 20
30.1733201707
 30
0.0
 10
37.8543476375
 20
31.3108870409
 30
0.0
 10
37.9351352137
 20
32.4725351404
 30
0.0
 10
37.9351478176
 20
33.0532889488
 30
0.0
  0
SPLINE
  5
3A8
100
AcDbEntity
  8
0
100
AcDbSpline
 62
7
  6
BYLAYER
 70
0
 71
3
 72
18
 73
14
 74
0
 42
0.0000001
 43
0.0000001
 44
0.0000000001
 40
0.0
 40
0.0
 40
0.0
 40
0.0
 40
0.0210357154
 40
0.0494995283
 40
0.0851239044
 40
0.1275749183
 40
0.2315030757
 40
0.3578950415
 40
0.5025336533
 40
0.6608596534
 40
0.7437337915
 40
0.8283205783
 40
1.0
 40
1.0
 40
1.0
 40
1.0
 10
36.7971924349
 20
27.4136395427
 30
0.0
 10
36.7973595604
 20
27.4267170601
 30
0.0
 10
36.8001856185
 20
27.4574248441
 30
0.0
 10
36.8076258982
 20
27.5098105661
 30
0.0
 10
36.818344098
 20
27.5751860568
 30
0.0
 10
36.8378230583
 20
27.6866535444
 30
0.0
 10
36.870816382
 20
27.853029912
 30
0.0
 10
36.9211489611
 20
28.0806624877
 30
0.0
 10
36.9816811383
 20
28.3406605369
 30
0.0
 10
37.0391608667
 20
28.573565752
 30
0.0
 10
37.0885338292
 20
28.7700082931
 30
0.0
 10
37.139948765
 20
28.9744971999
 30
0.0
 10
37.1794145939
 20
29.1288674991
 30
0.0
 10
37.2069283209
 20
29.2319991387
 30
0.0
  0
SPLINE
  5
3A9
100
AcDbEntity
  8
0
100
AcDbSpline
 62
7
  6
BYLAYER
 70
0
 71
3
 72
9
 73
5
 74
0
 42
0.0000001
 43
0.0000001
 44
0.0000000001
 40
0.0
 40
0.0
 40
0.0
 40
0.0
 40
0.5077535166
 40
1.0
 40
1.0
 40
1.0
 40
1.0
 10
37.2069283209
 20
29.2319991387
 30
0.0
 10
37.1748737417
 20
29.1185251283
 30
0.0
 10
37.1119252365
 20
28.8949840731
 30
0.0
 10
37.0536237304
 20
28.6701706565
 30
0.0
 10
37.026068969
 20
28.5592279216
 30
0.0
  0
SPLINE
  5
3AA
100
AcDbEntity
  8
0
100
AcDbSpline
 62
7
  6
BYLAYER
 70
0
 71
3
 72
15
 73
11
 74
0
 42
0.0000001
 43
0.0000001
 44
0.0000000001
 40
0.0
 40
0.0
 40
0.0
 40
0.0
 40
0.1821066811
 40
0.3530178577
 40
0.5099090519
 40
0.6501290592
 40
0.7712439915
 40
0.8710450372
 40
0.9476656224
 40
1.0
 40
1.0
 40
1.0
 40
1.0
 10
37.026068969
 20
28.5592279216
 30
0.0
 10
37.0089572459
 20
28.4903316125
 30
0.0
 10
36.9765103938
 20
28.3565942565
 30
0.0
 10
36.9312922483
 20
28.1630280339
 30
0.0
 10
36.8918507417
 20
27.9848910658
 30
0.0
 10
36.8587869055
 20
27.825237838
 30
0.0
 10
36.8319910231
 20
27.6870332924
 30
0.0
 10
36.8120084902
 20
27.57275384
 30
0.0
 10
36.8007765862
 20
27.484258754
 30
0.0
 10
36.7974271433
 20
27.43403938
 30
0.0
 10
36.7971924349
 20
27.4136395427
 30
0.0
  0
SPLINE
  5
3AB
100
AcDbEntity
  8
0
100
AcDbSpline
 62
7
  6
BYLAYER
 70
0
 71
3
 72
15
 73
11
 74
0
 42
0.0000001
 43
0.0000001
 44
0.0000000001
 40
0.0
 40
0.0
 40
0.0
 40
0.0
 40
0.100891223
 40
0.155656058
 40
0.212977847
 40
0.3337191723
 40
0.4605832636
 40
0.5916693492
 40
0.7257393954
 40
1.0
 40
1.0
 40
1.0
 40
1.0
 10
23.0448333274
 20
49.8466777939
 30
0.0
 10
23.060773188
 20
49.7757123799
 30
0.0
 10
23.1088186399
 20
49.6714004399
 30
0.0
 10
23.1972123367
 20
49.5459374865
 30
0.0
 10
23.3069050615
 20
49.4185075946
 30
0.0
 10
23.4679898851
 20
49.2681832477
 30
0.0
 10
23.6831371532
 20
49.099835496
 30
0.0
 10
23.9153555712
 20
48.9385741734
 30
0.0
 10
24.243142999
 20
48.7292375654
 30
0.0
 10
24.497706183
 20
48.5811758796
 30
0.0
 10
24.6699934596
 20
48.4841745804
 30
0.0
  0
SPLINE
  5
3AC
100
AcDbEntity
  8
0
100
AcDbSpline
 62
7
  6
BYLAYER
 70
0
 71
3
 72
14
 73
10
 74
0
 42
0.0000001
 43
0.0000001
 44
0.0000000001
 40
0.0
 40
0.0
 40
0.0
 40
0.0
 40
0.3517719619
 40
0.5043781685
 40
0.6400065415
 40
0.7580271538
 40
0.8578186655
 40
0.9386767455
 40
1.0
 40
1.0
 40
1.0
 40
1.0
 10
36.8834098513
 20
54.8564614731
 30
0.0
 10
36.8710083015
 20
54.9138983892
 30
0.0
 10
36.8536248802
 20
54.9963444911
 30
0.0
 10
36.833550897
 20
55.101353904
 30
0.0
 10
36.8218418092
 20
55.1682010101
 30
0.0
 10
36.8124287698
 20
55.2264838699
 30
0.0
 10
36.8048219056
 20
55.2757972471
 30
0.0
 10
36.7993889093
 20
55.3158390281
 30
0.0
 10
36.7974232048
 20
55.339559963
 30
0.0
 10
36.7974104023
 20
55.3498034827
 30
0.0
  0
SPLINE
  5
3AD
100
AcDbEntity
  8
0
100
AcDbSpline
 62
7
  6
BYLAYER
 70
0
 71
3
 72
12
 73
8
 74
0
 42
0.0000001
 43
0.0000001
 44
0.0000000001
 40
0.0
 40
0.0
 40
0.0
 40
0.0
 40
0.1418652608
 40
0.3593750576
 40
0.4952170767
 40
0.6480019543
 40
1.0
 40
1.0
 40
1.0
 40
1.0
 10
36.7974104023
 20
55.3498034827
 30
0.0
 10
36.7974300301
 20
55.3261545712
 30
0.0
 10
36.800941412
 20
55.2662456685
 30
0.0
 10
36.8129454768
 20
55.1845084899
 30
0.0
 10
36.8275247689
 20
55.1014100149
 30
0.0
 10
36.8470619691
 20
54.9964167922
 30
0.0
 10
36.8635615101
 20
54.9138978628
 30
0.0
 10
36.8755686701
 20
54.8564614731
 30
0.0
  0
SPLINE
  5
3AE
100
AcDbEntity
  8
0
100
AcDbSpline
 62
7
  6
BYLAYER
 70
0
 71
3
 72
11
 73
7
 74
0
 42
0.0000001
 43
0.0000001
 44
0.0000000001
 40
0.0
 40
0.0
 40
0.0
 40
0.0
 40
0.2742082578
 40
0.5392945403
 40
0.7846895003
 40
1.0
 40
1.0
 40
1.0
 40
1.0
 10
37.2067973692
 20
53.5376525818
 30
0.0
 10
37.1746504619
 20
53.6575392798
 30
0.0
 10
37.1152354938
 20
53.8943262473
 30
0.0
 10
37.0270840195
 20
54.2384081282
 30
0.0
 10
36.9502092225
 20
54.5578324712
 30
0.0
 10
36.9039793382
 20
54.7611953245
 30
0.0
 10
36.8834098513
 20
54.8564614731
 30
0.0
  0
SPLINE
  5
3AF
100
AcDbEntity
  8
0
100
AcDbSpline
 62
7
  6
BYLAYER
 70
0
 71
3
 72
9
 73
5
 74
0
 42
0.0000001
 43
0.0000001
 44
0.0000000001
 40
0.0
 40
0.0
 40
0.0
 40
0.0
 40
0.2228873906
 40
1.0
 40
1.0
 40
1.0
 40
1.0
 10
36.8755686854
 20
54.8564614731
 30
0.0
 10
36.8858437923
 20
54.8073103795
 30
0.0
 10
36.9332943882
 20
54.5870723206
 30
0.0
 10
36.9857895047
 20
54.3679456757
 30
0.0
 10
37.0281307566
 20
54.1980695712
 30
0.0
  0
SPLINE
  5
3B0
100
AcDbEntity
  8
0
100
AcDbSpline
 62
7
  6
BYLAYER
 70
0
 71
3
 72
9
 73
5
 74
0
 42
0.0000001
 43
0.0000001
 44
0.0000000001
 40
0.0
 40
0.0
 40
0.0
 40
0.0
 40
0.4928461302
 40
1.0
 40
1.0
 40
1.0
 40
1.0
 10
37.0281307566
 20
54.1980695712
 30
0.0
 10
37.0553146124
 20
54.0890060144
 30
0.0
 10
37.1123670021
 20
53.868165887
 30
0.0
 10
37.1752062008
 20
53.648918067
 30
0.0
 10
37.2067973692
 20
53.5376525818
 30
0.0
  0
SPLINE
  5
3B1
100
AcDbEntity
  8
0
100
AcDbSpline
 62
7
  6
BYLAYER
 70
0
 71
3
 72
9
 73
5
 74
0
 42
0.0000001
 43
0.0000001
 44
0.0000000001
 40
0.0
 40
0.0
 40
0.0
 40
0.0
 40
0.4902142875
 40
1.0
 40
1.0
 40
1.0
 40
1.0
 10
24.6699934596
 20
48.4841745804
 30
0.0
 10
24.6983418625
 20
48.4692755002
 30
0.0
 10
24.7597560009
 20
48.4451939271
 30
0.0
 10
24.8253567553
 20
48.4367093252
 30
0.0
 10
24.8586605545
 20
48.4367093252
 30
0.0
  0
LINE
  5
3B2
100
AcDbEntity
  8
0
100
AcDbLine
 62
7
  6
BYLAYER
 10
24.8586605545
 20
48.4367093252
 11
24.869182851
 21
48.4368097227
  0
SPLINE
  5
3B3
100
AcDbEntity
  8
0
100
AcDbSpline
 62
7
  6
BYLAYER
 70
0
 71
3
 72
9
 73
5
 74
0
 42
0.0000001
 43
0.0000001
 44
0.0000000001
 40
0.0
 40
0.0
 40
0.0
 40
0.0
 40
0.6239826864
 40
1.0
 40
1.0
 40
1.0
 40
1.0
 10
37.9600338867
 20
55.3498335091
 30
0.0
 10
37.9595528383
 20
55.3992562243
 30
0.0
 10
37.9598089785
 20
55.4784785287
 30
0.0
 10
37.9623836658
 20
55.5576595024
 30
0.0
 10
37.9639474904
 20
55.5874023818
 30
0.0
  0
SPLINE
  5
3B4
100
AcDbEntity
  8
0
100
AcDbSpline
 62
7
  6
BYLAYER
 70
0
 71
3
 72
14
 73
10
 74
0
 42
0.0000001
 43
0.0000001
 44
0.0000000001
 40
0.0
 40
0.0
 40
0.0
 40
0.0
 40
0.4359984858
 40
0.6073821268
 40
0.747700873
 40
0.8569743887
 40
0.9352459651
 40
0.9826442881
 40
1.0
 40
1.0
 40
1.0
 40
1.0
 10
37.9639474904
 20
55.5874023818
 30
0.0
 10
37.9641760381
 20
55.5917492029
 30
0.0
 10
37.9645102294
 20
55.5978096616
 30
0.0
 10
37.9650010594
 20
55.6052458412
 30
0.0
 10
37.9653077855
 20
55.6094631605
 30
0.0
 10
37.9656120378
 20
55.6126565503
 30
0.0
 10
37.9658365131
 20
55.615140858
 30
0.0
 10
37.9661237971
 20
55.6162789481
 30
0.0
 10
37.9662281465
 20
55.6172022569
 30
0.0
 10
37.9664014186
 20
55.6172022715
 30
0.0
  0
SPLINE
  5
3B5
100
AcDbEntity
  8
0
100
AcDbSpline
 62
7
  6
BYLAYER
 70
0
 71
3
 72
10
 73
6
 74
0
 42
0.0000001
 43
0.0000001
 44
0.0000000001
 40
0.0
 40
0.0
 40
0.0
 40
0.0
 40
0.1473435442
 40
0.3644638968
 40
1.0
 40
1.0
 40
1.0
 40
1.0
 10
37.9605663407
 20
55.3498335091
 30
0.0
 10
37.9606906822
 20
55.3491230056
 30
0.0
 10
37.9618747499
 20
55.3476073733
 30
0.0
 10
37.9659887353
 20
55.345002428
 30
0.0
 10
37.9699639463
 20
55.3435380761
 30
0.0
 10
37.9729198198
 20
55.3425673596
 30
0.0
  0
SPLINE
  5
3B6
100
AcDbEntity
  8
0
100
AcDbSpline
 62
7
  6
BYLAYER
 70
0
 71
3
 72
34
 73
30
 74
0
 42
0.0000001
 43
0.0000001
 44
0.0000000001
 40
0.0
 40
0.0
 40
0.0
 40
0.0
 40
0.0027630383
 40
0.0060496322
 40
0.0095510659
 40
0.0131571183
 40
0.0205337246
 40
0.028052121
 40
0.0356478167
 40
0.0432939951
 40
0.0586845202
 40
0.0741539149
 40
0.0896754393
 40
0.1052328685
 40
0.1208147431
 40
0.1520340769
 40
0.183304329
 40
0.2146084678
 40
0.2459379986
 40
0.2772863226
 40
0.3086495317
 40
0.3714105579
 40
0.4342048542
 40
0.4970228372
 40
0.5598594089
 40
0.6227106775
 40
0.7484456489
 40
0.8742113652
 40
1.0
 40
1.0
 40
1.0
 40
1.0
 10
37.9729198198
 20
55.3425673596
 30
0.0
 10
37.981927306
 20
55.3396092777
 30
0.0
 10
38.0023550206
 20
55.3354836286
 30
0.0
 10
38.0346940712
 20
55.3303429539
 30
0.0
 10
38.0700813838
 20
55.3257986888
 30
0.0
 10
38.1194470704
 20
55.3200803498
 30
0.0
 10
38.1825989821
 20
55.3135658087
 30
0.0
 10
38.2594584195
 20
55.3066228681
 30
0.0
 10
38.337284464
 20
55.3001166048
 30
0.0
 10
38.4420735384
 20
55.2919234822
 30
0.0
 10
38.5738613863
 20
55.2824698742
 30
0.0
 10
38.7326518961
 20
55.2718045799
 30
0.0
 10
38.8920552924
 20
55.2617361426
 30
0.0
 10
39.0518734829
 20
55.2521280543
 30
0.0
 10
39.2654811468
 20
55.2396742316
 30
0.0
 10
39.5329584267
 20
55.2248809878
 30
0.0
 10
39.8543468832
 20
55.2079668003
 30
0.0
 10
40.1761432171
 20
55.1916186713
 30
0.0
 10
40.4982349418
 20
55.1758158165
 30
0.0
 10
40.8205479202
 20
55.1603923916
 30
0.0
 10
41.2506101554
 20
55.1402806018
 30
0.0
 10
41.7884932646
 20
55.115961796
 30
0.0
 10
42.4342373306
 20
55.0876892519
 30
0.0
 10
43.080269158
 20
55.0600710053
 30
0.0
 10
43.7265248584
 20
55.0331210065
 30
0.0
 10
44.5885119968
 20
54.9979707219
 30
0.0
 10
45.6662973316
 20
54.955252767
 30
0.0
 10
46.9599144419
 20
54.9051379852
 30
0.0
 10
47.8224540709
 20
54.8725521402
 30
0.0
 10
48.2537707423
 20
54.8564614731
 30
0.0
  0
SPLINE
  5
3B7
100
AcDbEntity
  8
0
100
AcDbSpline
 62
7
  6
BYLAYER
 70
0
 71
3
 72
8
 73
4
 74
0
 42
0.0000001
 43
0.0000001
 44
0.0000000001
 40
0.0
 40
0.0
 40
0.0
 40
0.0
 40
1.0
 40
1.0
 40
1.0
 40
1.0
 10
48.2536952527
 20
54.8564614731
 30
0.0
 10
49.1229301067
 20
54.8240338633
 30
0.0
 10
49.9921950068
 20
54.7924102635
 30
0.0
 10
50.8614734095
 20
54.7611718269
 30
0.0
  0
SPLINE
  5
3B8
100
AcDbEntity
  8
0
100
AcDbSpline
 62
7
  6
BYLAYER
 70
0
 71
3
 72
14
 73
10
 74
0
 42
0.0000001
 43
0.0000001
 44
0.0000000001
 40
0.0
 40
0.0
 40
0.0
 40
0.0
 40
0.2577512488
 40
0.3856619264
 40
0.5126244104
 40
0.6382396908
 40
0.7618964455
 40
0.8827535855
 40
1.0
 40
1.0
 40
1.0
 40
1.0
 10
24.6699932436
 20
37.8814867449
 30
0.0
 10
24.4964198947
 20
37.7593049061
 30
0.0
 10
24.2402455512
 20
37.5711905644
 30
0.0
 10
23.9135708295
 20
37.3036319537
 30
0.0
 10
23.6806805564
 20
37.0937596235
 30
0.0
 10
23.4645312322
 20
36.8713514592
 30
0.0
 10
23.2735204804
 20
36.6329080954
 30
0.0
 10
23.1215725961
 20
36.3751281036
 30
0.0
 10
23.0602182159
 20
36.1860064191
 30
0.0
 10
23.0448333274
 20
36.0906848033
 30
0.0
  0
SPLINE
  5
3B9
100
AcDbEntity
  8
0
100
AcDbSpline
 62
7
  6
BYLAYER
 70
0
 71
3
 72
11
 73
7
 74
0
 42
0.0000001
 43
0.0000001
 44
0.0000000001
 40
0.0
 40
0.0
 40
0.0
 40
0.0
 40
0.2500000782
 40
0.4999999013
 40
0.7500000898
 40
1.0
 40
1.0
 40
1.0
 40
1.0
 10
53.1585807853
 20
42.5831449268
 30
0.0
 10
53.1610081125
 20
42.4830460366
 30
0.0
 10
53.1663189616
 20
42.2828563054
 30
0.0
 10
53.1703373242
 20
41.9824949796
 30
0.0
 10
53.1737236873
 20
41.6821243832
 30
0.0
 10
53.1730295792
 20
41.4818646161
 30
0.0
 10
53.1730281425
 20
41.3817363671
 30
0.0
  0
SPLINE
  5
3BA
100
AcDbEntity
  8
0
100
AcDbSpline
 62
7
  6
BYLAYER
 70
0
 71
3
 72
12
 73
8
 74
0
 42
0.0000001
 43
0.0000001
 44
0.0000000001
 40
0.0
 40
0.0
 40
0.0
 40
0.0
 40
0.130093873
 40
0.2586670578
 40
0.5108757766
 40
0.7576042985
 40
1.0
 40
1.0
 40
1.0
 40
1.0
 10
10.9109600103
 20
42.9399499317
 30
0.0
 10
10.8469775975
 20
43.1741218841
 30
0.0
 10
10.6921862748
 20
43.632642739
 30
0.0
 10
10.2905164645
 20
44.4987707572
 30
0.0
 10
9.6446426482
 20
45.4837034478
 30
0.0
 10
8.71196955
 20
46.5108277496
 30
0.0
 10
8.0168380365
 20
47.1058290141
 30
0.0
 10
7.6584241128
 20
47.3817361864
 30
0.0
  0
LINE
  5
3BB
100
AcDbEntity
  8
0
100
AcDbLine
 62
7
  6
BYLAYER
 10
39.6948324449
 20
55.5210213395
 11
50.8612988607
 21
55.2275423242
  0
SPLINE
  5
3BC
100
AcDbEntity
  8
0
100
AcDbSpline
 62
7
  6
BYLAYER
 70
0
 71
3
 72
30
 73
26
 74
0
 42
0.0000001
 43
0.0000001
 44
0.0000000001
 40
0.0
 40
0.0
 40
0.0
 40
0.0
 40
0.1255685268
 40
0.2511192617
 40
0.3766450615
 40
0.4393951828
 40
0.5021339745
 40
0.564858263
 40
0.6275633731
 40
0.6902420324
 40
0.752882005
 40
0.7841810367
 40
0.8154602904
 40
0.8467124277
 40
0.8779251849
 40
0.9090756827
 40
0.9246139461
 40
0.9401132672
 40
0.9555518407
 40
0.9708827382
 40
0.9784742502
 40
0.9859714817
 40
0.9932766891
 40
0.9967688822
 40
1.0
 40
1.0
 40
1.0
 40
1.0
 10
50.8612049986
 20
28.0035631391
 30
0.0
 10
50.3200755158
 20
27.9840528213
 30
0.0
 10
49.2379090307
 20
27.9445952256
 30
0.0
 10
47.6148542814
 20
27.8840801725
 30
0.0
 10
46.2625534685
 20
27.8322191661
 30
0.0
 10
45.1809555551
 20
27.789665356
 30
0.0
 10
44.3699878957
 20
27.7571363454
 30
0.0
 10
43.5592435595
 20
27.7238899992
 30
0.0
 10
42.7487943078
 20
27.6897860727
 30
0.0
 10
41.9387540762
 20
27.6546254402
 30
0.0
 10
41.2640672761
 20
27.6241929175
 30
0.0
 10
40.724688408
 20
27.5989166816
 30
0.0
 10
40.320540278
 20
27.5794006278
 30
0.0
 10
39.9167987892
 20
27.559187495
 30
0.0
 10
39.5136593356
 20
27.538072655
 30
0.0
 10
39.178245428
 20
27.5194459384
 30
0.0
 10
38.9105434936
 20
27.5036088761
 30
0.0
 10
38.7105151877
 20
27.4911389808
 30
0.0
 10
38.5114351721
 20
27.4778550544
 30
0.0
 10
38.3464532082
 20
27.4657753993
 30
0.0
 10
38.2157120175
 20
27.45507152
 30
0.0
 10
38.1195410531
 20
27.4463334555
 30
0.0
 10
38.0410654738
 20
27.4381364241
 30
0.0
 10
37.9810774781
 20
27.4303461742
 30
0.0
 10
37.952418087
 20
27.4258460373
 30
0.0
 10
37.9387576068
 20
27.4231020817
 30
0.0
  0
SPLINE
  5
3BD
100
AcDbEntity
  8
0
100
AcDbSpline
 62
7
  6
BYLAYER
 70
0
 71
3
 72
9
 73
5
 74
0
 42
0.0000001
 43
0.0000001
 44
0.0000000001
 40
0.0
 40
0.0
 40
0.0
 40
0.0
 40
0.2579744044
 40
1.0
 40
1.0
 40
1.0
 40
1.0
 10
51.3756496277
 20
54.0690731407
 30
0.0
 10
51.3677959086
 20
54.104098675
 30
0.0
 10
51.3348565366
 20
54.2393068583
 30
0.0
 10
51.2927859252
 20
54.3722245326
 30
0.0
 10
51.2574801827
 20
54.4692479126
 30
0.0
  0
SPLINE
  5
3BE
100
AcDbEntity
  8
0
100
AcDbSpline
 62
7
  6
BYLAYER
 70
0
 71
3
 72
11
 73
7
 74
0
 42
0.0000001
 43
0.0000001
 44
0.0000000001
 40
0.0
 40
0.0
 40
0.0
 40
0.0
 40
0.2414582619
 40
0.4839412629
 40
0.7345561048
 40
1.0
 40
1.0
 40
1.0
 40
1.0
 10
51.2574801827
 20
54.4692479126
 30
0.0
 10
51.2382195946
 20
54.5057304778
 30
0.0
 10
51.193122003
 20
54.5756772899
 30
0.0
 10
51.1052052001
 20
54.6665094871
 30
0.0
 10
50.9945108037
 20
54.7367455469
 30
0.0
 10
50.906757213
 20
54.7586716986
 30
0.0
 10
50.8614734095
 20
54.7611718269
 30
0.0
  0
SPLINE
  5
3BF
100
AcDbEntity
  8
0
100
AcDbSpline
 62
7
  6
BYLAYER
 70
0
 71
3
 72
14
 73
10
 74
0
 42
0.0000001
 43
0.0000001
 44
0.0000000001
 40
0.0
 40
0.0
 40
0.0
 40
0.0
 40
0.1202517065
 40
0.2419966947
 40
0.3655938292
 40
0.4907486504
 40
0.6170549322
 40
0.7441785388
 40
1.0
 40
1.0
 40
1.0
 40
1.0
 10
23.0448333274
 20
35.7990898068
 30
0.0
 10
23.060003007
 20
35.7067677355
 30
0.0
 10
23.1203690964
 20
35.5252748283
 30
0.0
 10
23.2728454589
 20
35.2832182296
 30
0.0
 10
23.4642092085
 20
35.0665027151
 30
0.0
 10
23.6805113566
 20
34.8700528131
 30
0.0
 10
23.9134520385
 20
34.6894247089
 30
0.0
 10
24.239983952
 20
34.464756629
 30
0.0
 10
24.496272272
 20
34.3121449616
 30
0.0
 10
24.6699934596
 20
34.2150001686
 30
0.0
  0
SPLINE
  5
3C0
100
AcDbEntity
  8
0
100
AcDbSpline
 62
7
  6
BYLAYER
 70
0
 71
3
 72
9
 73
5
 74
0
 42
0.0000001
 43
0.0000001
 44
0.0000000001
 40
0.0
 40
0.0
 40
0.0
 40
0.0
 40
0.5020674601
 40
1.0
 40
1.0
 40
1.0
 40
1.0
 10
24.8586605545
 20
37.9407417446
 30
0.0
 10
24.8252074414
 20
37.9407417446
 30
0.0
 10
24.7581821107
 20
37.9297447624
 30
0.0
 10
24.6977205172
 20
37.8997062801
 30
0.0
 10
24.6699932436
 20
37.8814867449
 30
0.0
  0
SPLINE
  5
3C1
100
AcDbEntity
  8
0
100
AcDbSpline
 62
7
  6
BYLAYER
 70
0
 71
3
 72
12
 73
8
 74
0
 42
0.0000001
 43
0.0000001
 44
0.0000000001
 40
0.0
 40
0.0
 40
0.0
 40
0.0
 40
0.1297396912
 40
0.2580961645
 40
0.5102691047
 40
0.7572514686
 40
1.0
 40
1.0
 40
1.0
 40
1.0
 10
10.9109599897
 20
39.8235227448
 30
0.0
 10
10.8521946275
 20
39.6084448975
 30
0.0
 10
10.7120361931
 20
39.1865809469
 30
0.0
 10
10.3529925228
 20
38.3852975909
 30
0.0
 10
9.779081545
 20
37.465658242
 30
0.0
 10
8.9482548368
 20
36.4939549065
 30
0.0
 10
8.3262889389
 20
35.923990687
 30
0.0
 10
8.0048332811
 20
35.6581005232
 30
0.0
  0
SPLINE
  5
3C2
100
AcDbEntity
  8
0
100
AcDbSpline
 62
7
  6
BYLAYER
 70
0
 71
3
 72
9
 73
5
 74
0
 42
0.0000001
 43
0.0000001
 44
0.0000000001
 40
0.0
 40
0.0
 40
0.0
 40
0.0
 40
0.5006450153
 40
1.0
 40
1.0
 40
1.0
 40
1.0
 10
37.9351478945
 20
49.7102768277
 30
0.0
 10
37.9351361607
 20
50.2912230185
 30
0.0
 10
37.8542478132
 20
51.4532525321
 30
0.0
 10
37.6027191845
 20
52.5911965639
 30
0.0
 10
37.4348336187
 20
53.14579179
 30
0.0
  0
ELLIPSE
  5
3C3
100
AcDbEntity
  8
0
100
AcDbEllipse
 62
7
  6
BYLAYER
 10
16.2848324791
 20
41.3817363671
 30
0.0
 11
17.9999984028
 21
-0.0
 31
0.0
 40
0.5555556049
 41
4.2343937908
 42
4.4493667737
  0
ELLIPSE
  5
3C4
100
AcDbEntity
  8
0
100
AcDbEllipse
 62
7
  6
BYLAYER
 10
33.6880928859
 20
41.3824434739
 30
0.0
 11
38.2580150476
 21
-0.0
 31
0.0
 40
0.3740848006
 41
1.4131379647
 42
1.4566708997
  0
ELLIPSE
  5
3C5
100
AcDbEntity
  8
0
100
AcDbEllipse
 62
7
  6
BYLAYER
 10
33.8220799643
 20
41.3824434739
 30
0.0
 11
38.2486557019
 21
-0.0
 31
0.0
 40
0.3740848316
 41
1.4166451377
 42
1.4588527768
  0
ENDSEC
  0
SECTION
  2
OBJECTS
  0
DICTIONARY
  5
C
100
AcDbDictionary
280
0
281
1
  3
ACAD_GROUP
350
D
  3
ACAD_MLINESTYLE
350
17
  3
ACAD_LAYOUT
350
1A
  3
ACAD_PLOTSETTINGS
350
19
  3
ACAD_PLOTSTYLENAME
350
E
  0
DICTIONARY
  5
D
102
{ACAD_REACTORS
330
C
102
}
100
AcDbDictionary
280
0
281
1
  0
ACDBDICTIONARYWDFLT
  5
E
102
{ACAD_REACTORS
330
C
102
}
100
AcDbDictionary
281
1
  3
Normal
350
F
100
AcDbDictionaryWithDefault
340
F
  0
DICTIONARY
  5
17
102
{ACAD_REACTORS
330
C
102
}
100
AcDbDictionary
280
0
281
1
  3
Standard
350
18
  0
DICTIONARY
  5
19
102
{ACAD_REACTORS
330
C
102
}
100
AcDbDictionary
281
1
  0
DICTIONARY
  5
1A
102
{ACAD_REACTORS
330
C
102
}
100
AcDbDictionary
281
1
  3
Model
350
3C6
  3
Layout1
350
3C7
  0
ACDBPLACEHOLDER
  5
F
102
{ACAD_REACTORS
330
E
102
}
  0
MLINESTYLE
  5
18
102
{ACAD_REACTORS
330
17
102
}
100
AcDbMlineStyle
  2
STANDARD
 70
0
  3

 62
256
 51
90.0
 52
90.0
 71
2
 49
0.5
 62
256
  6
BYLAYER
 49
-0.5
 62
256
  6
BYLAYER
  0
LAYOUT
  5
3C6
102
{ACAD_REACTORS
330
1A
102
}
100
AcDbPlotSettings
  1

  2
none_device
  4

  6

 40
0.0
 41
0.0
 42
0.0
 43
0.0
 44
210.0
 45
297.0
 46
0.0
 47
0.0
 48
0.0
 49
0.0
140
0.0
141
0.0
142
1.0
143
1.0
 70
1024
 72
1
 73
0
 74
0
  7

 75
0
147
1.0
148
0.0
149
0.0
100
AcDbLayout
  1
Model
 70
0
 71
0
 10
0.0
 20
0.0
 11
210.0
 21
297.0
 12
0.0
 22
0.0
 32
0.0
 14
0.0
 24
0.0
 34
0.0
 15
0.0
 25
0.0
 35
0.0
146
0.0
 13
0.0
 23
0.0
 33
0.0
 16
1.0
 26
0.0
 36
0.0
 17
0.0
 27
1.0
 37
0.0
 76
0
330
210
345
0
346
0
  0
LAYOUT
  5
3C7
102
{ACAD_REACTORS
330
1A
102
}
100
AcDbPlotSettings
  1

  2
none_device
  4

  6

 40
0.0
 41
0.0
 42
0.0
 43
0.0
 44
210.0
 45
297.0
 46
0.0
 47
0.0
 48
0.0
 49
0.0
140
0.0
141
0.0
142
1.0
143
1.0
 70
0
 72
1
 73
0
 74
0
  7

 75
0
147
1.0
148
0.0
149
0.0
100
AcDbLayout
  1
Layout1
 70
0
 71
1
 10
0.0
 20
0.0
 11
210.0
 21
297.0
 12
0.0
 22
0.0
 32
0.0
 14
0.0
 24
0.0
 34
0.0
 15
0.0
 25
0.0
 35
0.0
146
0.0
 13
0.0
 23
0.0
 33
0.0
 16
1.0
 26
0.0
 36
0.0
 17
0.0
 27
1.0
 37
0.0
 76
0
330
211
345
0
346
0
  0
ENDSEC
  0
EOF
