999
DXF file: C:\Users\sesa63760\Dev\_Creo\CAD\MCADID0005576_3D-CAD\drw0001_4.dxf
999
Pro/ENGINEER 2019471 by Parametric Technology Corporation
  0
SECTION
  2
HEADER
  9
$ACADVER
  1
AC1024
  9
$DWGCODEPAGE
  3
ANSI_1252
  9
$EXTMAX
 10
36.6423195057
 20
51.8227090152
 30
0.0
  9
$EXTMIN
 10
0.0
 20
0.0
 30
0.0
  9
$LIMMIN
 10
0.0
 20
0.0
  9
$LIMMAX
 10
36.6423195057
 20
51.8227090152
  9
$VIEWCTR
 10
18.3211597529
 20
25.9113545076
  9
$VIEWSIZE
 40
51.8227090152
  9
$CLAYER
  8
0
  9
$LTSCALE
 40
3.378072884
  9
$CELTYPE
  6
BYLAYER
  9
$DIMSCALE
 40
1.0
  9
$DIMASZ
 40
0.4362180894
  9
$DIMEXO
 40
1.0
  9
$DIMDLI
 40
2.3339412653
  9
$DIMEXE
 40
1.0
  9
$DIMCEN
 40
0.5527755628
  9
$DIMLFAC
 40
1.0
  9
$DIMBLK
  1
_FILLED
  9
$DIMALT
 70
0
  9
$DIMALTF
 40
0.0393700787
  9
$DIMTXT
 40
0.6107053251
  9
$DIMTOL
 70
1
  9
$DIMLIM
 70
0
  9
$DIMTFAC
 40
1.0
  9
$DIMTP
 40
0.01
  9
$DIMTM
 40
0.01
  9
$DIMGAP
 40
0.625
  9
$DIMDSEP
 70
46
  9
$AUNITS
 70
0
  9
$PDMODE
 70
3
  9
$PDSIZE
 40
0.3125
  9
$HANDSEED
  5
25A
  9
$TILEMODE
 70
1
  9
$MEASUREMENT
 70
1
  9
$INSUNITS
 70
4
  0
ENDSEC
  0
SECTION
  2
CLASSES
  0
CLASS
  1
ACDBDICTIONARYWDFLT
  2
AcDbDictionaryWithDefault
  3
AutoCAD 2000
 90
0
 91
1
280
0
281
0
  0
CLASS
  1
ACDBPLACEHOLDER
  2
AcDbPlaceHolder
  3
AutoCAD 2000
 90
0
 91
1
280
0
281
0
  0
CLASS
  1
LAYOUT
  2
AcDbLayout
  3
AutoCAD 2000
 90
0
 91
0
280
0
281
0
  0
ENDSEC
  0
SECTION
  2
TABLES
  0
TABLE
  2
VPORT
  5
8
100
AcDbSymbolTable
 70
2
  0
VPORT
  5
1F4
100
AcDbSymbolTableRecord
100
AcDbViewportTableRecord
  2
*ACTIVE
 70
0
 10
0.0
 20
0.0
 11
1.0
 21
1.0
 12
18.3211597529
 22
25.9113545076
 13
0.0
 23
0.0
 14
1.0
 24
1.0
 15
0.0
 25
0.0
 16
0.0
 26
0.0
 36
1.0
 17
0.0
 27
0.0
 37
0.0
 40
51.8227090152
 41
0.7070707071
 42
50.0
 43
0.0
 44
0.0
 50
0.0
 51
0.0
 71
0
 72
100
 73
1
 74
1
 75
0
 76
0
 77
0
 78
0
  0
ENDTAB
  0
TABLE
  2
LTYPE
  5
5
100
AcDbSymbolTable
 70
6
  0
LTYPE
  5
14
100
AcDbSymbolTableRecord
100
AcDbLinetypeTableRecord
  2
BYBLOCK
 70
0
  3

 72
65
 73
0
 40
0.0
  0
LTYPE
  5
15
100
AcDbSymbolTableRecord
100
AcDbLinetypeTableRecord
  2
BYLAYER
 70
0
  3

 72
65
 73
0
 40
0.0
  0
LTYPE
  5
16
100
AcDbSymbolTableRecord
100
AcDbLinetypeTableRecord
  2
CONTINUOUS
 70
64
  3
Solid line
 72
65
 73
0
 40
0.0
  0
LTYPE
  5
1F5
100
AcDbSymbolTableRecord
100
AcDbLinetypeTableRecord
  2
CENTER
 70
64
  3
____ _ ____ _ ____ _ ____ _ ____ _ ____ _ ____
 72
65
 73
4
 40
0.6
 49
0.375
 74
0
 49
-0.075
 74
0
 49
0.075
 74
0
 49
-0.075
 74
0
  0
LTYPE
  5
1F6
100
AcDbSymbolTableRecord
100
AcDbLinetypeTableRecord
  2
HIDDEN
 70
64
  3
- - - - - - - - - - - - - - - - - - - -
 72
65
 73
2
 40
0.2
 49
0.1
 74
0
 49
-0.1
 74
0
  0
LTYPE
  5
1F7
100
AcDbSymbolTableRecord
100
AcDbLinetypeTableRecord
  2
PHANTOM
 70
64
  3
_____ _ _ _____ _ _ _____ _ _ _____
 72
65
 73
6
 40
0.8
 49
0.45
 74
0
 49
-0.05
 74
0
 49
0.1
 74
0
 49
-0.05
 74
0
 49
0.1
 74
0
 49
-0.05
 74
0
  0
LTYPE
  5
1F8
100
AcDbSymbolTableRecord
100
AcDbLinetypeTableRecord
  2
DOT
 70
64
  3
. . . . . . . . . . . . . . . . . . . .
 72
65
 73
2
 40
0.2
 49
0.1
 74
0
 49
-0.1
 74
0
  0
LTYPE
  5
1F9
100
AcDbSymbolTableRecord
100
AcDbLinetypeTableRecord
  2
DASHED
 70
64
  3
- - - - - - - - - - - - - - - - - - - -
 72
65
 73
2
 40
0.2
 49
0.1
 74
0
 49
-0.1
 74
0
  0
ENDTAB
  0
TABLE
  2
LAYER
  5
2
100
AcDbSymbolTable
 70
36
  0
LAYER
  5
10
100
AcDbSymbolTableRecord
100
AcDbLayerTableRecord
  2
0
 70
0
 62
7
  6
CONTINUOUS
370
-3
390
F
  0
LAYER
  5
1FA
100
AcDbSymbolTableRecord
100
AcDbLayerTableRecord
  2
DEFAULT_1
 70
0
 62
7
  6
CENTER
370
-3
390
F
  0
LAYER
  5
1FB
100
AcDbSymbolTableRecord
100
AcDbLayerTableRecord
  2
DEFAULT_2
 70
0
 62
7
  6
HIDDEN
370
-3
390
F
  0
LAYER
  5
1FC
100
AcDbSymbolTableRecord
100
AcDbLayerTableRecord
  2
DEFAULT_3
 70
0
 62
7
  6
PHANTOM
370
-3
390
F
  0
LAYER
  5
1FD
100
AcDbSymbolTableRecord
100
AcDbLayerTableRecord
  2
00_COMPONENTS
 70
0
 62
7
  6
CONTINUOUS
370
-3
390
F
  0
LAYER
  5
1FE
100
AcDbSymbolTableRecord
100
AcDbLayerTableRecord
  2
01_1_DEFAULT_DATUMS
 70
0
 62
7
  6
CONTINUOUS
370
-3
390
F
  0
LAYER
  5
1FF
100
AcDbSymbolTableRecord
100
AcDbLayerTableRecord
  2
01_PLANES
 70
0
 62
7
  6
CONTINUOUS
370
-3
390
F
  0
LAYER
  5
200
100
AcDbSymbolTableRecord
100
AcDbLayerTableRecord
  2
02_COORD_SYS
 70
0
 62
7
  6
CONTINUOUS
370
-3
390
F
  0
LAYER
  5
201
100
AcDbSymbolTableRecord
100
AcDbLayerTableRecord
  2
03_AXES
 70
0
 62
7
  6
CONTINUOUS
370
-3
390
F
  0
LAYER
  5
202
100
AcDbSymbolTableRecord
100
AcDbLayerTableRecord
  2
04_POINTS
 70
0
 62
7
  6
CONTINUOUS
370
-3
390
F
  0
LAYER
  5
203
100
AcDbSymbolTableRecord
100
AcDbLayerTableRecord
  2
05_CURVES
 70
0
 62
7
  6
CONTINUOUS
370
-3
390
F
  0
LAYER
  5
204
100
AcDbSymbolTableRecord
100
AcDbLayerTableRecord
  2
06_SURFS
 70
0
 62
7
  6
CONTINUOUS
370
-3
390
F
  0
LAYER
  5
205
100
AcDbSymbolTableRecord
100
AcDbLayerTableRecord
  2
07_COSMETICS
 70
0
 62
7
  6
CONTINUOUS
370
-3
390
F
  0
LAYER
  5
206
100
AcDbSymbolTableRecord
100
AcDbLayerTableRecord
  2
10_NOTES
 70
0
 62
7
  6
CONTINUOUS
370
-3
390
F
  0
LAYER
  5
207
100
AcDbSymbolTableRecord
100
AcDbLayerTableRecord
  2
11_NOTES_PUB
 70
0
 62
7
  6
CONTINUOUS
370
-3
390
F
  0
LAYER
  5
208
100
AcDbSymbolTableRecord
100
AcDbLayerTableRecord
  2
13_REF_GTOL
 70
0
 62
7
  6
CONTINUOUS
370
-3
390
F
  0
LAYER
  5
209
100
AcDbSymbolTableRecord
100
AcDbLayerTableRecord
  2
16_MISC
 70
0
 62
7
  6
CONTINUOUS
370
-3
390
F
  0
LAYER
  5
20A
100
AcDbSymbolTableRecord
100
AcDbLayerTableRecord
  2
17_NO_PRINT
 70
0
 62
7
  6
CONTINUOUS
370
-3
390
F
  0
LAYER
  5
20B
100
AcDbSymbolTableRecord
100
AcDbLayerTableRecord
  2
18_DATUM_CAMS_JOINTS
 70
0
 62
7
  6
CONTINUOUS
370
-3
390
F
  0
LAYER
  5
20C
100
AcDbSymbolTableRecord
100
AcDbLayerTableRecord
  2
19_DATUM_FUNCTIONAL
 70
0
 62
7
  6
CONTINUOUS
370
-3
390
F
  0
LAYER
  5
20D
100
AcDbSymbolTableRecord
100
AcDbLayerTableRecord
  2
20_DATUM_KINEMATIC_SCHEME
 70
0
 62
7
  6
CONTINUOUS
370
-3
390
F
  0
ENDTAB
  0
TABLE
  2
STYLE
  5
3
100
AcDbSymbolTable
 70
1
  0
STYLE
  5
11
100
AcDbSymbolTableRecord
100
AcDbTextStyleTableRecord
  2
STANDARD
 70
0
 40
0.0
 41
1.0
 50
0.0
 71
0
 42
0.2
  3
ARIAL.TTF
  4

  0
STYLE
  5
20E
100
AcDbSymbolTableRecord
100
AcDbTextStyleTableRecord
  2
TEXTSTYLE_1
 70
0
 40
0.0
 41
0.8
 50
0.0
 71
0
 42
0.2
  3
gdt
  4

  0
ENDTAB
  0
TABLE
  2
VIEW
  5
6
100
AcDbSymbolTable
 70
0
  0
ENDTAB
  0
TABLE
  2
UCS
  5
7
100
AcDbSymbolTable
 70
0
  0
ENDTAB
  0
TABLE
  2
APPID
  5
9
100
AcDbSymbolTable
 70
1
  0
APPID
  5
20F
100
AcDbSymbolTableRecord
100
AcDbRegAppTableRecord
  2
ACAD
 70
0
  0
ENDTAB
  0
TABLE
  2
BLOCK_RECORD
  5
1
100
AcDbSymbolTable
 70
0
  0
BLOCK_RECORD
  5
210
100
AcDbSymbolTableRecord
100
AcDbBlockTableRecord
  2
*Model_Space
  0
BLOCK_RECORD
  5
211
100
AcDbSymbolTableRecord
100
AcDbBlockTableRecord
  2
*Paper_Space
  0
BLOCK_RECORD
  5
212
100
AcDbSymbolTableRecord
100
AcDbBlockTableRecord
  2
_FILLED
  0
ENDTAB
  0
TABLE
  2
DIMSTYLE
  5
A
100
AcDbSymbolTable
 70
1
100
AcDbDimStyleTable
 71
0
  0
DIMSTYLE
105
213
100
AcDbSymbolTableRecord
100
AcDbDimStyleTableRecord
  2
STANDARD
 70
0
  3

  4

 40
1.0
 41
0.4362180894
 42
1.0
 43
0.38
 44
1.0
 45
0.0
 46
0.0
 47
0.01
 48
0.01
140
0.6107053251
141
0.09
142
0.0
143
25.4
144
1.0
145
0.0
146
1.0
147
0.625
 71
1
 72
0
 73
0
 74
0
 75
0
 76
0
 77
1
 78
8
 79
2
170
0
171
1
172
0
173
0
174
0
175
0
176
0
177
0
178
0
270
2
179
2
271
2
272
2
273
2
274
2
275
0
280
0
281
0
282
0
283
1
284
8
285
0
286
0
287
3
288
0
340
11
278
46
341
212
342
212
343
212
344
212
  0
ENDTAB
  0
ENDSEC
  0
SECTION
  2
BLOCKS
  0
BLOCK
  5
20
100
AcDbEntity
  8
0
100
AcDbBlockBegin
  2
*Model_Space
 70
0
 10
0.0
 20
0.0
 30
0.0
  3
*Model_Space
  1

  0
ENDBLK
  5
21
100
AcDbEntity
  8
0
100
AcDbBlockEnd
  0
BLOCK
  5
1C
100
AcDbEntity
  8
0
100
AcDbBlockBegin
  2
*Paper_Space
 70
0
 10
0.0
 20
0.0
 30
0.0
  3
*Paper_Space
  1

  0
ENDBLK
  5
1D
100
AcDbEntity
  8
0
100
AcDbBlockEnd
  0
BLOCK
  5
214
100
AcDbEntity
  8
0
100
AcDbBlockBegin
  2
_FILLED
 70
64
 10
0.0
 20
0.0
  3
_FILLED
  1

  0
SOLID
  5
215
100
AcDbEntity
  8
0
  6
BYBLOCK
 62
0
100
AcDbTrace
 10
0.0
 20
0.0
 11
-1.0
 21
0.25
 12
-1.0
 22
-0.25
 13
-1.0
 23
-0.25
  0
ENDBLK
  5
216
100
AcDbEntity
  8
0
  6
BYBLOCK
 62
0
100
AcDbBlockEnd
  0
ENDSEC
  0
SECTION
  2
ENTITIES
  0
LINE
  5
217
100
AcDbEntity
  8
0
100
AcDbLine
 62
7
  6
BYLAYER
 10
18.7968884246
 20
6.3775506223
 11
18.8699159158
 21
6.3775506223
  0
LINE
  5
218
100
AcDbEntity
  8
0
100
AcDbLine
 62
7
  6
BYLAYER
 10
16.296779197
 20
6.6118837027
 11
21.3700251433
 21
6.6118837027
  0
LINE
  5
219
100
AcDbEntity
  8
0
100
AcDbLine
 62
7
  6
BYLAYER
 10
15.5154986317
 20
6.897853406
 11
22.0782783095
 21
6.897853406
  0
LINE
  5
21A
100
AcDbEntity
  8
0
100
AcDbLine
 62
7
  6
BYLAYER
 10
18.0957887755
 20
30.386502832
 11
18.0986432318
 21
29.4024862775
  0
LINE
  5
21B
100
AcDbEntity
  8
0
100
AcDbLine
 62
7
  6
BYLAYER
 10
17.5468884158
 20
44.5634936826
 11
17.5468884158
 21
30.3030058615
  0
LINE
  5
21C
100
AcDbEntity
  8
0
100
AcDbLine
 62
7
  6
BYLAYER
 10
17.5968884158
 20
30.3780058615
 11
17.5968884158
 21
44.5634936826
  0
LINE
  5
21D
100
AcDbEntity
  8
0
100
AcDbLine
 62
7
  6
BYLAYER
 10
19.9968883564
 20
44.5648277414
 11
19.9968884158
 21
30.3780058615
  0
LINE
  5
21E
100
AcDbEntity
  8
0
100
AcDbLine
 62
7
  6
BYLAYER
 10
20.0468884158
 20
30.3030058615
 11
20.0468884158
 21
44.5634936826
  0
LINE
  5
21F
100
AcDbEntity
  8
0
100
AcDbLine
 62
7
  6
BYLAYER
 10
19.4991971213
 20
29.6771115513
 11
19.4994140735
 21
30.386502832
  0
LINE
  5
220
100
AcDbEntity
  8
0
100
AcDbLine
 62
7
  6
BYLAYER
 10
19.4965580651
 20
29.4035054622
 11
19.4991971213
 21
29.6771115513
  0
LINE
  5
221
100
AcDbEntity
  8
0
100
AcDbLine
 62
7
  6
BYLAYER
 10
20.0468884158
 20
43.3780058615
 11
19.9968884129
 21
43.3780058615
  0
LINE
  5
222
100
AcDbEntity
  8
0
100
AcDbLine
 62
7
  6
BYLAYER
 10
17.5968884158
 20
43.3780058615
 11
17.5468884158
 21
43.3780058615
  0
LINE
  5
223
100
AcDbEntity
  8
0
100
AcDbLine
 62
7
  6
BYLAYER
 10
17.5968883588
 20
44.5648277319
 11
17.934524422
 21
44.5923258745
  0
LINE
  5
224
100
AcDbEntity
  8
0
100
AcDbLine
 62
7
  6
BYLAYER
 10
15.2274925779
 20
43.8563799979
 11
17.5468884158
 21
43.8563799979
  0
LINE
  5
225
100
AcDbEntity
  8
0
100
AcDbLine
 62
7
  6
BYLAYER
 10
17.5968884158
 20
43.8563799979
 11
19.9968884128
 21
43.8563799979
  0
LINE
  5
226
100
AcDbEntity
  8
0
100
AcDbLine
 62
7
  6
BYLAYER
 10
20.0468884158
 20
43.8563799979
 11
22.3644085631
 21
43.8563799979
  0
LINE
  5
227
100
AcDbEntity
  8
0
100
AcDbLine
 62
7
  6
BYLAYER
 10
21.863226495
 20
44.2235791687
 11
20.0468884158
 21
44.2235791687
  0
LINE
  5
228
100
AcDbEntity
  8
0
100
AcDbLine
 62
7
  6
BYLAYER
 10
17.5468884158
 20
44.2235791687
 11
15.7221214547
 21
44.2235791687
  0
LINE
  5
229
100
AcDbEntity
  8
0
100
AcDbLine
 62
7
  6
BYLAYER
 10
18.4284330155
 20
44.6136936207
 11
19.1653438161
 21
44.6136936207
  0
LINE
  5
22A
100
AcDbEntity
  8
0
100
AcDbLine
 62
7
  6
BYLAYER
 10
19.1006639884
 20
44.6152206798
 11
18.4931128432
 21
44.6152206798
  0
LINE
  5
22B
100
AcDbEntity
  8
0
100
AcDbLine
 62
7
  6
BYLAYER
 10
19.6592524096
 20
44.5923258745
 11
19.9968883564
 21
44.5648277414
  0
ARC
  5
22C
100
AcDbEntity
  8
0
100
AcDbCircle
 62
7
  6
BYLAYER
 10
16.5280843878
 20
8.3869967453
 40
1.8007992137
100
AcDbArc
 50
173.7907889874
 51
251.3811311914
  0
ARC
  5
22D
100
AcDbEntity
  8
0
100
AcDbCircle
 62
7
  6
BYLAYER
 10
-136.9899813405
 20
25.5497052302
 40
152.6736567257
100
AcDbArc
 50
353.6190453337
 51
6.3136580179
  0
ARC
  5
22E
100
AcDbEntity
  8
0
100
AcDbCircle
 62
7
  6
BYLAYER
 10
16.5268427234
 20
42.6227490566
 40
1.7917124122
100
AcDbArc
 50
96.0899840925
 51
189.098634164
  0
ARC
  5
22F
100
AcDbEntity
  8
0
100
AcDbCircle
 62
7
  6
BYLAYER
 10
173.7246525947
 20
25.4980060064
 40
151.8141340124
100
AcDbArc
 50
173.6023918581
 51
186.3975997109
  0
ARC
  5
230
100
AcDbEntity
  8
0
100
AcDbCircle
 62
7
  6
BYLAYER
 10
18.8334021702
 20
20.2211676567
 40
13.8436651883
100
AcDbArc
 50
257.9915303864
 51
269.848877742
  0
ARC
  5
231
100
AcDbEntity
  8
0
100
AcDbCircle
 62
7
  6
BYLAYER
 10
18.8334021702
 20
20.2211676567
 40
13.8436651883
100
AcDbArc
 50
270.151122258
 51
280.6658949319
  0
ARC
  5
232
100
AcDbEntity
  8
0
100
AcDbCircle
 62
7
  6
BYLAYER
 10
21.0656939543
 20
8.3869959835
 40
1.8007977963
100
AcDbArc
 50
280.5567977207
 51
6.2091509932
  0
ARC
  5
233
100
AcDbEntity
  8
0
100
AcDbCircle
 62
7
  6
BYLAYER
 10
18.7968884158
 20
30.3780058615
 40
14.7500000894
100
AcDbArc
 50
288.9103622674
 51
251.0697511513
  0
ARC
  5
234
100
AcDbEntity
  8
0
100
AcDbCircle
 62
7
  6
BYLAYER
 10
18.7968884158
 20
30.3780058615
 40
14.25
100
AcDbArc
 50
102.5126115334
 51
256.821553741
  0
ARC
  5
235
100
AcDbEntity
  8
0
100
AcDbCircle
 62
7
  6
BYLAYER
 10
18.7968884158
 20
30.3780058615
 40
14.25
100
AcDbArc
 50
283.1742566595
 51
77.5035739873
  0
ARC
  5
236
100
AcDbEntity
  8
0
100
AcDbCircle
 62
7
  6
BYLAYER
 10
18.7968884158
 20
30.3780058615
 40
14.25
100
AcDbArc
 50
77.9585376992
 51
101.9450715559
  0
ARC
  5
237
100
AcDbEntity
  8
0
100
AcDbCircle
 62
7
  6
BYLAYER
 10
18.7968884158
 20
30.378012216
 40
14.2404488848
100
AcDbArc
 50
79.4852400278
 51
86.4862887589
  0
ARC
  5
238
100
AcDbEntity
  8
0
100
AcDbCircle
 62
7
  6
BYLAYER
 10
18.7968884158
 20
30.378012216
 40
14.2404488848
100
AcDbArc
 50
91.4826285137
 51
93.471805336
  0
ARC
  5
239
100
AcDbEntity
  8
0
100
AcDbCircle
 62
7
  6
BYLAYER
 10
18.7968884158
 20
30.378012216
 40
14.2404488848
100
AcDbArc
 50
93.5137111323
 51
99.9481217307
  0
ARC
  5
23A
100
AcDbEntity
  8
0
100
AcDbCircle
 62
7
  6
BYLAYER
 10
18.7968884158
 20
30.378012216
 40
14.2404488848
100
AcDbArc
 50
91.2223195118
 51
91.4664657244
  0
ARC
  5
23B
100
AcDbEntity
  8
0
100
AcDbCircle
 62
7
  6
BYLAYER
 10
18.7968884158
 20
30.378012216
 40
14.2404488848
100
AcDbArc
 50
86.528194664
 51
88.7776804882
  0
ARC
  5
23C
100
AcDbEntity
  8
0
100
AcDbCircle
 62
7
  6
BYLAYER
 10
18.7975955226
 20
30.3787129683
 40
13.8970690065
100
AcDbArc
 50
85.0494619508
 51
94.9575567865
  0
ARC
  5
23D
100
AcDbEntity
  8
0
100
AcDbCircle
 62
7
  6
BYLAYER
 10
18.7975955226
 20
30.3787129683
 40
13.6744485259
100
AcDbArc
 50
86.0512961
 51
93.9482091588
  0
ARC
  5
23E
100
AcDbEntity
  8
0
100
AcDbCircle
 62
7
  6
BYLAYER
 10
18.7975955226
 20
30.3787129683
 40
13.3425426914
100
AcDbArc
 50
89.2676470491
 51
90.7323529509
  0
ARC
  5
23F
100
AcDbEntity
  8
0
100
AcDbCircle
 62
7
  6
BYLAYER
 10
18.7975955226
 20
30.3787129683
 40
13.3425426914
100
AcDbArc
 50
267.1356447378
 51
272.8643552622
  0
ARC
  5
240
100
AcDbEntity
  8
0
100
AcDbCircle
 62
7
  6
BYLAYER
 10
18.7968884158
 20
30.3780058615
 40
12.8600001335
100
AcDbArc
 50
108.4093352087
 51
255.1194335114
  0
ARC
  5
241
100
AcDbEntity
  8
0
100
AcDbCircle
 62
7
  6
BYLAYER
 10
18.7968884158
 20
30.3780058615
 40
12.8600001335
100
AcDbArc
 50
284.8755968872
 51
71.5527515937
  0
ARC
  5
242
100
AcDbEntity
  8
0
100
AcDbCircle
 62
7
  6
BYLAYER
 10
18.7968884158
 20
30.3780058615
 40
12.4749997631
100
AcDbArc
 50
108.8098995869
 51
254.7414377347
  0
ARC
  5
243
100
AcDbEntity
  8
0
100
AcDbCircle
 62
7
  6
BYLAYER
 10
18.7968884158
 20
30.3780058615
 40
12.4749997631
100
AcDbArc
 50
285.2554479101
 51
71.1377027269
  0
ARC
  5
244
100
AcDbEntity
  8
0
100
AcDbCircle
 62
7
  6
BYLAYER
 10
18.7968884158
 20
30.3780058615
 40
9.0292059435
100
AcDbArc
 50
114.0118397594
 51
249.538558583
  0
ARC
  5
245
100
AcDbEntity
  8
0
100
AcDbCircle
 62
7
  6
BYLAYER
 10
18.7968884158
 20
30.3780058615
 40
9.0292059435
100
AcDbArc
 50
290.4576387099
 51
65.9340864027
  0
ARC
  5
246
100
AcDbEntity
  8
0
100
AcDbCircle
 62
7
  6
BYLAYER
 10
18.7968884158
 20
30.3030423402
 40
1.2500000005
100
AcDbArc
 50
180.0016720563
 51
360.0
  0
ARC
  5
247
100
AcDbEntity
  8
0
100
AcDbCircle
 62
7
  6
BYLAYER
 10
18.7968884158
 20
30.3780058615
 40
1.2
100
AcDbArc
 50
180.0
 51
360.0
  0
ARC
  5
248
100
AcDbEntity
  8
0
100
AcDbCircle
 62
7
  6
BYLAYER
 10
21.0656933294
 20
42.6090154974
 40
1.8007984337
100
AcDbArc
 50
353.7915787382
 51
79.4434223232
  0
ARC
  5
249
100
AcDbEntity
  8
0
100
AcDbCircle
 62
7
  6
BYLAYER
 10
52.8423716209
 20
29.948431375
 40
34.7493442517
100
AcDbArc
 50
178.1581108926
 51
179.2776752761
  0
SPLINE
  5
24A
100
AcDbEntity
  8
0
100
AcDbSpline
 62
7
  6
BYLAYER
 70
0
 71
3
 72
37
 73
33
 74
0
 42
0.0000001
 43
0.0000001
 44
0.0000000001
 40
0.0
 40
0.0
 40
0.0
 40
0.0
 40
0.0077159588
 40
0.0153959802
 40
0.0229867449
 40
0.030533848
 40
0.038130783
 40
0.0457843636
 40
0.0611913424
 40
0.0766999728
 40
0.0922581958
 40
0.1234429716
 40
0.1546883387
 40
0.1859670665
 40
0.2172670569
 40
0.2485818148
 40
0.2799073473
 40
0.3112410181
 40
0.373922738
 40
0.4366200914
 40
0.4993257917
 40
0.5620341221
 40
0.6247393943
 40
0.6874351702
 40
0.7501137848
 40
0.8127631768
 40
0.8753596176
 40
0.9066296144
 40
0.9378602447
 40
0.96901391
 40
0.9845450163
 40
1.0
 40
1.0
 40
1.0
 40
1.0
 10
19.4643442137
 20
17.0528395947
 30
0.0
 10
19.4673128928
 20
17.0505841528
 30
0.0
 10
19.4729792005
 20
17.0457223153
 30
0.0
 10
19.4800448255
 20
17.0370308808
 30
0.0
 10
19.4842592223
 20
17.0265697354
 30
0.0
 10
19.4839186577
 20
17.0152589568
 30
0.0
 10
19.479385587
 20
17.0050130603
 30
0.0
 10
19.4702580837
 20
16.9932463024
 30
0.0
 10
19.4556947964
 20
16.9813418307
 30
0.0
 10
19.4364497979
 20
16.9697322342
 30
0.0
 10
19.4093900015
 20
16.9565239109
 30
0.0
 10
19.3741396288
 20
16.9430421388
 30
0.0
 10
19.3308207913
 20
16.9297981466
 30
0.0
 10
19.2868583014
 20
16.9186684157
 30
0.0
 10
19.2424846441
 20
16.9091812766
 30
0.0
 10
19.1978211331
 20
16.9010531014
 30
0.0
 10
19.1529456236
 20
16.8940935927
 30
0.0
 10
19.0928944676
 20
16.8861989752
 30
0.0
 10
19.0175250441
 20
16.878682411
 30
0.0
 10
18.9268083064
 20
16.8729446161
 30
0.0
 10
18.8359384161
 20
16.8702433551
 30
0.0
 10
18.7450256976
 20
16.870471515
 30
0.0
 10
18.6541717293
 20
16.8736377661
 30
0.0
 10
18.5634889811
 20
16.8798686142
 30
0.0
 10
18.4731183861
 20
16.8894370362
 30
0.0
 10
18.3832834977
 20
16.9028636779
 30
0.0
 10
18.3091361434
 20
16.9180506859
 30
0.0
 10
18.2507226312
 20
16.9336855218
 30
0.0
 10
18.2076881518
 20
16.947736058
 30
0.0
 10
18.1728350225
 20
16.9622249602
 30
0.0
 10
18.1465320976
 20
16.9767533901
 30
0.0
 10
18.1342984139
 20
16.985535764
 30
0.0
 10
18.1287508298
 20
16.9905348579
 30
0.0
  0
SPLINE
  5
24B
100
AcDbEntity
  8
0
100
AcDbSpline
 62
7
  6
BYLAYER
 70
0
 71
3
 72
17
 73
13
 74
0
 42
0.0000001
 43
0.0000001
 44
0.0000000001
 40
0.0
 40
0.0
 40
0.0
 40
0.0
 40
0.0187490316
 40
0.0483955803
 40
0.0869528252
 40
0.1324756584
 40
0.237138636
 40
0.355160753
 40
0.4899947293
 40
0.6448032142
 40
0.8168252189
 40
1.0
 40
1.0
 40
1.0
 40
1.0
 10
19.9968884128
 20
44.2235562491
 30
0.0
 10
19.9948827822
 20
44.2230788365
 30
0.0
 10
19.9898754143
 20
44.2212119501
 30
0.0
 10
19.9811331611
 20
44.2173529918
 30
0.0
 10
19.9700237152
 20
44.211583683
 30
0.0
 10
19.9521648598
 20
44.2009957297
 30
0.0
 10
19.9284624206
 20
44.1832272327
 30
0.0
 10
19.9006998654
 20
44.1553181924
 30
0.0
 10
19.8697196177
 20
44.1229369436
 30
0.0
 10
19.8327187421
 20
44.0881150484
 30
0.0
 10
19.7890792394
 20
44.0528054014
 30
0.0
 10
19.7565842583
 20
44.0309903721
 30
0.0
 10
19.7392655631
 20
44.0207059821
 30
0.0
  0
SPLINE
  5
24C
100
AcDbEntity
  8
0
100
AcDbSpline
 62
7
  6
BYLAYER
 70
0
 71
3
 72
15
 73
11
 74
0
 42
0.0000001
 43
0.0000001
 44
0.0000000001
 40
0.0
 40
0.0
 40
0.0
 40
0.0
 40
0.124805289
 40
0.2497430165
 40
0.3747972755
 40
0.4999972407
 40
0.6252027376
 40
0.750263963
 40
0.8751983493
 40
1.0
 40
1.0
 40
1.0
 40
1.0
 10
19.7392655631
 20
44.0207059821
 30
0.0
 10
19.6611481112
 20
44.0120018266
 30
0.0
 10
19.5048669052
 20
43.9942622039
 30
0.0
 10
19.2699752524
 20
43.9707969255
 30
0.0
 10
19.0341468039
 20
43.9549640496
 30
0.0
 10
18.7976599262
 20
43.9499471168
 30
0.0
 10
18.5611733144
 20
43.9550772396
 30
0.0
 10
18.3253360974
 20
43.9708455654
 30
0.0
 10
18.0904395022
 20
43.9942672244
 30
0.0
 10
17.9341608661
 20
44.0119898366
 30
0.0
 10
17.8560458342
 20
44.0206950195
 30
0.0
  0
SPLINE
  5
24D
100
AcDbEntity
  8
0
100
AcDbSpline
 62
7
  6
BYLAYER
 70
0
 71
3
 72
15
 73
11
 74
0
 42
0.0000001
 43
0.0000001
 44
0.0000000001
 40
0.0
 40
0.0
 40
0.0
 40
0.0
 40
0.3551686385
 40
0.5109130523
 40
0.6474478985
 40
0.7630989049
 40
0.8606993682
 40
0.9420663898
 40
0.974525547
 40
1.0
 40
1.0
 40
1.0
 40
1.0
 10
17.8560458342
 20
44.0206950195
 30
0.0
 10
17.8222816432
 20
44.0407538046
 30
0.0
 10
17.7767219347
 20
44.0748672919
 30
0.0
 10
17.7244473049
 20
44.1237770298
 30
0.0
 10
17.6927707206
 20
44.1559028848
 30
0.0
 10
17.6656479646
 20
44.1834726588
 30
0.0
 10
17.6408324924
 20
44.2047348329
 30
0.0
 10
17.6203997082
 20
44.2164794212
 30
0.0
 10
17.6059776684
 20
44.2219340812
 30
0.0
 10
17.599692278
 20
44.2233923094
 30
0.0
 10
17.5968884158
 20
44.2236626031
 30
0.0
  0
SPLINE
  5
24E
100
AcDbEntity
  8
0
100
AcDbSpline
 62
7
  6
BYLAYER
 70
0
 71
3
 72
9
 73
5
 74
0
 42
0.0000001
 43
0.0000001
 44
0.0000000001
 40
0.0
 40
0.0
 40
0.0
 40
0.0
 40
0.429787451
 40
1.0
 40
1.0
 40
1.0
 40
1.0
 10
17.5968884158
 20
44.2239435552
 30
0.0
 10
17.6775767362
 20
44.2740557528
 30
0.0
 10
17.8710474612
 20
44.3816353668
 30
0.0
 10
18.0777282025
 20
44.4631510484
 30
0.0
 10
18.1984589574
 20
44.4992685179
 30
0.0
  0
SPLINE
  5
24F
100
AcDbEntity
  8
0
100
AcDbSpline
 62
7
  6
BYLAYER
 70
0
 71
3
 72
11
 73
7
 74
0
 42
0.0000001
 43
0.0000001
 44
0.0000000001
 40
0.0
 40
0.0
 40
0.0
 40
0.0
 40
0.1536972176
 40
0.4973355503
 40
0.8460451271
 40
1.0
 40
1.0
 40
1.0
 40
1.0
 10
18.1984589574
 20
44.4992685179
 30
0.0
 10
18.2580158411
 20
44.5170853859
 30
0.0
 10
18.4531722353
 20
44.5666918076
 30
0.0
 10
18.7959781248
 20
44.6031242123
 30
0.0
 10
19.1390603354
 20
44.567372313
 30
0.0
 10
19.336325916
 20
44.5173169293
 30
0.0
 10
19.3959888387
 20
44.4994909282
 30
0.0
  0
SPLINE
  5
250
100
AcDbEntity
  8
0
100
AcDbSpline
 62
7
  6
BYLAYER
 70
0
 71
3
 72
11
 73
7
 74
0
 42
0.0000001
 43
0.0000001
 44
0.0000000001
 40
0.0
 40
0.0
 40
0.0
 40
0.0
 40
0.3133467905
 40
0.5696515228
 40
0.7945358552
 40
1.0
 40
1.0
 40
1.0
 40
1.0
 10
19.3959888387
 20
44.4994909282
 30
0.0
 10
19.4621716755
 20
44.4797169168
 30
0.0
 10
19.5808855109
 20
44.4381360188
 30
0.0
 10
19.7411745795
 20
44.3672481934
 30
0.0
 10
19.875627029
 20
44.2975214998
 30
0.0
 10
19.957329537
 20
44.2492574104
 30
0.0
 10
19.9960856541
 20
44.2258192121
 30
0.0
  0
SPLINE
  5
251
100
AcDbEntity
  8
0
100
AcDbSpline
 62
7
  6
BYLAYER
 70
0
 71
3
 72
62
 73
58
 74
0
 42
0.0000001
 43
0.0000001
 44
0.0000000001
 40
0.0
 40
0.0
 40
0.0
 40
0.0
 40
0.0079200913
 40
0.0158466056
 40
0.023760698
 40
0.0316693841
 40
0.0395892436
 40
0.0475125966
 40
0.0554246902
 40
0.0633302382
 40
0.0712348134
 40
0.079140724
 40
0.087046305
 40
0.0949578161
 40
0.1028681204
 40
0.1107708009
 40
0.1186760069
 40
0.1265899123
 40
0.1345048455
 40
0.1424027679
 40
0.1463445905
 40
0.1502862919
 40
0.1581827329
 40
0.1660945594
 40
0.1700501128
 40
0.1740028291
 40
0.1819023753
 40
0.1897990197
 40
0.205591765
 40
0.221379802
 40
0.2292705663
 40
0.2371613202
 40
0.2529429999
 40
0.260831582
 40
0.2687186075
 40
0.2844895565
 40
0.2923730287
 40
0.3002550428
 40
0.3160154222
 40
0.3317703734
 40
0.3475192244
 40
0.363261951
 40
0.3789981761
 40
0.3947277978
 40
0.4104504772
 40
0.441873642
 40
0.4575736446
 40
0.473265551
 40
0.5046240364
 40
0.535946796
 40
0.5672315987
 40
0.6296785227
 40
0.6919471337
 40
0.7540197804
 40
0.8158788797
 40
0.8775067726
 40
1.0
 40
1.0
 40
1.0
 40
1.0
 10
19.4994140735
 20
30.386502832
 30
0.0
 10
19.5099834695
 20
30.4201663589
 30
0.0
 10
19.5292703769
 20
30.4881294533
 30
0.0
 10
19.5513348857
 20
30.5917475903
 30
0.0
 10
19.5651106048
 20
30.6967908051
 30
0.0
 10
19.5691524886
 20
30.8026196451
 30
0.0
 10
19.5652076725
 20
30.9084353406
 30
0.0
 10
19.5550791587
 20
31.0138252974
 30
0.0
 10
19.540117009
 20
31.1185595226
 30
0.0
 10
19.5206014631
 20
31.2224632828
 30
0.0
 10
19.4964807133
 20
31.3253469027
 30
0.0
 10
19.4708139939
 20
31.427830667
 30
0.0
 10
19.4482225812
 20
31.5311187815
 30
0.0
 10
19.432068171
 20
31.6356518873
 30
0.0
 10
19.4220720742
 20
31.740934509
 30
0.0
 10
19.4186444401
 20
31.8466037377
 30
0.0
 10
19.4206437299
 20
31.9522996291
 30
0.0
 10
19.4267562957
 20
32.0578747622
 30
0.0
 10
19.4350275752
 20
32.1632473295
 30
0.0
 10
19.4400468382
 20
32.2511395394
 30
0.0
 10
19.4408734837
 20
32.3214571205
 30
0.0
 10
19.4388950045
 20
32.3917449136
 30
0.0
 10
19.4324304635
 20
32.4795232558
 30
0.0
 10
19.4238910817
 20
32.5671515948
 30
0.0
 10
19.4177370478
 20
32.6373627397
 30
0.0
 10
19.4126917125
 20
32.7076078527
 30
0.0
 10
19.408258754
 20
32.7954870274
 30
0.0
 10
19.4042140143
 20
32.9361653285
 30
0.0
 10
19.4031952475
 20
33.1120401272
 30
0.0
 10
19.402365261
 20
33.287892038
 30
0.0
 10
19.3981305194
 20
33.4284799002
 30
0.0
 10
19.3913696311
 20
33.568934412
 30
0.0
 10
19.3828646876
 20
33.7092825049
 30
0.0
 10
19.3762025205
 20
33.8497148277
 30
0.0
 10
19.3712987508
 20
33.9901707913
 30
0.0
 10
19.3677365348
 20
34.1306424708
 30
0.0
 10
19.3635773039
 20
34.2710754897
 30
0.0
 10
19.3583449335
 20
34.4114261723
 30
0.0
 10
19.3504320627
 20
34.5867624844
 30
0.0
 10
19.3409133583
 20
34.7971086469
 30
0.0
 10
19.3331157353
 20
35.0074476587
 30
0.0
 10
19.3257634743
 20
35.2177174203
 30
0.0
 10
19.3175995022
 20
35.4278726133
 30
0.0
 10
19.3085886721
 20
35.6379030533
 30
0.0
 10
19.2965061511
 20
35.9177509972
 30
0.0
 10
19.2857605052
 20
36.1975220896
 30
0.0
 10
19.2750335261
 20
36.4771556889
 30
0.0
 10
19.2637662292
 20
36.7564799627
 30
0.0
 10
19.2490172437
 20
37.1053185325
 30
0.0
 10
19.2317708083
 20
37.5235792344
 30
0.0
 10
19.2092190549
 20
38.0802367773
 30
0.0
 10
19.1810656425
 20
38.7746433579
 30
0.0
 10
19.1468728619
 20
39.6060766365
 30
0.0
 10
19.112286498
 20
40.4348726137
 30
0.0
 10
19.0772932937
 20
41.2607945934
 30
0.0
 10
19.0300736894
 20
42.3556117634
 30
0.0
 10
18.9932165516
 20
43.1750385795
 30
0.0
 10
18.9681346914
 20
43.720165693
 30
0.0
  0
SPLINE
  5
252
100
AcDbEntity
  8
0
100
AcDbSpline
 62
7
  6
BYLAYER
 70
0
 71
3
 72
40
 73
36
 74
0
 42
0.0000001
 43
0.0000001
 44
0.0000000001
 40
0.0
 40
0.0
 40
0.0
 40
0.0
 40
0.1225564179
 40
0.1841988458
 40
0.246063074
 40
0.3081336587
 40
0.3703945617
 40
0.4328298952
 40
0.4954237722
 40
0.5581600971
 40
0.5895766316
 40
0.6210229096
 40
0.6524969388
 40
0.6839961177
 40
0.7155187806
 40
0.7312886071
 40
0.7470642602
 40
0.7786306587
 40
0.794417186
 40
0.8102043101
 40
0.8259969548
 40
0.8418032474
 40
0.8497155569
 40
0.8576332244
 40
0.8734598259
 40
0.8813593025
 40
0.889249309
 40
0.8971376563
 40
0.9050348568
 40
0.920860787
 40
0.9287806634
 40
0.9366990071
 40
0.9525266114
 40
0.9683590551
 40
1.0
 40
1.0
 40
1.0
 40
1.0
 10
18.6270563933
 20
43.7201656854
 30
0.0
 10
18.603291527
 20
43.2029797144
 30
0.0
 10
18.5682582573
 20
42.4256317287
 30
0.0
 10
18.5234751151
 20
41.3871190855
 30
0.0
 10
18.4903493419
 20
40.6038601101
 30
0.0
 10
18.457563369
 20
39.817971877
 30
0.0
 10
18.4249741673
 20
39.0296608136
 30
0.0
 10
18.3925045744
 20
38.2391323281
 30
0.0
 10
18.3598990405
 20
37.4465993976
 30
0.0
 10
18.3327276236
 20
36.7849905072
 30
0.0
 10
18.3116032845
 20
36.2548256636
 30
0.0
 10
18.2962580763
 20
35.8566010437
 30
0.0
 10
18.2815460121
 20
35.4580036652
 30
0.0
 10
18.2656938345
 20
35.0591246772
 30
0.0
 10
18.2503177173
 20
34.7266286898
 30
0.0
 10
18.2390039741
 20
34.4604411259
 30
0.0
 10
18.2292225834
 20
34.1940061849
 30
0.0
 10
18.2219102138
 20
33.9274219849
 30
0.0
 10
18.2135468635
 20
33.6608207177
 30
0.0
 10
18.2057789056
 20
33.4608747682
 30
0.0
 10
18.1983277531
 20
33.2608343626
 30
0.0
 10
18.1940885519
 20
33.0939650394
 30
0.0
 10
18.1930482999
 20
32.9603199789
 30
0.0
 10
18.1932463943
 20
32.8265911883
 30
0.0
 10
18.1931515141
 20
32.6928983204
 30
0.0
 10
18.1889656265
 20
32.5593903886
 30
0.0
 10
18.1828706199
 20
32.4595278357
 30
0.0
 10
18.1726389338
 20
32.3600095013
 30
0.0
 10
18.1544495276
 20
32.2276961944
 30
0.0
 10
18.1322545862
 20
32.0958684973
 30
0.0
 10
18.1109764052
 20
31.9638049945
 30
0.0
 10
18.0921100599
 20
31.8313708862
 30
0.0
 10
18.0750931646
 20
31.664884534
 30
0.0
 10
18.0653427301
 20
31.3977294225
 30
0.0
 10
18.0815813638
 20
31.1957189174
 30
0.0
 10
18.1109813563
 20
31.0653271699
 30
0.0
  0
SPLINE
  5
253
100
AcDbEntity
  8
0
100
AcDbSpline
 62
7
  6
BYLAYER
 70
0
 71
3
 72
35
 73
31
 74
0
 42
0.0000001
 43
0.0000001
 44
0.0000000001
 40
0.0
 40
0.0
 40
0.0
 40
0.0
 40
0.1225931277
 40
0.2461103449
 40
0.308178758
 40
0.3704340511
 40
0.4328612467
 40
0.4954454777
 40
0.5581719593
 40
0.5895838299
 40
0.6210255082
 40
0.6524951052
 40
0.6839910433
 40
0.7155117807
 40
0.747054864
 40
0.7786170281
 40
0.810197064
 40
0.825994934
 40
0.8417998776
 40
0.8576119927
 40
0.8734248132
 40
0.8892331327
 40
0.8971364348
 40
0.9050410661
 40
0.9208582584
 40
0.9366820035
 40
0.9525054129
 40
0.9683334498
 40
0.9841674068
 40
1.0
 40
1.0
 40
1.0
 40
1.0
 10
19.4643442137
 20
17.0528395947
 30
0.0
 10
19.4586482945
 20
17.5519809233
 30
0.0
 10
19.44866029
 20
18.5540439323
 30
0.0
 10
19.4411005232
 20
19.8088643268
 30
0.0
 10
19.4375345614
 20
20.8180152737
 30
0.0
 10
19.4362093023
 20
21.5784255634
 30
0.0
 10
19.4363345285
 20
22.3409374087
 30
0.0
 10
19.4381342699
 20
23.105365708
 30
0.0
 10
19.4407882924
 20
23.7435023941
 30
0.0
 10
19.44352633
 20
24.2548309897
 30
0.0
 10
19.4459586459
 20
24.6388876844
 30
0.0
 10
19.4488076293
 20
25.0232837934
 30
0.0
 10
19.4519033706
 20
25.4079999034
 30
0.0
 10
19.4549548864
 20
25.7930154549
 30
0.0
 10
19.4581795584
 20
26.1782998137
 30
0.0
 10
19.4627858853
 20
26.563811698
 30
0.0
 10
19.4677272074
 20
26.8852031106
 30
0.0
 10
19.4695387604
 20
27.1424666877
 30
0.0
 10
19.4691007879
 20
27.3355337999
 30
0.0
 10
19.4667325556
 20
27.5286447109
 30
0.0
 10
19.4650451272
 20
27.7217766504
 30
0.0
 10
19.4661045095
 20
27.8827228064
 30
0.0
 10
19.4695996773
 20
28.0114156533
 30
0.0
 10
19.4753000622
 20
28.1400659875
 30
0.0
 10
19.4854199353
 20
28.3007761197
 30
0.0
 10
19.4982708354
 20
28.4936097342
 30
0.0
 10
19.5077730005
 20
28.6867146653
 30
0.0
 10
19.5099660067
 20
28.880099647
 30
0.0
 10
19.5057288857
 20
29.0734700492
 30
0.0
 10
19.4991220582
 20
29.2022593182
 30
0.0
 10
19.4950029885
 20
29.2665946318
 30
0.0
  0
SPLINE
  5
254
100
AcDbEntity
  8
0
100
AcDbSpline
 62
7
  6
BYLAYER
 70
0
 71
3
 72
37
 73
33
 74
0
 42
0.0000001
 43
0.0000001
 44
0.0000000001
 40
0.0
 40
0.0
 40
0.0
 40
0.0
 40
0.0158371132
 40
0.0316785611
 40
0.0475099332
 40
0.0633322437
 40
0.0791580792
 40
0.0949778512
 40
0.102881628
 40
0.1107823226
 40
0.1265856003
 40
0.1423988361
 40
0.1582151526
 40
0.1661206568
 40
0.1740232285
 40
0.1898216415
 40
0.2214005926
 40
0.2371828905
 40
0.2529610194
 40
0.2845037163
 40
0.3160243994
 40
0.347519656
 40
0.37898834
 40
0.4104292172
 40
0.4418404085
 40
0.5045655332
 40
0.5671483152
 40
0.6295741017
 40
0.6918280061
 40
0.7538950294
 40
0.8774095348
 40
1.0
 40
1.0
 40
1.0
 40
1.0
 10
18.1002046236
 20
29.2656312109
 30
0.0
 10
18.0939699208
 20
29.2014466948
 30
0.0
 10
18.0836155838
 20
29.0728390529
 30
0.0
 10
18.0755777689
 20
28.8795023762
 30
0.0
 10
18.0760444882
 20
28.6860245649
 30
0.0
 10
18.0866248436
 20
28.4929210673
 30
0.0
 10
18.1027262525
 20
28.3003107696
 30
0.0
 10
18.1161561872
 20
28.1398260139
 30
0.0
 10
18.1243247975
 20
28.0113080987
 30
0.0
 10
18.1297413934
 20
27.8827094875
 30
0.0
 10
18.1317007467
 20
27.7217816018
 30
0.0
 10
18.1296978439
 20
27.5286489794
 30
0.0
 10
18.126981564
 20
27.3676900349
 30
0.0
 10
18.1257853522
 20
27.2389240041
 30
0.0
 10
18.1256902112
 20
27.1102252987
 30
0.0
 10
18.1278098951
 20
26.8851373045
 30
0.0
 10
18.1334331194
 20
26.6280180616
 30
0.0
 10
18.137761896
 20
26.3709586145
 30
0.0
 10
18.1405442401
 20
26.1140247701
 30
0.0
 10
18.1422029709
 20
25.7929960199
 30
0.0
 10
18.1440013837
 20
25.407970158
 30
0.0
 10
18.1467417397
 20
25.0232508289
 30
0.0
 10
18.1495133493
 20
24.6388570223
 30
0.0
 10
18.1518240912
 20
24.2548023064
 30
0.0
 10
18.1543660496
 20
23.743474979
 30
0.0
 10
18.15690487
 20
23.10534054
 30
0.0
 10
18.1587823134
 20
22.340915796
 30
0.0
 10
18.1590270093
 20
21.5784074277
 30
0.0
 10
18.1578097671
 20
20.818000195
 30
0.0
 10
18.1542913571
 20
19.808852964
 30
0.0
 10
18.1464204641
 20
18.5540391912
 30
0.0
 10
18.1364874316
 20
17.5519797653
 30
0.0
 10
18.1308468242
 20
17.052839588
 30
0.0
  0
SPLINE
  5
255
100
AcDbEntity
  8
0
100
AcDbSpline
 62
7
  6
BYLAYER
 70
0
 71
3
 72
32
 73
28
 74
0
 42
0.0000001
 43
0.0000001
 44
0.0000000001
 40
0.0
 40
0.0
 40
0.0
 40
0.0
 40
0.0312802725
 40
0.062524236
 40
0.0781338389
 40
0.0937244546
 40
0.1092193721
 40
0.1248697615
 40
0.1325837648
 40
0.1401688322
 40
0.1552763211
 40
0.1706922192
 40
0.1861806703
 40
0.2172877531
 40
0.2485034333
 40
0.2797559355
 40
0.3110366341
 40
0.3423335515
 40
0.3736416892
 40
0.4362756772
 40
0.498927424
 40
0.5615892995
 40
0.6242564676
 40
0.74957587
 40
0.8748487512
 40
0.9374574882
 40
1.0
 40
1.0
 40
1.0
 40
1.0
 10
18.6270563933
 20
43.7201656854
 30
0.0
 10
18.6218850354
 20
43.7211528089
 30
0.0
 10
18.6116037445
 20
43.723412979
 30
0.0
 10
18.5988942974
 20
43.7268347084
 30
0.0
 10
18.5889557512
 20
43.7302677691
 30
0.0
 10
18.5816910951
 20
43.7332838141
 30
0.0
 10
18.5746471388
 20
43.7367906687
 30
0.0
 10
18.5691988647
 20
43.7405186739
 30
0.0
 10
18.5657342225
 20
43.7444843916
 30
0.0
 10
18.5637396664
 20
43.7493045276
 30
0.0
 10
18.564685447
 20
43.756199978
 30
0.0
 10
18.5701518659
 20
43.7620480987
 30
0.0
 10
18.5789665259
 20
43.7676420865
 30
0.0
 10
18.5910046033
 20
43.7729686311
 30
0.0
 10
18.6059980709
 20
43.7778016486
 30
0.0
 10
18.6212531171
 20
43.7818639918
 30
0.0
 10
18.6366991992
 20
43.7851744953
 30
0.0
 10
18.6522582112
 20
43.7879474639
 30
0.0
 10
18.6731081629
 20
43.791058942
 30
0.0
 10
18.6992981217
 20
43.7940778888
 30
0.0
 10
18.7308321326
 20
43.7966388588
 30
0.0
 10
18.7624366875
 20
43.7982229945
 30
0.0
 10
18.8046233409
 20
43.7989611899
 30
0.0
 10
18.8573531666
 20
43.7974979144
 30
0.0
 10
18.9099284407
 20
43.7930130584
 30
0.0
 10
18.9516078708
 20
43.7866637609
 30
0.0
 10
18.9722374453
 20
43.7822774819
 30
0.0
 10
18.9824103284
 20
43.7795723079
 30
0.0
  0
SPLINE
  5
256
100
AcDbEntity
  8
0
100
AcDbSpline
 62
7
  6
BYLAYER
 70
0
 71
3
 72
22
 73
18
 74
0
 42
0.0000001
 43
0.0000001
 44
0.0000000001
 40
0.0
 40
0.0
 40
0.0
 40
0.0
 40
0.1254413321
 40
0.1881385078
 40
0.2504004873
 40
0.3130137233
 40
0.3753476885
 40
0.437126034
 40
0.4676629005
 40
0.4978161129
 40
0.5293450637
 40
0.5615340755
 40
0.6240120054
 40
0.6862210796
 40
0.7489499419
 40
0.8744169608
 40
1.0
 40
1.0
 40
1.0
 40
1.0
 10
18.9824103284
 20
43.7795723079
 30
0.0
 10
18.9877624656
 20
43.7781490671
 30
0.0
 10
18.995749221
 20
43.775841574
 30
0.0
 10
19.0061710173
 20
43.7721441366
 30
0.0
 10
19.0137374952
 20
43.7687247176
 30
0.0
 10
19.0209170906
 20
43.7646926869
 30
0.0
 10
19.0279363155
 20
43.7600864521
 30
0.0
 10
19.0310683897
 20
43.7534988114
 30
0.0
 10
19.0308895551
 20
43.7479735915
 30
0.0
 10
19.0290701142
 20
43.7442199624
 30
0.0
 10
19.0262484583
 20
43.7411456543
 30
0.0
 10
19.0218645764
 20
43.7376846106
 30
0.0
 10
19.0157972597
 20
43.7342758025
 30
0.0
 10
19.0081784894
 20
43.7310391314
 30
0.0
 10
18.9977900826
 20
43.7272393227
 30
0.0
 10
18.9844042391
 20
43.7236049158
 30
0.0
 10
18.9735808834
 20
43.721204594
 30
0.0
 10
18.9681346914
 20
43.720165693
 30
0.0
  0
SPLINE
  5
257
100
AcDbEntity
  8
0
100
AcDbSpline
 62
7
  6
BYLAYER
 70
0
 71
3
 72
13
 73
9
 74
0
 42
0.0000001
 43
0.0000001
 44
0.0000000001
 40
0.0
 40
0.0
 40
0.0
 40
0.0
 40
0.2506999328
 40
0.375357192
 40
0.4991541718
 40
0.6234062632
 40
0.7482981323
 40
1.0
 40
1.0
 40
1.0
 40
1.0
 10
18.1287508298
 20
16.9905348579
 30
0.0
 10
18.1241145798
 20
16.9947127214
 30
0.0
 10
18.1176424868
 20
17.0016932475
 30
0.0
 10
18.1121619402
 20
17.0129776939
 30
0.0
 10
18.1107045622
 20
17.0223226918
 30
0.0
 10
18.1126007094
 20
17.0316071991
 30
0.0
 10
18.1188091124
 20
17.0425762805
 30
0.0
 10
18.1258575534
 20
17.0490490099
 30
0.0
 10
18.1308468242
 20
17.052839588
 30
0.0
  0
ENDSEC
  0
SECTION
  2
OBJECTS
  0
DICTIONARY
  5
C
100
AcDbDictionary
280
0
281
1
  3
ACAD_GROUP
350
D
  3
ACAD_MLINESTYLE
350
17
  3
ACAD_LAYOUT
350
1A
  3
ACAD_PLOTSETTINGS
350
19
  3
ACAD_PLOTSTYLENAME
350
E
  0
DICTIONARY
  5
D
102
{ACAD_REACTORS
330
C
102
}
100
AcDbDictionary
280
0
281
1
  0
ACDBDICTIONARYWDFLT
  5
E
102
{ACAD_REACTORS
330
C
102
}
100
AcDbDictionary
281
1
  3
Normal
350
F
100
AcDbDictionaryWithDefault
340
F
  0
DICTIONARY
  5
17
102
{ACAD_REACTORS
330
C
102
}
100
AcDbDictionary
280
0
281
1
  3
Standard
350
18
  0
DICTIONARY
  5
19
102
{ACAD_REACTORS
330
C
102
}
100
AcDbDictionary
281
1
  0
DICTIONARY
  5
1A
102
{ACAD_REACTORS
330
C
102
}
100
AcDbDictionary
281
1
  3
Model
350
258
  3
Layout1
350
259
  0
ACDBPLACEHOLDER
  5
F
102
{ACAD_REACTORS
330
E
102
}
  0
MLINESTYLE
  5
18
102
{ACAD_REACTORS
330
17
102
}
100
AcDbMlineStyle
  2
STANDARD
 70
0
  3

 62
256
 51
90.0
 52
90.0
 71
2
 49
0.5
 62
256
  6
BYLAYER
 49
-0.5
 62
256
  6
BYLAYER
  0
LAYOUT
  5
258
102
{ACAD_REACTORS
330
1A
102
}
100
AcDbPlotSettings
  1

  2
none_device
  4

  6

 40
0.0
 41
0.0
 42
0.0
 43
0.0
 44
210.0
 45
297.0
 46
0.0
 47
0.0
 48
0.0
 49
0.0
140
0.0
141
0.0
142
1.0
143
1.0
 70
1024
 72
1
 73
0
 74
0
  7

 75
0
147
1.0
148
0.0
149
0.0
100
AcDbLayout
  1
Model
 70
0
 71
0
 10
0.0
 20
0.0
 11
210.0
 21
297.0
 12
0.0
 22
0.0
 32
0.0
 14
0.0
 24
0.0
 34
0.0
 15
0.0
 25
0.0
 35
0.0
146
0.0
 13
0.0
 23
0.0
 33
0.0
 16
1.0
 26
0.0
 36
0.0
 17
0.0
 27
1.0
 37
0.0
 76
0
330
210
345
0
346
0
  0
LAYOUT
  5
259
102
{ACAD_REACTORS
330
1A
102
}
100
AcDbPlotSettings
  1

  2
none_device
  4

  6

 40
0.0
 41
0.0
 42
0.0
 43
0.0
 44
210.0
 45
297.0
 46
0.0
 47
0.0
 48
0.0
 49
0.0
140
0.0
141
0.0
142
1.0
143
1.0
 70
0
 72
1
 73
0
 74
0
  7

 75
0
147
1.0
148
0.0
149
0.0
100
AcDbLayout
  1
Layout1
 70
0
 71
1
 10
0.0
 20
0.0
 11
210.0
 21
297.0
 12
0.0
 22
0.0
 32
0.0
 14
0.0
 24
0.0
 34
0.0
 15
0.0
 25
0.0
 35
0.0
146
0.0
 13
0.0
 23
0.0
 33
0.0
 16
1.0
 26
0.0
 36
0.0
 17
0.0
 27
1.0
 37
0.0
 76
0
330
211
345
0
346
0
  0
ENDSEC
  0
EOF
