999
DXF file: C:\Users\sesa63760\Dev\_Creo\CAD\MCADID0005568_3D-CAD\drw0001_1.dxf
999
Pro/ENGINEER 2019471 by Parametric Technology Corporation
  0
SECTION
  2
HEADER
  9
$ACADVER
  1
AC1024
  9
$DWGCODEPAGE
  3
ANSI_1252
  9
$EXTMAX
 10
51.4757392015
 20
72.801402585
 30
0.0
  9
$EXTMIN
 10
0.0
 20
0.0
 30
0.0
  9
$LIMMIN
 10
0.0
 20
0.0
  9
$LIMMAX
 10
51.4757392015
 20
72.801402585
  9
$VIEWCTR
 10
25.7378696008
 20
36.4007012925
  9
$VIEWSIZE
 40
72.801402585
  9
$CLAYER
  8
0
  9
$LTSCALE
 40
4.7455729092
  9
$CELTYPE
  6
BYLAYER
  9
$DIMSCALE
 40
1.0
  9
$DIMASZ
 40
0.6128064191
  9
$DIMEXO
 40
1.0
  9
$DIMDLI
 40
3.2787594646
  9
$DIMEXE
 40
1.0
  9
$DIMCEN
 40
0.7765482942
  9
$DIMLFAC
 40
1.0
  9
$DIMBLK
  1
_FILLED
  9
$DIMALT
 70
0
  9
$DIMALTF
 40
0.0393700787
  9
$DIMTXT
 40
0.8579289867
  9
$DIMTOL
 70
1
  9
$DIMLIM
 70
0
  9
$DIMTFAC
 40
1.0
  9
$DIMTP
 40
0.01
  9
$DIMTM
 40
0.01
  9
$DIMGAP
 40
0.625
  9
$DIMDSEP
 70
46
  9
$AUNITS
 70
0
  9
$PDMODE
 70
3
  9
$PDSIZE
 40
0.3125
  9
$HANDSEED
  5
563
  9
$TILEMODE
 70
1
  9
$MEASUREMENT
 70
1
  9
$INSUNITS
 70
4
  0
ENDSEC
  0
SECTION
  2
CLASSES
  0
CLASS
  1
ACDBDICTIONARYWDFLT
  2
AcDbDictionaryWithDefault
  3
AutoCAD 2000
 90
0
 91
1
280
0
281
0
  0
CLASS
  1
ACDBPLACEHOLDER
  2
AcDbPlaceHolder
  3
AutoCAD 2000
 90
0
 91
1
280
0
281
0
  0
CLASS
  1
LAYOUT
  2
AcDbLayout
  3
AutoCAD 2000
 90
0
 91
0
280
0
281
0
  0
ENDSEC
  0
SECTION
  2
TABLES
  0
TABLE
  2
VPORT
  5
8
100
AcDbSymbolTable
 70
2
  0
VPORT
  5
1F4
100
AcDbSymbolTableRecord
100
AcDbViewportTableRecord
  2
*ACTIVE
 70
0
 10
0.0
 20
0.0
 11
1.0
 21
1.0
 12
25.7378696008
 22
36.4007012925
 13
0.0
 23
0.0
 14
1.0
 24
1.0
 15
0.0
 25
0.0
 16
0.0
 26
0.0
 36
1.0
 17
0.0
 27
0.0
 37
0.0
 40
72.801402585
 41
0.7070707071
 42
50.0
 43
0.0
 44
0.0
 50
0.0
 51
0.0
 71
0
 72
100
 73
1
 74
1
 75
0
 76
0
 77
0
 78
0
  0
ENDTAB
  0
TABLE
  2
LTYPE
  5
5
100
AcDbSymbolTable
 70
6
  0
LTYPE
  5
14
100
AcDbSymbolTableRecord
100
AcDbLinetypeTableRecord
  2
BYBLOCK
 70
0
  3

 72
65
 73
0
 40
0.0
  0
LTYPE
  5
15
100
AcDbSymbolTableRecord
100
AcDbLinetypeTableRecord
  2
BYLAYER
 70
0
  3

 72
65
 73
0
 40
0.0
  0
LTYPE
  5
16
100
AcDbSymbolTableRecord
100
AcDbLinetypeTableRecord
  2
CONTINUOUS
 70
64
  3
Solid line
 72
65
 73
0
 40
0.0
  0
LTYPE
  5
1F5
100
AcDbSymbolTableRecord
100
AcDbLinetypeTableRecord
  2
CENTER
 70
64
  3
____ _ ____ _ ____ _ ____ _ ____ _ ____ _ ____
 72
65
 73
4
 40
0.6
 49
0.375
 74
0
 49
-0.075
 74
0
 49
0.075
 74
0
 49
-0.075
 74
0
  0
LTYPE
  5
1F6
100
AcDbSymbolTableRecord
100
AcDbLinetypeTableRecord
  2
HIDDEN
 70
64
  3
- - - - - - - - - - - - - - - - - - - -
 72
65
 73
2
 40
0.2
 49
0.1
 74
0
 49
-0.1
 74
0
  0
LTYPE
  5
1F7
100
AcDbSymbolTableRecord
100
AcDbLinetypeTableRecord
  2
PHANTOM
 70
64
  3
_____ _ _ _____ _ _ _____ _ _ _____
 72
65
 73
6
 40
0.8
 49
0.45
 74
0
 49
-0.05
 74
0
 49
0.1
 74
0
 49
-0.05
 74
0
 49
0.1
 74
0
 49
-0.05
 74
0
  0
LTYPE
  5
1F8
100
AcDbSymbolTableRecord
100
AcDbLinetypeTableRecord
  2
DOT
 70
64
  3
. . . . . . . . . . . . . . . . . . . .
 72
65
 73
2
 40
0.2
 49
0.1
 74
0
 49
-0.1
 74
0
  0
LTYPE
  5
1F9
100
AcDbSymbolTableRecord
100
AcDbLinetypeTableRecord
  2
DASHED
 70
64
  3
- - - - - - - - - - - - - - - - - - - -
 72
65
 73
2
 40
0.2
 49
0.1
 74
0
 49
-0.1
 74
0
  0
ENDTAB
  0
TABLE
  2
LAYER
  5
2
100
AcDbSymbolTable
 70
36
  0
LAYER
  5
10
100
AcDbSymbolTableRecord
100
AcDbLayerTableRecord
  2
0
 70
0
 62
7
  6
CONTINUOUS
370
-3
390
F
  0
LAYER
  5
1FA
100
AcDbSymbolTableRecord
100
AcDbLayerTableRecord
  2
DEFAULT_1
 70
0
 62
7
  6
CENTER
370
-3
390
F
  0
LAYER
  5
1FB
100
AcDbSymbolTableRecord
100
AcDbLayerTableRecord
  2
DEFAULT_2
 70
0
 62
7
  6
HIDDEN
370
-3
390
F
  0
LAYER
  5
1FC
100
AcDbSymbolTableRecord
100
AcDbLayerTableRecord
  2
DEFAULT_3
 70
0
 62
7
  6
PHANTOM
370
-3
390
F
  0
LAYER
  5
1FD
100
AcDbSymbolTableRecord
100
AcDbLayerTableRecord
  2
00_COMPONENTS
 70
0
 62
7
  6
CONTINUOUS
370
-3
390
F
  0
LAYER
  5
1FE
100
AcDbSymbolTableRecord
100
AcDbLayerTableRecord
  2
01_1_DEFAULT_DATUMS
 70
0
 62
7
  6
CONTINUOUS
370
-3
390
F
  0
LAYER
  5
1FF
100
AcDbSymbolTableRecord
100
AcDbLayerTableRecord
  2
01_PLANES
 70
0
 62
7
  6
CONTINUOUS
370
-3
390
F
  0
LAYER
  5
200
100
AcDbSymbolTableRecord
100
AcDbLayerTableRecord
  2
02_COORD_SYS
 70
0
 62
7
  6
CONTINUOUS
370
-3
390
F
  0
LAYER
  5
201
100
AcDbSymbolTableRecord
100
AcDbLayerTableRecord
  2
03_AXES
 70
0
 62
7
  6
CONTINUOUS
370
-3
390
F
  0
LAYER
  5
202
100
AcDbSymbolTableRecord
100
AcDbLayerTableRecord
  2
04_POINTS
 70
0
 62
7
  6
CONTINUOUS
370
-3
390
F
  0
LAYER
  5
203
100
AcDbSymbolTableRecord
100
AcDbLayerTableRecord
  2
05_CURVES
 70
0
 62
7
  6
CONTINUOUS
370
-3
390
F
  0
LAYER
  5
204
100
AcDbSymbolTableRecord
100
AcDbLayerTableRecord
  2
06_SURFS
 70
0
 62
7
  6
CONTINUOUS
370
-3
390
F
  0
LAYER
  5
205
100
AcDbSymbolTableRecord
100
AcDbLayerTableRecord
  2
07_COSMETICS
 70
0
 62
7
  6
CONTINUOUS
370
-3
390
F
  0
LAYER
  5
206
100
AcDbSymbolTableRecord
100
AcDbLayerTableRecord
  2
10_NOTES
 70
0
 62
7
  6
CONTINUOUS
370
-3
390
F
  0
LAYER
  5
207
100
AcDbSymbolTableRecord
100
AcDbLayerTableRecord
  2
11_NOTES_PUB
 70
0
 62
7
  6
CONTINUOUS
370
-3
390
F
  0
LAYER
  5
208
100
AcDbSymbolTableRecord
100
AcDbLayerTableRecord
  2
13_REF_GTOL
 70
0
 62
7
  6
CONTINUOUS
370
-3
390
F
  0
LAYER
  5
209
100
AcDbSymbolTableRecord
100
AcDbLayerTableRecord
  2
16_MISC
 70
0
 62
7
  6
CONTINUOUS
370
-3
390
F
  0
LAYER
  5
20A
100
AcDbSymbolTableRecord
100
AcDbLayerTableRecord
  2
17_NO_PRINT
 70
0
 62
7
  6
CONTINUOUS
370
-3
390
F
  0
LAYER
  5
20B
100
AcDbSymbolTableRecord
100
AcDbLayerTableRecord
  2
18_DATUM_CAMS_JOINTS
 70
0
 62
7
  6
CONTINUOUS
370
-3
390
F
  0
LAYER
  5
20C
100
AcDbSymbolTableRecord
100
AcDbLayerTableRecord
  2
19_DATUM_FUNCTIONAL
 70
0
 62
7
  6
CONTINUOUS
370
-3
390
F
  0
LAYER
  5
20D
100
AcDbSymbolTableRecord
100
AcDbLayerTableRecord
  2
20_DATUM_KINEMATIC_SCHEME
 70
0
 62
7
  6
CONTINUOUS
370
-3
390
F
  0
ENDTAB
  0
TABLE
  2
STYLE
  5
3
100
AcDbSymbolTable
 70
1
  0
STYLE
  5
11
100
AcDbSymbolTableRecord
100
AcDbTextStyleTableRecord
  2
STANDARD
 70
0
 40
0.0
 41
1.0
 50
0.0
 71
0
 42
0.2
  3
ARIAL.TTF
  4

  0
STYLE
  5
20E
100
AcDbSymbolTableRecord
100
AcDbTextStyleTableRecord
  2
TEXTSTYLE_1
 70
0
 40
0.0
 41
0.8
 50
0.0
 71
0
 42
0.2
  3
gdt
  4

  0
ENDTAB
  0
TABLE
  2
VIEW
  5
6
100
AcDbSymbolTable
 70
0
  0
ENDTAB
  0
TABLE
  2
UCS
  5
7
100
AcDbSymbolTable
 70
0
  0
ENDTAB
  0
TABLE
  2
APPID
  5
9
100
AcDbSymbolTable
 70
1
  0
APPID
  5
20F
100
AcDbSymbolTableRecord
100
AcDbRegAppTableRecord
  2
ACAD
 70
0
  0
ENDTAB
  0
TABLE
  2
BLOCK_RECORD
  5
1
100
AcDbSymbolTable
 70
0
  0
BLOCK_RECORD
  5
210
100
AcDbSymbolTableRecord
100
AcDbBlockTableRecord
  2
*Model_Space
  0
BLOCK_RECORD
  5
211
100
AcDbSymbolTableRecord
100
AcDbBlockTableRecord
  2
*Paper_Space
  0
BLOCK_RECORD
  5
212
100
AcDbSymbolTableRecord
100
AcDbBlockTableRecord
  2
_FILLED
  0
ENDTAB
  0
TABLE
  2
DIMSTYLE
  5
A
100
AcDbSymbolTable
 70
1
100
AcDbDimStyleTable
 71
0
  0
DIMSTYLE
105
213
100
AcDbSymbolTableRecord
100
AcDbDimStyleTableRecord
  2
STANDARD
 70
0
  3

  4

 40
1.0
 41
0.6128064191
 42
1.0
 43
0.38
 44
1.0
 45
0.0
 46
0.0
 47
0.01
 48
0.01
140
0.8579289867
141
0.09
142
0.0
143
25.4
144
1.0
145
0.0
146
1.0
147
0.625
 71
1
 72
0
 73
0
 74
0
 75
0
 76
0
 77
1
 78
8
 79
2
170
0
171
1
172
0
173
0
174
0
175
0
176
0
177
0
178
0
270
2
179
2
271
2
272
2
273
2
274
2
275
0
280
0
281
0
282
0
283
1
284
8
285
0
286
0
287
3
288
0
340
11
278
46
341
212
342
212
343
212
344
212
  0
ENDTAB
  0
ENDSEC
  0
SECTION
  2
BLOCKS
  0
BLOCK
  5
20
100
AcDbEntity
  8
0
100
AcDbBlockBegin
  2
*Model_Space
 70
0
 10
0.0
 20
0.0
 30
0.0
  3
*Model_Space
  1

  0
ENDBLK
  5
21
100
AcDbEntity
  8
0
100
AcDbBlockEnd
  0
BLOCK
  5
1C
100
AcDbEntity
  8
0
100
AcDbBlockBegin
  2
*Paper_Space
 70
0
 10
0.0
 20
0.0
 30
0.0
  3
*Paper_Space
  1

  0
ENDBLK
  5
1D
100
AcDbEntity
  8
0
100
AcDbBlockEnd
  0
BLOCK
  5
214
100
AcDbEntity
  8
0
100
AcDbBlockBegin
  2
_FILLED
 70
64
 10
0.0
 20
0.0
  3
_FILLED
  1

  0
SOLID
  5
215
100
AcDbEntity
  8
0
  6
BYBLOCK
 62
0
100
AcDbTrace
 10
0.0
 20
0.0
 11
-1.0
 21
0.25
 12
-1.0
 22
-0.25
 13
-1.0
 23
-0.25
  0
ENDBLK
  5
216
100
AcDbEntity
  8
0
  6
BYBLOCK
 62
0
100
AcDbBlockEnd
  0
ENDSEC
  0
SECTION
  2
ENTITIES
  0
LINE
  5
217
100
AcDbEntity
  8
0
100
AcDbLine
 62
7
  6
BYLAYER
 10
6.7953983477
 20
19.5747093806
 11
6.7574014268
 21
19.6123447491
  0
LINE
  5
218
100
AcDbEntity
  8
0
100
AcDbLine
 62
7
  6
BYLAYER
 10
7.3256914135
 20
28.3441381958
 11
7.3256271138
 21
28.3844362127
  0
LINE
  5
219
100
AcDbEntity
  8
0
100
AcDbLine
 62
7
  6
BYLAYER
 10
7.3256914135
 20
28.3441381958
 11
7.3258241699
 21
28.3845504539
  0
LINE
  5
21A
100
AcDbEntity
  8
0
100
AcDbLine
 62
7
  6
BYLAYER
 10
12.3672577516
 20
16.3726355877
 11
12.382584286
 21
16.3303484675
  0
LINE
  5
21B
100
AcDbEntity
  8
0
100
AcDbLine
 62
7
  6
BYLAYER
 10
7.3357033934
 20
29.3718689327
 11
7.3367358237
 21
29.433528139
  0
LINE
  5
21C
100
AcDbEntity
  8
0
100
AcDbLine
 62
7
  6
BYLAYER
 10
7.3353923333
 20
29.3716984815
 11
7.3367358237
 21
29.433528139
  0
LWPOLYLINE
  5
21D
100
AcDbEntity
  8
0
100
AcDbPolyline
 62
7
  6
BYLAYER
 90
4
 70
0
 10
12.6675584289
 20
46.9233335634
 10
11.9145473442
 20
46.3851069085
 10
10.4127507327
 20
44.2485477841
 10
10.1355379249
 20
43.0061488664
  0
LINE
  5
21E
100
AcDbEntity
  8
0
100
AcDbLine
 62
7
  6
BYLAYER
 10
26.9855440902
 20
55.4467169523
 11
27.865189352
 21
55.9545773495
  0
LINE
  5
21F
100
AcDbEntity
  8
0
100
AcDbLine
 62
7
  6
BYLAYER
 10
19.6580404336
 20
50.9592661393
 11
12.6675584296
 21
46.9233335639
  0
LINE
  5
220
100
AcDbEntity
  8
0
100
AcDbLine
 62
7
  6
BYLAYER
 10
25.9402968715
 20
55.1117408379
 11
24.8590285523
 21
54.536040142
  0
LINE
  5
221
100
AcDbEntity
  8
0
100
AcDbLine
 62
7
  6
BYLAYER
 10
25.3735899655
 20
52.4113110718
 11
25.3777054896
 21
52.4138266509
  0
LINE
  5
222
100
AcDbEntity
  8
0
100
AcDbLine
 62
7
  6
BYLAYER
 10
25.3193816714
 20
52.3801495098
 11
25.2935896325
 21
52.3651215374
  0
LINE
  5
223
100
AcDbEntity
  8
0
100
AcDbLine
 62
7
  6
BYLAYER
 10
25.7613158122
 20
52.6354546006
 11
25.3776397807
 21
52.4139404628
  0
LINE
  5
224
100
AcDbEntity
  8
0
100
AcDbLine
 62
7
  6
BYLAYER
 10
25.373463854
 20
52.4115295048
 11
25.3618021019
 21
52.4047966293
  0
LINE
  5
225
100
AcDbEntity
  8
0
100
AcDbLine
 62
7
  6
BYLAYER
 10
17.1371639844
 20
47.0485154269
 11
17.1316194551
 21
47.0453143105
  0
LINE
  5
226
100
AcDbEntity
  8
0
100
AcDbLine
 62
7
  6
BYLAYER
 10
16.3853790077
 20
46.6144747591
 11
9.0915936386
 21
42.4034309494
  0
LINE
  5
227
100
AcDbEntity
  8
0
100
AcDbLine
 62
7
  6
BYLAYER
 10
17.0237419156
 20
46.6309571328
 11
17.0391629544
 21
46.6398604206
  0
LINE
  5
228
100
AcDbEntity
  8
0
100
AcDbLine
 62
7
  6
BYLAYER
 10
25.9206927311
 20
52.7229427114
 11
25.9420050147
 21
52.7339749314
  0
LWPOLYLINE
  5
229
100
AcDbEntity
  8
0
100
AcDbPolyline
 62
7
  6
BYLAYER
 90
3
 70
0
 10
13.2629166536
 20
45.2173569194
 10
14.173996458
 20
45.6081407606
 10
14.6811117724
 20
45.6305214855
  0
LINE
  5
22A
100
AcDbEntity
  8
0
100
AcDbLine
 62
7
  6
BYLAYER
 10
21.8922888056
 20
22.1004730363
 11
22.2821272338
 21
21.9432536986
  0
LINE
  5
22B
100
AcDbEntity
  8
0
100
AcDbLine
 62
7
  6
BYLAYER
 10
8.9595443931
 20
40.650198902
 11
8.9777781056
 21
40.6612796615
  0
LINE
  5
22C
100
AcDbEntity
  8
0
100
AcDbLine
 62
7
  6
BYLAYER
 10
31.9508092706
 20
54.8975120763
 11
34.8647330969
 21
56.5798567396
  0
LINE
  5
22D
100
AcDbEntity
  8
0
100
AcDbLine
 62
7
  6
BYLAYER
 10
35.5346795638
 20
56.548293178
 11
32.359783344
 21
54.7152769324
  0
LINE
  5
22E
100
AcDbEntity
  8
0
100
AcDbLine
 62
7
  6
BYLAYER
 10
26.0666635686
 20
51.0219630732
 11
25.9012834561
 21
50.9264813907
  0
LINE
  5
22F
100
AcDbEntity
  8
0
100
AcDbLine
 62
7
  6
BYLAYER
 10
26.7792015556
 20
50.6222566689
 11
28.3253409123
 21
51.5149153142
  0
LINE
  5
230
100
AcDbEntity
  8
0
100
AcDbLine
 62
7
  6
BYLAYER
 10
16.8552640916
 20
45.448464952
 11
16.8552640916
 21
45.4101074004
  0
LINE
  5
231
100
AcDbEntity
  8
0
100
AcDbLine
 62
7
  6
BYLAYER
 10
25.9522434939
 20
52.6817720486
 11
25.9554429068
 21
52.6859833458
  0
LINE
  5
232
100
AcDbEntity
  8
0
100
AcDbLine
 62
7
  6
BYLAYER
 10
10.7388296795
 20
39.6822045845
 11
10.6918318
 21
39.6536441012
  0
LINE
  5
233
100
AcDbEntity
  8
0
100
AcDbLine
 62
7
  6
BYLAYER
 10
37.1089993293
 20
55.6393798
 11
33.9341031094
 21
53.8063635544
  0
LINE
  5
234
100
AcDbEntity
  8
0
100
AcDbLine
 62
7
  6
BYLAYER
 10
20.9001826858
 20
44.384872058
 11
20.9225940205
 21
44.3978111709
  0
LINE
  5
235
100
AcDbEntity
  8
0
100
AcDbLine
 62
7
  6
BYLAYER
 10
18.4595089265
 20
45.9383796695
 11
18.4595089265
 21
45.9052459362
  0
LINE
  5
236
100
AcDbEntity
  8
0
100
AcDbLine
 62
7
  6
BYLAYER
 10
18.5876830759
 20
44.4519130491
 11
18.5876830759
 21
44.4064796752
  0
LINE
  5
237
100
AcDbEntity
  8
0
100
AcDbLine
 62
7
  6
BYLAYER
 10
35.8803490508
 20
52.5764620821
 11
38.0896137594
 21
53.8519740426
  0
LINE
  5
238
100
AcDbEntity
  8
0
100
AcDbLine
 62
7
  6
BYLAYER
 10
19.2947826182
 20
45.4154057338
 11
19.2947826182
 21
45.3452132339
  0
LINE
  5
239
100
AcDbEntity
  8
0
100
AcDbLine
 62
7
  6
BYLAYER
 10
26.574325001
 20
52.8666248227
 11
26.5767334209
 21
52.8724959368
  0
LINE
  5
23A
100
AcDbEntity
  8
0
100
AcDbLine
 62
7
  6
BYLAYER
 10
12.2996986993
 20
36.5857800815
 11
21.9347342294
 21
42.1485372333
  0
LINE
  5
23B
100
AcDbEntity
  8
0
100
AcDbLine
 62
7
  6
BYLAYER
 10
32.0647659937
 20
47.5707036532
 11
31.9940556099
 21
47.5298792378
  0
LINE
  5
23C
100
AcDbEntity
  8
0
100
AcDbLine
 62
7
  6
BYLAYER
 10
22.4355291968
 20
42.3238361774
 11
21.9167808223
 21
42.024788034
  0
LINE
  5
23D
100
AcDbEntity
  8
0
100
AcDbLine
 62
7
  6
BYLAYER
 10
38.5521813859
 20
30.8679134068
 11
38.5469343809
 21
30.8672486243
  0
LINE
  5
23E
100
AcDbEntity
  8
0
100
AcDbLine
 62
7
  6
BYLAYER
 10
34.9169739216
 20
47.8017847122
 11
33.2907569041
 21
46.8628934838
  0
LINE
  5
23F
100
AcDbEntity
  8
0
100
AcDbLine
 62
7
  6
BYLAYER
 10
43.0457139683
 20
52.1072052783
 11
42.8335831775
 21
51.9847322402
  0
LINE
  5
240
100
AcDbEntity
  8
0
100
AcDbLine
 62
7
  6
BYLAYER
 10
27.235100071
 20
52.9644625526
 11
27.2368716425
 21
52.9718689111
  0
LINE
  5
241
100
AcDbEntity
  8
0
100
AcDbLine
 62
7
  6
BYLAYER
 10
7.3632680256
 20
28.3658329334
 11
7.3256914135
 21
28.3441381958
  0
LINE
  5
242
100
AcDbEntity
  8
0
100
AcDbLine
 62
7
  6
BYLAYER
 10
36.686621715
 20
44.8847978977
 11
37.4622483176
 21
45.332618929
  0
LINE
  5
243
100
AcDbEntity
  8
0
100
AcDbLine
 62
7
  6
BYLAYER
 10
37.1703981498
 20
44.0459520558
 11
38.0106735718
 21
44.3749824668
  0
LINE
  5
244
100
AcDbEntity
  8
0
100
AcDbLine
 62
7
  6
BYLAYER
 10
38.4742109335
 20
44.1873612148
 11
37.6345917486
 21
43.8585877696
  0
LINE
  5
245
100
AcDbEntity
  8
0
100
AcDbLine
 62
7
  6
BYLAYER
 10
37.7073151679
 20
43.7165254914
 11
38.5469343527
 21
44.0452989367
  0
LINE
  5
246
100
AcDbEntity
  8
0
100
AcDbLine
 62
7
  6
BYLAYER
 10
38.442468896
 20
43.5314876488
 11
37.602193474
 21
43.2024572378
  0
LINE
  5
247
100
AcDbEntity
  8
0
100
AcDbLine
 62
7
  6
BYLAYER
 10
39.024342835
 20
31.3127236777
 11
39.0180538901
 21
31.3135737971
  0
LINE
  5
248
100
AcDbEntity
  8
0
100
AcDbLine
 62
7
  6
BYLAYER
 10
27.9295398064
 20
52.9745406343
 11
27.930845653
 21
52.9832625543
  0
LINE
  5
249
100
AcDbEntity
  8
0
100
AcDbLine
 62
7
  6
BYLAYER
 10
35.6018795897
 20
46.4738274959
 11
36.2310365354
 21
47.1481270727
  0
LINE
  5
24A
100
AcDbEntity
  8
0
100
AcDbLine
 62
7
  6
BYLAYER
 10
36.1624524486
 20
45.6961480006
 11
36.8675272452
 21
46.2593514638
  0
LINE
  5
24B
100
AcDbEntity
  8
0
100
AcDbLine
 62
7
  6
BYLAYER
 10
37.3647357627
 20
46.0929155925
 11
36.6602116143
 21
45.5301519791
  0
LINE
  5
24C
100
AcDbEntity
  8
0
100
AcDbLine
 62
7
  6
BYLAYER
 10
36.7468800104
 20
45.3961410673
 11
37.4514041588
 21
45.9589046808
  0
LINE
  5
24D
100
AcDbEntity
  8
0
100
AcDbLine
 62
7
  6
BYLAYER
 10
37.3821208471
 20
45.4636616752
 11
36.6770460504
 21
44.900458212
  0
LINE
  5
24E
100
AcDbEntity
  8
0
100
AcDbLine
 62
7
  6
BYLAYER
 10
8.8349177146
 20
26.7515310863
 11
8.8612980547
 21
26.7681098689
  0
LINE
  5
24F
100
AcDbEntity
  8
0
100
AcDbLine
 62
7
  6
BYLAYER
 10
37.9433892887
 20
45.1542981945
 11
37.1683684338
 21
44.7068269017
  0
LINE
  5
250
100
AcDbEntity
  8
0
100
AcDbLine
 62
7
  6
BYLAYER
 10
37.2483687668
 20
44.5682630294
 11
38.0233896218
 21
45.0157343222
  0
LINE
  5
251
100
AcDbEntity
  8
0
100
AcDbLine
 62
7
  6
BYLAYER
 10
37.9372502953
 20
44.5098959372
 11
37.1616236926
 21
44.0620749059
  0
LINE
  5
252
100
AcDbEntity
  8
0
100
AcDbLine
 62
7
  6
BYLAYER
 10
9.0935618045
 20
27.4256538766
 11
9.0571746254
 21
27.4046458543
  0
LINE
  5
253
100
AcDbEntity
  8
0
100
AcDbLine
 62
7
  6
BYLAYER
 10
43.4981606046
 20
47.123710049
 11
41.2888958968
 21
45.8481980891
  0
LINE
  5
254
100
AcDbEntity
  8
0
100
AcDbLine
 62
7
  6
BYLAYER
 10
9.0195829623
 20
26.9770898181
 11
8.8080478832
 21
26.8549607123
  0
LINE
  5
255
100
AcDbEntity
  8
0
100
AcDbLine
 62
7
  6
BYLAYER
 10
46.0483899725
 20
48.1083002617
 11
45.803441978
 21
47.9668803153
  0
LINE
  5
256
100
AcDbEntity
  8
0
100
AcDbLine
 62
7
  6
BYLAYER
 10
39.4404627331
 20
31.8347464299
 11
39.4331626716
 21
31.8369156582
  0
LINE
  5
257
100
AcDbEntity
  8
0
100
AcDbLine
 62
7
  6
BYLAYER
 10
29.3980568655
 20
52.7317795395
 11
29.3989415381
 21
52.7420593717
  0
LINE
  5
258
100
AcDbEntity
  8
0
100
AcDbLine
 62
7
  6
BYLAYER
 10
28.6523591017
 20
52.8967823675
 11
28.6533736289
 21
52.9064983485
  0
LINE
  5
259
100
AcDbEntity
  8
0
100
AcDbLine
 62
7
  6
BYLAYER
 10
31.4491986802
 20
48.0485689299
 11
32.2713984642
 21
50.1056000999
  0
LINE
  5
25A
100
AcDbEntity
  8
0
100
AcDbLine
 62
7
  6
BYLAYER
 10
32.297711509
 20
50.0489563687
 11
31.4510568859
 21
47.9307425434
  0
LINE
  5
25B
100
AcDbEntity
  8
0
100
AcDbLine
 62
7
  6
BYLAYER
 10
34.388833008
 20
47.9048013303
 11
34.8524036812
 21
48.7850912011
  0
LINE
  5
25C
100
AcDbEntity
  8
0
100
AcDbLine
 62
7
  6
BYLAYER
 10
35.0091695209
 20
47.2119176617
 11
35.5576203513
 21
47.992181525
  0
LINE
  5
25D
100
AcDbEntity
  8
0
100
AcDbLine
 62
7
  6
BYLAYER
 10
36.0818791909
 20
47.8568877583
 11
35.5338566888
 21
47.0772332643
  0
LINE
  5
25E
100
AcDbEntity
  8
0
100
AcDbLine
 62
7
  6
BYLAYER
 10
35.6318366865
 20
46.9553455727
 11
36.1798591886
 21
47.7350000667
  0
LINE
  5
25F
100
AcDbEntity
  8
0
100
AcDbLine
 62
7
  6
BYLAYER
 10
36.1393765873
 20
47.2684733558
 11
35.5909257569
 21
46.4882094925
  0
LINE
  5
260
100
AcDbEntity
  8
0
100
AcDbLine
 62
7
  6
BYLAYER
 10
36.7426542581
 20
46.9960699638
 11
36.1139886705
 21
46.3222970006
  0
LINE
  5
261
100
AcDbEntity
  8
0
100
AcDbLine
 62
7
  6
BYLAYER
 10
36.2066655308
 20
46.1938589533
 11
36.8353311184
 21
46.8676319166
  0
LINE
  5
262
100
AcDbEntity
  8
0
100
AcDbLine
 62
7
  6
BYLAYER
 10
36.7813054217
 20
46.3855261298
 11
36.152148476
 21
45.7112265531
  0
LINE
  5
263
100
AcDbEntity
  8
0
100
AcDbLine
 62
7
  6
BYLAYER
 10
44.9044105064
 20
45.9418425803
 11
41.7295142866
 21
44.1088263348
  0
LINE
  5
264
100
AcDbEntity
  8
0
100
AcDbLine
 62
7
  6
BYLAYER
 10
44.7793354282
 20
40.7183114954
 11
45.499606943
 21
40.9573730338
  0
LINE
  5
265
100
AcDbEntity
  8
0
100
AcDbLine
 62
7
  6
BYLAYER
 10
39.7973079712
 20
32.4300609735
 11
39.7891014969
 21
32.4332912602
  0
LINE
  5
266
100
AcDbEntity
  8
0
100
AcDbLine
 62
7
  6
BYLAYER
 10
36.8261694116
 20
31.8770351323
 11
36.007752904
 21
32.3495374338
  0
LINE
  5
267
100
AcDbEntity
  8
0
100
AcDbLine
 62
7
  6
BYLAYER
 10
30.1609578877
 20
52.4807879215
 11
30.161841365
 21
52.4910860282
  0
LINE
  5
268
100
AcDbEntity
  8
0
100
AcDbLine
 62
7
  6
BYLAYER
 10
30.9352560307
 20
52.1457177112
 11
30.9362093026
 21
52.1553676763
  0
LINE
  5
269
100
AcDbEntity
  8
0
100
AcDbLine
 62
7
  6
BYLAYER
 10
31.7150584181
 20
51.7291189953
 11
31.7160634099
 21
51.7373311403
  0
LINE
  5
26A
100
AcDbEntity
  8
0
100
AcDbLine
 62
7
  6
BYLAYER
 10
32.494430283
 20
51.2341623415
 11
32.495340533
 21
51.2400277026
  0
LINE
  5
26B
100
AcDbEntity
  8
0
100
AcDbLine
 62
7
  6
BYLAYER
 10
32.4101109599
 20
49.6614383167
 11
32.6005859344
 21
50.798824295
  0
LINE
  5
26C
100
AcDbEntity
  8
0
100
AcDbLine
 62
7
  6
BYLAYER
 10
33.0843397517
 20
49.1342400257
 11
33.3682387921
 21
50.1937730282
  0
LINE
  5
26D
100
AcDbEntity
  8
0
100
AcDbLine
 62
7
  6
BYLAYER
 10
33.9189224052
 20
50.1217156098
 11
33.6352450838
 21
49.0630100798
  0
LINE
  5
26E
100
AcDbEntity
  8
0
100
AcDbLine
 62
7
  6
BYLAYER
 10
33.7455913075
 20
48.5472051034
 11
34.1207537708
 21
49.520821444
  0
LINE
  5
26F
100
AcDbEntity
  8
0
100
AcDbLine
 62
7
  6
BYLAYER
 10
34.664620166
 20
49.4256803106
 11
34.2897506966
 21
48.4528243433
  0
LINE
  5
270
100
AcDbEntity
  8
0
100
AcDbLine
 62
7
  6
BYLAYER
 10
34.3960652231
 20
48.3467633676
 11
34.7709346925
 21
49.3196193348
  0
LINE
  5
271
100
AcDbEntity
  8
0
100
AcDbLine
 62
7
  6
BYLAYER
 10
34.7519962721
 20
48.8910844007
 11
34.3768338088
 21
47.91746806
  0
LINE
  5
272
100
AcDbEntity
  8
0
100
AcDbLine
 62
7
  6
BYLAYER
 10
35.3874394583
 20
48.6688176328
 11
34.9242308238
 21
47.7892152495
  0
LINE
  5
273
100
AcDbEntity
  8
0
100
AcDbLine
 62
7
  6
BYLAYER
 10
35.0267682719
 20
47.6748055524
 11
35.4899769063
 21
48.5544079356
  0
LINE
  5
274
100
AcDbEntity
  8
0
100
AcDbLine
 62
7
  6
BYLAYER
 10
35.4612198099
 20
48.1057835915
 11
34.9976491367
 21
47.2254937208
  0
LINE
  5
275
100
AcDbEntity
  8
0
100
AcDbLine
 62
7
  6
BYLAYER
 10
45.6915703891
 20
43.9130614274
 11
42.5166741693
 21
42.0800451818
  0
LINE
  5
276
100
AcDbEntity
  8
0
100
AcDbLine
 62
7
  6
BYLAYER
 10
36.035924634
 20
37.7975764202
 11
36.5764710159
 21
38.1096591564
  0
LINE
  5
277
100
AcDbEntity
  8
0
100
AcDbLine
 62
7
  6
BYLAYER
 10
38.8939316306
 20
42.5358830879
 11
37.9954023927
 21
42.3281474174
  0
LINE
  5
278
100
AcDbEntity
  8
0
100
AcDbLine
 62
7
  6
BYLAYER
 10
38.1202263542
 20
42.8474106903
 11
39.01805386
 21
43.0549841237
  0
LINE
  5
279
100
AcDbEntity
  8
0
100
AcDbLine
 62
7
  6
BYLAYER
 10
38.9531608238
 20
43.1994636279
 11
38.055333318
 21
42.9918901945
  0
LINE
  5
27A
100
AcDbEntity
  8
0
100
AcDbLine
 62
7
  6
BYLAYER
 10
37.6100999698
 20
43.1859945162
 11
38.5086292078
 21
43.3937301867
  0
LINE
  5
27B
100
AcDbEntity
  8
0
100
AcDbLine
 62
7
  6
BYLAYER
 10
39.2882025951
 20
41.5306594064
 11
38.3382578913
 21
41.4457994702
  0
LINE
  5
27C
100
AcDbEntity
  8
0
100
AcDbLine
 62
7
  6
BYLAYER
 10
40.092083102
 20
33.0941822799
 11
40.0831614565
 21
33.0981618245
  0
LINE
  5
27D
100
AcDbEntity
  8
0
100
AcDbLine
 62
7
  6
BYLAYER
 10
40.3224495334
 20
33.8220934286
 11
40.3131045766
 21
33.8264672846
  0
LINE
  5
27E
100
AcDbEntity
  8
0
100
AcDbLine
 62
7
  6
BYLAYER
 10
21.7390146847
 20
43.2122913771
 11
22.465164652
 21
42.6241913278
  0
LINE
  5
27F
100
AcDbEntity
  8
0
100
AcDbLine
 62
7
  6
BYLAYER
 10
30.3611329484
 20
50.8463470794
 11
30.2655316696
 21
52.1633181877
  0
LINE
  5
280
100
AcDbEntity
  8
0
100
AcDbLine
 62
7
  6
BYLAYER
 10
30.8225490004
 20
52.1994015712
 11
30.9180756168
 21
50.8834589863
  0
LINE
  5
281
100
AcDbEntity
  8
0
100
AcDbLine
 62
7
  6
BYLAYER
 10
30.9347296808
 20
51.8445700072
 11
31.0303309598
 21
50.5275988962
  0
LINE
  5
282
100
AcDbEntity
  8
0
100
AcDbLine
 62
7
  6
BYLAYER
 10
31.043306505
 20
51.7873585548
 11
31.043306505
 21
50.5207618362
  0
LINE
  5
283
100
AcDbEntity
  8
0
100
AcDbLine
 62
7
  6
BYLAYER
 10
31.6019208621
 20
51.7944374736
 11
31.6019208621
 21
50.52882994
  0
LINE
  5
284
100
AcDbEntity
  8
0
100
AcDbLine
 62
7
  6
BYLAYER
 10
31.7150607439
 20
50.1329331195
 11
31.7150584181
 21
51.7291189529
  0
LINE
  5
285
100
AcDbEntity
  8
0
100
AcDbLine
 62
7
  6
BYLAYER
 10
31.7280362218
 20
50.1247876873
 11
31.8236375008
 21
51.3313704481
  0
LINE
  5
286
100
AcDbEntity
  8
0
100
AcDbLine
 62
7
  6
BYLAYER
 10
32.3817232464
 20
51.310618325
 11
32.28619663
 21
50.1049778802
  0
LINE
  5
287
100
AcDbEntity
  8
0
100
AcDbLine
 62
7
  6
BYLAYER
 10
32.3989036634
 20
50.0285218563
 11
32.4944302798
 21
51.2341623011
  0
LINE
  5
288
100
AcDbEntity
  8
0
100
AcDbLine
 62
7
  6
BYLAYER
 10
32.492835512
 20
50.8774128058
 11
32.3972342331
 21
49.6708300458
  0
LINE
  5
289
100
AcDbEntity
  8
0
100
AcDbLine
 62
7
  6
BYLAYER
 10
33.1560213862
 20
50.7516262814
 11
32.9656951686
 21
49.6151285772
  0
LINE
  5
28A
100
AcDbEntity
  8
0
100
AcDbLine
 62
7
  6
BYLAYER
 10
33.0771139109
 20
49.5281169265
 11
33.2674401285
 21
50.6646146307
  0
LINE
  5
28B
100
AcDbEntity
  8
0
100
AcDbLine
 62
7
  6
BYLAYER
 10
33.2621347502
 20
50.2821925945
 11
33.0716597758
 21
49.1448066162
  0
LINE
  5
28C
100
AcDbEntity
  8
0
100
AcDbLine
 62
7
  6
BYLAYER
 10
33.7445275711
 20
48.9661050136
 11
34.0282048925
 21
50.0248105435
  0
LINE
  5
28D
100
AcDbEntity
  8
0
100
AcDbLine
 62
7
  6
BYLAYER
 10
34.0171035932
 20
49.6183991698
 11
33.7332045527
 21
48.5588661674
  0
LINE
  5
28E
100
AcDbEntity
  8
0
100
AcDbLine
 62
7
  6
BYLAYER
 10
42.7950650582
 20
41.0819858296
 11
45.4855992261
 21
42.6353571833
  0
LINE
  5
28F
100
AcDbEntity
  8
0
100
AcDbLine
 62
7
  6
BYLAYER
 10
44.5920854722
 20
42.0526477775
 11
44.889068711
 21
42.2241101069
  0
LINE
  5
290
100
AcDbEntity
  8
0
100
AcDbLine
 62
7
  6
BYLAYER
 10
37.1810984546
 20
37.5973516749
 11
37.3557849413
 21
37.698206363
  0
LINE
  5
291
100
AcDbEntity
  8
0
100
AcDbLine
 62
7
  6
BYLAYER
 10
37.7857372716
 20
37.449978885
 11
39.3383950384
 21
38.3464009137
  0
LINE
  5
292
100
AcDbEntity
  8
0
100
AcDbLine
 62
7
  6
BYLAYER
 10
44.7537239656
 20
40.8604589075
 11
45.292044127
 21
41.1712563423
  0
LINE
  5
293
100
AcDbEntity
  8
0
100
AcDbLine
 62
7
  6
BYLAYER
 10
38.4839598225
 20
41.9675331144
 11
39.4331626398
 21
42.0523267767
  0
LINE
  5
294
100
AcDbEntity
  8
0
100
AcDbLine
 62
7
  6
BYLAYER
 10
39.3765938618
 20
42.1981239308
 11
38.4273910445
 21
42.1133302684
  0
LINE
  5
295
100
AcDbEntity
  8
0
100
AcDbLine
 62
7
  6
BYLAYER
 10
38.0023807719
 20
42.3114700723
 11
38.9523254756
 21
42.3963300085
  0
LINE
  5
296
100
AcDbEntity
  8
0
100
AcDbLine
 62
7
  6
BYLAYER
 10
39.6222811493
 20
40.5234669634
 11
38.6281506325
 21
40.562128597
  0
LINE
  5
297
100
AcDbEntity
  8
0
100
AcDbLine
 62
7
  6
BYLAYER
 10
38.7957473413
 20
41.0835891634
 11
39.7891014636
 21
41.0449577237
  0
LINE
  5
298
100
AcDbEntity
  8
0
100
AcDbLine
 62
7
  6
BYLAYER
 10
39.7412874663
 20
41.1909629232
 11
38.747933344
 21
41.2295943629
  0
LINE
  5
299
100
AcDbEntity
  8
0
100
AcDbLine
 62
7
  6
BYLAYER
 10
38.3442550238
 20
41.429034469
 11
39.3383855406
 21
41.3903728354
  0
LINE
  5
29A
100
AcDbEntity
  8
0
100
AcDbLine
 62
7
  6
BYLAYER
 10
39.8936247539
 20
39.5219711017
 11
38.8628743575
 21
39.6838600667
  0
LINE
  5
29B
100
AcDbEntity
  8
0
100
AcDbLine
 62
7
  6
BYLAYER
 10
39.0532160194
 20
40.2023061845
 11
40.083161422
 21
40.0405436514
  0
LINE
  5
29C
100
AcDbEntity
  8
0
100
AcDbLine
 62
7
  6
BYLAYER
 10
40.0444660988
 20
40.1856457086
 11
39.0145206963
 21
40.3474082417
  0
LINE
  5
29D
100
AcDbEntity
  8
0
100
AcDbLine
 62
7
  6
BYLAYER
 10
38.6331208764
 20
40.5454035314
 11
39.6638712728
 21
40.3835145665
  0
LINE
  5
29E
100
AcDbEntity
  8
0
100
AcDbLine
 62
7
  6
BYLAYER
 10
40.10016832
 20
38.5337938095
 11
39.0406426769
 21
38.817678033
  0
LINE
  5
29F
100
AcDbEntity
  8
0
100
AcDbLine
 62
7
  6
BYLAYER
 10
40.2403399264
 20
37.5664557126
 11
39.1601026666
 21
37.9701746643
  0
LINE
  5
2A0
100
AcDbEntity
  8
0
100
AcDbLine
 62
7
  6
BYLAYER
 10
40.5698151301
 20
37.2547043612
 11
40.5642809732
 21
37.2568485279
  0
LINE
  5
2A1
100
AcDbEntity
  8
0
100
AcDbLine
 62
7
  6
BYLAYER
 10
40.6108628604
 20
36.3311715902
 11
40.6032487761
 21
36.3344071675
  0
LINE
  5
2A2
100
AcDbEntity
  8
0
100
AcDbLine
 62
7
  6
BYLAYER
 10
17.0241184151
 20
46.6311745036
 11
17.0336742293
 21
46.6270729055
  0
LINE
  5
2A3
100
AcDbEntity
  8
0
100
AcDbLine
 62
7
  6
BYLAYER
 10
40.5829751235
 20
35.4467715661
 11
40.574141561
 21
35.4507709219
  0
LINE
  5
2A4
100
AcDbEntity
  8
0
100
AcDbLine
 62
7
  6
BYLAYER
 10
40.4865409432
 20
34.6082808457
 11
40.4771808513
 21
34.6126647963
  0
LINE
  5
2A5
100
AcDbEntity
  8
0
100
AcDbLine
 62
7
  6
BYLAYER
 10
37.3557849413
 20
34.8404479031
 11
37.7857372716
 21
34.5922204251
  0
LINE
  5
2A6
100
AcDbEntity
  8
0
100
AcDbLine
 62
7
  6
BYLAYER
 10
21.7346485947
 20
44.8607987392
 11
19.7892112976
 21
46.2028432298
  0
LINE
  5
2A7
100
AcDbEntity
  8
0
100
AcDbLine
 62
7
  6
BYLAYER
 10
29.0251626289
 20
51.2769939473
 11
28.7412635885
 21
52.6643379084
  0
LINE
  5
2A8
100
AcDbEntity
  8
0
100
AcDbLine
 62
7
  6
BYLAYER
 10
29.6867074053
 20
51.0990655713
 11
29.4962324314
 21
52.4563881251
  0
LINE
  5
2A9
100
AcDbEntity
  8
0
100
AcDbLine
 62
7
  6
BYLAYER
 10
32.297711509
 20
50.1049779263
 11
32.297711509
 21
50.0489563687
  0
LINE
  5
2AA
100
AcDbEntity
  8
0
100
AcDbLine
 62
7
  6
BYLAYER
 10
37.1958386817
 20
34.9547889786
 11
39.3943710066
 21
36.2241046314
  0
LINE
  5
2AB
100
AcDbEntity
  8
0
100
AcDbLine
 62
7
  6
BYLAYER
 10
39.3100241863
 20
35.4722626324
 11
37.7857372716
 21
34.5922204251
  0
LINE
  5
2AC
100
AcDbEntity
  8
0
100
AcDbLine
 62
7
  6
BYLAYER
 10
39.2544063648
 20
39.3303912733
 11
40.3131045411
 21
39.0467287573
  0
LINE
  5
2AD
100
AcDbEntity
  8
0
100
AcDbLine
 62
7
  6
BYLAYER
 10
40.2838223869
 20
39.189823358
 11
39.2251242106
 21
39.473485874
  0
LINE
  5
2AE
100
AcDbEntity
  8
0
100
AcDbLine
 62
7
  6
BYLAYER
 10
38.8667798762
 20
39.6673022673
 11
39.9263055194
 21
39.3834180438
  0
LINE
  5
2AF
100
AcDbEntity
  8
0
100
AcDbLine
 62
7
  6
BYLAYER
 10
17.0241184151
 20
46.6311745036
 11
17.0335933346
 21
46.6278660143
  0
LINE
  5
2B0
100
AcDbEntity
  8
0
100
AcDbLine
 62
7
  6
BYLAYER
 10
39.3977871973
 20
38.4744802288
 11
40.4771808151
 21
38.0710765729
  0
LINE
  5
2B1
100
AcDbEntity
  8
0
100
AcDbLine
 62
7
  6
BYLAYER
 10
40.4575346847
 20
38.2110746808
 11
39.3781410669
 21
38.6144783366
  0
LINE
  5
2B2
100
AcDbEntity
  8
0
100
AcDbLine
 62
7
  6
BYLAYER
 10
39.0434537706
 20
38.8014134281
 11
40.123691027
 21
38.3976944777
  0
LINE
  5
2B3
100
AcDbEntity
  8
0
100
AcDbLine
 62
7
  6
BYLAYER
 10
19.7892112976
 20
46.2028432298
 11
17.8438853369
 21
47.1071326861
  0
LINE
  5
2B4
100
AcDbEntity
  8
0
100
AcDbLine
 62
7
  6
BYLAYER
 10
40.3130727827
 20
36.627318838
 11
39.2203451638
 21
37.1477999729
  0
LINE
  5
2B5
100
AcDbEntity
  8
0
100
AcDbLine
 62
7
  6
BYLAYER
 10
39.4822673023
 20
37.6410870508
 11
40.5741415244
 21
37.1210124005
  0
LINE
  5
2B6
100
AcDbEntity
  8
0
100
AcDbLine
 62
7
  6
BYLAYER
 10
40.5642809366
 20
37.2568485453
 11
39.4724067146
 21
37.7769231956
  0
LINE
  5
2B7
100
AcDbEntity
  8
0
100
AcDbLine
 62
7
  6
BYLAYER
 10
39.1617979264
 20
37.9543270817
 11
40.254525543
 21
37.4338459478
  0
LINE
  5
2B8
100
AcDbEntity
  8
0
100
AcDbLine
 62
7
  6
BYLAYER
 10
39.220911703
 20
36.3568127175
 11
40.317813364
 21
35.7235305751
  0
LINE
  5
2B9
100
AcDbEntity
  8
0
100
AcDbLine
 62
7
  6
BYLAYER
 10
37.7857372716
 20
37.449978885
 11
37.3557849413
 21
37.698206363
  0
LINE
  5
2BA
100
AcDbEntity
  8
0
100
AcDbLine
 62
7
  6
BYLAYER
 10
39.5072037352
 20
36.8365543646
 11
40.6032487394
 21
36.203766802
  0
LINE
  5
2BB
100
AcDbEntity
  8
0
100
AcDbLine
 62
7
  6
BYLAYER
 10
40.6032487394
 20
36.3344071887
 11
39.2209116855
 21
37.1324900627
  0
LINE
  5
2BC
100
AcDbEntity
  8
0
100
AcDbLine
 62
7
  6
BYLAYER
 10
40.254525543
 20
34.8619693262
 11
39.1617979242
 21
35.6032328166
  0
LINE
  5
2BD
100
AcDbEntity
  8
0
100
AcDbLine
 62
7
  6
BYLAYER
 10
39.4724067146
 20
36.0670051498
 11
40.5642809366
 21
35.3263205703
  0
LINE
  5
2BE
100
AcDbEntity
  8
0
100
AcDbLine
 62
7
  6
BYLAYER
 10
39.2203451631
 20
36.3421569272
 11
40.3130727827
 21
35.6008934363
  0
LINE
  5
2BF
100
AcDbEntity
  8
0
100
AcDbLine
 62
7
  6
BYLAYER
 10
40.123691027
 20
34.0491920648
 11
39.0434537672
 21
34.8927954404
  0
LINE
  5
2C0
100
AcDbEntity
  8
0
100
AcDbLine
 62
7
  6
BYLAYER
 10
39.3781410669
 20
35.3382961405
 11
40.4575346847
 21
34.495351601
  0
LINE
  5
2C1
100
AcDbEntity
  8
0
100
AcDbLine
 62
7
  6
BYLAYER
 10
39.160102671
 20
35.5893427417
 11
40.240339931
 21
34.7457393659
  0
LINE
  5
2C2
100
AcDbEntity
  8
0
100
AcDbLine
 62
7
  6
BYLAYER
 10
39.9263055293
 20
33.2913845258
 11
38.8667798862
 21
34.2309074557
  0
LINE
  5
2C3
100
AcDbEntity
  8
0
100
AcDbLine
 62
7
  6
BYLAYER
 10
39.2251242106
 20
34.6559732524
 11
40.2838223869
 21
33.7171840697
  0
LINE
  5
2C4
100
AcDbEntity
  8
0
100
AcDbLine
 62
7
  6
BYLAYER
 10
39.0406426736
 20
34.8797767338
 11
40.10016832
 21
33.940253801
  0
LINE
  5
2C5
100
AcDbEntity
  8
0
100
AcDbLine
 62
7
  6
BYLAYER
 10
39.6638712728
 20
32.5943140823
 11
38.6331208764
 21
33.6226062295
  0
LINE
  5
2C6
100
AcDbEntity
  8
0
100
AcDbLine
 62
7
  6
BYLAYER
 10
39.0145206963
 20
34.0252293745
 11
40.0444660988
 21
32.9977403013
  0
LINE
  5
2C7
100
AcDbEntity
  8
0
100
AcDbLine
 62
7
  6
BYLAYER
 10
38.8628743676
 20
34.2188592588
 11
39.8936247641
 21
33.1905671114
  0
LINE
  5
2C8
100
AcDbEntity
  8
0
100
AcDbLine
 62
7
  6
BYLAYER
 10
39.3383855406
 20
31.9632858611
 11
38.3442550238
 21
33.0725213016
  0
LINE
  5
2C9
100
AcDbEntity
  8
0
100
AcDbLine
 62
7
  6
BYLAYER
 10
38.747933344
 20
33.4508648487
 11
39.7412874663
 21
32.3424956972
  0
LINE
  5
2CA
100
AcDbEntity
  8
0
100
AcDbLine
 62
7
  6
BYLAYER
 10
38.6281506454
 20
33.6116202057
 11
39.6222811623
 21
32.5023847651
  0
LINE
  5
2CB
100
AcDbEntity
  8
0
100
AcDbLine
 62
7
  6
BYLAYER
 10
38.9523254756
 20
31.4031023682
 11
38.0023807719
 21
32.5848391505
  0
LINE
  5
2CC
100
AcDbEntity
  8
0
100
AcDbLine
 62
7
  6
BYLAYER
 10
38.4273910445
 20
32.9372509358
 11
39.3765938618
 21
31.7564370645
  0
LINE
  5
2CD
100
AcDbEntity
  8
0
100
AcDbLine
 62
7
  6
BYLAYER
 10
38.3382579069
 20
33.0626810612
 11
39.2882026107
 21
31.8809442788
  0
LINE
  5
2CE
100
AcDbEntity
  8
0
100
AcDbLine
 62
7
  6
BYLAYER
 10
38.5086292281
 20
30.9180269381
 11
37.6100999903
 21
32.1632713317
  0
LINE
  5
2CF
100
AcDbEntity
  8
0
100
AcDbLine
 62
7
  6
BYLAYER
 10
38.055333318
 20
32.4882965478
 11
38.9531608238
 21
31.2440246633
  0
LINE
  5
2D0
100
AcDbEntity
  8
0
100
AcDbLine
 62
7
  6
BYLAYER
 10
24.2497379536
 20
51.6259186228
 11
24.4411005339
 21
51.360715032
  0
LINE
  5
2D1
100
AcDbEntity
  8
0
100
AcDbLine
 62
7
  6
BYLAYER
 10
37.9954024108
 20
32.5762195836
 11
38.8939316487
 21
31.3309751899
  0
LINE
  5
2D2
100
AcDbEntity
  8
0
100
AcDbLine
 62
7
  6
BYLAYER
 10
38.0106735944
 20
30.5117512877
 11
37.1703981725
 21
31.8110262309
  0
LINE
  5
2D3
100
AcDbEntity
  8
0
100
AcDbLine
 62
7
  6
BYLAYER
 10
24.5285129901
 20
51.358527182
 11
24.3158982651
 21
51.6872824657
  0
LINE
  5
2D4
100
AcDbEntity
  8
0
100
AcDbLine
 62
7
  6
BYLAYER
 10
24.7476935872
 20
52.0321942732
 11
25.307559238
 21
51.166502629
  0
LINE
  5
2D5
100
AcDbEntity
  8
0
100
AcDbLine
 62
7
  6
BYLAYER
 10
37.6021934741
 20
32.1559380195
 11
38.4742109335
 21
30.8091582613
  0
LINE
  5
2D6
100
AcDbEntity
  8
0
100
AcDbLine
 62
7
  6
BYLAYER
 10
37.4622483176
 20
30.1873674201
 11
36.7294350588
 21
31.456630171
  0
LINE
  5
2D7
100
AcDbEntity
  8
0
100
AcDbLine
 62
7
  6
BYLAYER
 10
25.3627544151
 20
51.1441892142
 11
24.8211168636
 21
52.0823277648
  0
LINE
  5
2D8
100
AcDbEntity
  8
0
100
AcDbLine
 62
7
  6
BYLAYER
 10
25.296118864
 20
52.3565781408
 11
26.0717454667
 21
51.0131609149
  0
LINE
  5
2D9
100
AcDbEntity
  8
0
100
AcDbLine
 62
7
  6
BYLAYER
 10
37.1616237153
 20
31.8050350221
 11
37.9372503181
 21
30.4616177961
  0
LINE
  5
2DA
100
AcDbEntity
  8
0
100
AcDbLine
 62
7
  6
BYLAYER
 10
25.2935896584
 20
52.3651214924
 11
25.2979213551
 21
52.3576188153
  0
LINE
  5
2DB
100
AcDbEntity
  8
0
100
AcDbLine
 62
7
  6
BYLAYER
 10
37.9390527856
 20
30.4626584565
 11
37.9433892887
 21
30.4551474544
  0
LINE
  5
2DC
100
AcDbEntity
  8
0
100
AcDbLine
 62
7
  6
BYLAYER
 10
36.8675272452
 20
29.9473440923
 11
36.5764710159
 21
30.5159107446
  0
LINE
  5
2DD
100
AcDbEntity
  8
0
100
AcDbLine
 62
7
  6
BYLAYER
 10
26.0813211312
 20
51.0177644544
 11
25.3762463346
 21
52.3950997468
  0
LINE
  5
2DE
100
AcDbEntity
  8
0
100
AcDbLine
 62
7
  6
BYLAYER
 10
36.7242300196
 20
31.4340091785
 11
37.3821208719
 21
30.1488458259
  0
LINE
  5
2DF
100
AcDbEntity
  8
0
100
AcDbLine
 62
7
  6
BYLAYER
 10
25.8655751214
 20
52.6478348704
 11
26.5959147331
 21
51.2192661762
  0
LINE
  5
2E0
100
AcDbEntity
  8
0
100
AcDbLine
 62
7
  6
BYLAYER
 10
26.6062186789
 20
51.2224469871
 11
25.9770617332
 21
52.6232179928
  0
LINE
  5
2E1
100
AcDbEntity
  8
0
100
AcDbLine
 62
7
  6
BYLAYER
 10
26.4816481618
 20
52.8451983281
 11
27.1103137494
 21
51.4455212945
  0
LINE
  5
2E2
100
AcDbEntity
  8
0
100
AcDbLine
 62
7
  6
BYLAYER
 10
36.5764710159
 20
30.3698282974
 11
36.7426542581
 21
29.9998337055
  0
LINE
  5
2E3
100
AcDbEntity
  8
0
100
AcDbLine
 62
7
  6
BYLAYER
 10
26.527330618
 20
52.750437534
 11
27.1564875637
 21
51.3496665284
  0
LINE
  5
2E4
100
AcDbEntity
  8
0
100
AcDbLine
 62
7
  6
BYLAYER
 10
36.5764710159
 20
30.3767761519
 11
36.7813054484
 21
29.9207275681
  0
LINE
  5
2E5
100
AcDbEntity
  8
0
100
AcDbLine
 62
7
  6
BYLAYER
 10
27.1674413964
 20
51.3514004146
 11
26.618990566
 21
52.7649464204
  0
LINE
  5
2E6
100
AcDbEntity
  8
0
100
AcDbLine
 62
7
  6
BYLAYER
 10
27.1371200917
 20
52.9557098102
 11
27.6851425938
 21
51.5432677536
  0
LINE
  5
2E7
100
AcDbEntity
  8
0
100
AcDbLine
 62
7
  6
BYLAYER
 10
27.2007468304
 20
52.8169155518
 11
27.7491976608
 21
51.4033695461
  0
LINE
  5
2E8
100
AcDbEntity
  8
0
100
AcDbLine
 62
7
  6
BYLAYER
 10
27.760718045
 20
51.4036433124
 11
27.2971473718
 21
52.8192063795
  0
LINE
  5
2E9
100
AcDbEntity
  8
0
100
AcDbLine
 62
7
  6
BYLAYER
 10
27.8270023739
 20
52.9785282578
 11
28.2902110084
 21
51.5640707149
  0
LINE
  5
2EA
100
AcDbEntity
  8
0
100
AcDbLine
 62
7
  6
BYLAYER
 10
27.9059634695
 20
52.795529584
 11
28.3695341427
 21
51.3799665169
  0
LINE
  5
2EB
100
AcDbEntity
  8
0
100
AcDbLine
 62
7
  6
BYLAYER
 10
28.3815333418
 20
51.3787780784
 11
28.0063708785
 21
52.7855849174
  0
LINE
  5
2EC
100
AcDbEntity
  8
0
100
AcDbLine
 62
7
  6
BYLAYER
 10
28.5460445877
 20
52.9134800085
 11
28.9209140572
 21
51.5077718555
  0
LINE
  5
2ED
100
AcDbEntity
  8
0
100
AcDbLine
 62
7
  6
BYLAYER
 10
28.6376134109
 20
52.6864423909
 11
29.0127758741
 21
51.279635552
  0
LINE
  5
2EE
100
AcDbEntity
  8
0
100
AcDbLine
 62
7
  6
BYLAYER
 10
29.2887743877
 20
52.761060119
 11
29.5724517091
 21
51.3747996436
  0
LINE
  5
2EF
100
AcDbEntity
  8
0
100
AcDbLine
 62
7
  6
BYLAYER
 10
29.3901283568
 20
52.4904841918
 11
29.6740273972
 21
51.1031402306
  0
LINE
  5
2F0
100
AcDbEntity
  8
0
100
AcDbLine
 62
7
  6
BYLAYER
 10
30.0495391517
 20
52.5224285966
 11
30.2398653693
 21
51.1661660781
  0
LINE
  5
2F1
100
AcDbEntity
  8
0
100
AcDbLine
 62
7
  6
BYLAYER
 10
30.157781214
 20
52.2091463469
 11
30.3482561885
 21
50.8518237888
  0
LINE
  5
2F2
100
AcDbEntity
  8
0
100
AcDbLine
 62
7
  6
BYLAYER
 10
44.6853644237
 20
37.4072658568
 11
45.1465417272
 21
37.6735251078
  0
LINE
  5
2F3
100
AcDbEntity
  8
0
100
AcDbLine
 62
7
  6
BYLAYER
 10
37.1667097185
 20
31.7962257536
 11
36.7525565618
 21
31.5571157443
  0
LINE
  5
2F4
100
AcDbEntity
  8
0
100
AcDbLine
 62
7
  6
BYLAYER
 10
21.9166352347
 20
22.8140815181
 11
22.2728855412
 21
23.0197615007
  0
LINE
  5
2F5
100
AcDbEntity
  8
0
100
AcDbLine
 62
7
  6
BYLAYER
 10
42.6840625016
 20
47.0509854861
 11
43.4981606046
 21
47.123710049
  0
LWPOLYLINE
  5
2F6
100
AcDbEntity
  8
0
100
AcDbPolyline
 62
7
  6
BYLAYER
 90
3
 70
0
 10
14.5217602485
 20
45.5385203894
 10
14.0191868813
 20
45.5167054874
 10
13.100232997
 20
45.1235464593
  0
LINE
  5
2F7
100
AcDbEntity
  8
0
100
AcDbLine
 62
7
  6
BYLAYER
 10
36.5764710159
 20
32.0211953069
 11
36.5764710159
 21
33.5904652332
  0
LINE
  5
2F8
100
AcDbEntity
  8
0
100
AcDbLine
 62
7
  6
BYLAYER
 10
36.5764710159
 20
35.136659255
 11
36.5764710159
 21
38.1096591564
  0
LWPOLYLINE
  5
2F9
100
AcDbEntity
  8
0
100
AcDbPolyline
 62
7
  6
BYLAYER
 90
3
 70
0
 10
36.9601491854
 20
33.7431979854
 10
36.8888135019
 20
33.2643089283
 10
36.5764710159
 20
32.7367946523
  0
LINE
  5
2FA
100
AcDbEntity
  8
0
100
AcDbLine
 62
7
  6
BYLAYER
 10
38.5748824059
 20
30.8337049125
 11
38.5709333237
 21
30.8310842713
  0
LINE
  5
2FB
100
AcDbEntity
  8
0
100
AcDbLine
 62
7
  6
BYLAYER
 10
38.5788711576
 20
30.827037046
 11
38.5748798039
 21
30.8244814591
  0
LINE
  5
2FC
100
AcDbEntity
  8
0
100
AcDbLine
 62
7
  6
BYLAYER
 10
12.2999449138
 20
17.1058075456
 11
21.934734225
 21
22.6684225437
  0
LINE
  5
2FD
100
AcDbEntity
  8
0
100
AcDbLine
 62
7
  6
BYLAYER
 10
45.2659349177
 20
35.3561316693
 11
43.265594849
 21
34.2012416859
  0
LINE
  5
2FE
100
AcDbEntity
  8
0
100
AcDbLine
 62
7
  6
BYLAYER
 10
14.3061353042
 20
17.4157750706
 11
21.5763781909
 21
21.6132266967
  0
LINE
  5
2FF
100
AcDbEntity
  8
0
100
AcDbLine
 62
7
  6
BYLAYER
 10
22.3228345648
 20
22.0441909126
 11
22.3281631363
 21
22.0472673464
  0
LINE
  5
300
100
AcDbEntity
  8
0
100
AcDbLine
 62
7
  6
BYLAYER
 10
38.4112591111
 20
30.7249793069
 11
38.0276923783
 21
30.5035282723
  0
LINE
  5
301
100
AcDbEntity
  8
0
100
AcDbLine
 62
7
  6
BYLAYER
 10
38.0235164506
 20
30.5011173137
 11
38.0117454008
 21
30.4943213355
  0
LINE
  5
302
100
AcDbEntity
  8
0
100
AcDbLine
 62
7
  6
BYLAYER
 10
37.9433893147
 20
30.4551474094
 11
37.9693007986
 21
30.4699707291
  0
LINE
  5
303
100
AcDbEntity
  8
0
100
AcDbLine
 62
7
  6
BYLAYER
 10
38.0276261704
 20
30.5036429485
 11
38.0233896478
 21
30.5013369439
  0
LWPOLYLINE
  5
304
100
AcDbEntity
  8
0
100
AcDbPolyline
 62
7
  6
BYLAYER
 90
4
 70
0
 10
15.3402636556
 20
46.0110807311
 10
14.0544722597
 20
45.9667042383
 10
12.097813392
 20
44.7861821785
 10
11.5340683009
 20
43.8135859357
  0
LINE
  5
305
100
AcDbEntity
  8
0
100
AcDbLine
 62
7
  6
BYLAYER
 10
34.2460472455
 20
44.4576110449
 11
34.1516718076
 21
44.5958883259
  0
LINE
  5
306
100
AcDbEntity
  8
0
100
AcDbLine
 62
7
  6
BYLAYER
 10
34.3392871853
 20
44.3183131185
 11
34.2460472455
 21
44.4576110449
  0
LINE
  5
307
100
AcDbEntity
  8
0
100
AcDbLine
 62
7
  6
BYLAYER
 10
36.8888135019
 20
38.7521193501
 11
37.2651799967
 21
35.7909237579
  0
LINE
  5
308
100
AcDbEntity
  8
0
100
AcDbLine
 62
7
  6
BYLAYER
 10
38.0896137594
 20
53.8519740426
 11
38.0896137591
 21
52.7717558838
  0
LINE
  5
309
100
AcDbEntity
  8
0
100
AcDbLine
 62
7
  6
BYLAYER
 10
46.0483899725
 20
48.1083002617
 11
46.3034885128
 21
48.6579626802
  0
LINE
  5
30A
100
AcDbEntity
  8
0
100
AcDbLine
 62
7
  6
BYLAYER
 10
36.5764710159
 20
29.8600558137
 11
36.2609263301
 21
29.4205009368
  0
LINE
  5
30B
100
AcDbEntity
  8
0
100
AcDbLine
 62
7
  6
BYLAYER
 10
39.0655833945
 20
31.2789701289
 11
39.0634772508
 21
31.276396813
  0
LINE
  5
30C
100
AcDbEntity
  8
0
100
AcDbLine
 62
7
  6
BYLAYER
 10
39.1030019599
 20
31.2232066634
 11
39.100581859
 21
31.2210708646
  0
LINE
  5
30D
100
AcDbEntity
  8
0
100
AcDbLine
 62
7
  6
BYLAYER
 10
40.64527083
 20
29.6418267838
 11
39.6060618901
 21
28.9932766711
  0
LINE
  5
30E
100
AcDbEntity
  8
0
100
AcDbLine
 62
7
  6
BYLAYER
 10
45.6915703891
 20
33.5191488377
 11
42.5166741693
 21
31.6861325922
  0
LINE
  5
30F
100
AcDbEntity
  8
0
100
AcDbLine
 62
7
  6
BYLAYER
 10
33.9079766418
 20
26.2775052927
 11
26.9174946378
 21
22.2415727173
  0
LINE
  5
310
100
AcDbEntity
  8
0
100
AcDbLine
 62
7
  6
BYLAYER
 10
44.9044105064
 20
32.3992810628
 11
41.7295142866
 21
30.5662648173
  0
LINE
  5
311
100
AcDbEntity
  8
0
100
AcDbLine
 62
7
  6
BYLAYER
 10
41.6678812083
 20
30.5007216831
 11
44.7784895411
 21
32.2966215213
  0
LINE
  5
312
100
AcDbEntity
  8
0
100
AcDbLine
 62
7
  6
BYLAYER
 10
31.9084408349
 20
50.1195671345
 11
28.6207597796
 21
49.681531948
  0
LWPOLYLINE
  5
313
100
AcDbEntity
  8
0
100
AcDbPolyline
 62
7
  6
BYLAYER
 90
3
 70
0
 10
27.9136404923
 20
49.819185545
 10
29.6331395835
 20
49.1608575966
 10
31.9259275685
 20
47.4391533452
  0
LINE
  5
314
100
AcDbEntity
  8
0
100
AcDbLine
 62
7
  6
BYLAYER
 10
28.6498763859
 20
49.4750635048
 11
29.5753617357
 21
49.1100057496
  0
LWPOLYLINE
  5
315
100
AcDbEntity
  8
0
100
AcDbPolyline
 62
7
  6
BYLAYER
 90
3
 70
0
 10
28.5875066995
 20
49.6016800719
 10
29.9642688462
 20
49.0283487476
 10
31.9940556099
 20
47.5298792378
  0
LINE
  5
316
100
AcDbEntity
  8
0
100
AcDbLine
 62
7
  6
BYLAYER
 10
32.0647659937
 20
47.5707036532
 11
33.2907569041
 21
46.8628934838
  0
LINE
  5
317
100
AcDbEntity
  8
0
100
AcDbLine
 62
7
  6
BYLAYER
 10
45.499606943
 20
40.9573730338
 11
45.7081454822
 21
40.8369759758
  0
LWPOLYLINE
  5
318
100
AcDbEntity
  8
0
100
AcDbPolyline
 62
7
  6
BYLAYER
 90
5
 70
0
 10
29.5753617357
 20
49.1100057496
 10
31.951646262
 20
47.3034963845
 10
34.0953235023
 20
44.8046369604
 10
35.7965553925
 20
41.8580332484
 10
36.8888135019
 20
38.7521193501
  0
LINE
  5
319
100
AcDbEntity
  8
0
100
AcDbLine
 62
7
  6
BYLAYER
 10
46.3034885128
 20
46.8616573722
 11
45.9448639699
 21
46.0889268293
  0
LINE
  5
31A
100
AcDbEntity
  8
0
100
AcDbLine
 62
7
  6
BYLAYER
 10
45.9232569275
 20
45.0726817375
 11
45.8608032198
 21
44.9381167802
  0
LINE
  5
31B
100
AcDbEntity
  8
0
100
AcDbLine
 62
7
  6
BYLAYER
 10
45.7081454822
 20
40.8369759758
 11
45.0763604897
 21
39.8425607185
  0
LINE
  5
31C
100
AcDbEntity
  8
0
100
AcDbLine
 62
7
  6
BYLAYER
 10
44.9044105064
 20
32.3992810628
 11
44.7784758226
 21
32.2966452584
  0
LWPOLYLINE
  5
31D
100
AcDbEntity
  8
0
100
AcDbPolyline
 62
7
  6
BYLAYER
 90
3
 70
0
 10
24.0141710974
 20
51.3714006667
 10
24.8526279707
 20
51.3504148947
 10
27.666888479
 20
50.2127111062
  0
LINE
  5
31E
100
AcDbEntity
  8
0
100
AcDbLine
 62
7
  6
BYLAYER
 10
45.8525832464
 20
40.9398647483
 11
45.8573290906
 21
40.9371247959
  0
LINE
  5
31F
100
AcDbEntity
  8
0
100
AcDbLine
 62
7
  6
BYLAYER
 10
44.5327485526
 20
42.0869051889
 11
44.5920854879
 21
42.0526477684
  0
LINE
  5
320
100
AcDbEntity
  8
0
100
AcDbLine
 62
7
  6
BYLAYER
 10
45.9232524013
 20
40.8066609541
 11
45.8608032198
 21
40.8427325401
  0
LINE
  5
321
100
AcDbEntity
  8
0
100
AcDbLine
 62
7
  6
BYLAYER
 10
45.6189810234
 20
40.9824126761
 11
45.292044127
 21
41.1712563423
  0
LINE
  5
322
100
AcDbEntity
  8
0
100
AcDbLine
 62
7
  6
BYLAYER
 10
45.8608032198
 20
40.9349603836
 11
45.8573359901
 21
40.9371646908
  0
LINE
  5
323
100
AcDbEntity
  8
0
100
AcDbLine
 62
7
  6
BYLAYER
 10
44.4888273892
 20
36.3228579058
 11
45.2659349177
 21
35.3561316693
  0
LINE
  5
324
100
AcDbEntity
  8
0
100
AcDbLine
 62
7
  6
BYLAYER
 10
45.0763606176
 20
42.3871354033
 11
45.0818975423
 21
42.4022812987
  0
LINE
  5
325
100
AcDbEntity
  8
0
100
AcDbLine
 62
7
  6
BYLAYER
 10
45.6633835941
 20
43.992898381
 11
45.7081454822
 21
44.1153415997
  0
LINE
  5
326
100
AcDbEntity
  8
0
100
AcDbLine
 62
7
  6
BYLAYER
 10
45.8608032198
 20
40.6720616293
 11
45.9232524013
 21
40.8066609541
  0
LINE
  5
327
100
AcDbEntity
  8
0
100
AcDbLine
 62
7
  6
BYLAYER
 10
44.4517656838
 20
36.2007100891
 11
44.4293108269
 21
36.1552914175
  0
LWPOLYLINE
  5
328
100
AcDbEntity
  8
0
100
AcDbPolyline
 62
7
  6
BYLAYER
 90
3
 70
0
 10
25.9206927311
 20
52.7229427114
 10
27.9554316029
 20
53.2265043822
 10
30.3185131883
 20
52.8258602769
  0
LINE
  5
329
100
AcDbEntity
  8
0
100
AcDbLine
 62
7
  6
BYLAYER
 10
41.6429805332
 20
44.3137859651
 11
42.9460670302
 21
40.6583986859
  0
LWPOLYLINE
  5
32A
100
AcDbEntity
  8
0
100
AcDbPolyline
 62
7
  6
BYLAYER
 90
7
 70
0
 10
42.4916240648
 20
36.4982816921
 10
41.9132912815
 20
40.0419227912
 10
40.6094032414
 20
43.7010510954
 10
38.6747506391
 20
47.2127360397
 10
36.2514497692
 20
50.3168965717
 10
33.509954257
 20
52.7889678334
 10
32.0862874616
 20
53.7236276794
  0
LWPOLYLINE
  5
32B
100
AcDbEntity
  8
0
100
AcDbPolyline
 62
7
  6
BYLAYER
 90
5
 70
0
 10
42.9460670302
 20
40.6583986859
 10
43.5229917271
 20
37.1186464143
 10
43.5226068322
 20
35.479288815
 10
42.9459145776
 20
32.6115630727
 10
41.6678812083
 20
30.5007216831
  0
LINE
  5
32C
100
AcDbEntity
  8
0
100
AcDbLine
 62
7
  6
BYLAYER
 10
45.0763606176
 20
42.3871354033
 11
45.0773813453
 21
42.3994997531
  0
LINE
  5
32D
100
AcDbEntity
  8
0
100
AcDbLine
 62
7
  6
BYLAYER
 10
45.0763606176
 20
42.3871354033
 11
45.077684779
 21
42.3998490733
  0
LINE
  5
32E
100
AcDbEntity
  8
0
100
AcDbLine
 62
7
  6
BYLAYER
 10
31.9519428056
 20
55.2378264821
 11
31.0640042624
 21
55.1766201215
  0
LWPOLYLINE
  5
32F
100
AcDbEntity
  8
0
100
AcDbPolyline
 62
7
  6
BYLAYER
 90
5
 70
0
 10
33.1469432267
 20
54.3016454219
 10
34.5636257495
 20
53.3718041011
 10
37.292121082
 20
50.9133821384
 10
39.7094761436
 20
47.8201571521
 10
41.6429805332
 20
44.3137859651
  0
LINE
  5
330
100
AcDbEntity
  8
0
100
AcDbLine
 62
7
  6
BYLAYER
 10
45.8608032198
 20
44.9381167802
 11
45.8608032198
 21
44.675222494
  0
LINE
  5
331
100
AcDbEntity
  8
0
100
AcDbLine
 62
7
  6
BYLAYER
 10
45.8608032198
 20
40.9349603836
 11
45.8608032198
 21
40.6720616293
  0
LINE
  5
332
100
AcDbEntity
  8
0
100
AcDbLine
 62
7
  6
BYLAYER
 10
45.9448639925
 20
38.3128560333
 11
45.9448640121
 21
40.5483752427
  0
LINE
  5
333
100
AcDbEntity
  8
0
100
AcDbLine
 62
7
  6
BYLAYER
 10
45.9448640121
 20
45.4240604037
 11
45.9448639699
 21
46.0889268293
  0
LINE
  5
334
100
AcDbEntity
  8
0
100
AcDbLine
 62
7
  6
BYLAYER
 10
46.3034885128
 20
48.6579626802
 11
46.3034885128
 21
46.8616573722
  0
LINE
  5
335
100
AcDbEntity
  8
0
100
AcDbLine
 62
7
  6
BYLAYER
 10
45.1108588689
 20
49.3465121491
 11
46.3034885128
 21
48.6579626802
  0
LINE
  5
336
100
AcDbEntity
  8
0
100
AcDbLine
 62
7
  6
BYLAYER
 10
38.1068773609
 20
52.7640533027
 11
38.0908597583
 21
52.777300479
  0
LINE
  5
337
100
AcDbEntity
  8
0
100
AcDbLine
 62
7
  6
BYLAYER
 10
38.1051838555
 20
52.7565983496
 11
38.0896137591
 21
52.7717558838
  0
LINE
  5
338
100
AcDbEntity
  8
0
100
AcDbLine
 62
7
  6
BYLAYER
 10
42.6331423377
 20
47.0293073947
 11
42.6616320686
 21
46.9843162969
  0
LINE
  5
339
100
AcDbEntity
  8
0
100
AcDbLine
 62
7
  6
BYLAYER
 10
42.6935064537
 20
47.0360259846
 11
42.6793098811
 21
47.0585137785
  0
LINE
  5
33A
100
AcDbEntity
  8
0
100
AcDbLine
 62
7
  6
BYLAYER
 10
42.6935035105
 20
47.036024507
 11
42.6810091813
 21
47.0593022729
  0
LINE
  5
33B
100
AcDbEntity
  8
0
100
AcDbLine
 62
7
  6
BYLAYER
 10
42.6366424066
 20
47.030926227
 11
42.6616320686
 21
46.9843162969
  0
ARC
  5
33C
100
AcDbEntity
  8
0
100
AcDbCircle
 62
7
  6
BYLAYER
 10
-747.4577092688
 20
558.523856859
 40
948.6590013411
100
AcDbArc
 50
326.4678612746
 51
326.5891450515
  0
ARC
  5
33D
100
AcDbEntity
  8
0
100
AcDbCircle
 62
7
  6
BYLAYER
 10
121.0574476617
 20
-618.71641877
 40
676.6751599264
100
AcDbArc
 50
97.0541330606
 51
97.2313410478
  0
ARC
  5
33E
100
AcDbEntity
  8
0
100
AcDbCircle
 62
7
  6
BYLAYER
 10
274.790370892
 20
-417.739832388
 40
531.3451449151
100
AcDbArc
 50
120.0032562492
 51
120.2409521923
  0
ARC
  5
33F
100
AcDbEntity
  8
0
100
AcDbCircle
 62
7
  6
BYLAYER
 10
-46.9629284004
 20
-115.5611061375
 40
176.1088857717
100
AcDbArc
 50
60.1978708786
 51
60.3139396798
  0
ARC
  5
340
100
AcDbEntity
  8
0
100
AcDbCircle
 62
7
  6
BYLAYER
 10
-39.0010330626
 20
-99.2581797965
 40
157.9135846042
100
AcDbArc
 50
60.2022995757
 51
60.3320842127
  0
ARC
  5
341
100
AcDbEntity
  8
0
100
AcDbCircle
 62
7
  6
BYLAYER
 10
-10.7568953503
 20
-53.0143482209
 40
104.6183331324
100
AcDbArc
 50
60.6899177005
 51
60.8993797548
  0
ARC
  5
342
100
AcDbEntity
  8
0
100
AcDbCircle
 62
7
  6
BYLAYER
 10
-6.4124435174
 20
-42.9755731277
 40
93.5612854471
100
AcDbArc
 50
60.6976592346
 51
60.9324206799
  0
ARC
  5
343
100
AcDbEntity
  8
0
100
AcDbCircle
 62
7
  6
BYLAYER
 10
1.4938245848
 20
-32.0178641823
 40
81.0875988936
100
AcDbArc
 50
61.4209027763
 51
61.7081801435
  0
ARC
  5
344
100
AcDbEntity
  8
0
100
AcDbCircle
 62
7
  6
BYLAYER
 10
-145.9689588513
 20
51.8535473937
 40
178.4644639644
100
AcDbArc
 50
359.6866117285
 51
359.8011468381
  0
ARC
  5
345
100
AcDbEntity
  8
0
100
AcDbCircle
 62
7
  6
BYLAYER
 10
-123.2086891939
 20
50.5759140949
 40
155.6085556553
100
AcDbArc
 50
359.6667420554
 51
359.7984472668
  0
ARC
  5
346
100
AcDbEntity
  8
0
100
AcDbCircle
 62
7
  6
BYLAYER
 10
-72.5627571856
 20
51.9415502701
 40
105.837900717
100
AcDbArc
 50
359.1016631421
 51
359.3087089081
  0
ARC
  5
347
100
AcDbEntity
  8
0
100
AcDbCircle
 62
7
  6
BYLAYER
 10
-59.2706620088
 20
50.6504345266
 40
92.3545955224
100
AcDbArc
 50
359.065883552
 51
359.3037093151
  0
ARC
  5
348
100
AcDbEntity
  8
0
100
AcDbCircle
 62
7
  6
BYLAYER
 10
-47.8607996943
 20
52.0582795343
 40
81.9142482621
100
AcDbArc
 50
358.2931476543
 51
358.5775226755
  0
ARC
  5
349
100
AcDbEntity
  8
0
100
AcDbCircle
 62
7
  6
BYLAYER
 10
-37.7607966719
 20
50.7504826685
 40
71.5275848797
100
AcDbArc
 50
358.2441734524
 51
358.5705107171
  0
ARC
  5
34A
100
AcDbEntity
  8
0
100
AcDbCircle
 62
7
  6
BYLAYER
 10
-35.1650094864
 20
52.1956359846
 40
69.9950552537
100
AcDbArc
 50
357.2939907936
 51
357.6451191059
  0
ARC
  5
34B
100
AcDbEntity
  8
0
100
AcDbCircle
 62
7
  6
BYLAYER
 10
-217.3866739717
 20
418.7947904414
 40
463.4508300243
100
AcDbArc
 50
299.7381677398
 51
299.9953455093
  0
ARC
  5
34C
100
AcDbEntity
  8
0
100
AcDbCircle
 62
7
  6
BYLAYER
 10
4.6274367528
 20
-24.065502475
 40
72.347792073
100
AcDbArc
 50
61.4312153205
 51
61.7538565472
  0
ARC
  5
34D
100
AcDbEntity
  8
0
100
AcDbCircle
 62
7
  6
BYLAYER
 10
7.8520471278
 20
-21.270531443
 40
69.3773273433
100
AcDbArc
 50
62.3532286275
 51
62.7074868731
  0
ARC
  5
34E
100
AcDbEntity
  8
0
100
AcDbCircle
 62
7
  6
BYLAYER
 10
11.9214574306
 20
-14.511453421
 40
62.2631683245
100
AcDbArc
 50
63.4607752049
 51
63.8744597952
  0
ARC
  5
34F
100
AcDbEntity
  8
0
100
AcDbCircle
 62
7
  6
BYLAYER
 10
10.3637203511
 20
-14.3764901001
 40
61.7703279103
100
AcDbArc
 50
62.3656090908
 51
62.7642109805
  0
ARC
  5
350
100
AcDbEntity
  8
0
100
AcDbCircle
 62
7
  6
BYLAYER
 10
-27.1411703959
 20
52.3438646575
 40
62.7456818805
100
AcDbArc
 50
356.1270773467
 51
356.5375771616
  0
ARC
  5
351
100
AcDbEntity
  8
0
100
AcDbCircle
 62
7
  6
BYLAYER
 10
-26.7089233452
 20
50.8690392552
 40
61.1570233382
100
AcDbArc
 50
357.2337062605
 51
357.6363015116
  0
ARC
  5
352
100
AcDbEntity
  8
0
100
AcDbCircle
 62
7
  6
BYLAYER
 10
-21.3535067829
 20
52.4924028641
 40
57.729724418
100
AcDbArc
 50
354.80823611
 51
355.2729972238
  0
ARC
  5
353
100
AcDbEntity
  8
0
100
AcDbCircle
 62
7
  6
BYLAYER
 10
-19.7255694516
 20
50.9976079621
 40
54.8530719472
100
AcDbArc
 50
356.0567945416
 51
356.5271009441
  0
ARC
  5
354
100
AcDbEntity
  8
0
100
AcDbCircle
 62
7
  6
BYLAYER
 10
-16.7690135284
 20
52.6305538364
 40
53.9132361677
100
AcDbArc
 50
353.3482239324
 51
353.8637860199
  0
ARC
  5
355
100
AcDbEntity
  8
0
100
AcDbCircle
 62
7
  6
BYLAYER
 10
-12.8829853949
 20
52.7480944564
 40
50.7901946201
100
AcDbArc
 50
351.7540869583
 51
352.3182071556
  0
ARC
  5
356
100
AcDbEntity
  8
0
100
AcDbCircle
 62
7
  6
BYLAYER
 10
-14.6886566289
 20
51.1269600859
 40
50.4931125516
100
AcDbArc
 50
354.7288629134
 51
355.2609645482
  0
ARC
  5
357
100
AcDbEntity
  8
0
100
AcDbCircle
 62
7
  6
BYLAYER
 10
-9.4271497586
 20
52.8358404418
 40
48.0906201584
100
AcDbArc
 50
350.0301273532
 51
350.6414683226
  0
ARC
  5
358
100
AcDbEntity
  8
0
100
AcDbCircle
 62
7
  6
BYLAYER
 10
-10.6981721652
 20
51.2477241064
 40
47.1763219452
100
AcDbArc
 50
353.2603763118
 51
353.8502650469
  0
ARC
  5
359
100
AcDbEntity
  8
0
100
AcDbCircle
 62
7
  6
BYLAYER
 10
10.4211346663
 20
30.1328347123
 40
17.1137229608
100
AcDbArc
 50
45.4217232265
 51
47.8873304186
  0
ARC
  5
35A
100
AcDbEntity
  8
0
100
AcDbCircle
 62
7
  6
BYLAYER
 10
11.2488874086
 20
32.5117717737
 40
15.3009153612
100
AcDbArc
 50
50.8933499121
 51
57.9200262607
  0
ARC
  5
35B
100
AcDbEntity
  8
0
100
AcDbCircle
 62
7
  6
BYLAYER
 10
11.6408308306
 20
33.1219256706
 40
14.5757674275
100
AcDbArc
 50
57.9516401086
 51
58.1357110829
  0
ARC
  5
35C
100
AcDbEntity
  8
0
100
AcDbCircle
 62
7
  6
BYLAYER
 10
11.7539043188
 20
33.3342791963
 40
14.2783910663
100
AcDbArc
 50
57.8487608958
 51
58.0306095847
  0
ARC
  5
35D
100
AcDbEntity
  8
0
100
AcDbCircle
 62
7
  6
BYLAYER
 10
11.8754797648
 20
33.4550883314
 40
14.1894045548
100
AcDbArc
 50
58.0443741104
 51
58.2335255128
  0
ARC
  5
35E
100
AcDbEntity
  8
0
100
AcDbCircle
 62
7
  6
BYLAYER
 10
12.1520145691
 20
33.9818067209
 40
13.5182884177
100
AcDbArc
 50
58.0089319398
 51
62.1868456379
  0
ARC
  5
35F
100
AcDbEntity
  8
0
100
AcDbCircle
 62
7
  6
BYLAYER
 10
12.2110218622
 20
34.0692847517
 40
13.470174825
100
AcDbArc
 50
58.0682682989
 51
62.2307889584
  0
ARC
  5
360
100
AcDbEntity
  8
0
100
AcDbCircle
 62
7
  6
BYLAYER
 10
12.2396528654
 20
34.1739303586
 40
13.2719864542
100
AcDbArc
 50
57.88769199
 51
62.1183659657
  0
ARC
  5
361
100
AcDbEntity
  8
0
100
AcDbCircle
 62
7
  6
BYLAYER
 10
11.5652037711
 20
39.3765459806
 40
3.031875783
100
AcDbArc
 50
162.1403284701
 51
164.2731202723
  0
ARC
  5
362
100
AcDbEntity
  8
0
100
AcDbCircle
 62
7
  6
BYLAYER
 10
11.4416053864
 20
39.4123300076
 40
2.9032051611
100
AcDbArc
 50
164.2917276518
 51
166.4727172711
  0
ARC
  5
363
100
AcDbEntity
  8
0
100
AcDbCircle
 62
7
  6
BYLAYER
 10
11.2618215059
 20
39.4549531472
 40
2.7184388887
100
AcDbArc
 50
166.4598133553
 51
168.747128978
  0
ARC
  5
364
100
AcDbEntity
  8
0
100
AcDbCircle
 62
7
  6
BYLAYER
 10
8.0092964281
 20
27.4031637371
 40
1.0472742494
100
AcDbArc
 50
355.6942859536
 51
0.0619899525
  0
ARC
  5
365
100
AcDbEntity
  8
0
100
AcDbCircle
 62
7
  6
BYLAYER
 10
8.6262567318
 20
27.1127037744
 40
0.4171203461
100
AcDbArc
 50
304.297197018
 51
307.7734995589
  0
ARC
  5
366
100
AcDbEntity
  8
0
100
AcDbCircle
 62
7
  6
BYLAYER
 10
-6.2524010024
 20
52.8861404665
 40
45.6633433645
100
AcDbArc
 50
348.1786189829
 51
348.8365139914
  0
ARC
  5
367
100
AcDbEntity
  8
0
100
AcDbCircle
 62
7
  6
BYLAYER
 10
-7.3144015526
 20
51.3509229494
 40
44.4618483673
100
AcDbArc
 50
351.6581666246
 51
352.3032399741
  0
ARC
  5
368
100
AcDbEntity
  8
0
100
AcDbCircle
 62
7
  6
BYLAYER
 10
-3.2750802728
 20
52.8933015667
 40
43.4223638795
100
AcDbArc
 50
346.2003642748
 51
346.9046306494
  0
ARC
  5
369
100
AcDbEntity
  8
0
100
AcDbCircle
 62
7
  6
BYLAYER
 10
-4.3036320625
 20
51.4284686051
 40
42.1145009879
100
AcDbArc
 50
349.926377121
 51
350.6250772174
  0
ARC
  5
36A
100
AcDbEntity
  8
0
100
AcDbCircle
 62
7
  6
BYLAYER
 10
-0.4497096204
 20
52.8539352781
 40
41.3197077185
100
AcDbArc
 50
344.0951540151
 51
344.8459356113
  0
ARC
  5
36B
100
AcDbEntity
  8
0
100
AcDbCircle
 62
7
  6
BYLAYER
 10
-1.5360147449
 20
51.4736000798
 40
40.002639273
100
AcDbArc
 50
348.067164163
 51
348.818706436
  0
ARC
  5
36C
100
AcDbEntity
  8
0
100
AcDbCircle
 62
7
  6
BYLAYER
 10
2.2460779348
 20
52.7672117216
 40
39.3305206484
100
AcDbArc
 50
341.8621724492
 51
342.659797765
  0
ARC
  5
36D
100
AcDbEntity
  8
0
100
AcDbCircle
 62
7
  6
BYLAYER
 10
1.0612407284
 20
51.4812596093
 40
38.0514357518
100
AcDbArc
 50
346.0812451701
 51
346.8854035919
  0
ARC
  5
36E
100
AcDbEntity
  8
0
100
AcDbCircle
 62
7
  6
BYLAYER
 10
4.8204984576
 20
52.635012657
 40
37.4443059606
100
AcDbArc
 50
339.5003770336
 51
340.3452237129
  0
ARC
  5
36F
100
AcDbEntity
  8
0
100
AcDbCircle
 62
7
  6
BYLAYER
 10
3.5276298881
 20
51.4483981799
 40
36.2192187225
100
AcDbArc
 50
343.9683529452
 51
344.8252794436
  0
ARC
  5
370
100
AcDbEntity
  8
0
100
AcDbCircle
 62
7
  6
BYLAYER
 10
7.2732570093
 20
52.4619920896
 40
35.6595122682
100
AcDbArc
 50
337.0088724228
 51
337.9012319305
  0
ARC
  5
371
100
AcDbEntity
  8
0
100
AcDbCircle
 62
7
  6
BYLAYER
 10
5.8824856776
 20
51.3742015312
 40
34.4844819629
100
AcDbArc
 50
341.727637768
 51
342.6377001739
  0
ARC
  5
372
100
AcDbEntity
  8
0
100
AcDbCircle
 62
7
  6
BYLAYER
 10
9.5993280275
 20
52.2555267261
 40
33.9800002784
100
AcDbArc
 50
334.3872906896
 51
335.3272298821
  0
ARC
  5
373
100
AcDbEntity
  8
0
100
AcDbCircle
 62
7
  6
BYLAYER
 10
8.1327821957
 20
51.2602302357
 40
32.838253793
100
AcDbArc
 50
339.3580459244
 51
340.3216734899
  0
ARC
  5
374
100
AcDbEntity
  8
0
100
AcDbCircle
 62
7
  6
BYLAYER
 10
11.7928546887
 20
52.0248902859
 40
32.4112333604
100
AcDbArc
 50
331.6361588868
 51
332.6234228874
  0
ARC
  5
375
100
AcDbEntity
  8
0
100
AcDbCircle
 62
7
  6
BYLAYER
 10
10.278061795
 20
51.1104745299
 40
31.2793686982
100
AcDbArc
 50
336.8586933875
 51
337.8762230036
  0
ARC
  5
376
100
AcDbEntity
  8
0
100
AcDbCircle
 62
7
  6
BYLAYER
 10
12.3020648925
 20
50.9368477646
 40
29.8242989132
100
AcDbArc
 50
334.2294201681
 51
335.0292652959
  0
ARC
  5
377
100
AcDbEntity
  8
0
100
AcDbCircle
 62
7
  6
BYLAYER
 10
12.3359803352
 20
50.9210194718
 40
29.7868717688
100
AcDbArc
 50
335.0293251877
 51
335.3008758983
  0
ARC
  5
378
100
AcDbEntity
  8
0
100
AcDbCircle
 62
7
  6
BYLAYER
 10
14.892737696
 20
-9.6573983064
 40
57.3450468588
100
AcDbArc
 50
64.7254162262
 51
65.1932985517
  0
ARC
  5
379
100
AcDbEntity
  8
0
100
AcDbCircle
 62
7
  6
BYLAYER
 10
14.0372115131
 20
-8.2780740147
 40
55.3319889539
100
AcDbArc
 50
63.474878257
 51
63.9411179688
  0
ARC
  5
37A
100
AcDbEntity
  8
0
100
AcDbCircle
 62
7
  6
BYLAYER
 10
17.2655325648
 20
-5.8216471683
 40
53.6043144084
100
AcDbArc
 50
66.1347281747
 51
66.6532648628
  0
ARC
  5
37B
100
AcDbEntity
  8
0
100
AcDbCircle
 62
7
  6
BYLAYER
 10
16.7186510219
 20
-3.8970582097
 40
50.8746031068
100
AcDbArc
 50
64.7410035867
 51
65.2691191056
  0
ARC
  5
37C
100
AcDbEntity
  8
0
100
AcDbCircle
 62
7
  6
BYLAYER
 10
19.2795998561
 20
-2.5684565166
 40
50.5424533056
100
AcDbArc
 50
67.6804364047
 51
68.2473249529
  0
ARC
  5
37D
100
AcDbEntity
  8
0
100
AcDbCircle
 62
7
  6
BYLAYER
 10
21.0590630018
 20
0.3356612253
 40
47.893534991
100
AcDbArc
 50
69.3573256089
 51
69.9711851835
  0
ARC
  5
37E
100
AcDbEntity
  8
0
100
AcDbCircle
 62
7
  6
BYLAYER
 10
18.8574141988
 20
-0.4362989393
 40
47.4822883815
100
AcDbArc
 50
66.1516360873
 51
66.7377274805
  0
ARC
  5
37F
100
AcDbEntity
  8
0
100
AcDbCircle
 62
7
  6
BYLAYER
 10
22.6705845349
 20
3.0216883809
 40
45.5087760088
100
AcDbArc
 50
71.162445883
 51
71.8225779372
  0
ARC
  5
380
100
AcDbEntity
  8
0
100
AcDbCircle
 62
7
  6
BYLAYER
 10
20.6692808815
 20
2.4958589199
 40
44.7067904317
100
AcDbArc
 50
67.6985540424
 51
68.3400967032
  0
ARC
  5
381
100
AcDbEntity
  8
0
100
AcDbCircle
 62
7
  6
BYLAYER
 10
24.1502082973
 20
5.5637322267
 40
43.3036754288
100
AcDbArc
 50
73.0945065741
 51
73.8007055346
  0
ARC
  5
382
100
AcDbEntity
  8
0
100
AcDbCircle
 62
7
  6
BYLAYER
 10
22.2661489708
 20
5.109266329
 40
42.3088991612
100
AcDbArc
 50
69.3765805055
 51
70.0720734538
  0
ARC
  5
383
100
AcDbEntity
  8
0
100
AcDbCircle
 62
7
  6
BYLAYER
 10
25.5171027416
 20
8.0021287717
 40
41.2312541078
100
AcDbArc
 50
75.1533867868
 51
75.9057809536
  0
ARC
  5
384
100
AcDbEntity
  8
0
100
AcDbCircle
 62
7
  6
BYLAYER
 10
23.7083379191
 20
7.5216912788
 40
40.1546275916
100
AcDbArc
 50
71.1827937864
 51
71.9314942203
  0
ARC
  5
385
100
AcDbEntity
  8
0
100
AcDbCircle
 62
7
  6
BYLAYER
 10
26.7812085877
 20
10.3561549782
 40
39.2673825137
100
AcDbArc
 50
77.3397142366
 51
78.1386237116
  0
ARC
  5
386
100
AcDbEntity
  8
0
100
AcDbCircle
 62
7
  6
BYLAYER
 10
25.0287144509
 20
9.7998730546
 40
38.1676663606
100
AcDbArc
 50
73.1159240072
 51
73.9176360835
  0
ARC
  5
387
100
AcDbEntity
  8
0
100
AcDbCircle
 62
7
  6
BYLAYER
 10
27.9478038177
 20
12.6316208
 40
37.4021180834
100
AcDbArc
 50
79.6544788335
 51
80.5002796622
  0
ARC
  5
388
100
AcDbEntity
  8
0
100
AcDbCircle
 62
7
  6
BYLAYER
 10
26.2450295009
 20
11.9803007616
 40
36.3053299342
100
AcDbArc
 50
75.175865362
 51
76.0307614428
  0
ARC
  5
389
100
AcDbEntity
  8
0
100
AcDbCircle
 62
7
  6
BYLAYER
 10
27.3667642948
 20
14.080609824
 40
34.5454104053
100
AcDbArc
 50
77.3632564773
 51
78.2717155946
  0
ARC
  5
38A
100
AcDbEntity
  8
0
100
AcDbCircle
 62
7
  6
BYLAYER
 10
29.0203447119
 20
14.8256398714
 40
35.6343798311
100
AcDbArc
 50
82.0986582973
 51
82.9916480774
  0
ARC
  5
38B
100
AcDbEntity
  8
0
100
AcDbCircle
 62
7
  6
BYLAYER
 10
30.0023043175
 20
16.9299028937
 40
33.9684398268
100
AcDbArc
 50
84.672840993
 51
85.6131007015
  0
ARC
  5
38C
100
AcDbEntity
  8
0
100
AcDbCircle
 62
7
  6
BYLAYER
 10
28.3992247454
 20
16.106447662
 40
32.878357325
100
AcDbArc
 50
79.6790941033
 51
80.6415475821
  0
ARC
  5
38D
100
AcDbEntity
  8
0
100
AcDbCircle
 62
7
  6
BYLAYER
 10
30.8983727374
 20
18.9336447665
 40
32.4109355858
100
AcDbArc
 50
87.3768291378
 51
88.3641024124
  0
ARC
  5
38E
100
AcDbEntity
  8
0
100
AcDbCircle
 62
7
  6
BYLAYER
 10
29.3460619582
 20
18.0557050238
 40
31.3025567442
100
AcDbArc
 50
82.1243596853
 51
83.1411365233
  0
ARC
  5
38F
100
AcDbEntity
  8
0
100
AcDbCircle
 62
7
  6
BYLAYER
 10
31.7150050584
 20
20.8263591662
 40
30.9682847779
100
AcDbArc
 50
90.2092224875
 51
91.2428363637
  0
ARC
  5
390
100
AcDbEntity
  8
0
100
AcDbCircle
 62
7
  6
BYLAYER
 10
30.2109122101
 20
19.9214891156
 40
29.8211511117
100
AcDbArc
 50
84.699641657
 51
85.7708104644
  0
ARC
  5
391
100
AcDbEntity
  8
0
100
AcDbCircle
 62
7
  6
BYLAYER
 10
30.9984599794
 20
21.6950451484
 40
28.4391023682
100
AcDbArc
 50
87.4047313337
 51
88.5299737173
  0
ARC
  5
392
100
AcDbEntity
  8
0
100
AcDbCircle
 62
7
  6
BYLAYER
 10
31.7149606786
 20
23.3597184625
 40
27.1693466332
100
AcDbArc
 50
90.2383834686
 51
91.4165548667
  0
ARC
  5
393
100
AcDbEntity
  8
0
100
AcDbCircle
 62
7
  6
BYLAYER
 10
18.7660394623
 20
33.9890085652
 40
21.8683423217
100
AcDbArc
 50
28.354917724
 51
28.7573527443
  0
ARC
  5
394
100
AcDbEntity
  8
0
100
AcDbCircle
 62
7
  6
BYLAYER
 10
18.76536422
 20
33.9902305392
 40
21.8683161067
100
AcDbArc
 50
31.2429232703
 51
31.6453586952
  0
ARC
  5
395
100
AcDbEntity
  8
0
100
AcDbCircle
 62
7
  6
BYLAYER
 10
19.3523219056
 20
33.1912990196
 40
18.5207996843
100
AcDbArc
 50
227.1530798205
 51
227.3243656265
  0
ARC
  5
396
100
AcDbEntity
  8
0
100
AcDbCircle
 62
7
  6
BYLAYER
 10
19.0862791208
 20
33.0944699185
 40
18.1534507196
100
AcDbArc
 50
226.3372370047
 51
227.7463024274
  0
ARC
  5
397
100
AcDbEntity
  8
0
100
AcDbCircle
 62
7
  6
BYLAYER
 10
23.7753265389
 20
30.0531849023
 40
7.3967527612
100
AcDbArc
 50
256.8266564861
 51
257.9132535841
  0
ARC
  5
398
100
AcDbEntity
  8
0
100
AcDbCircle
 62
7
  6
BYLAYER
 10
23.7144973675
 20
29.7626399501
 40
7.0999116618
100
AcDbArc
 50
257.9023010259
 51
259.8650022697
  0
ARC
  5
399
100
AcDbEntity
  8
0
100
AcDbCircle
 62
7
  6
BYLAYER
 10
19.0608405766
 20
34.138372339
 40
21.537830242
100
AcDbArc
 50
25.4501497205
 51
25.856691393
  0
ARC
  5
39A
100
AcDbEntity
  8
0
100
AcDbCircle
 62
7
  6
BYLAYER
 10
19.0421711172
 20
34.1708900164
 40
21.5377394648
100
AcDbArc
 50
34.1435900525
 51
34.5501329511
  0
ARC
  5
39B
100
AcDbEntity
  8
0
100
AcDbCircle
 62
7
  6
BYLAYER
 10
19.6506814279
 20
34.401846727
 40
20.8917501871
100
AcDbArc
 50
22.4986838222
 51
22.9135645833
  0
ARC
  5
39C
100
AcDbEntity
  8
0
100
AcDbCircle
 62
7
  6
BYLAYER
 10
19.5653244987
 20
34.5500154043
 40
20.8915862323
100
AcDbArc
 50
37.0867282943
 51
37.5016111404
  0
ARC
  5
39D
100
AcDbEntity
  8
0
100
AcDbCircle
 62
7
  6
BYLAYER
 10
20.5205244698
 20
34.7380156954
 40
19.9591019537
100
AcDbArc
 50
19.4691597954
 51
19.89686637
  0
ARC
  5
39E
100
AcDbEntity
  8
0
100
AcDbCircle
 62
7
  6
BYLAYER
 10
20.2914099952
 20
35.1352701968
 40
19.9588914406
100
AcDbArc
 50
40.1034442457
 51
40.5311538277
  0
ARC
  5
39F
100
AcDbEntity
  8
0
100
AcDbCircle
 62
7
  6
BYLAYER
 10
21.1569570119
 20
35.9119425486
 40
18.7958297423
100
AcDbArc
 50
43.2272615345
 51
43.6723201144
  0
ARC
  5
3A0
100
AcDbEntity
  8
0
100
AcDbCircle
 62
7
  6
BYLAYER
 10
21.6544329459
 20
35.1077452785
 40
18.7662892024
100
AcDbArc
 50
16.3276658616
 51
16.7734271742
  0
ARC
  5
3A1
100
AcDbEntity
  8
0
100
AcDbCircle
 62
7
  6
BYLAYER
 10
22.1246332534
 20
36.8819981255
 40
17.4254630454
100
AcDbArc
 50
46.4944546649
 51
46.9625241969
  0
ARC
  5
3A2
100
AcDbEntity
  8
0
100
AcDbCircle
 62
7
  6
BYLAYER
 10
12.4077722358
 20
34.3436541406
 40
13.1537240963
100
AcDbArc
 50
58.167153473
 51
62.4280983738
  0
ARC
  5
3A3
100
AcDbEntity
  8
0
100
AcDbCircle
 62
7
  6
BYLAYER
 10
13.3521043321
 20
38.3621969094
 40
3.0892248548
100
AcDbArc
 50
162.1415020709
 51
162.3731405034
  0
ARC
  5
3A4
100
AcDbEntity
  8
0
100
AcDbCircle
 62
7
  6
BYLAYER
 10
13.2738441244
 20
38.3868210512
 40
3.0071824639
100
AcDbArc
 50
162.3687490081
 51
164.2723976772
  0
ARC
  5
3A5
100
AcDbEntity
  8
0
100
AcDbCircle
 62
7
  6
BYLAYER
 10
13.1701811556
 20
38.4167571282
 40
2.8992859946
100
AcDbArc
 50
164.2865470822
 51
166.4698792816
  0
ARC
  5
3A6
100
AcDbEntity
  8
0
100
AcDbCircle
 62
7
  6
BYLAYER
 10
12.9935777263
 20
38.4586098321
 40
2.7177921889
100
AcDbArc
 50
166.4566746533
 51
168.7438897584
  0
ARC
  5
3A7
100
AcDbEntity
  8
0
100
AcDbCircle
 62
7
  6
BYLAYER
 10
13.8403351543
 20
51.7857486947
 40
30.968559916
100
AcDbArc
 50
328.7574499057
 51
329.7910547246
  0
ARC
  5
3A8
100
AcDbEntity
  8
0
100
AcDbCircle
 62
7
  6
BYLAYER
 10
15.7414276759
 20
51.5494426968
 40
29.6540677738
100
AcDbArc
 50
325.7546330387
 51
326.8331398547
  0
ARC
  5
3A9
100
AcDbEntity
  8
0
100
AcDbCircle
 62
7
  6
BYLAYER
 10
17.4971865226
 20
51.3276965686
 40
28.469376966
100
AcDbArc
 50
322.6331980214
 51
323.7546723581
  0
ARC
  5
3AA
100
AcDbEntity
  8
0
100
AcDbCircle
 62
7
  6
BYLAYER
 10
14.2343851071
 20
50.7308502704
 40
28.4393645584
100
AcDbArc
 50
331.4702891644
 51
332.5955209541
  0
ARC
  5
3AB
100
AcDbEntity
  8
0
100
AcDbCircle
 62
7
  6
BYLAYER
 10
19.0949729265
 20
51.1451236953
 40
27.4353862931
100
AcDbArc
 50
319.4013831943
 51
320.5625243164
  0
ARC
  5
3AC
100
AcDbEntity
  8
0
100
AcDbCircle
 62
7
  6
BYLAYER
 10
16.0343075169
 20
50.5190136866
 40
27.1695886971
100
AcDbArc
 50
328.5837329447
 51
329.7618939991
  0
ARC
  5
3AD
100
AcDbEntity
  8
0
100
AcDbCircle
 62
7
  6
BYLAYER
 10
20.5405770661
 20
51.0165899804
 40
26.5533544238
100
AcDbArc
 50
316.0696528048
 51
317.2664151692
  0
ARC
  5
3AE
100
AcDbEntity
  8
0
100
AcDbCircle
 62
7
  6
BYLAYER
 10
17.7045309589
 20
50.3100105069
 40
26.0135275677
100
AcDbArc
 50
325.5733208025
 51
326.8027523314
  0
ARC
  5
3AF
100
AcDbEntity
  8
0
100
AcDbCircle
 62
7
  6
BYLAYER
 10
21.8386577088
 20
50.9599947184
 40
25.8285776232
100
AcDbArc
 50
312.6512051531
 51
313.8785975597
  0
ARC
  5
3B0
100
AcDbEntity
  8
0
100
AcDbCircle
 62
7
  6
BYLAYER
 10
19.2343183736
 20
50.1230945046
 40
24.9872738682
100
AcDbArc
 50
322.445034379
 51
323.7227496561
  0
ARC
  5
3B1
100
AcDbEntity
  8
0
100
AcDbCircle
 62
7
  6
BYLAYER
 10
20.6360812792
 20
49.9635608823
 40
24.0805887833
100
AcDbArc
 50
319.2065985503
 51
320.5294428803
  0
ARC
  5
3B2
100
AcDbEntity
  8
0
100
AcDbCircle
 62
7
  6
BYLAYER
 10
21.9048308608
 20
49.8510626496
 40
23.3066189122
100
AcDbArc
 50
315.8689013153
 51
317.2323112315
  0
ARC
  5
3B3
100
AcDbEntity
  8
0
100
AcDbCircle
 62
7
  6
BYLAYER
 10
20.8553847399
 20
44.3329315638
 40
0.0683936452
100
AcDbArc
 50
47.9982485023
 51
49.2802347436
  0
ARC
  5
3B4
100
AcDbEntity
  8
0
100
AcDbCircle
 62
7
  6
BYLAYER
 10
22.9600526493
 20
36.2604114646
 40
23.9850985033
100
AcDbArc
 50
18.6059975547
 51
23.8061550086
  0
ARC
  5
3B5
100
AcDbEntity
  8
0
100
AcDbCircle
 62
7
  6
BYLAYER
 10
22.9825380667
 20
35.4599911081
 40
17.3920825208
100
AcDbArc
 50
13.0373956145
 51
13.5063659492
  0
ARC
  5
3B6
100
AcDbEntity
  8
0
100
AcDbCircle
 62
7
  6
BYLAYER
 10
23.1250664989
 20
38.0097736779
 40
15.9176763001
100
AcDbArc
 50
49.946002368
 51
50.4431541243
  0
ARC
  5
3B7
100
AcDbEntity
  8
0
100
AcDbCircle
 62
7
  6
BYLAYER
 10
24.4622465039
 20
35.7609335647
 40
15.8818560837
100
AcDbArc
 50
9.556695279
 51
10.0549717025
  0
ARC
  5
3B8
100
AcDbEntity
  8
0
100
AcDbCircle
 62
7
  6
BYLAYER
 10
28.2373245478
 20
40.9504393434
 40
15.3544506015
100
AcDbArc
 50
50.1495916937
 51
50.4442059826
  0
ARC
  5
3B9
100
AcDbEntity
  8
0
100
AcDbCircle
 62
7
  6
BYLAYER
 10
27.2262302935
 20
35.620176623
 40
15.2906283556
100
AcDbArc
 50
3.0974546809
 51
3.2921740375
  0
ARC
  5
3BA
100
AcDbEntity
  8
0
100
AcDbCircle
 62
7
  6
BYLAYER
 10
28.3979266395
 20
41.0410517661
 40
15.2214482325
100
AcDbArc
 50
50.4468002182
 51
50.6653807109
  0
ARC
  5
3BB
100
AcDbEntity
  8
0
100
AcDbCircle
 62
7
  6
BYLAYER
 10
28.3223352685
 20
41.0533561907
 40
15.2209638977
100
AcDbArc
 50
50.4442180616
 51
50.7286740921
  0
ARC
  5
3BC
100
AcDbEntity
  8
0
100
AcDbCircle
 62
7
  6
BYLAYER
 10
24.100602531
 20
39.2579051625
 40
14.3332666298
100
AcDbArc
 50
53.6280436029
 51
54.1611598497
  0
ARC
  5
3BD
100
AcDbEntity
  8
0
100
AcDbCircle
 62
7
  6
BYLAYER
 10
26.0322872798
 20
35.9795191954
 40
14.2964026076
100
AcDbArc
 50
5.8386138252
 51
6.3731088653
  0
ARC
  5
3BE
100
AcDbEntity
  8
0
100
AcDbCircle
 62
7
  6
BYLAYER
 10
24.999768674
 20
40.5816164284
 40
12.7327293716
100
AcDbArc
 50
57.5929047334
 51
58.1697811457
  0
ARC
  5
3BF
100
AcDbEntity
  8
0
100
AcDbCircle
 62
7
  6
BYLAYER
 10
27.6281142661
 20
36.093786681
 40
12.6961737988
100
AcDbArc
 50
1.8299115801
 51
2.4084535763
  0
ARC
  5
3C0
100
AcDbEntity
  8
0
100
AcDbCircle
 62
7
  6
BYLAYER
 10
25.7806563686
 20
41.9314571819
 40
11.1729260981
100
AcDbArc
 50
61.8995979346
 51
62.5289595451
  0
ARC
  5
3C1
100
AcDbEntity
  8
0
100
AcDbCircle
 62
7
  6
BYLAYER
 10
29.1859892847
 20
36.0924234144
 40
11.1379346779
100
AcDbArc
 50
357.47064932
 51
358.101993862
  0
ARC
  5
3C2
100
AcDbEntity
  8
0
100
AcDbCircle
 62
7
  6
BYLAYER
 10
26.4136181632
 20
43.2563436996
 40
9.7041966279
100
AcDbArc
 50
66.6134302958
 51
67.3047683117
  0
ARC
  5
3C3
100
AcDbEntity
  8
0
100
AcDbCircle
 62
7
  6
BYLAYER
 10
30.6470246552
 20
35.9755631246
 40
9.671823223
100
AcDbArc
 50
352.6947602259
 51
353.3884187435
  0
ARC
  5
3C4
100
AcDbEntity
  8
0
100
AcDbCircle
 62
7
  6
BYLAYER
 10
31.9607755733
 20
35.7547767768
 40
8.3391970785
100
AcDbArc
 50
347.4324991104
 51
348.1982323749
  0
ARC
  5
3C5
100
AcDbEntity
  8
0
100
AcDbCircle
 62
7
  6
BYLAYER
 10
22.9885952525
 20
51.0030185614
 40
25.2783978475
100
AcDbArc
 50
309.1621103012
 51
310.4135909972
  0
ARC
  5
3C6
100
AcDbEntity
  8
0
100
AcDbCircle
 62
7
  6
BYLAYER
 10
27.168051254
 20
53.0042602473
 40
24.9173967983
100
AcDbArc
 50
292.1745970278
 51
292.5974195758
  0
ARC
  5
3C7
100
AcDbEntity
  8
0
100
AcDbCircle
 62
7
  6
BYLAYER
 10
24.0239252019
 20
51.1354990734
 40
24.8707223551
100
AcDbArc
 50
305.6195102807
 51
306.8894883439
  0
ARC
  5
3C8
100
AcDbEntity
  8
0
100
AcDbCircle
 62
7
  6
BYLAYER
 10
26.4920517759
 20
52.3223981178
 40
24.6636074752
100
AcDbArc
 50
294.8774982122
 51
296.1574350682
  0
ARC
  5
3C9
100
AcDbEntity
  8
0
100
AcDbCircle
 62
7
  6
BYLAYER
 10
24.9397850152
 20
51.393923919
 40
24.6356096357
100
AcDbArc
 50
302.0439020143
 51
303.3248080179
  0
ARC
  5
3CA
100
AcDbEntity
  8
0
100
AcDbCircle
 62
7
  6
BYLAYER
 10
25.7565704687
 20
51.7860001751
 40
24.5667220187
100
AcDbArc
 50
298.4560911265
 51
299.7403456312
  0
ARC
  5
3CB
100
AcDbEntity
  8
0
100
AcDbCircle
 62
7
  6
BYLAYER
 10
23.0444971948
 20
49.8013129355
 40
22.6701358517
100
AcDbArc
 50
312.4452999036
 51
313.8436340652
  0
ARC
  5
3CC
100
AcDbEntity
  8
0
100
AcDbCircle
 62
7
  6
BYLAYER
 10
24.0618562153
 20
49.8296651192
 40
22.1748111125
100
AcDbArc
 50
308.9516870132
 51
310.3782836712
  0
ARC
  5
3CD
100
AcDbEntity
  8
0
100
AcDbCircle
 62
7
  6
BYLAYER
 10
24.9697840079
 20
49.945974445
 40
21.8174727755
100
AcDbArc
 50
305.4060080942
 51
306.8537014662
  0
ARC
  5
3CE
100
AcDbEntity
  8
0
100
AcDbCircle
 62
7
  6
BYLAYER
 10
25.7722192738
 20
50.1739324814
 40
21.6128389672
100
AcDbArc
 50
301.828602049
 51
303.2886797231
  0
ARC
  5
3CF
100
AcDbEntity
  8
0
100
AcDbCircle
 62
7
  6
BYLAYER
 10
26.8831200216
 20
44.5067448862
 40
8.3681051673
100
AcDbArc
 50
71.803885057
 51
72.5669654374
  0
ARC
  5
3D0
100
AcDbEntity
  8
0
100
AcDbCircle
 62
7
  6
BYLAYER
 10
27.1885868524
 20
45.6377433848
 40
7.1960986406
100
AcDbArc
 50
77.5395022435
 51
78.3833369195
  0
ARC
  5
3D1
100
AcDbEntity
  8
0
100
AcDbCircle
 62
7
  6
BYLAYER
 10
28.8584101899
 20
46.3511281971
 40
6.9909348282
100
AcDbArc
 50
120.0113123186
 51
120.1872087373
  0
ARC
  5
3D2
100
AcDbEntity
  8
0
100
AcDbCircle
 62
7
  6
BYLAYER
 10
27.7042719388
 20
45.1135646587
 40
6.3033810618
100
AcDbArc
 50
77.9038578061
 51
78.0189814562
  0
ARC
  5
3D3
100
AcDbEntity
  8
0
100
AcDbCircle
 62
7
  6
BYLAYER
 10
27.3442027831
 20
46.6117921652
 40
6.2092015214
100
AcDbArc
 50
83.8781628933
 51
84.8092217852
  0
ARC
  5
3D4
100
AcDbEntity
  8
0
100
AcDbCircle
 62
7
  6
BYLAYER
 10
27.8394284236
 20
45.9665265268
 40
5.4393331026
100
AcDbArc
 50
84.2801857777
 51
84.4071990374
  0
ARC
  5
3D5
100
AcDbEntity
  8
0
100
AcDbCircle
 62
7
  6
BYLAYER
 10
27.377677099
 20
47.4009615191
 40
5.4188432718
100
AcDbArc
 50
90.8515070679
 51
91.871093004
  0
ARC
  5
3D6
100
AcDbEntity
  8
0
100
AcDbCircle
 62
7
  6
BYLAYER
 10
27.3280661299
 20
47.9885732147
 40
4.8287192045
100
AcDbArc
 50
98.4441611847
 51
99.5453219604
  0
ARC
  5
3D7
100
AcDbEntity
  8
0
100
AcDbCircle
 62
7
  6
BYLAYER
 10
27.8677519153
 20
46.6570088277
 40
4.7478411074
100
AcDbArc
 50
91.2917678719
 51
91.4308323199
  0
ARC
  5
3D8
100
AcDbEntity
  8
0
100
AcDbCircle
 62
7
  6
BYLAYER
 10
27.2981782909
 20
48.4055465091
 40
4.434386659
100
AcDbArc
 50
132.2630165109
 51
133.4289693892
  0
ARC
  5
3D9
100
AcDbEntity
  8
0
100
AcDbCircle
 62
7
  6
BYLAYER
 10
27.2418499059
 20
48.373090265
 40
4.434329129
100
AcDbArc
 50
106.5723879888
 51
107.7383509508
  0
ARC
  5
3DA
100
AcDbEntity
  8
0
100
AcDbCircle
 62
7
  6
BYLAYER
 10
27.1758104124
 20
48.5549156166
 40
4.2411340668
100
AcDbArc
 50
123.7247498943
 51
124.9258563841
  0
ARC
  5
3DB
100
AcDbEntity
  8
0
100
AcDbCircle
 62
7
  6
BYLAYER
 10
27.1736866096
 20
48.5537099126
 40
4.2411162917
100
AcDbArc
 50
115.0755541224
 51
116.2766642156
  0
ARC
  5
3DC
100
AcDbEntity
  8
0
100
AcDbCircle
 62
7
  6
BYLAYER
 10
27.8236167677
 20
47.1705425294
 40
4.2320371896
100
AcDbArc
 50
98.9196687599
 51
99.0698145464
  0
ARC
  5
3DD
100
AcDbEntity
  8
0
100
AcDbCircle
 62
7
  6
BYLAYER
 10
27.8692533002
 20
48.9847217347
 40
4.2155882316
100
AcDbArc
 50
117.5310809345
 51
120.0021878503
  0
ARC
  5
3DE
100
AcDbEntity
  8
0
100
AcDbCircle
 62
7
  6
BYLAYER
 10
27.7487062313
 20
47.5031832822
 40
3.890784023
100
AcDbArc
 50
107.0759687867
 51
107.2347703235
  0
ARC
  5
3DF
100
AcDbEntity
  8
0
100
AcDbCircle
 62
7
  6
BYLAYER
 10
27.6888821352
 20
47.6616712145
 40
3.7212382639
100
AcDbArc
 50
115.5943145311
 51
115.757903948
  0
ARC
  5
3E0
100
AcDbEntity
  8
0
100
AcDbCircle
 62
7
  6
BYLAYER
 10
30.5569713352
 20
52.113261405
 40
3.4291940579
100
AcDbArc
 50
165.6276810826
 51
168.1590739534
  0
ARC
  5
3E1
100
AcDbEntity
  8
0
100
AcDbCircle
 62
7
  6
BYLAYER
 10
26.2140504493
 20
50.9331422405
 40
1.7006158211
100
AcDbArc
 50
119.6199029087
 51
120.0776440882
  0
ARC
  5
3E2
100
AcDbEntity
  8
0
100
AcDbCircle
 62
7
  6
BYLAYER
 10
26.4703750709
 20
51.4734028231
 40
1.3210123956
100
AcDbArc
 50
115.9520144936
 51
117.2472121178
  0
ARC
  5
3E3
100
AcDbEntity
  8
0
100
AcDbCircle
 62
7
  6
BYLAYER
 10
25.7580561854
 20
51.7849278799
 40
0.7349626528
100
AcDbArc
 50
121.5410853872
 51
128.9408712808
  0
ARC
  5
3E4
100
AcDbEntity
  8
0
100
AcDbCircle
 62
7
  6
BYLAYER
 10
26.7550263667
 20
52.2391807297
 40
0.6648255717
100
AcDbArc
 50
111.7037507348
 51
114.2804236867
  0
ARC
  5
3E5
100
AcDbEntity
  8
0
100
AcDbCircle
 62
7
  6
BYLAYER
 10
27.8567666587
 20
51.1032609534
 40
0.4722931912
100
AcDbArc
 50
110.1902595096
 51
111.3082037432
  0
ARC
  5
3E6
100
AcDbEntity
  8
0
100
AcDbCircle
 62
7
  6
BYLAYER
 10
27.3004272498
 20
52.5376741767
 40
0.4488018097
100
AcDbArc
 50
107.5139923069
 51
111.3382848995
  0
ARC
  5
3E7
100
AcDbEntity
  8
0
100
AcDbCircle
 62
7
  6
BYLAYER
 10
28.4021293742
 20
51.2277009216
 40
0.3545002098
100
AcDbArc
 50
105.4469282794
 51
108.4035316434
  0
ARC
  5
3E8
100
AcDbEntity
  8
0
100
AcDbCircle
 62
7
  6
BYLAYER
 10
47.0174255061
 20
28.4842323189
 40
39.6920025022
100
AcDbArc
 50
178.718825964
 51
180.1440570567
  0
ARC
  5
3E9
100
AcDbEntity
  8
0
100
AcDbCircle
 62
7
  6
BYLAYER
 10
32.4609005131
 20
22.5908742596
 40
29.6538207528
100
AcDbArc
 50
93.1671618275
 51
94.2456773434
  0
ARC
  5
3EA
100
AcDbEntity
  8
0
100
AcDbCircle
 62
7
  6
BYLAYER
 10
33.1485563792
 20
24.2070293049
 40
28.4844825269
100
AcDbArc
 50
96.2459542958
 51
97.3668333695
  0
ARC
  5
3EB
100
AcDbEntity
  8
0
100
AcDbCircle
 62
7
  6
BYLAYER
 10
33.7904325433
 20
25.6807398655
 40
27.4519338332
100
AcDbArc
 50
99.4381762447
 51
100.5986168762
  0
ARC
  5
3EC
100
AcDbEntity
  8
0
100
AcDbCircle
 62
7
  6
BYLAYER
 10
34.4028581897
 20
26.9971548893
 40
26.5698734144
100
AcDbArc
 50
102.7343264789
 51
103.9303442517
  0
ARC
  5
3ED
100
AcDbEntity
  8
0
100
AcDbCircle
 62
7
  6
BYLAYER
 10
32.369066962
 20
24.9106473891
 40
26.0133104035
100
AcDbArc
 50
93.1975496016
 51
94.4269910626
  0
ARC
  5
3EE
100
AcDbEntity
  8
0
100
AcDbCircle
 62
7
  6
BYLAYER
 10
35.0034901083
 20
28.151033892
 40
25.8438861761
100
AcDbArc
 50
106.122151827
 51
107.348816534
  0
ARC
  5
3EF
100
AcDbEntity
  8
0
100
AcDbCircle
 62
7
  6
BYLAYER
 10
35.6112821323
 20
29.1401443094
 40
25.2783026015
100
AcDbArc
 50
109.586805389
 51
110.8382904122
  0
ARC
  5
3F0
100
AcDbEntity
  8
0
100
AcDbCircle
 62
7
  6
BYLAYER
 10
32.9701367678
 20
26.3449716298
 40
24.9709045842
100
AcDbArc
 50
96.2771616659
 51
97.5557139697
  0
ARC
  5
3F1
100
AcDbEntity
  8
0
100
AcDbCircle
 62
7
  6
BYLAYER
 10
36.2436906133
 20
29.9704896089
 40
24.870660864
100
AcDbArc
 50
113.1109180291
 51
114.3808989872
  0
ARC
  5
3F2
100
AcDbEntity
  8
0
100
AcDbCircle
 62
7
  6
BYLAYER
 10
38.5056914152
 20
31.5144014321
 40
24.6636444763
100
AcDbArc
 50
123.8429766858
 51
125.1229119358
  0
ARC
  5
3F3
100
AcDbEntity
  8
0
100
AcDbCircle
 62
7
  6
BYLAYER
 10
36.9254370653
 20
30.6344018603
 40
24.6355795367
100
AcDbArc
 50
116.675604324
 51
117.9565117484
  0
ARC
  5
3F4
100
AcDbEntity
  8
0
100
AcDbCircle
 62
7
  6
BYLAYER
 10
37.6733961408
 20
31.1456862326
 40
24.5667263038
100
AcDbArc
 50
120.2600685519
 51
121.5443229588
  0
ARC
  5
3F5
100
AcDbEntity
  8
0
100
AcDbCircle
 62
7
  6
BYLAYER
 10
33.5317243307
 20
27.6398567591
 40
24.0629040938
100
AcDbArc
 50
99.4704223742
 51
100.7942383218
  0
ARC
  5
3F6
100
AcDbEntity
  8
0
100
AcDbCircle
 62
7
  6
BYLAYER
 10
34.0677102231
 20
28.7945205804
 40
23.2890810093
100
AcDbArc
 50
102.7675456941
 51
104.1319817912
  0
ARC
  5
3F7
100
AcDbEntity
  8
0
100
AcDbCircle
 62
7
  6
BYLAYER
 10
34.5938382331
 20
29.8048434183
 40
22.6539111134
100
AcDbArc
 50
106.1562516124
 51
107.5555865959
  0
ARC
  5
3F8
100
AcDbEntity
  8
0
100
AcDbCircle
 62
7
  6
BYLAYER
 10
35.1269126784
 20
30.6693289837
 40
22.160804628
100
AcDbArc
 50
109.6216646792
 51
111.0491626099
  0
ARC
  5
3F9
100
AcDbEntity
  8
0
100
AcDbCircle
 62
7
  6
BYLAYER
 10
35.6864528809
 20
31.3843743865
 40
21.817419134
100
AcDbArc
 50
113.1467050126
 51
114.5944016713
  0
ARC
  5
3FA
100
AcDbEntity
  8
0
100
AcDbCircle
 62
7
  6
BYLAYER
 10
36.2851003443
 20
31.9652955568
 40
21.612812898
100
AcDbArc
 50
116.7117326804
 51
118.1718119589
  0
ARC
  5
3FB
100
AcDbEntity
  8
0
100
AcDbCircle
 62
7
  6
BYLAYER
 10
35.5825567692
 20
33.9890299443
 40
4.2411340668
100
AcDbArc
 50
303.7247498943
 51
304.9258563841
  0
ARC
  5
3FC
100
AcDbEntity
  8
0
100
AcDbCircle
 62
7
  6
BYLAYER
 10
35.5846811448
 20
33.9902344676
 40
4.2411149796
100
AcDbArc
 50
295.0755542462
 51
296.2766643394
  0
ARC
  5
3FD
100
AcDbEntity
  8
0
100
AcDbCircle
 62
7
  6
BYLAYER
 10
37.6749207202
 20
31.1437989717
 40
0.7308816421
100
AcDbArc
 50
291.0340152828
 51
298.4752334561
  0
ARC
  5
3FE
100
AcDbEntity
  8
0
100
AcDbCircle
 62
7
  6
BYLAYER
 10
38.1321632945
 20
33.3058597995
 40
0.4722626106
100
AcDbArc
 50
308.6920810945
 51
309.810285566
  0
ARC
  5
3FF
100
AcDbEntity
  8
0
100
AcDbCircle
 62
7
  6
BYLAYER
 10
38.5125982289
 20
33.715959553
 40
0.3544825228
100
AcDbArc
 50
311.596739392
 51
314.5538259912
  0
ARC
  5
400
100
AcDbEntity
  8
0
100
AcDbCircle
 62
7
  6
BYLAYER
 10
51.8714756573
 20
51.8725695997
 40
22.4898375584
100
AcDbArc
 50
177.810518465
 51
178.4255842174
  0
ARC
  5
401
100
AcDbEntity
  8
0
100
AcDbCircle
 62
7
  6
BYLAYER
 10
50.5728539298
 20
53.2823467942
 40
21.99531095
100
AcDbArc
 50
241.5668779343
 51
242.1957882399
  0
ARC
  5
402
100
AcDbEntity
  8
0
100
AcDbCircle
 62
7
  6
BYLAYER
 10
40.587454332
 20
51.9543975418
 40
11.9722423517
100
AcDbArc
 50
175.4853416191
 51
176.4944528236
  0
ARC
  5
403
100
AcDbEntity
  8
0
100
AcDbCircle
 62
7
  6
BYLAYER
 10
45.102484349
 20
43.6341119719
 40
11.6704690321
100
AcDbArc
 50
243.4916512105
 51
244.5268863407
  0
ARC
  5
404
100
AcDbEntity
  8
0
100
AcDbCircle
 62
7
  6
BYLAYER
 10
33.0606282557
 20
40.6443101605
 40
11.6171390935
100
AcDbArc
 50
6.9630541141
 51
7.2591598213
  0
ARC
  5
405
100
AcDbEntity
  8
0
100
AcDbCircle
 62
7
  6
BYLAYER
 10
33.2566691831
 20
39.0399430014
 40
11.6088570073
100
AcDbArc
 50
0.0003182556
 51
0.3442801296
  0
ARC
  5
406
100
AcDbEntity
  8
0
100
AcDbCircle
 62
7
  6
BYLAYER
 10
33.4936049212
 20
39.0396246778
 40
11.3719212755
100
AcDbArc
 50
358.7233185725
 51
0.0019287136
  0
ARC
  5
407
100
AcDbEntity
  8
0
100
AcDbCircle
 62
7
  6
BYLAYER
 10
33.7496791653
 20
37.8843293587
 40
8.5309686835
100
AcDbArc
 50
299.8297827141
 51
299.9739194367
  0
ARC
  5
408
100
AcDbEntity
  8
0
100
AcDbCircle
 62
7
  6
BYLAYER
 10
37.273941349
 20
38.5747929239
 40
7.553838529
100
AcDbArc
 50
343.0239379225
 51
346.6943025098
  0
ARC
  5
409
100
AcDbEntity
  8
0
100
AcDbCircle
 62
7
  6
BYLAYER
 10
33.0883619753
 20
35.4522526417
 40
7.171249756
100
AcDbArc
 50
341.6161031399
 51
342.4628699572
  0
ARC
  5
40A
100
AcDbEntity
  8
0
100
AcDbCircle
 62
7
  6
BYLAYER
 10
37.7634369697
 20
38.4820365978
 40
7.066776598
100
AcDbArc
 50
341.1660139024
 51
342.5994396506
  0
ARC
  5
40B
100
AcDbEntity
  8
0
100
AcDbCircle
 62
7
  6
BYLAYER
 10
37.7822876201
 20
38.4251181142
 40
7.023943622
100
AcDbArc
 50
341.5395457918
 51
342.9809498698
  0
ARC
  5
40C
100
AcDbEntity
  8
0
100
AcDbCircle
 62
7
  6
BYLAYER
 10
37.9611638495
 20
38.3662166114
 40
6.8356208079
100
AcDbArc
 50
341.1300853829
 51
341.5330867422
  0
ARC
  5
40D
100
AcDbEntity
  8
0
100
AcDbCircle
 62
7
  6
BYLAYER
 10
34.3115849551
 20
52.0429468082
 40
6.4496796084
100
AcDbArc
 50
171.6951293591
 51
173.2991599113
  0
ARC
  5
40E
100
AcDbEntity
  8
0
100
AcDbCircle
 62
7
  6
BYLAYER
 10
32.8684545444
 20
36.1686551265
 40
6.3035524066
100
AcDbArc
 50
341.9819259276
 51
342.0970472931
  0
ARC
  5
40F
100
AcDbEntity
  8
0
100
AcDbCircle
 62
7
  6
BYLAYER
 10
42.1025866254
 20
38.2549379069
 40
6.2644858401
100
AcDbArc
 50
246.6759360516
 51
248.3274433029
  0
ARC
  5
410
100
AcDbEntity
  8
0
100
AcDbCircle
 62
7
  6
BYLAYER
 10
34.0046848851
 20
35.0992366242
 40
6.1887823933
100
AcDbArc
 50
335.1902682072
 51
336.1244079114
  0
ARC
  5
411
100
AcDbEntity
  8
0
100
AcDbCircle
 62
7
  6
BYLAYER
 10
32.3259995064
 20
49.7406220281
 40
5.5099237765
100
AcDbArc
 50
88.1505086173
 51
93.9111172832
  0
ARC
  5
412
100
AcDbEntity
  8
0
100
AcDbCircle
 62
7
  6
BYLAYER
 10
33.6747403017
 20
35.8592297201
 40
5.4394873437
100
AcDbArc
 50
335.5938326981
 51
335.7208435569
  0
ARC
  5
413
100
AcDbEntity
  8
0
100
AcDbCircle
 62
7
  6
BYLAYER
 10
34.69977533
 20
34.7338158075
 40
5.4030122033
100
AcDbArc
 50
328.1285652698
 51
329.1511469852
  0
ARC
  5
414
100
AcDbEntity
  8
0
100
AcDbCircle
 62
7
  6
BYLAYER
 10
37.7620676712
 20
34.128696971
 40
5.3396484138
100
AcDbArc
 50
316.6626267047
 51
317.0931807442
  0
ARC
  5
415
100
AcDbEntity
  8
0
100
AcDbCircle
 62
7
  6
BYLAYER
 10
37.7777370178
 20
34.1139205461
 40
5.3181107464
100
AcDbArc
 50
316.3025219655
 51
316.6625567333
  0
ARC
  5
416
100
AcDbEntity
  8
0
100
AcDbCircle
 62
7
  6
BYLAYER
 10
32.310217124
 20
50.0099660834
 40
5.2401087386
100
AcDbArc
 50
88.0396677792
 51
93.9204031653
  0
ARC
  5
417
100
AcDbEntity
  8
0
100
AcDbCircle
 62
7
  6
BYLAYER
 10
35.1790600621
 20
34.3982191598
 40
4.8174948341
100
AcDbArc
 50
320.4546635176
 51
321.5583973585
  0
ARC
  5
418
100
AcDbEntity
  8
0
100
AcDbCircle
 62
7
  6
BYLAYER
 10
34.2869245162
 20
35.53850652
 40
4.7479483932
100
AcDbArc
 50
328.5703251457
 51
328.7093872588
  0
ARC
  5
419
100
AcDbEntity
  8
0
100
AcDbCircle
 62
7
  6
BYLAYER
 10
35.4601879558
 20
34.1384000531
 40
4.4343880289
100
AcDbArc
 50
312.2630163906
 51
313.428969269
  0
ARC
  5
41A
100
AcDbEntity
  8
0
100
AcDbCircle
 62
7
  6
BYLAYER
 10
35.5165172758
 20
34.170855296
 40
4.4343291291
100
AcDbArc
 50
286.5723879888
 51
287.7383509508
  0
ARC
  5
41B
100
AcDbEntity
  8
0
100
AcDbCircle
 62
7
  6
BYLAYER
 10
36.2575124674
 20
34.4429703912
 40
4.2969384596
100
AcDbArc
 50
302.6996716787
 51
311.4258339608
  0
ARC
  5
41C
100
AcDbEntity
  8
0
100
AcDbCircle
 62
7
  6
BYLAYER
 10
34.7096143755
 20
35.2435128393
 40
4.2321219648
100
AcDbArc
 50
320.9314586279
 51
321.0816024095
  0
ARC
  5
41D
100
AcDbEntity
  8
0
100
AcDbCircle
 62
7
  6
BYLAYER
 10
36.2987529563
 20
34.3837461815
 40
4.2248217466
100
AcDbArc
 50
301.3394556809
 51
302.5986529173
  0
ARC
  5
41E
100
AcDbEntity
  8
0
100
AcDbCircle
 62
7
  6
BYLAYER
 10
36.3006828368
 20
34.3805943991
 40
4.2211260614
100
AcDbArc
 50
300.0000695272
 51
301.3393328773
  0
ARC
  5
41F
100
AcDbEntity
  8
0
100
AcDbCircle
 62
7
  6
BYLAYER
 10
34.9602579699
 20
35.0123077807
 40
3.890844564
100
AcDbArc
 50
312.7665928164
 51
312.9253929802
  0
ARC
  5
420
100
AcDbEntity
  8
0
100
AcDbCircle
 62
7
  6
BYLAYER
 10
35.0676369798
 20
34.8812155562
 40
3.7212453731
100
AcDbArc
 50
304.2435087638
 51
304.4070976903
  0
ARC
  5
421
100
AcDbEntity
  8
0
100
AcDbCircle
 62
7
  6
BYLAYER
 10
43.5790198339
 20
43.0818263593
 40
3.5909834156
100
AcDbArc
 50
129.5890160356
 51
136.7215116635
  0
ARC
  5
422
100
AcDbEntity
  8
0
100
AcDbCircle
 62
7
  6
BYLAYER
 10
40.3252279654
 20
35.0346062869
 40
3.3197900007
100
AcDbArc
 50
251.7974743889
 51
254.4123996403
  0
ARC
  5
423
100
AcDbEntity
  8
0
100
AcDbCircle
 62
7
  6
BYLAYER
 10
38.8186850065
 20
34.2252559254
 40
0.2799326161
100
AcDbArc
 50
314.3934515465
 51
320.5384787049
  0
ARC
  5
424
100
AcDbEntity
  8
0
100
AcDbCircle
 62
7
  6
BYLAYER
 10
148.3323093134
 20
51.7899671089
 40
117.3975922972
100
AcDbArc
 50
179.8263760241
 51
179.9733510987
  0
ARC
  5
425
100
AcDbEntity
  8
0
100
AcDbCircle
 62
7
  6
BYLAYER
 10
79.0505159009
 20
34.1719685023
 40
57.2012503544
100
AcDbArc
 50
171.6825566649
 51
171.8078080816
  0
ARC
  5
426
100
AcDbEntity
  8
0
100
AcDbCircle
 62
7
  6
BYLAYER
 10
78.5343253548
 20
33.8739509558
 40
57.2012455587
100
AcDbArc
 50
171.6825566559
 51
171.8078080831
  0
ARC
  5
427
100
AcDbEntity
  8
0
100
AcDbCircle
 62
7
  6
BYLAYER
 10
75.5393545701
 20
51.8142817771
 40
45.3832911463
100
AcDbArc
 50
179.1585149863
 51
179.501482609
  0
ARC
  5
428
100
AcDbEntity
  8
0
100
AcDbCircle
 62
7
  6
BYLAYER
 10
97.9893100677
 20
135.5999810296
 40
115.439879847
100
AcDbArc
 50
240.0250431726
 51
240.1745136085
  0
ARC
  5
429
100
AcDbEntity
  8
0
100
AcDbCircle
 62
7
  6
BYLAYER
 10
62.1633067867
 20
73.4860843233
 40
44.5132654742
100
AcDbArc
 50
240.494696261
 51
240.844374982
  0
SPLINE
  5
42A
100
AcDbEntity
  8
0
100
AcDbSpline
 62
7
  6
BYLAYER
 70
0
 71
3
 72
9
 73
5
 74
0
 42
0.0000001
 43
0.0000001
 44
0.0000000001
 40
0.0
 40
0.0
 40
0.0
 40
0.0
 40
0.503357307
 40
1.0
 40
1.0
 40
1.0
 40
1.0
 10
41.6227180874
 20
30.4399006106
 30
0.0
 10
41.4761601518
 20
30.2865235184
 30
0.0
 10
41.1663737295
 20
29.999004937
 30
0.0
 10
40.8228393762
 20
29.7526445213
 30
0.0
 10
40.6452676982
 20
29.6418320726
 30
0.0
  0
LINE
  5
42B
100
AcDbEntity
  8
0
100
AcDbLine
 62
7
  6
BYLAYER
 10
25.3431795075
 20
52.3940019359
 11
25.3193816714
 21
52.3801495098
  0
SPLINE
  5
42C
100
AcDbEntity
  8
0
100
AcDbSpline
 62
7
  6
BYLAYER
 70
0
 71
3
 72
9
 73
5
 74
0
 42
0.0000001
 43
0.0000001
 44
0.0000000001
 40
0.0
 40
0.0
 40
0.0
 40
0.0
 40
0.4782869884
 40
1.0
 40
1.0
 40
1.0
 40
1.0
 10
39.4779409827
 20
37.7747748295
 30
0.0
 10
39.4829452542
 20
37.772386565
 30
0.0
 10
39.4924010324
 20
37.7650537877
 30
0.0
 10
39.4983028267
 20
37.7547794353
 30
0.0
 10
39.5005590409
 20
37.7491675941
 30
0.0
  0
SPLINE
  5
42D
100
AcDbEntity
  8
0
100
AcDbSpline
 62
7
  6
BYLAYER
 70
0
 71
3
 72
9
 73
5
 74
0
 42
0.0000001
 43
0.0000001
 44
0.0000000001
 40
0.0
 40
0.0
 40
0.0
 40
0.0
 40
0.2373140884
 40
1.0
 40
1.0
 40
1.0
 40
1.0
 10
39.5005590409
 20
37.7491675941
 30
0.0
 10
39.5012837093
 20
37.7473651394
 30
0.0
 10
39.5039881692
 20
37.7396304531
 30
0.0
 10
39.5053722089
 20
37.7314651931
 30
0.0
 10
39.5058242403
 20
37.7252381604
 30
0.0
  0
SPLINE
  5
42E
100
AcDbEntity
  8
0
100
AcDbSpline
 62
7
  6
BYLAYER
 70
0
 71
3
 72
9
 73
5
 74
0
 42
0.0000001
 43
0.0000001
 44
0.0000000001
 40
0.0
 40
0.0
 40
0.0
 40
0.0
 40
0.4552643138
 40
1.0
 40
1.0
 40
1.0
 40
1.0
 10
39.5206139976
 20
36.9597386549
 30
0.0
 10
39.5257228192
 20
36.9551459815
 30
0.0
 10
39.5338402319
 20
36.9415789973
 30
0.0
 10
39.5356917427
 20
36.9263064016
 30
0.0
 10
39.5356917427
 20
36.9180866316
 30
0.0
  0
SPLINE
  5
42F
100
AcDbEntity
  8
0
100
AcDbSpline
 62
7
  6
BYLAYER
 70
0
 71
3
 72
15
 73
11
 74
0
 42
0.0000001
 43
0.0000001
 44
0.0000000001
 40
0.0
 40
0.0
 40
0.0
 40
0.0
 40
0.1169929126
 40
0.2418179157
 40
0.3719468591
 40
0.5045245886
 40
0.6364798479
 40
0.7647861879
 40
0.8867224077
 40
1.0
 40
1.0
 40
1.0
 40
1.0
 10
37.1089993293
 20
55.6393798
 30
0.0
 10
37.1775065835
 20
55.593840703
 30
0.0
 10
37.3119141786
 20
55.488635503
 30
0.0
 10
37.4960486079
 20
55.3020962347
 30
0.0
 10
37.6642846324
 20
55.0870139063
 30
0.0
 10
37.8108930711
 20
54.8507788567
 30
0.0
 10
37.9308729202
 20
54.601382654
 30
0.0
 10
38.0201905599
 20
54.3472846479
 30
0.0
 10
38.0757510373
 20
54.0971572821
 30
0.0
 10
38.0896137594
 20
53.9316237625
 30
0.0
 10
38.0896137594
 20
53.8519740426
 30
0.0
  0
SPLINE
  5
430
100
AcDbEntity
  8
0
100
AcDbSpline
 62
7
  6
BYLAYER
 70
0
 71
3
 72
9
 73
5
 74
0
 42
0.0000001
 43
0.0000001
 44
0.0000000001
 40
0.0
 40
0.0
 40
0.0
 40
0.0
 40
0.2429449279
 40
1.0
 40
1.0
 40
1.0
 40
1.0
 10
35.5346795638
 20
56.548293178
 30
0.0
 10
35.6669327246
 20
56.4834970013
 30
0.0
 10
36.206522175
 20
56.2070680197
 30
0.0
 10
36.7268082008
 20
55.8934352143
 30
0.0
 10
37.1089993293
 20
55.6393798
 30
0.0
  0
LINE
  5
431
100
AcDbEntity
  8
0
100
AcDbLine
 62
7
  6
BYLAYER
 10
39.2203451631
 20
36.3421569272
 11
39.2209116869
 21
36.3568127268
  0
SPLINE
  5
432
100
AcDbEntity
  8
0
100
AcDbSpline
 62
7
  6
BYLAYER
 70
0
 71
3
 72
12
 73
8
 74
0
 42
0.0000001
 43
0.0000001
 44
0.0000000001
 40
0.0
 40
0.0
 40
0.0
 40
0.0
 40
0.2395053651
 40
0.4312628316
 40
0.6354416607
 40
0.8199423902
 40
1.0
 40
1.0
 40
1.0
 40
1.0
 10
39.160102671
 20
35.5893427417
 30
0.0
 10
39.1602394396
 20
35.5904557349
 30
0.0
 10
39.1608764434
 20
35.5923938296
 30
0.0
 10
39.1610543703
 20
35.5953829542
 30
0.0
 10
39.160798709
 20
35.5981013887
 30
0.0
 10
39.1612482189
 20
35.6007453681
 30
0.0
 10
39.1616964805
 20
35.6023959119
 30
0.0
 10
39.1617979242
 20
35.6032328166
 30
0.0
  0
SPLINE
  5
433
100
AcDbEntity
  8
0
100
AcDbSpline
 62
7
  6
BYLAYER
 70
0
 71
3
 72
12
 73
8
 74
0
 42
0.0000001
 43
0.0000001
 44
0.0000000001
 40
0.0
 40
0.0
 40
0.0
 40
0.0
 40
0.2332170587
 40
0.4265570688
 40
0.6431770869
 40
0.8244179117
 40
1.0
 40
1.0
 40
1.0
 40
1.0
 10
39.0406426736
 20
34.8797767338
 30
0.0
 10
39.0408647892
 20
34.8808008819
 30
0.0
 10
39.0419319024
 20
34.8824734265
 30
0.0
 10
39.0422163294
 20
34.8854095282
 30
0.0
 10
39.0417907512
 20
34.8880684697
 30
0.0
 10
39.0425415311
 20
34.8905896351
 30
0.0
 10
39.0432879442
 20
34.8920240877
 30
0.0
 10
39.0434537672
 20
34.8927954404
 30
0.0
  0
SPLINE
  5
434
100
AcDbEntity
  8
0
100
AcDbSpline
 62
7
  6
BYLAYER
 70
0
 71
3
 72
12
 73
8
 74
0
 42
0.0000001
 43
0.0000001
 44
0.0000000001
 40
0.0
 40
0.0
 40
0.0
 40
0.0
 40
0.2333639095
 40
0.426790421
 40
0.6433896984
 40
0.82453445
 40
1.0
 40
1.0
 40
1.0
 40
1.0
 10
29.6867074053
 20
51.0990655713
 30
0.0
 10
29.6857093696
 20
51.0993872857
 30
0.0
 10
29.6837262808
 20
51.0993028332
 30
0.0
 10
29.6810413448
 20
51.1005257819
 30
0.0
 10
29.6789513463
 20
51.1022237452
 30
0.0
 10
29.6763928744
 20
51.1028319533
 30
0.0
 10
29.6747782552
 20
51.1028996985
 30
0.0
 10
29.6740273972
 20
51.1031402306
 30
0.0
  0
SPLINE
  5
435
100
AcDbEntity
  8
0
100
AcDbSpline
 62
7
  6
BYLAYER
 70
0
 71
3
 72
12
 73
8
 74
0
 42
0.0000001
 43
0.0000001
 44
0.0000000001
 40
0.0
 40
0.0
 40
0.0
 40
0.0
 40
0.2396664879
 40
0.4314954274
 40
0.6356583064
 40
0.820071273
 40
1.0
 40
1.0
 40
1.0
 40
1.0
 10
30.3611329484
 20
50.8463470794
 30
0.0
 10
30.3601007146
 20
50.8467871097
 30
0.0
 10
30.3581033646
 20
50.8472076259
 30
0.0
 10
30.3554255699
 20
50.8485494774
 30
0.0
 10
30.3531991493
 20
50.8501299164
 30
0.0
 10
30.3506848888
 20
50.8510605192
 30
0.0
 10
30.349031677
 20
50.8514947137
 30
0.0
 10
30.3482561885
 20
50.8518237888
 30
0.0
  0
LINE
  5
436
100
AcDbEntity
  8
0
100
AcDbLine
 62
7
  6
BYLAYER
 10
31.0433064714
 20
50.5207618179
 11
31.0303309598
 21
50.5275988962
  0
LINE
  5
437
100
AcDbEntity
  8
0
100
AcDbLine
 62
7
  6
BYLAYER
 10
31.7280362218
 20
50.1247876873
 11
31.7150607103
 21
50.1329331002
  0
SPLINE
  5
438
100
AcDbEntity
  8
0
100
AcDbSpline
 62
7
  6
BYLAYER
 70
0
 71
3
 72
11
 73
7
 74
0
 42
0.0000001
 43
0.0000001
 44
0.0000000001
 40
0.0
 40
0.0
 40
0.0
 40
0.0
 40
0.2592626359
 40
0.4420153124
 40
0.6170653997
 40
1.0
 40
1.0
 40
1.0
 40
1.0
 10
32.4101109599
 20
49.6614383167
 30
0.0
 10
32.4089960778
 20
49.6622525472
 30
0.0
 10
32.4073002159
 20
49.6639016128
 30
0.0
 10
32.404565207
 20
49.6657445561
 30
0.0
 10
32.4009689447
 20
49.6674225398
 30
0.0
 10
32.3988824543
 20
49.6696295061
 30
0.0
 10
32.3972342331
 20
49.6708300458
 30
0.0
  0
SPLINE
  5
439
100
AcDbEntity
  8
0
100
AcDbSpline
 62
7
  6
BYLAYER
 70
0
 71
3
 72
12
 73
8
 74
0
 42
0.0000001
 43
0.0000001
 44
0.0000000001
 40
0.0
 40
0.0
 40
0.0
 40
0.0
 40
0.2640302311
 40
0.4438954582
 40
0.6131660221
 40
0.8021415999
 40
1.0
 40
1.0
 40
1.0
 40
1.0
 10
33.0843397517
 20
49.1342400257
 30
0.0
 10
33.0832179448
 20
49.1351759844
 30
0.0
 10
33.0816849417
 20
49.1371270426
 30
0.0
 10
33.0789441663
 20
49.1391832414
 30
0.0
 10
33.0761527329
 20
49.1403194133
 30
0.0
 10
33.0739323637
 20
49.1425178594
 30
0.0
 10
33.0725012622
 20
49.1441062246
 30
0.0
 10
33.0716597758
 20
49.1448066162
 30
0.0
  0
SPLINE
  5
43A
100
AcDbEntity
  8
0
100
AcDbSpline
 62
7
  6
BYLAYER
 70
0
 71
3
 72
12
 73
8
 74
0
 42
0.0000001
 43
0.0000001
 44
0.0000000001
 40
0.0
 40
0.0
 40
0.0
 40
0.0
 40
0.263922147
 40
0.4437722723
 40
0.6130442599
 40
0.8020504911
 40
1.0
 40
1.0
 40
1.0
 40
1.0
 10
39.0434537706
 20
38.8014134281
 30
0.0
 10
39.0432059021
 20
38.8028526367
 30
0.0
 10
39.042284461
 20
38.8051558828
 30
0.0
 10
39.0418759396
 20
38.8085569304
 30
0.0
 10
39.0422872894
 20
38.8115426679
 30
0.0
 10
39.0414916045
 20
38.8145651842
 30
0.0
 10
39.0408298626
 20
38.8165988041
 30
0.0
 10
39.0406426769
 20
38.817678033
 30
0.0
  0
SPLINE
  5
43B
100
AcDbEntity
  8
0
100
AcDbSpline
 62
7
  6
BYLAYER
 70
0
 71
3
 72
11
 73
7
 74
0
 42
0.0000001
 43
0.0000001
 44
0.0000000001
 40
0.0
 40
0.0
 40
0.0
 40
0.0
 40
0.2591335202
 40
0.441859221
 40
0.6169139885
 40
1.0
 40
1.0
 40
1.0
 40
1.0
 10
39.1617979264
 20
37.9543270817
 30
0.0
 10
39.1616520252
 20
37.9556992259
 30
0.0
 10
39.1610738003
 20
37.9579921394
 30
0.0
 10
39.1608469452
 20
37.961281388
 30
0.0
 10
39.1611913387
 20
37.9652356657
 30
0.0
 10
39.1603209309
 20
37.9681464515
 30
0.0
 10
39.1601026666
 20
37.9701746643
 30
0.0
  0
LINE
  5
43C
100
AcDbEntity
  8
0
100
AcDbLine
 62
7
  6
BYLAYER
 10
39.2209116855
 20
37.1324900627
 11
39.2203451638
 21
37.1477999729
  0
SPLINE
  5
43D
100
AcDbEntity
  8
0
100
AcDbSpline
 62
7
  6
BYLAYER
 70
0
 71
3
 72
10
 73
6
 74
0
 42
0.0000001
 43
0.0000001
 44
0.0000000001
 40
0.0
 40
0.0
 40
0.0
 40
0.0
 40
0.4807345988
 40
0.7356317852
 40
1.0
 40
1.0
 40
1.0
 40
1.0
 10
44.5068195243
 20
36.3687161752
 30
0.0
 10
44.6400792605
 20
36.7937774518
 30
0.0
 10
44.7841348012
 20
37.4641520665
 30
0.0
 10
44.877597737
 20
38.3863768137
 30
0.0
 10
44.8928559681
 20
38.8677980136
 30
0.0
 10
44.8928559681
 20
39.1127682187
 30
0.0
  0
SPLINE
  5
43E
100
AcDbEntity
  8
0
100
AcDbSpline
 62
7
  6
BYLAYER
 70
0
 71
3
 72
11
 73
7
 74
0
 42
0.0000001
 43
0.0000001
 44
0.0000000001
 40
0.0
 40
0.0
 40
0.0
 40
0.0
 40
0.2578283046
 40
0.5129750873
 40
0.7615404619
 40
1.0
 40
1.0
 40
1.0
 40
1.0
 10
42.6810091813
 20
47.0593022729
 30
0.0
 10
42.3817751498
 20
47.6159548745
 30
0.0
 10
41.7362508499
 20
48.697320673
 30
0.0
 10
40.6374761482
 20
50.2094829036
 30
0.0
 10
39.4335819348
 20
51.5768894408
 30
0.0
 10
38.557046158
 20
52.3912307274
 30
0.0
 10
38.1068773609
 20
52.7640533027
 30
0.0
  0
SPLINE
  5
43F
100
AcDbEntity
  8
0
100
AcDbSpline
 62
7
  6
BYLAYER
 70
0
 71
3
 72
10
 73
6
 74
0
 42
0.0000001
 43
0.0000001
 44
0.0000000001
 40
0.0
 40
0.0
 40
0.0
 40
0.0
 40
0.2392157321
 40
0.486027528
 40
1.0
 40
1.0
 40
1.0
 40
1.0
 10
44.8928559681
 20
39.1127682187
 30
0.0
 10
44.8928559681
 20
39.3513445291
 30
0.0
 10
44.877890213
 20
39.8361921664
 30
0.0
 10
44.7907715098
 20
40.8300588362
 30
0.0
 10
44.6633709427
 20
41.5798075571
 30
0.0
 10
44.5540561353
 20
42.0806145321
 30
0.0
  0
SPLINE
  5
440
100
AcDbEntity
  8
0
100
AcDbSpline
 62
7
  6
BYLAYER
 70
0
 71
3
 72
14
 73
10
 74
0
 42
0.0000001
 43
0.0000001
 44
0.0000000001
 40
0.0
 40
0.0
 40
0.0
 40
0.0
 40
0.101350338
 40
0.2058854365
 40
0.3164077821
 40
0.4348768019
 40
0.5624346765
 40
0.6994716067
 40
1.0
 40
1.0
 40
1.0
 40
1.0
 10
27.8651930059
 20
55.9545710408
 30
0.0
 10
27.8974483298
 20
55.9732065384
 30
0.0
 10
27.9675076794
 20
56.0037153346
 30
0.0
 10
28.0824471257
 20
56.026114225
 30
0.0
 10
28.2057514104
 20
56.0254116973
 30
0.0
 10
28.3352562686
 20
56.0019773285
 30
0.0
 10
28.4689682763
 20
55.9564156189
 30
0.0
 10
28.6557042981
 20
55.8645050075
 30
0.0
 10
28.7869558866
 20
55.7690364233
 30
0.0
 10
28.8705510288
 20
55.696833046
 30
0.0
  0
SPLINE
  5
441
100
AcDbEntity
  8
0
100
AcDbSpline
 62
7
  6
BYLAYER
 70
0
 71
3
 72
13
 73
9
 74
0
 42
0.0000001
 43
0.0000001
 44
0.0000000001
 40
0.0
 40
0.0
 40
0.0
 40
0.0
 40
0.1103346534
 40
0.2223813596
 40
0.3377002118
 40
0.4576417792
 40
0.7150840181
 40
1.0
 40
1.0
 40
1.0
 40
1.0
 10
34.864736828
 20
56.5798503027
 30
0.0
 10
34.8869546354
 20
56.5926803369
 30
0.0
 10
34.9338164747
 20
56.6151084601
 30
0.0
 10
35.0092434062
 20
56.6379218959
 30
0.0
 10
35.0893771252
 20
56.6499500682
 30
0.0
 10
35.2042396102
 20
56.6514892927
 30
0.0
 10
35.3572656192
 20
56.6242300661
 30
0.0
 10
35.4751847499
 20
56.5774420974
 30
0.0
 10
35.5346795638
 20
56.548293178
 30
0.0
  0
SPLINE
  5
442
100
AcDbEntity
  8
0
100
AcDbSpline
 62
7
  6
BYLAYER
 70
0
 71
3
 72
14
 73
10
 74
0
 42
0.0000001
 43
0.0000001
 44
0.0000000001
 40
0.0
 40
0.0
 40
0.0
 40
0.0
 40
0.1185928649
 40
0.2376743461
 40
0.3579816351
 40
0.4802158653
 40
0.6050212658
 40
0.7329704536
 40
1.0
 40
1.0
 40
1.0
 40
1.0
 10
24.8590362697
 20
54.5360264003
 30
0.0
 10
24.7176187749
 20
54.460734505
 30
0.0
 10
24.4413878768
 20
54.2958664158
 30
0.0
 10
24.0517523889
 20
54.008177717
 30
0.0
 10
23.6878743479
 20
53.6810887217
 30
0.0
 10
23.3510536673
 20
53.315689528
 30
0.0
 10
23.0422952673
 20
52.9131952602
 30
0.0
 10
22.6640824262
 20
52.320796706
 30
0.0
 10
22.4337611915
 20
51.8363325539
 30
0.0
 10
22.3020545361
 20
51.5004947107
 30
0.0
  0
SPLINE
  5
443
100
AcDbEntity
  8
0
100
AcDbSpline
 62
7
  6
BYLAYER
 70
0
 71
3
 72
16
 73
12
 74
0
 42
0.0000001
 43
0.0000001
 44
0.0000000001
 40
0.0
 40
0.0
 40
0.0
 40
0.0
 40
0.053796622
 40
0.1079379477
 40
0.2180989266
 40
0.3322840132
 40
0.4518964431
 40
0.5779718801
 40
0.7111718262
 40
0.8518639669
 40
1.0
 40
1.0
 40
1.0
 40
1.0
 10
25.940304694
 20
55.1117269152
 30
0.0
 10
26.0600689925
 20
55.1754906038
 30
0.0
 10
26.3058076757
 20
55.2935133829
 30
0.0
 10
26.8199966013
 20
55.4903139403
 30
0.0
 10
27.5048304037
 20
55.6602639629
 30
0.0
 10
28.3718238161
 20
55.738579817
 30
0.0
 10
29.2810349013
 20
55.6928796074
 30
0.0
 10
30.223947388
 20
55.5242450555
 30
0.0
 10
31.1923214889
 20
55.2347808348
 30
0.0
 10
32.1774029408
 20
54.8274415226
 30
0.0
 10
32.8233813299
 20
54.488449744
 30
0.0
 10
33.1469432267
 20
54.3016454219
 30
0.0
  0
LINE
  5
444
100
AcDbEntity
  8
0
100
AcDbLine
 62
7
  6
BYLAYER
 10
37.9693007986
 20
30.4699707291
 11
37.9931959549
 21
30.4836542587
  0
SPLINE
  5
445
100
AcDbEntity
  8
0
100
AcDbSpline
 62
7
  6
BYLAYER
 70
0
 71
3
 72
15
 73
11
 74
0
 42
0.0000001
 43
0.0000001
 44
0.0000000001
 40
0.0
 40
0.0
 40
0.0
 40
0.0
 40
0.09301646
 40
0.1963594901
 40
0.3110321204
 40
0.4364628393
 40
0.5708762423
 40
0.7116830351
 40
0.8558503887
 40
1.0
 40
1.0
 40
1.0
 40
1.0
 10
43.4981606046
 20
47.123710049
 30
0.0
 10
43.5579612283
 20
47.1290521254
 30
0.0
 10
43.6862000431
 20
47.1213261292
 30
0.0
 10
43.8795692629
 20
47.0626108528
 30
0.0
 10
44.0769785519
 20
46.9593971831
 30
0.0
 10
44.2721492987
 20
46.8154203476
 30
0.0
 10
44.4588302614
 20
46.6355127197
 30
0.0
 10
44.630843311
 20
46.4257429659
 30
0.0
 10
44.7823067909
 20
46.1932347504
 30
0.0
 10
44.866876743
 20
46.0269794264
 30
0.0
 10
44.9044105064
 20
45.9418425803
 30
0.0
  0
SPLINE
  5
446
100
AcDbEntity
  8
0
100
AcDbSpline
 62
7
  6
BYLAYER
 70
0
 71
3
 72
9
 73
5
 74
0
 42
0.0000001
 43
0.0000001
 44
0.0000000001
 40
0.0
 40
0.0
 40
0.0
 40
0.0
 40
0.245151673
 40
1.0
 40
1.0
 40
1.0
 40
1.0
 10
38.5469343527
 20
30.8672486678
 30
0.0
 10
38.5384540834
 20
30.8659275496
 30
0.0
 10
38.5037886843
 20
30.8610164439
 30
0.0
 10
38.4688622898
 20
30.8579885562
 30
0.0
 10
38.4424689295
 20
30.8566630957
 30
0.0
  0
SPLINE
  5
447
100
AcDbEntity
  8
0
100
AcDbSpline
 62
7
  6
BYLAYER
 70
0
 71
3
 72
9
 73
5
 74
0
 42
0.0000001
 43
0.0000001
 44
0.0000000001
 40
0.0
 40
0.0
 40
0.0
 40
0.0
 40
0.5207000026
 40
1.0
 40
1.0
 40
1.0
 40
1.0
 10
45.6915703891
 20
43.9130614274
 30
0.0
 10
45.7248231321
 20
43.813979103
 30
0.0
 10
45.7760490664
 20
43.6191347448
 30
0.0
 10
45.7962672037
 20
43.4182398827
 30
0.0
 10
45.7962672037
 20
43.322036167
 30
0.0
  0
SPLINE
  5
448
100
AcDbEntity
  8
0
100
AcDbSpline
 62
7
  6
BYLAYER
 70
0
 71
3
 72
14
 73
10
 74
0
 42
0.0000001
 43
0.0000001
 44
0.0000000001
 40
0.0
 40
0.0
 40
0.0
 40
0.0
 40
0.2892654733
 40
0.4225652398
 40
0.5485114123
 40
0.6678978323
 40
0.7818798305
 40
0.8919561332
 40
1.0
 40
1.0
 40
1.0
 40
1.0
 10
45.7962672037
 20
43.322036167
 30
0.0
 10
45.7962672037
 20
43.2460093048
 30
0.0
 10
45.7873856512
 20
43.134402109
 30
0.0
 10
45.753078892
 20
42.9941269676
 30
0.0
 10
45.7181758509
 20
42.9006496479
 30
0.0
 10
45.6736674978
 20
42.8170198838
 30
0.0
 10
45.619943951
 20
42.7440406009
 30
0.0
 10
45.5574738322
 20
42.68254722
 30
0.0
 10
45.5101915667
 20
42.6495557254
 30
0.0
 10
45.4855996146
 20
42.6353564812
 30
0.0
  0
SPLINE
  5
449
100
AcDbEntity
  8
0
100
AcDbSpline
 62
7
  6
BYLAYER
 70
0
 71
3
 72
9
 73
5
 74
0
 42
0.0000001
 43
0.0000001
 44
0.0000000001
 40
0.0
 40
0.0
 40
0.0
 40
0.0
 40
0.243764025
 40
1.0
 40
1.0
 40
1.0
 40
1.0
 10
39.01805386
 20
31.3135738388
 30
0.0
 10
39.0079223902
 20
31.3146200438
 30
0.0
 10
38.9664009657
 20
31.3193061991
 30
0.0
 10
38.925056482
 20
31.3255257935
 30
0.0
 10
38.8939316489
 20
31.3309751896
 30
0.0
  0
SPLINE
  5
44A
100
AcDbEntity
  8
0
100
AcDbSpline
 62
7
  6
BYLAYER
 70
0
 71
3
 72
12
 73
8
 74
0
 42
0.0000001
 43
0.0000001
 44
0.0000000001
 40
0.0
 40
0.0
 40
0.0
 40
0.0
 40
0.2611674465
 40
0.5223044609
 40
0.7717925131
 40
0.8891298073
 40
1.0
 40
1.0
 40
1.0
 40
1.0
 10
45.2659349177
 20
35.3561316693
 30
0.0
 10
45.3472514977
 20
35.2549733669
 30
0.0
 10
45.4940218772
 20
35.0394230447
 30
0.0
 10
45.6611750644
 20
34.6927959667
 30
0.0
 10
45.752303741
 20
34.392596044
 30
0.0
 10
45.7896491447
 20
34.1578598023
 30
0.0
 10
45.7962672116
 20
34.0443814057
 30
0.0
 10
45.7962672116
 20
33.9892833502
 30
0.0
  0
SPLINE
  5
44B
100
AcDbEntity
  8
0
100
AcDbSpline
 62
7
  6
BYLAYER
 70
0
 71
3
 72
9
 73
5
 74
0
 42
0.0000001
 43
0.0000001
 44
0.0000000001
 40
0.0
 40
0.0
 40
0.0
 40
0.0
 40
0.2750880724
 40
1.0
 40
1.0
 40
1.0
 40
1.0
 10
45.7962672116
 20
33.9892833502
 30
0.0
 10
45.7962672116
 20
33.9448776484
 30
0.0
 10
45.7887922967
 20
33.7839196372
 30
0.0
 10
45.7478015575
 20
33.6217706668
 30
0.0
 10
45.6915703891
 20
33.5191488377
 30
0.0
  0
SPLINE
  5
44C
100
AcDbEntity
  8
0
100
AcDbSpline
 62
7
  6
BYLAYER
 70
0
 71
3
 72
9
 73
5
 74
0
 42
0.0000001
 43
0.0000001
 44
0.0000000001
 40
0.0
 40
0.0
 40
0.0
 40
0.0
 40
0.5083035566
 40
1.0
 40
1.0
 40
1.0
 40
1.0
 10
45.6915703891
 20
33.5191488377
 30
0.0
 10
45.5799349483
 20
33.3154142636
 30
0.0
 10
45.3389883609
 20
32.9258191088
 30
0.0
 10
45.0545576629
 20
32.5664848188
 30
0.0
 10
44.9044105064
 20
32.3992810628
 30
0.0
  0
SPLINE
  5
44D
100
AcDbEntity
  8
0
100
AcDbSpline
 62
7
  6
BYLAYER
 70
0
 71
3
 72
9
 73
5
 74
0
 42
0.0000001
 43
0.0000001
 44
0.0000000001
 40
0.0
 40
0.0
 40
0.0
 40
0.0
 40
0.2415583022
 40
1.0
 40
1.0
 40
1.0
 40
1.0
 10
39.2527691542
 20
34.6923531141
 30
0.0
 10
39.2508596928
 20
34.6892042716
 30
0.0
 10
39.2425809009
 20
34.6763976933
 30
0.0
 10
39.2329737111
 20
34.6644629977
 30
0.0
 10
39.225124251
 20
34.6559732165
 30
0.0
  0
SPLINE
  5
44E
100
AcDbEntity
  8
0
100
AcDbSpline
 62
7
  6
BYLAYER
 70
0
 71
3
 72
14
 73
10
 74
0
 42
0.0000001
 43
0.0000001
 44
0.0000000001
 40
0.0
 40
0.0
 40
0.0
 40
0.0
 40
0.2665343482
 40
0.3943869371
 40
0.5191866343
 40
0.6414966135
 40
0.7619432341
 40
0.8812057407
 40
1.0
 40
1.0
 40
1.0
 40
1.0
 10
35.7733309288
 20
28.2857796954
 30
0.0
 10
36.12325018
 20
28.2364450379
 30
0.0
 10
36.647558943
 20
28.199446123
 30
0.0
 10
37.3355784952
 20
28.2355468705
 30
0.0
 10
37.828677189
 20
28.3038127646
 30
0.0
 10
38.3041729826
 20
28.4134666726
 30
0.0
 10
38.7606223022
 20
28.5641918799
 30
0.0
 10
39.1964514041
 20
28.7555881848
 30
0.0
 10
39.4724407322
 20
28.9098979748
 30
0.0
 10
39.6060589294
 20
28.9932816715
 30
0.0
  0
SPLINE
  5
44F
100
AcDbEntity
  8
0
100
AcDbSpline
 62
7
  6
BYLAYER
 70
0
 71
3
 72
9
 73
5
 74
0
 42
0.0000001
 43
0.0000001
 44
0.0000000001
 40
0.0
 40
0.0
 40
0.0
 40
0.0
 40
0.4818633019
 40
1.0
 40
1.0
 40
1.0
 40
1.0
 10
39.4112108765
 20
35.393784851
 30
0.0
 10
39.4076514959
 20
35.3839988572
 30
0.0
 10
39.3979900175
 20
35.3645049556
 30
0.0
 10
39.3853460458
 20
35.3468671982
 30
0.0
 10
39.3781411081
 20
35.3382961083
 30
0.0
  0
SPLINE
  5
450
100
AcDbEntity
  8
0
100
AcDbSpline
 62
7
  6
BYLAYER
 70
0
 71
3
 72
9
 73
5
 74
0
 42
0.0000001
 43
0.0000001
 44
0.0000000001
 40
0.0
 40
0.0
 40
0.0
 40
0.0
 40
0.4693645689
 40
1.0
 40
1.0
 40
1.0
 40
1.0
 10
39.5058242403
 20
36.1454223438
 30
0.0
 10
39.504760952
 20
36.1320025926
 30
0.0
 10
39.4964660535
 20
36.1039427587
 30
0.0
 10
39.4816579397
 20
36.0790896999
 30
0.0
 10
39.4724067563
 20
36.0670051215
 30
0.0
  0
SPLINE
  5
451
100
AcDbEntity
  8
0
100
AcDbSpline
 62
7
  6
BYLAYER
 70
0
 71
3
 72
9
 73
5
 74
0
 42
0.0000001
 43
0.0000001
 44
0.0000000001
 40
0.0
 40
0.0
 40
0.0
 40
0.0
 40
0.4751566929
 40
1.0
 40
1.0
 40
1.0
 40
1.0
 10
39.5356917427
 20
36.9180866316
 30
0.0
 10
39.5356917427
 20
36.9042601583
 30
0.0
 10
39.5295352997
 20
36.8751781619
 30
0.0
 10
39.5159456426
 20
36.8490772276
 30
0.0
 10
39.507203777
 20
36.8365543405
 30
0.0
  0
SPLINE
  5
452
100
AcDbEntity
  8
0
100
AcDbSpline
 62
7
  6
BYLAYER
 70
0
 71
3
 72
9
 73
5
 74
0
 42
0.0000001
 43
0.0000001
 44
0.0000000001
 40
0.0
 40
0.0
 40
0.0
 40
0.0
 40
0.4807678368
 40
1.0
 40
1.0
 40
1.0
 40
1.0
 10
39.5058242403
 20
37.7252381604
 30
0.0
 10
39.5068503601
 20
37.7111026785
 30
0.0
 10
39.5028094518
 20
37.681229832
 30
0.0
 10
39.4904926335
 20
37.6539957837
 30
0.0
 10
39.482267344
 20
37.641087031
 30
0.0
  0
SPLINE
  5
453
100
AcDbEntity
  8
0
100
AcDbSpline
 62
7
  6
BYLAYER
 70
0
 71
3
 72
9
 73
5
 74
0
 42
0.0000001
 43
0.0000001
 44
0.0000000001
 40
0.0
 40
0.0
 40
0.0
 40
0.0
 40
0.237803115
 40
1.0
 40
1.0
 40
1.0
 40
1.0
 10
39.4164490427
 20
38.5607340196
 30
0.0
 10
39.4174311345
 20
38.5537356439
 30
0.0
 10
39.4185192459
 20
38.5239208168
 30
0.0
 10
39.409181677
 20
38.4940562413
 30
0.0
 10
39.3977872385
 20
38.4744802134
 30
0.0
  0
SPLINE
  5
454
100
AcDbEntity
  8
0
100
AcDbSpline
 62
7
  6
BYLAYER
 70
0
 71
3
 72
11
 73
7
 74
0
 42
0.0000001
 43
0.0000001
 44
0.0000000001
 40
0.0
 40
0.0
 40
0.0
 40
0.0
 40
0.2245328035
 40
0.4606580799
 40
0.7180174328
 40
1.0
 40
1.0
 40
1.0
 40
1.0
 10
39.3781411081
 20
38.6144783212
 30
0.0
 10
39.3831060829
 20
38.6129361716
 30
0.0
 10
39.39280168
 20
38.607919243
 30
0.0
 10
39.4044013623
 20
38.5956458694
 30
0.0
 10
39.4126139866
 20
38.5794537088
 30
0.0
 10
39.4155416835
 20
38.5671998508
 30
0.0
 10
39.4164490427
 20
38.5607340196
 30
0.0
  0
SPLINE
  5
455
100
AcDbEntity
  8
0
100
AcDbSpline
 62
7
  6
BYLAYER
 70
0
 71
3
 72
9
 73
5
 74
0
 42
0.0000001
 43
0.0000001
 44
0.0000000001
 40
0.0
 40
0.0
 40
0.0
 40
0.0
 40
0.2419682425
 40
1.0
 40
1.0
 40
1.0
 40
1.0
 10
39.2682463491
 20
39.4182155813
 30
0.0
 10
39.2696997575
 20
39.411113136
 30
0.0
 10
39.2727280367
 20
39.3812009994
 30
0.0
 10
39.2650738122
 20
39.3504416067
 30
0.0
 10
39.2544064052
 20
39.3303912625
 30
0.0
  0
SPLINE
  5
456
100
AcDbEntity
  8
0
100
AcDbSpline
 62
7
  6
BYLAYER
 70
0
 71
3
 72
11
 73
7
 74
0
 42
0.0000001
 43
0.0000001
 44
0.0000000001
 40
0.0
 40
0.0
 40
0.0
 40
0.0
 40
0.2261657038
 40
0.4645895855
 40
0.7219955318
 40
1.0
 40
1.0
 40
1.0
 40
1.0
 10
39.225124251
 20
39.4734858632
 30
0.0
 10
39.230404131
 20
39.4718453419
 30
0.0
 10
39.2407443894
 20
39.4666115373
 30
0.0
 10
39.2534772337
 20
39.4540480995
 30
0.0
 10
39.2630213897
 20
39.4374958885
 30
0.0
 10
39.2668838584
 20
39.4248737344
 30
0.0
 10
39.2682463491
 20
39.4182155813
 30
0.0
  0
LINE
  5
457
100
AcDbEntity
  8
0
100
AcDbLine
 62
7
  6
BYLAYER
 10
38.8628743575
 20
39.6838600667
 11
38.8667798762
 21
39.6673022673
  0
SPLINE
  5
458
100
AcDbEntity
  8
0
100
AcDbSpline
 62
7
  6
BYLAYER
 70
0
 71
3
 72
9
 73
5
 74
0
 42
0.0000001
 43
0.0000001
 44
0.0000000001
 40
0.0
 40
0.0
 40
0.0
 40
0.0
 40
0.4959807654
 40
1.0
 40
1.0
 40
1.0
 40
1.0
 10
39.0623440716
 20
40.291156893
 30
0.0
 10
39.0662075064
 20
40.2766695519
 30
0.0
 10
39.0681755708
 20
40.2457671547
 30
0.0
 10
39.0598824693
 20
40.2160070639
 30
0.0
 10
39.0532160588
 20
40.2023061783
 30
0.0
  0
SPLINE
  5
459
100
AcDbEntity
  8
0
100
AcDbSpline
 62
7
  6
BYLAYER
 70
0
 71
3
 72
11
 73
7
 74
0
 42
0.0000001
 43
0.0000001
 44
0.0000000001
 40
0.0
 40
0.0
 40
0.0
 40
0.0
 40
0.2277879972
 40
0.4681568289
 40
0.7255019949
 40
1.0
 40
1.0
 40
1.0
 40
1.0
 10
39.0145207356
 20
40.3474082356
 30
0.0
 10
39.0201028386
 20
40.3457031816
 30
0.0
 10
39.0310706425
 20
40.3403348484
 30
0.0
 10
39.0449122968
 20
40.3276021022
 30
0.0
 10
39.0557493692
 20
40.3108325576
 30
0.0
 10
39.0605317202
 20
40.2979529574
 30
0.0
 10
39.0623440716
 20
40.291156893
 30
0.0
  0
LINE
  5
45A
100
AcDbEntity
  8
0
100
AcDbLine
 62
7
  6
BYLAYER
 10
38.6281506325
 20
40.562128597
 11
38.6331208764
 21
40.5454035314
  0
SPLINE
  5
45B
100
AcDbEntity
  8
0
100
AcDbSpline
 62
7
  6
BYLAYER
 70
0
 71
3
 72
9
 73
5
 74
0
 42
0.0000001
 43
0.0000001
 44
0.0000000001
 40
0.0
 40
0.0
 40
0.0
 40
0.0
 40
0.5004593378
 40
1.0
 40
1.0
 40
1.0
 40
1.0
 10
38.8003092507
 20
41.1729143442
 30
0.0
 10
38.8050290469
 20
41.1585019373
 30
0.0
 10
38.808839534
 20
41.1276848996
 30
0.0
 10
38.8019046872
 20
41.0974180411
 30
0.0
 10
38.7957473792
 20
41.0835891619
 30
0.0
  0
SPLINE
  5
45C
100
AcDbEntity
  8
0
100
AcDbSpline
 62
7
  6
BYLAYER
 70
0
 71
3
 72
10
 73
6
 74
0
 42
0.0000001
 43
0.0000001
 44
0.0000000001
 40
0.0
 40
0.0
 40
0.0
 40
0.0
 40
0.230130925
 40
0.4729214987
 40
1.0
 40
1.0
 40
1.0
 40
1.0
 10
38.747933382
 20
41.2295943614
 30
0.0
 10
38.7538034339
 20
41.2278592126
 30
0.0
 10
38.7653795936
 20
41.2224322861
 30
0.0
 10
38.7857646077
 20
41.2049900751
 30
0.0
 10
38.7959461316
 20
41.1862375992
 30
0.0
 10
38.8003092507
 20
41.1729143442
 30
0.0
  0
LINE
  5
45D
100
AcDbEntity
  8
0
100
AcDbLine
 62
7
  6
BYLAYER
 10
38.3382578913
 20
41.4457994702
 11
38.3442550238
 21
41.429034469
  0
SPLINE
  5
45E
100
AcDbEntity
  8
0
100
AcDbSpline
 62
7
  6
BYLAYER
 70
0
 71
3
 72
9
 73
5
 74
0
 42
0.0000001
 43
0.0000001
 44
0.0000000001
 40
0.0
 40
0.0
 40
0.0
 40
0.0
 40
0.5046582582
 40
1.0
 40
1.0
 40
1.0
 40
1.0
 10
38.4841361298
 20
42.0567772284
 30
0.0
 10
38.489661516
 20
42.042536412
 30
0.0
 10
38.4952165292
 20
42.0120094187
 30
0.0
 10
38.4896208062
 20
41.9814165207
 30
0.0
 10
38.4839598587
 20
41.9675331176
 30
0.0
  0
SPLINE
  5
45F
100
AcDbEntity
  8
0
100
AcDbSpline
 62
7
  6
BYLAYER
 70
0
 71
3
 72
9
 73
5
 74
0
 42
0.0000001
 43
0.0000001
 44
0.0000000001
 40
0.0
 40
0.0
 40
0.0
 40
0.0
 40
0.4740468963
 40
1.0
 40
1.0
 40
1.0
 40
1.0
 10
38.4273910807
 20
42.1133302717
 30
0.0
 10
38.4399036182
 20
42.1098046754
 30
0.0
 10
38.4642337027
 20
42.0943764326
 30
0.0
 10
38.4789189323
 20
42.0702237366
 30
0.0
 10
38.4841361298
 20
42.0567772284
 30
0.0
  0
LINE
  5
460
100
AcDbEntity
  8
0
100
AcDbLine
 62
7
  6
BYLAYER
 10
37.9954023927
 20
42.3281474174
 11
38.0023807719
 21
42.3114700723
  0
SPLINE
  5
461
100
AcDbEntity
  8
0
100
AcDbSpline
 62
7
  6
BYLAYER
 70
0
 71
3
 72
9
 73
5
 74
0
 42
0.0000001
 43
0.0000001
 44
0.0000000001
 40
0.0
 40
0.0
 40
0.0
 40
0.0
 40
0.5086041109
 40
1.0
 40
1.0
 40
1.0
 40
1.0
 10
38.1162309771
 20
42.9360188153
 30
0.0
 10
38.1225068477
 20
42.9220460575
 30
0.0
 10
38.1297003757
 20
42.8920083241
 30
0.0
 10
38.1254083842
 20
42.8612729977
 30
0.0
 10
38.1202263885
 20
42.8474106982
 30
0.0
  0
SPLINE
  5
462
100
AcDbEntity
  8
0
100
AcDbSpline
 62
7
  6
BYLAYER
 70
0
 71
3
 72
9
 73
5
 74
0
 42
0.0000001
 43
0.0000001
 44
0.0000000001
 40
0.0
 40
0.0
 40
0.0
 40
0.0
 40
0.4773686615
 40
1.0
 40
1.0
 40
1.0
 40
1.0
 10
38.0553333523
 20
42.9918902024
 30
0.0
 10
38.0683608163
 20
42.9884448817
 30
0.0
 10
38.0937776013
 20
42.9734502012
 30
0.0
 10
38.1101863588
 20
42.9494767071
 30
0.0
 10
38.1162309771
 20
42.9360188153
 30
0.0
  0
LINE
  5
463
100
AcDbEntity
  8
0
100
AcDbLine
 62
7
  6
BYLAYER
 10
37.602193474
 20
43.2024572378
 11
37.6100999698
 21
43.1859945162
  0
SPLINE
  5
464
100
AcDbEntity
  8
0
100
AcDbSpline
 62
7
  6
BYLAYER
 70
0
 71
3
 72
9
 73
5
 74
0
 42
0.0000001
 43
0.0000001
 44
0.0000000001
 40
0.0
 40
0.0
 40
0.0
 40
0.0
 40
0.5123309072
 40
1.0
 40
1.0
 40
1.0
 40
1.0
 10
37.699393773
 20
43.8039475454
 30
0.0
 10
37.7063604085
 20
43.7903385028
 30
0.0
 10
37.7150793626
 20
43.7609838707
 30
0.0
 10
37.7120402796
 20
43.7302896757
 30
0.0
 10
37.7073151999
 20
43.716525504
 30
0.0
  0
SPLINE
  5
465
100
AcDbEntity
  8
0
100
AcDbSpline
 62
7
  6
BYLAYER
 70
0
 71
3
 72
9
 73
5
 74
0
 42
0.0000001
 43
0.0000001
 44
0.0000000001
 40
0.0
 40
0.0
 40
0.0
 40
0.0
 40
0.4807059865
 40
1.0
 40
1.0
 40
1.0
 40
1.0
 10
37.6345917807
 20
43.8585877821
 30
0.0
 10
37.6480877833
 20
43.8552934573
 30
0.0
 10
37.6745042274
 20
43.8408986692
 30
0.0
 10
37.6925552399
 20
43.8173063452
 30
0.0
 10
37.699393773
 20
43.8039475454
 30
0.0
  0
LINE
  5
466
100
AcDbEntity
  8
0
100
AcDbLine
 62
7
  6
BYLAYER
 10
37.1616236926
 20
44.0620749059
 11
37.1703981498
 21
44.0459520558
  0
SPLINE
  5
467
100
AcDbEntity
  8
0
100
AcDbSpline
 62
7
  6
BYLAYER
 70
0
 71
3
 72
9
 73
5
 74
0
 42
0.0000001
 43
0.0000001
 44
0.0000000001
 40
0.0
 40
0.0
 40
0.0
 40
0.0
 40
0.5158789621
 40
1.0
 40
1.0
 40
1.0
 40
1.0
 10
37.2367969004
 20
44.6539579572
 30
0.0
 10
37.2443898042
 20
44.6408067351
 30
0.0
 10
37.2545148262
 20
44.6123236454
 30
0.0
 10
37.2526634757
 20
44.5818514171
 30
0.0
 10
37.2483687964
 20
44.5682630465
 30
0.0
  0
SPLINE
  5
468
100
AcDbEntity
  8
0
100
AcDbSpline
 62
7
  6
BYLAYER
 70
0
 71
3
 72
9
 73
5
 74
0
 42
0.0000001
 43
0.0000001
 44
0.0000000001
 40
0.0
 40
0.0
 40
0.0
 40
0.0
 40
0.484121848
 40
1.0
 40
1.0
 40
1.0
 40
1.0
 10
37.1683684634
 20
44.7068269188
 30
0.0
 10
37.1822837427
 20
44.7037520122
 30
0.0
 10
37.2095992382
 20
44.690119238
 30
0.0
 10
37.2292039845
 20
44.6671092003
 30
0.0
 10
37.2367969004
 20
44.6539579572
 30
0.0
  0
LINE
  5
469
100
AcDbEntity
  8
0
100
AcDbLine
 62
7
  6
BYLAYER
 10
36.6770460504
 20
44.900458212
 11
36.686621715
 21
44.8847978977
  0
SPLINE
  5
46A
100
AcDbEntity
  8
0
100
AcDbSpline
 62
7
  6
BYLAYER
 70
0
 71
3
 72
9
 73
5
 74
0
 42
0.0000001
 43
0.0000001
 44
0.0000000001
 40
0.0
 40
0.0
 40
0.0
 40
0.0
 40
0.5192948021
 40
1.0
 40
1.0
 40
1.0
 40
1.0
 10
36.7319610008
 20
45.4795809581
 30
0.0
 10
36.740110834
 20
45.4669792874
 30
0.0
 10
36.751516978
 20
45.4395506565
 30
0.0
 10
36.7507750618
 20
45.409476051
 30
0.0
 10
36.7468800373
 20
45.3961410888
 30
0.0
  0
SPLINE
  5
46B
100
AcDbEntity
  8
0
100
AcDbSpline
 62
7
  6
BYLAYER
 70
0
 71
3
 72
9
 73
5
 74
0
 42
0.0000001
 43
0.0000001
 44
0.0000000001
 40
0.0
 40
0.0
 40
0.0
 40
0.0
 40
0.4876699342
 40
1.0
 40
1.0
 40
1.0
 40
1.0
 10
36.6602116412
 20
45.5301520006
 30
0.0
 10
36.6744943601
 20
45.5273619419
 30
0.0
 10
36.702595932
 20
45.5146468169
 30
0.0
 10
36.7236584745
 20
45.4924187302
 30
0.0
 10
36.7319610008
 20
45.4795809581
 30
0.0
  0
LINE
  5
46C
100
AcDbEntity
  8
0
100
AcDbLine
 62
7
  6
BYLAYER
 10
36.152148476
 20
45.7112265531
 11
36.1624524486
 21
45.6961480006
  0
SPLINE
  5
46D
100
AcDbEntity
  8
0
100
AcDbSpline
 62
7
  6
BYLAYER
 70
0
 71
3
 72
9
 73
5
 74
0
 42
0.0000001
 43
0.0000001
 44
0.0000000001
 40
0.0
 40
0.0
 40
0.0
 40
0.0
 40
0.522632117
 40
1.0
 40
1.0
 40
1.0
 40
1.0
 10
36.1887281801
 20
46.2745330586
 30
0.0
 10
36.1973607752
 20
46.262569407
 30
0.0
 10
36.2099181299
 20
46.2363724541
 30
0.0
 10
36.2101955493
 20
46.2068636597
 30
0.0
 10
36.2066655548
 20
46.1938589791
 30
0.0
  0
SPLINE
  5
46E
100
AcDbEntity
  8
0
100
AcDbSpline
 62
7
  6
BYLAYER
 70
0
 71
3
 72
9
 73
5
 74
0
 42
0.0000001
 43
0.0000001
 44
0.0000000001
 40
0.0
 40
0.0
 40
0.0
 40
0.0
 40
0.4913967704
 40
1.0
 40
1.0
 40
1.0
 40
1.0
 10
36.1139886945
 20
46.3222970263
 30
0.0
 10
36.1285848435
 20
46.319853615
 30
0.0
 10
36.1573484705
 20
46.3082029996
 30
0.0
 10
36.1797652929
 20
46.2869544518
 30
0.0
 10
36.1887281801
 20
46.2745330586
 30
0.0
  0
LINE
  5
46F
100
AcDbEntity
  8
0
100
AcDbLine
 62
7
  6
BYLAYER
 10
35.5909257569
 20
46.4882094925
 11
35.6018795897
 21
46.4738274959
  0
SPLINE
  5
470
100
AcDbEntity
  8
0
100
AcDbSpline
 62
7
  6
BYLAYER
 70
0
 71
3
 72
9
 73
5
 74
0
 42
0.0000001
 43
0.0000001
 44
0.0000000001
 40
0.0
 40
0.0
 40
0.0
 40
0.0
 40
0.5259538856
 40
1.0
 40
1.0
 40
1.0
 40
1.0
 10
35.6112327682
 20
47.0327641931
 30
0.0
 10
35.620269203
 20
47.0215228152
 30
0.0
 10
35.6338434954
 20
46.9967289083
 30
0.0
 10
35.6350397238
 20
46.9679444684
 30
0.0
 10
35.6318367074
 20
46.9553456024
 30
0.0
  0
SPLINE
  5
471
100
AcDbEntity
  8
0
100
AcDbSpline
 62
7
  6
BYLAYER
 70
0
 71
3
 72
9
 73
5
 74
0
 42
0.0000001
 43
0.0000001
 44
0.0000000001
 40
0.0
 40
0.0
 40
0.0
 40
0.0
 40
0.4953426704
 40
1.0
 40
1.0
 40
1.0
 40
1.0
 10
35.5338567097
 20
47.0772332941
 30
0.0
 10
35.5487106019
 20
47.0751941251
 30
0.0
 10
35.578002727
 20
47.0647438115
 30
0.0
 10
35.6016625016
 20
47.0446696608
 30
0.0
 10
35.6112327682
 20
47.0327641931
 30
0.0
  0
LINE
  5
472
100
AcDbEntity
  8
0
100
AcDbLine
 62
7
  6
BYLAYER
 10
34.9976491367
 20
47.2254937208
 11
35.0091695209
 21
47.2119176617
  0
SPLINE
  5
473
100
AcDbEntity
  8
0
100
AcDbSpline
 62
7
  6
BYLAYER
 70
0
 71
3
 72
10
 73
6
 74
0
 42
0.0000001
 43
0.0000001
 44
0.0000000001
 40
0.0
 40
0.0
 40
0.0
 40
0.0
 40
0.5270792506
 40
0.7698694537
 40
1.0
 40
1.0
 40
1.0
 40
1.0
 10
35.0038698538
 20
47.7485037649
 30
0.0
 10
35.0132265745
 20
47.7380636808
 30
0.0
 10
35.0243759663
 20
47.7198701639
 30
0.0
 10
35.0292888723
 20
47.6934953162
 30
0.0
 10
35.0282006374
 20
47.6807567163
 30
0.0
 10
35.0267682896
 20
47.674805586
 30
0.0
  0
SPLINE
  5
474
100
AcDbEntity
  8
0
100
AcDbSpline
 62
7
  6
BYLAYER
 70
0
 71
3
 72
9
 73
5
 74
0
 42
0.0000001
 43
0.0000001
 44
0.0000000001
 40
0.0
 40
0.0
 40
0.0
 40
0.0
 40
0.499541644
 40
1.0
 40
1.0
 40
1.0
 40
1.0
 10
34.9242308415
 20
47.7892152831
 30
0.0
 10
34.9392856859
 20
47.7876332458
 30
0.0
 10
34.9689649927
 20
47.7785056882
 30
0.0
 10
34.9937481988
 20
47.7597973509
 30
0.0
 10
35.0038698538
 20
47.7485037649
 30
0.0
  0
LINE
  5
475
100
AcDbEntity
  8
0
100
AcDbLine
 62
7
  6
BYLAYER
 10
34.3768338088
 20
47.91746806
 11
34.388833008
 21
47.9048013303
  0
SPLINE
  5
476
100
AcDbEntity
  8
0
100
AcDbSpline
 62
7
  6
BYLAYER
 70
0
 71
3
 72
11
 73
7
 74
0
 42
0.0000001
 43
0.0000001
 44
0.0000000001
 40
0.0
 40
0.0
 40
0.0
 40
0.0
 40
0.2744987175
 40
0.5318439696
 40
0.77221238
 40
1.0
 40
1.0
 40
1.0
 40
1.0
 10
34.3712618355
 20
48.4163045637
 30
0.0
 10
34.3762412248
 20
48.4113370498
 30
0.0
 10
34.3850041115
 20
48.4007557394
 30
0.0
 10
34.3941084367
 20
48.3829859712
 30
0.0
 10
34.3982144857
 20
48.3646325519
 30
0.0
 10
34.3973796768
 20
48.3524501112
 30
0.0
 10
34.3960652374
 20
48.3467634047
 30
0.0
  0
SPLINE
  5
477
100
AcDbEntity
  8
0
100
AcDbSpline
 62
7
  6
BYLAYER
 70
0
 71
3
 72
9
 73
5
 74
0
 42
0.0000001
 43
0.0000001
 44
0.0000000001
 40
0.0
 40
0.0
 40
0.0
 40
0.0
 40
0.5040202741
 40
1.0
 40
1.0
 40
1.0
 40
1.0
 10
34.2897507109
 20
48.4528243805
 30
0.0
 10
34.3049492521
 20
48.451747244
 30
0.0
 10
34.3348687906
 20
48.4440493717
 30
0.0
 10
34.3606471132
 20
48.4268939708
 30
0.0
 10
34.3712618355
 20
48.4163045637
 30
0.0
  0
LINE
  5
478
100
AcDbEntity
  8
0
100
AcDbLine
 62
7
  6
BYLAYER
 10
33.7332045527
 20
48.5588661674
 11
33.7455913075
 21
48.5472051034
  0
SPLINE
  5
479
100
AcDbEntity
  8
0
100
AcDbSpline
 62
7
  6
BYLAYER
 70
0
 71
3
 72
11
 73
7
 74
0
 42
0.0000001
 43
0.0000001
 44
0.0000000001
 40
0.0
 40
0.0
 40
0.0
 40
0.0
 40
0.2780052572
 40
0.535411269
 40
0.7738346706
 40
1.0
 40
1.0
 40
1.0
 40
1.0
 10
33.7182232423
 20
49.0310842222
 30
0.0
 10
33.7233081209
 20
49.0265752609
 30
0.0
 10
33.7323079817
 20
49.0169193283
 30
0.0
 10
33.7418705344
 20
49.0003779446
 30
0.0
 10
33.7463843503
 20
48.983069452
 30
0.0
 10
33.7457467999
 20
48.9714977562
 30
0.0
 10
33.744527582
 20
48.966105054
 30
0.0
  0
SPLINE
  5
47A
100
AcDbEntity
  8
0
100
AcDbSpline
 62
7
  6
BYLAYER
 70
0
 71
3
 72
9
 73
5
 74
0
 42
0.0000001
 43
0.0000001
 44
0.0000000001
 40
0.0
 40
0.0
 40
0.0
 40
0.0
 40
0.2549851618
 40
1.0
 40
1.0
 40
1.0
 40
1.0
 10
33.6352450947
 20
49.0630101203
 30
0.0
 10
33.6428769298
 20
49.0627455434
 30
0.0
 10
33.6726218726
 20
49.0591500539
 30
0.0
 10
33.7015291875
 20
49.0458874951
 30
0.0
 10
33.7182232423
 20
49.0310842222
 30
0.0
  0
SPLINE
  5
47B
100
AcDbEntity
  8
0
100
AcDbSpline
 62
7
  6
BYLAYER
 70
0
 71
3
 72
11
 73
7
 74
0
 42
0.0000001
 43
0.0000001
 44
0.0000000001
 40
0.0
 40
0.0
 40
0.0
 40
0.0
 40
0.2819834667
 40
0.5393428621
 40
0.7754675765
 40
1.0
 40
1.0
 40
1.0
 40
1.0
 10
33.0497240921
 20
49.5881638959
 30
0.0
 10
33.0548699744
 20
49.5841452568
 30
0.0
 10
33.0640182547
 20
49.5754830205
 30
0.0
 10
33.0739347466
 20
49.5602748206
 30
0.0
 10
33.0787639279
 20
49.5440927205
 30
0.0
 10
33.0782608787
 20
49.5331877655
 30
0.0
 10
33.0771139182
 20
49.5281169699
 30
0.0
  0
SPLINE
  5
47C
100
AcDbEntity
  8
0
100
AcDbSpline
 62
7
  6
BYLAYER
 70
0
 71
3
 72
9
 73
5
 74
0
 42
0.0000001
 43
0.0000001
 44
0.0000000001
 40
0.0
 40
0.0
 40
0.0
 40
0.0
 40
0.2583443385
 40
1.0
 40
1.0
 40
1.0
 40
1.0
 10
32.9656951759
 20
49.6151286206
 30
0.0
 10
32.9733679214
 20
49.6151556924
 30
0.0
 10
33.0029669795
 20
49.6128915719
 30
0.0
 10
33.0323636306
 20
49.6017214212
 30
0.0
 10
33.0497240921
 20
49.5881638959
 30
0.0
  0
SPLINE
  5
47D
100
AcDbEntity
  8
0
100
AcDbSpline
 62
7
  6
BYLAYER
 70
0
 71
3
 72
11
 73
7
 74
0
 42
0.0000001
 43
0.0000001
 44
0.0000000001
 40
0.0
 40
0.0
 40
0.0
 40
0.0
 40
0.2844315671
 40
0.5427148019
 40
0.7779953031
 40
1.0
 40
1.0
 40
1.0
 40
1.0
 10
32.3708520672
 20
50.0833038722
 30
0.0
 10
32.3755132278
 20
50.080141924
 30
0.0
 10
32.3839171073
 20
50.0733172572
 30
0.0
 10
32.3936217273
 20
50.0611670544
 30
0.0
 10
32.3993248367
 20
50.0479823159
 30
0.0
 10
32.4001542454
 20
50.0387721734
 30
0.0
 10
32.3998103322
 20
50.0343894137
 30
0.0
  0
SPLINE
  5
47E
100
AcDbEntity
  8
0
100
AcDbSpline
 62
7
  6
BYLAYER
 70
0
 71
3
 72
9
 73
5
 74
0
 42
0.0000001
 43
0.0000001
 44
0.0000000001
 40
0.0
 40
0.0
 40
0.0
 40
0.0
 40
0.5192333758
 40
1.0
 40
1.0
 40
1.0
 40
1.0
 10
32.2861966336
 20
50.1049779263
 30
0.0
 10
32.3014885833
 20
50.1056469051
 30
0.0
 10
32.3312323003
 20
50.1026967319
 30
0.0
 10
32.3591234299
 20
50.091260119
 30
0.0
 10
32.3708520672
 20
50.0833038722
 30
0.0
  0
SPLINE
  5
47F
100
AcDbEntity
  8
0
100
AcDbSpline
 62
7
  6
BYLAYER
 70
0
 71
3
 72
9
 73
5
 74
0
 42
0.0000001
 43
0.0000001
 44
0.0000000001
 40
0.0
 40
0.0
 40
0.0
 40
0.0
 40
0.5447050193
 40
1.0
 40
1.0
 40
1.0
 40
1.0
 10
31.6867737936
 20
50.5127358369
 30
0.0
 10
31.6938861616
 20
50.5086296022
 30
0.0
 10
31.7061769702
 20
50.4993988292
 30
0.0
 10
31.7138696899
 20
50.4856035539
 30
0.0
 10
31.7152987006
 20
50.4788893828
 30
0.0
  0
SPLINE
  5
480
100
AcDbEntity
  8
0
100
AcDbSpline
 62
7
  6
BYLAYER
 70
0
 71
3
 72
9
 73
5
 74
0
 42
0.0000001
 43
0.0000001
 44
0.0000000001
 40
0.0
 40
0.0
 40
0.0
 40
0.0
 40
0.5248445636
 40
1.0
 40
1.0
 40
1.0
 40
1.0
 10
31.6019208621
 20
50.5288299883
 30
0.0
 10
31.6171369237
 20
50.530139273
 30
0.0
 10
31.6465357368
 20
50.5288579734
 30
0.0
 10
31.6747997132
 20
50.5196489191
 30
0.0
 10
31.6867737936
 20
50.5127358369
 30
0.0
  0
SPLINE
  5
481
100
AcDbEntity
  8
0
100
AcDbSpline
 62
7
  6
BYLAYER
 70
0
 71
3
 72
9
 73
5
 74
0
 42
0.0000001
 43
0.0000001
 44
0.0000000001
 40
0.0
 40
0.0
 40
0.0
 40
0.0
 40
0.5306367147
 40
1.0
 40
1.0
 40
1.0
 40
1.0
 10
30.9180756132
 20
50.8834590366
 30
0.0
 10
30.9331667412
 20
50.885428562
 30
0.0
 10
30.9620940757
 20
50.8858264176
 30
0.0
 10
30.9905420348
 20
50.8789804249
 30
0.0
 10
31.00269552
 20
50.8731915534
 30
0.0
  0
SPLINE
  5
482
100
AcDbEntity
  8
0
100
AcDbSpline
 62
7
  6
BYLAYER
 70
0
 71
3
 72
9
 73
5
 74
0
 42
0.0000001
 43
0.0000001
 44
0.0000000001
 40
0.0
 40
0.0
 40
0.0
 40
0.0
 40
0.5181342434
 40
1.0
 40
1.0
 40
1.0
 40
1.0
 10
30.2398653621
 20
51.1661661299
 30
0.0
 10
30.2508897519
 20
51.1681201373
 30
0.0
 10
30.2724848736
 20
51.1702513546
 30
0.0
 10
30.2941962528
 20
51.1688722215
 30
0.0
 10
30.3044502517
 20
51.1670623238
 30
0.0
  0
SPLINE
  5
483
100
AcDbEntity
  8
0
100
AcDbSpline
 62
7
  6
BYLAYER
 70
0
 71
3
 72
9
 73
5
 74
0
 42
0.0000001
 43
0.0000001
 44
0.0000000001
 40
0.0
 40
0.0
 40
0.0
 40
0.0
 40
0.2554702304
 40
1.0
 40
1.0
 40
1.0
 40
1.0
 10
29.5724516983
 20
51.3747996966
 30
0.0
 10
29.5762497679
 20
51.3756595317
 30
0.0
 10
29.5911938416
 20
51.3786640037
 30
0.0
 10
29.6064302509
 20
51.3803067278
 30
0.0
 10
29.6177766271
 20
51.3805511823
 30
0.0
  0
SPLINE
  5
484
100
AcDbEntity
  8
0
100
AcDbSpline
 62
7
  6
BYLAYER
 70
0
 71
3
 72
9
 73
5
 74
0
 42
0.0000001
 43
0.0000001
 44
0.0000000001
 40
0.0
 40
0.0
 40
0.0
 40
0.0
 40
0.2522000114
 40
1.0
 40
1.0
 40
1.0
 40
1.0
 10
28.9209140428
 20
51.5077719092
 30
0.0
 10
28.9233449623
 20
51.5084479527
 30
0.0
 10
28.9330186937
 20
51.5110007143
 30
0.0
 10
28.9428242355
 20
51.5130604549
 30
0.0
 10
28.9502049606
 20
51.5142841471
 30
0.0
  0
SPLINE
  5
485
100
AcDbEntity
  8
0
100
AcDbSpline
 62
7
  6
BYLAYER
 70
0
 71
3
 72
9
 73
5
 74
0
 42
0.0000001
 43
0.0000001
 44
0.0000000001
 40
0.0
 40
0.0
 40
0.0
 40
0.0
 40
0.2563453549
 40
1.0
 40
1.0
 40
1.0
 40
1.0
 10
26.5273306489
 20
52.7504375462
 30
0.0
 10
26.5310064479
 20
52.7604976293
 30
0.0
 10
26.5456657452
 20
52.7996236677
 30
0.0
 10
26.5616341831
 20
52.8382633983
 30
0.0
 10
26.5743250221
 20
52.8666247758
 30
0.0
  0
SPLINE
  5
486
100
AcDbEntity
  8
0
100
AcDbSpline
 62
7
  6
BYLAYER
 70
0
 71
3
 72
9
 73
5
 74
0
 42
0.0000001
 43
0.0000001
 44
0.0000000001
 40
0.0
 40
0.0
 40
0.0
 40
0.0
 40
0.2550962661
 40
1.0
 40
1.0
 40
1.0
 40
1.0
 10
25.89083997
 20
52.596601488
 30
0.0
 10
25.8956878887
 20
52.6041014481
 30
0.0
 10
25.9150516851
 20
52.6332671535
 30
0.0
 10
25.9358824933
 20
52.6614655193
 30
0.0
 10
25.9522435175
 20
52.6817720025
 30
0.0
  0
SPLINE
  5
487
100
AcDbEntity
  8
0
100
AcDbSpline
 62
7
  6
BYLAYER
 70
0
 71
3
 72
11
 73
7
 74
0
 42
0.0000001
 43
0.0000001
 44
0.0000000001
 40
0.0
 40
0.0
 40
0.0
 40
0.0
 40
0.2382840461
 40
0.4868377622
 40
0.7420577113
 40
1.0
 40
1.0
 40
1.0
 40
1.0
 10
38.0762320193
 20
52.7383591361
 30
0.0
 10
38.5241916132
 20
52.3644679613
 30
0.0
 10
39.3968898325
 20
51.5485290298
 30
0.0
 10
40.5964886778
 20
50.1802243963
 30
0.0
 10
41.6926908284
 20
48.6680408528
 30
0.0
 10
42.3374914053
 20
47.5872211714
 30
0.0
 10
42.6366424066
 20
47.030926227
 30
0.0
  0
LINE
  5
488
100
AcDbEntity
  8
0
100
AcDbLine
 62
7
  6
BYLAYER
 10
25.3777056502
 20
52.4138269298
 11
25.3735314971
 21
52.4115271911
  0
SPLINE
  5
489
100
AcDbEntity
  8
0
100
AcDbSpline
 62
7
  6
BYLAYER
 70
0
 71
3
 72
9
 73
5
 74
0
 42
0.0000001
 43
0.0000001
 44
0.0000000001
 40
0.0
 40
0.0
 40
0.0
 40
0.0
 40
0.3081916358
 40
1.0
 40
1.0
 40
1.0
 40
1.0
 10
25.9554430403
 20
52.6859835517
 30
0.0
 10
25.9551957678
 20
52.6864725824
 30
0.0
 10
25.9529282657
 20
52.6865249386
 30
0.0
 10
25.951425715
 20
52.6861449947
 30
0.0
 10
25.9502326878
 20
52.685845293
 30
0.0
  0
SPLINE
  5
48A
100
AcDbEntity
  8
0
100
AcDbSpline
 62
7
  6
BYLAYER
 70
0
 71
3
 72
9
 73
5
 74
0
 42
0.0000001
 43
0.0000001
 44
0.0000000001
 40
0.0
 40
0.0
 40
0.0
 40
0.0
 40
0.1933111769
 40
1.0
 40
1.0
 40
1.0
 40
1.0
 10
25.9502326878
 20
52.685845293
 30
0.0
 10
25.9493637711
 20
52.6856270116
 30
0.0
 10
25.9449064755
 20
52.6843500269
 30
0.0
 10
25.9405597729
 20
52.6827209892
 30
0.0
 10
25.9370784941
 20
52.6813578093
 30
0.0
  0
SPLINE
  5
48B
100
AcDbEntity
  8
0
100
AcDbSpline
 62
7
  6
BYLAYER
 70
0
 71
3
 72
9
 73
5
 74
0
 42
0.0000001
 43
0.0000001
 44
0.0000000001
 40
0.0
 40
0.0
 40
0.0
 40
0.0
 40
0.5145861417
 40
1.0
 40
1.0
 40
1.0
 40
1.0
 10
44.8627032304
 20
38.7862531477
 30
0.0
 10
44.8551508079
 20
38.4489267421
 30
0.0
 10
44.8107922709
 20
37.7935905354
 30
0.0
 10
44.6983353113
 20
37.1460235203
 30
0.0
 10
44.6250045748
 20
36.8363033575
 30
0.0
  0
SPLINE
  5
48C
100
AcDbEntity
  8
0
100
AcDbSpline
 62
7
  6
BYLAYER
 70
0
 71
3
 72
18
 73
14
 74
0
 42
0.0000001
 43
0.0000001
 44
0.0000000001
 40
0.0
 40
0.0
 40
0.0
 40
0.0
 40
0.0528401746
 40
0.1060689568
 40
0.1599559089
 40
0.2147553101
 40
0.270697623
 40
0.3279891513
 40
0.4472276468
 40
0.5736276527
 40
0.7078066777
 40
0.8499763315
 40
1.0
 40
1.0
 40
1.0
 40
1.0
 10
39.6060589294
 20
28.9932816715
 30
0.0
 10
39.7312307955
 20
29.0713944821
 30
0.0
 10
39.9755577482
 20
29.2396287267
 30
0.0
 10
40.3198517798
 20
29.5250134829
 30
0.0
 10
40.6418610646
 20
29.8431839099
 30
0.0
 10
40.9406103066
 20
30.193254424
 30
0.0
 10
41.2153990218
 20
30.5741989394
 30
0.0
 10
41.5532237535
 20
31.1291498009
 30
0.0
 10
41.9102882028
 20
31.8993869049
 30
0.0
 10
42.2260427529
 20
32.9146060423
 30
0.0
 10
42.4324805537
 20
34.0224587628
 30
0.0
 10
42.5278346567
 20
35.2110350611
 30
0.0
 10
42.5171550577
 20
36.0280992332
 30
0.0
 10
42.4945201381
 20
36.4463973735
 30
0.0
  0
SPLINE
  5
48D
100
AcDbEntity
  8
0
100
AcDbSpline
 62
7
  6
BYLAYER
 70
0
 71
3
 72
9
 73
5
 74
0
 42
0.0000001
 43
0.0000001
 44
0.0000000001
 40
0.0
 40
0.0
 40
0.0
 40
0.0
 40
0.3768394829
 40
1.0
 40
1.0
 40
1.0
 40
1.0
 10
26.5767334198
 20
52.8724959353
 30
0.0
 10
26.5763840809
 20
52.8732796982
 30
0.0
 10
26.574137941
 20
52.8745509856
 30
0.0
 10
26.5718831299
 20
52.8745810984
 30
0.0
 10
26.5704641575
 20
52.8745754393
 30
0.0
  0
SPLINE
  5
48E
100
AcDbEntity
  8
0
100
AcDbSpline
 62
7
  6
BYLAYER
 70
0
 71
3
 72
9
 73
5
 74
0
 42
0.0000001
 43
0.0000001
 44
0.0000000001
 40
0.0
 40
0.0
 40
0.0
 40
0.0
 40
0.4317455319
 40
1.0
 40
1.0
 40
1.0
 40
1.0
 10
26.5704641575
 20
52.8745754393
 30
0.0
 10
26.5683817775
 20
52.8745671346
 30
0.0
 10
26.5635673845
 20
52.874041473
 30
0.0
 10
26.5588385154
 20
52.8730871229
 30
0.0
 10
26.5561681467
 20
52.8724697464
 30
0.0
  0
SPLINE
  5
48F
100
AcDbEntity
  8
0
100
AcDbSpline
 62
7
  6
BYLAYER
 70
0
 71
3
 72
9
 73
5
 74
0
 42
0.0000001
 43
0.0000001
 44
0.0000000001
 40
0.0
 40
0.0
 40
0.0
 40
0.0
 40
0.2010049311
 40
1.0
 40
1.0
 40
1.0
 40
1.0
 10
27.236871333
 20
52.9718685603
 30
0.0
 10
27.2366602513
 20
52.9724162172
 30
0.0
 10
27.2350297663
 20
52.9749355026
 30
0.0
 10
27.2318956381
 20
52.975880192
 30
0.0
 10
27.229608271
 20
52.9763395539
 30
0.0
  0
SPLINE
  5
490
100
AcDbEntity
  8
0
100
AcDbSpline
 62
7
  6
BYLAYER
 70
0
 71
3
 72
9
 73
5
 74
0
 42
0.0000001
 43
0.0000001
 44
0.0000000001
 40
0.0
 40
0.0
 40
0.0
 40
0.0
 40
0.4401621191
 40
1.0
 40
1.0
 40
1.0
 40
1.0
 10
27.229608271
 20
52.9763395539
 30
0.0
 10
27.2274013689
 20
52.9767827564
 30
0.0
 10
27.2222685714
 20
52.9771582161
 30
0.0
 10
27.2171564317
 20
52.9769011754
 30
0.0
 10
27.2143048063
 20
52.9766464356
 30
0.0
  0
SPLINE
  5
491
100
AcDbEntity
  8
0
100
AcDbSpline
 62
7
  6
BYLAYER
 70
0
 71
3
 72
9
 73
5
 74
0
 42
0.0000001
 43
0.0000001
 44
0.0000000001
 40
0.0
 40
0.0
 40
0.0
 40
0.0
 40
0.266858264
 40
1.0
 40
1.0
 40
1.0
 40
1.0
 10
38.4742109617
 20
30.8091582178
 30
0.0
 10
38.4785066114
 20
30.8119246471
 30
0.0
 10
38.4945457305
 20
30.8223799801
 30
0.0
 10
38.510386859
 20
30.8331473778
 30
0.0
 10
38.5217732024
 20
30.8413564848
 30
0.0
  0
SPLINE
  5
492
100
AcDbEntity
  8
0
100
AcDbSpline
 62
7
  6
BYLAYER
 70
0
 71
3
 72
9
 73
5
 74
0
 42
0.0000001
 43
0.0000001
 44
0.0000000001
 40
0.0
 40
0.0
 40
0.0
 40
0.0
 40
0.2789864818
 40
1.0
 40
1.0
 40
1.0
 40
1.0
 10
38.5217732024
 20
30.8413564848
 30
0.0
 10
38.5233993111
 20
30.8425288454
 30
0.0
 10
38.5292082495
 20
30.8467578804
 30
0.0
 10
38.5349458636
 20
30.8510879026
 30
0.0
 10
38.5389938231
 20
30.8543213536
 30
0.0
  0
SPLINE
  5
493
100
AcDbEntity
  8
0
100
AcDbSpline
 62
7
  6
BYLAYER
 70
0
 71
3
 72
9
 73
5
 74
0
 42
0.0000001
 43
0.0000001
 44
0.0000000001
 40
0.0
 40
0.0
 40
0.0
 40
0.0
 40
0.6176875255
 40
1.0
 40
1.0
 40
1.0
 40
1.0
 10
38.5389938231
 20
30.8543213536
 30
0.0
 10
38.5416970773
 20
30.8564806736
 30
0.0
 10
38.5459766446
 20
30.8600704009
 30
0.0
 10
38.5500897066
 20
30.8639402112
 30
0.0
 10
38.5513665442
 20
30.8656593247
 30
0.0
  0
SPLINE
  5
494
100
AcDbEntity
  8
0
100
AcDbSpline
 62
7
  6
BYLAYER
 70
0
 71
3
 72
9
 73
5
 74
0
 42
0.0000001
 43
0.0000001
 44
0.0000000001
 40
0.0
 40
0.0
 40
0.0
 40
0.0
 40
0.6473524627
 40
1.0
 40
1.0
 40
1.0
 40
1.0
 10
38.5513665442
 20
30.8656593247
 30
0.0
 10
38.551684918
 20
30.866087978
 30
0.0
 10
38.5521615001
 20
30.8667228763
 30
0.0
 10
38.552340806
 20
30.8676699643
 30
0.0
 10
38.5521816315
 20
30.8679134194
 30
0.0
  0
SPLINE
  5
495
100
AcDbEntity
  8
0
100
AcDbSpline
 62
7
  6
BYLAYER
 70
0
 71
3
 72
9
 73
5
 74
0
 42
0.0000001
 43
0.0000001
 44
0.0000000001
 40
0.0
 40
0.0
 40
0.0
 40
0.0
 40
0.442843331
 40
1.0
 40
1.0
 40
1.0
 40
1.0
 10
27.9308447743
 20
52.9832617277
 30
0.0
 10
27.9303367889
 20
52.9848230033
 30
0.0
 10
27.9279752809
 20
52.9879567682
 30
0.0
 10
27.9245803619
 20
52.9896317124
 30
0.0
 10
27.9226485436
 20
52.9903631504
 30
0.0
  0
SPLINE
  5
496
100
AcDbEntity
  8
0
100
AcDbSpline
 62
7
  6
BYLAYER
 70
0
 71
3
 72
9
 73
5
 74
0
 42
0.0000001
 43
0.0000001
 44
0.0000000001
 40
0.0
 40
0.0
 40
0.0
 40
0.0
 40
0.2120402893
 40
1.0
 40
1.0
 40
1.0
 40
1.0
 10
27.9226485436
 20
52.9903631504
 30
0.0
 10
27.921561891
 20
52.990774586
 30
0.0
 10
27.9163099229
 20
52.9923782065
 30
0.0
 10
27.9107942433
 20
52.9929272352
 30
0.0
 10
27.9064796554
 20
52.9930950291
 30
0.0
  0
SPLINE
  5
497
100
AcDbEntity
  8
0
100
AcDbSpline
 62
7
  6
BYLAYER
 70
0
 71
3
 72
10
 73
6
 74
0
 42
0.0000001
 43
0.0000001
 44
0.0000000001
 40
0.0
 40
0.0
 40
0.0
 40
0.0
 40
0.560327518
 40
0.8017017635
 40
1.0
 40
1.0
 40
1.0
 40
1.0
 10
38.9531608539
 20
31.2440246216
 30
0.0
 10
38.9652006789
 20
31.2526973583
 30
0.0
 10
38.9820880829
 20
31.2656066744
 30
0.0
 10
39.0020832391
 20
31.2829764955
 30
0.0
 10
39.010455599
 20
31.2910864861
 30
0.0
 10
39.0140380216
 20
31.294925951
 30
0.0
  0
SPLINE
  5
498
100
AcDbEntity
  8
0
100
AcDbSpline
 62
7
  6
BYLAYER
 70
0
 71
3
 72
9
 73
5
 74
0
 42
0.0000001
 43
0.0000001
 44
0.0000000001
 40
0.0
 40
0.0
 40
0.0
 40
0.0
 40
0.4568906554
 40
1.0
 40
1.0
 40
1.0
 40
1.0
 10
28.6533718576
 20
52.9064969613
 30
0.0
 10
28.6528328603
 20
52.9085314346
 30
0.0
 10
28.6503794898
 20
52.9126738336
 30
0.0
 10
28.6465126344
 20
52.9153521377
 30
0.0
 10
28.6443105203
 20
52.9165395007
 30
0.0
  0
SPLINE
  5
499
100
AcDbEntity
  8
0
100
AcDbSpline
 62
7
  6
BYLAYER
 70
0
 71
3
 72
9
 73
5
 74
0
 42
0.0000001
 43
0.0000001
 44
0.0000000001
 40
0.0
 40
0.0
 40
0.0
 40
0.0
 40
0.2183106782
 40
1.0
 40
1.0
 40
1.0
 40
1.0
 10
28.6443105203
 20
52.9165395007
 30
0.0
 10
28.6431765967
 20
52.9171509036
 30
0.0
 10
28.637804324
 20
52.919621326
 30
0.0
 10
28.6319817192
 20
52.9209746406
 30
0.0
 10
28.6274248255
 20
52.9216903433
 30
0.0
  0
SPLINE
  5
49A
100
AcDbEntity
  8
0
100
AcDbSpline
 62
7
  6
BYLAYER
 70
0
 71
3
 72
12
 73
8
 74
0
 42
0.0000001
 43
0.0000001
 44
0.0000000001
 40
0.0
 40
0.0
 40
0.0
 40
0.0
 40
0.387838619
 40
0.6818353822
 40
0.7925167055
 40
0.8801058242
 40
1.0
 40
1.0
 40
1.0
 40
1.0
 10
39.0140380216
 20
31.294925951
 30
0.0
 10
39.0159179247
 20
31.2969407391
 30
0.0
 10
39.0191198235
 20
31.3005823276
 30
0.0
 10
39.022465147
 20
31.3051259277
 30
0.0
 10
39.0240878811
 20
31.3082535598
 30
0.0
 10
39.0248471915
 20
31.3103449476
 30
0.0
 10
39.0248432611
 20
31.3120343096
 30
0.0
 10
39.0243428336
 20
31.3127236776
 30
0.0
  0
SPLINE
  5
49B
100
AcDbEntity
  8
0
100
AcDbSpline
 62
7
  6
BYLAYER
 70
0
 71
3
 72
9
 73
5
 74
0
 42
0.0000001
 43
0.0000001
 44
0.0000000001
 40
0.0
 40
0.0
 40
0.0
 40
0.0
 40
0.4655078964
 40
1.0
 40
1.0
 40
1.0
 40
1.0
 10
29.3989385695
 20
52.742057426
 30
0.0
 10
29.3984155568
 20
52.7446300782
 30
0.0
 10
29.3959007287
 20
52.7499140639
 30
0.0
 10
29.3915838054
 20
52.7537197862
 30
0.0
 10
29.3891019177
 20
52.7554304475
 30
0.0
  0
SPLINE
  5
49C
100
AcDbEntity
  8
0
100
AcDbSpline
 62
7
  6
BYLAYER
 70
0
 71
3
 72
9
 73
5
 74
0
 42
0.0000001
 43
0.0000001
 44
0.0000000001
 40
0.0
 40
0.0
 40
0.0
 40
0.0
 40
0.223674776
 40
1.0
 40
1.0
 40
1.0
 40
1.0
 10
29.3891019177
 20
52.7554304475
 30
0.0
 10
29.3879316046
 20
52.7562370953
 30
0.0
 10
29.3824830329
 20
52.7595299484
 30
0.0
 10
29.3764186909
 20
52.7616990455
 30
0.0
 10
29.3716534885
 20
52.762975811
 30
0.0
  0
SPLINE
  5
49D
100
AcDbEntity
  8
0
100
AcDbSpline
 62
7
  6
BYLAYER
 70
0
 71
3
 72
9
 73
5
 74
0
 42
0.0000001
 43
0.0000001
 44
0.0000000001
 40
0.0
 40
0.0
 40
0.0
 40
0.0
 40
0.4709920513
 40
1.0
 40
1.0
 40
1.0
 40
1.0
 10
30.1618370738
 20
52.4910836554
 30
0.0
 10
30.1613928856
 20
52.4942681868
 30
0.0
 10
30.1588834082
 20
52.5008623126
 30
0.0
 10
30.1541280627
 20
52.5059492728
 30
0.0
 10
30.1513544236
 20
52.5082621279
 30
0.0
  0
SPLINE
  5
49E
100
AcDbEntity
  8
0
100
AcDbSpline
 62
7
  6
BYLAYER
 70
0
 71
3
 72
9
 73
5
 74
0
 42
0.0000001
 43
0.0000001
 44
0.0000000001
 40
0.0
 40
0.0
 40
0.0
 40
0.0
 40
0.2281280973
 40
1.0
 40
1.0
 40
1.0
 40
1.0
 10
30.1513544236
 20
52.5082621279
 30
0.0
 10
30.150158983
 20
52.5092589702
 30
0.0
 10
30.144674063
 20
52.5133353211
 30
0.0
 10
30.1384348545
 20
52.5163156373
 30
0.0
 10
30.133501615
 20
52.5181593456
 30
0.0
  0
SPLINE
  5
49F
100
AcDbEntity
  8
0
100
AcDbSpline
 62
7
  6
BYLAYER
 70
0
 71
3
 72
10
 73
6
 74
0
 42
0.0000001
 43
0.0000001
 44
0.0000000001
 40
0.0
 40
0.0
 40
0.0
 40
0.0
 40
0.5569296581
 40
0.7988686547
 40
1.0
 40
1.0
 40
1.0
 40
1.0
 10
39.3765938936
 20
31.7564370249
 30
0.0
 10
39.3882050758
 20
31.7657466341
 30
0.0
 10
39.4043132737
 20
31.7798421317
 30
0.0
 10
39.4227430088
 20
31.799207402
 30
0.0
 10
39.4302265572
 20
31.8084163131
 30
0.0
 10
39.4333173149
 20
31.8128134376
 30
0.0
  0
SPLINE
  5
4A0
100
AcDbEntity
  8
0
100
AcDbSpline
 62
7
  6
BYLAYER
 70
0
 71
3
 72
10
 73
6
 74
0
 42
0.0000001
 43
0.0000001
 44
0.0000000001
 40
0.0
 40
0.0
 40
0.0
 40
0.0
 40
0.366319705
 40
0.6524476388
 40
1.0
 40
1.0
 40
1.0
 40
1.0
 10
39.4333173149
 20
31.8128134376
 30
0.0
 10
39.4349944921
 20
31.8151995051
 30
0.0
 10
39.4378299474
 20
31.8196629428
 30
0.0
 10
39.4412295657
 20
31.8265197357
 30
0.0
 10
39.4422007639
 20
31.8325935163
 30
0.0
 10
39.4404622751
 20
31.8347463374
 30
0.0
  0
SPLINE
  5
4A1
100
AcDbEntity
  8
0
100
AcDbSpline
 62
7
  6
BYLAYER
 70
0
 71
3
 72
10
 73
6
 74
0
 42
0.0000001
 43
0.0000001
 44
0.0000000001
 40
0.0
 40
0.0
 40
0.0
 40
0.0
 40
0.5525117619
 40
0.7952101617
 40
1.0
 40
1.0
 40
1.0
 40
1.0
 10
39.7412874996
 20
32.3424956601
 30
0.0
 10
39.7524542835
 20
32.3524216172
 30
0.0
 10
39.7677444578
 20
32.36767915
 30
0.0
 10
39.7845191394
 20
32.3889134266
 30
0.0
 10
39.7910604029
 20
32.3991424985
 30
0.0
 10
39.7936407346
 20
32.4040423767
 30
0.0
  0
SPLINE
  5
4A2
100
AcDbEntity
  8
0
100
AcDbSpline
 62
7
  6
BYLAYER
 70
0
 71
3
 72
11
 73
7
 74
0
 42
0.0000001
 43
0.0000001
 44
0.0000000001
 40
0.0
 40
0.0
 40
0.0
 40
0.0
 40
0.3411859026
 40
0.6162191318
 40
0.8288017397
 40
1.0
 40
1.0
 40
1.0
 40
1.0
 10
39.7936407346
 20
32.4040423767
 30
0.0
 10
39.795102062
 20
32.4068173403
 30
0.0
 10
39.7975016529
 20
32.4119693823
 30
0.0
 10
39.7996229742
 20
32.4193262533
 30
0.0
 10
39.799860081
 20
32.4254837493
 30
0.0
 10
39.7983593457
 20
32.4288907378
 30
0.0
 10
39.7973068165
 20
32.430060626
 30
0.0
  0
SPLINE
  5
4A3
100
AcDbEntity
  8
0
100
AcDbSpline
 62
7
  6
BYLAYER
 70
0
 71
3
 72
10
 73
6
 74
0
 42
0.0000001
 43
0.0000001
 44
0.0000000001
 40
0.0
 40
0.0
 40
0.0
 40
0.0
 40
0.5473432012
 40
0.790961891
 40
1.0
 40
1.0
 40
1.0
 40
1.0
 10
40.0444661333
 20
32.9977402669
 30
0.0
 10
40.0551733119
 20
33.0082575556
 30
0.0
 10
40.0696026679
 20
33.0246431825
 30
0.0
 10
40.084647196
 20
33.0476040672
 30
0.0
 10
40.0902050158
 20
33.0587645174
 30
0.0
 10
40.0922660018
 20
33.0641131592
 30
0.0
  0
SPLINE
  5
4A4
100
AcDbEntity
  8
0
100
AcDbSpline
 62
7
  6
BYLAYER
 70
0
 71
3
 72
9
 73
5
 74
0
 42
0.0000001
 43
0.0000001
 44
0.0000000001
 40
0.0
 40
0.0
 40
0.0
 40
0.0
 40
0.4864949924
 40
1.0
 40
1.0
 40
1.0
 40
1.0
 10
30.3185131883
 20
52.8258602769
 30
0.0
 10
30.6174284789
 20
52.7228709709
 30
0.0
 10
31.2205414603
 20
52.4774042374
 30
0.0
 10
31.797281817
 20
52.1758261864
 30
0.0
 10
32.0862874616
 20
52.0089724744
 30
0.0
  0
SPLINE
  5
4A5
100
AcDbEntity
  8
0
100
AcDbSpline
 62
7
  6
BYLAYER
 70
0
 71
3
 72
11
 73
7
 74
0
 42
0.0000001
 43
0.0000001
 44
0.0000000001
 40
0.0
 40
0.0
 40
0.0
 40
0.0
 40
0.3252418213
 40
0.5330284356
 40
0.7108546563
 40
1.0
 40
1.0
 40
1.0
 40
1.0
 10
40.0922660018
 20
33.0641131592
 30
0.0
 10
40.0934926849
 20
33.0672966299
 30
0.0
 10
40.0952139595
 20
33.0726403997
 30
0.0
 10
40.0963579387
 20
33.0800492589
 30
0.0
 10
40.0962383567
 20
33.0871233069
 30
0.0
 10
40.0942317146
 20
33.0920428496
 30
0.0
 10
40.0920810156
 20
33.0941814399
 30
0.0
  0
SPLINE
  5
4A6
100
AcDbEntity
  8
0
100
AcDbSpline
 62
7
  6
BYLAYER
 70
0
 71
3
 72
32
 73
28
 74
0
 42
0.0000001
 43
0.0000001
 44
0.0000000001
 40
0.0
 40
0.0
 40
0.0
 40
0.0
 40
0.0301387991
 40
0.0612855763
 40
0.093361082
 40
0.1262942738
 40
0.1600097551
 40
0.1944157407
 40
0.2648774108
 40
0.3368370831
 40
0.4093730759
 40
0.4815408018
 40
0.5524104549
 40
0.6211049382
 40
0.6868397908
 40
0.7183995394
 40
0.7489914219
 40
0.7785643349
 40
0.8070834493
 40
0.8345311381
 40
0.8609103604
 40
0.8862462867
 40
0.9105892696
 40
0.9340165408
 40
0.9566337017
 40
0.9785747298
 40
1.0
 40
1.0
 40
1.0
 40
1.0
 10
32.0862874616
 20
52.0089724744
 30
0.0
 10
32.2985028528
 20
51.886452633
 30
0.0
 10
32.7224307941
 20
51.6239471203
 30
0.0
 10
33.3445260165
 20
51.1883671604
 30
0.0
 10
33.9604507078
 20
50.706295441
 30
0.0
 10
34.5671441507
 20
50.1802508853
 30
0.0
 10
35.1616806867
 20
49.6127074347
 30
0.0
 10
35.9405097895
 20
48.7980147799
 30
0.0
 10
36.8639196066
 20
47.6935428668
 30
0.0
 10
37.8708542217
 20
46.2627539753
 30
0.0
 10
38.7661223188
 20
44.7433975285
 30
0.0
 10
39.5323766036
 20
43.1649130561
 30
0.0
 10
40.1548559948
 20
41.5576958137
 30
0.0
 10
40.6215094751
 20
39.9528424953
 30
0.0
 10
40.8765180489
 20
38.6251133922
 30
0.0
 10
40.991967479
 20
37.5913223425
 30
0.0
 10
41.0338951748
 20
36.8463224534
 30
0.0
 10
41.0321143288
 20
36.1248389879
 30
0.0
 10
40.9866244495
 20
35.430350937
 30
0.0
 10
40.8976002769
 20
34.7662215628
 30
0.0
 10
40.7654311192
 20
34.1356652746
 30
0.0
 10
40.5906922874
 20
33.5417393565
 30
0.0
 10
40.3741361897
 20
32.9873447736
 30
0.0
 10
40.1167333201
 20
32.4752149431
 30
0.0
 10
39.8195832622
 20
32.0079200433
 30
0.0
 10
39.4841466929
 20
31.587910956
 30
0.0
 10
39.233569
 20
31.338520711
 30
0.0
 10
39.1030019599
 20
31.2232066634
 30
0.0
  0
SPLINE
  5
4A7
100
AcDbEntity
  8
0
100
AcDbSpline
 62
7
  6
BYLAYER
 70
0
 71
3
 72
10
 73
6
 74
0
 42
0.0000001
 43
0.0000001
 44
0.0000000001
 40
0.0
 40
0.0
 40
0.0
 40
0.0
 40
0.54169024
 40
0.7863514626
 40
1.0
 40
1.0
 40
1.0
 40
1.0
 10
40.2838224224
 20
33.7171840383
 30
0.0
 10
40.2940554944
 20
33.7282626243
 30
0.0
 10
40.307579221
 20
33.7457302378
 30
0.0
 10
40.3208343549
 20
33.7702607208
 30
0.0
 10
40.3253808752
 20
33.7822566311
 30
0.0
 10
40.3269203979
 20
33.7880022479
 30
0.0
  0
SPLINE
  5
4A8
100
AcDbEntity
  8
0
100
AcDbSpline
 62
7
  6
BYLAYER
 70
0
 71
3
 72
10
 73
6
 74
0
 42
0.0000001
 43
0.0000001
 44
0.0000000001
 40
0.0
 40
0.0
 40
0.0
 40
0.0
 40
0.2696552255
 40
0.5262915463
 40
1.0
 40
1.0
 40
1.0
 40
1.0
 10
32.0862874616
 20
53.7236276794
 30
0.0
 10
31.7735400978
 20
53.9041883693
 30
0.0
 10
31.1488539891
 20
54.2331095385
 30
0.0
 10
29.9134017046
 20
54.7515817941
 30
0.0
 10
28.9574677978
 20
55.0016534643
 30
0.0
 10
28.3284737138
 20
55.0842926059
 30
0.0
  0
SPLINE
  5
4A9
100
AcDbEntity
  8
0
100
AcDbSpline
 62
7
  6
BYLAYER
 70
0
 71
3
 72
13
 73
9
 74
0
 42
0.0000001
 43
0.0000001
 44
0.0000000001
 40
0.0
 40
0.0
 40
0.0
 40
0.0
 40
0.2655280457
 40
0.5183388578
 40
0.6410565964
 40
0.7618850168
 40
0.8813468558
 40
1.0
 40
1.0
 40
1.0
 40
1.0
 10
28.3284737138
 20
55.0842926059
 30
0.0
 10
28.0153467148
 20
55.1254321763
 30
0.0
 10
27.3981017978
 20
55.1673297113
 30
0.0
 10
26.634752698
 20
55.1088822071
 30
0.0
 10
26.055112355
 20
54.9939322718
 30
0.0
 10
25.6393308296
 20
54.8756790699
 30
0.0
 10
25.2394587386
 20
54.724749582
 30
0.0
 10
24.9836066182
 20
54.6023487294
 30
0.0
 10
24.8590362697
 20
54.5360264003
 30
0.0
  0
SPLINE
  5
4AA
100
AcDbEntity
  8
0
100
AcDbSpline
 62
7
  6
BYLAYER
 70
0
 71
3
 72
11
 73
7
 74
0
 42
0.0000001
 43
0.0000001
 44
0.0000000001
 40
0.0
 40
0.0
 40
0.0
 40
0.0
 40
0.3116820817
 40
0.5770795965
 40
0.8010515222
 40
1.0
 40
1.0
 40
1.0
 40
1.0
 10
40.3269203979
 20
33.7880022479
 30
0.0
 10
40.3278886649
 20
33.7916158947
 30
0.0
 10
40.32925222
 20
33.798440534
 30
0.0
 10
40.3293813491
 20
33.8081283143
 30
0.0
 10
40.3273064063
 20
33.8162622146
 30
0.0
 10
40.3242351016
 20
33.8205097867
 30
0.0
 10
40.3224463647
 20
33.822091831
 30
0.0
  0
SPLINE
  5
4AB
100
AcDbEntity
  8
0
100
AcDbSpline
 62
7
  6
BYLAYER
 70
0
 71
3
 72
10
 73
6
 74
0
 42
0.0000001
 43
0.0000001
 44
0.0000000001
 40
0.0
 40
0.0
 40
0.0
 40
0.0
 40
0.5357898741
 40
0.7815759582
 40
1.0
 40
1.0
 40
1.0
 40
1.0
 10
40.4575347208
 20
34.4953515727
 30
0.0
 10
40.4672802286
 20
34.5069559952
 30
0.0
 10
40.4798539953
 20
34.5254458975
 30
0.0
 10
40.4912775613
 20
34.5513763754
 30
0.0
 10
40.4947977062
 20
34.5641075489
 30
0.0
 10
40.4958180612
 20
34.5702004097
 30
0.0
  0
SPLINE
  5
4AC
100
AcDbEntity
  8
0
100
AcDbSpline
 62
7
  6
BYLAYER
 70
0
 71
3
 72
11
 73
7
 74
0
 42
0.0000001
 43
0.0000001
 44
0.0000000001
 40
0.0
 40
0.0
 40
0.0
 40
0.0
 40
0.3019465001
 40
0.5645775425
 40
0.7925049304
 40
1.0
 40
1.0
 40
1.0
 40
1.0
 10
40.4958180612
 20
34.5702004097
 30
0.0
 10
40.4964993513
 20
34.5742686069
 30
0.0
 10
40.4972380099
 20
34.5819876163
 30
0.0
 10
40.4961767296
 20
34.5928509058
 30
0.0
 10
40.49276242
 20
34.601907685
 30
0.0
 10
40.4887722307
 20
34.606535521
 30
0.0
 10
40.4865367433
 20
34.6082783164
 30
0.0
  0
SPLINE
  5
4AD
100
AcDbEntity
  8
0
100
AcDbSpline
 62
7
  6
BYLAYER
 70
0
 71
3
 72
9
 73
5
 74
0
 42
0.0000001
 43
0.0000001
 44
0.0000000001
 40
0.0
 40
0.0
 40
0.0
 40
0.0
 40
0.5306239502
 40
1.0
 40
1.0
 40
1.0
 40
1.0
 10
40.5642809732
 20
35.3263205454
 30
0.0
 10
40.5735269754
 20
35.3384096696
 30
0.0
 10
40.5883229437
 20
35.3632717779
 30
0.0
 10
40.5966102091
 20
35.3913338675
 30
0.0
 10
40.5976735787
 20
35.4047546443
 30
0.0
  0
SPLINE
  5
4AE
100
AcDbEntity
  8
0
100
AcDbSpline
 62
7
  6
BYLAYER
 70
0
 71
3
 72
11
 73
7
 74
0
 42
0.0000001
 43
0.0000001
 44
0.0000000001
 40
0.0
 40
0.0
 40
0.0
 40
0.0
 40
0.2945289346
 40
0.5552026515
 40
0.7861955464
 40
1.0
 40
1.0
 40
1.0
 40
1.0
 10
40.5976735787
 20
35.4047546443
 30
0.0
 10
40.5980341433
 20
35.4093053263
 30
0.0
 10
40.5980625077
 20
35.4179622963
 30
0.0
 10
40.5956592077
 20
35.43001453
 30
0.0
 10
40.5907434927
 20
35.4399555902
 30
0.0
 10
40.5857131264
 20
35.4449086744
 30
0.0
 10
40.582970273
 20
35.4467682231
 30
0.0
  0
SPLINE
  5
4AF
100
AcDbEntity
  8
0
100
AcDbSpline
 62
7
  6
BYLAYER
 70
0
 71
3
 72
9
 73
5
 74
0
 42
0.0000001
 43
0.0000001
 44
0.0000000001
 40
0.0
 40
0.0
 40
0.0
 40
0.0
 40
0.5248308815
 40
1.0
 40
1.0
 40
1.0
 40
1.0
 10
40.6032487761
 20
36.2037667808
 30
0.0
 10
40.6119854007
 20
36.2162937347
 30
0.0
 10
40.6255626039
 20
36.2424026567
 30
0.0
 10
40.6317117683
 20
36.2714860235
 30
0.0
 10
40.6317117683
 20
36.2853134901
 30
0.0
  0
SPLINE
  5
4B0
100
AcDbEntity
  8
0
100
AcDbSpline
 62
7
  6
BYLAYER
 70
0
 71
3
 72
11
 73
7
 74
0
 42
0.0000001
 43
0.0000001
 44
0.0000000001
 40
0.0
 40
0.0
 40
0.0
 40
0.0
 40
0.2888566806
 40
0.5481391605
 40
0.7815145695
 40
1.0
 40
1.0
 40
1.0
 40
1.0
 10
40.6317117683
 20
36.2853134901
 30
0.0
 10
40.6317117683
 20
36.2903789457
 30
0.0
 10
40.6309307759
 20
36.300023612
 30
0.0
 10
40.6270051915
 20
36.3132813021
 30
0.0
 10
40.6203883906
 20
36.3240552507
 30
0.0
 10
40.6141756414
 20
36.3292513426
 30
0.0
 10
40.6108581392
 20
36.3311680791
 30
0.0
  0
SPLINE
  5
4B1
100
AcDbEntity
  8
0
100
AcDbSpline
 62
7
  6
BYLAYER
 70
0
 71
3
 72
9
 73
5
 74
0
 42
0.0000001
 43
0.0000001
 44
0.0000000001
 40
0.0
 40
0.0
 40
0.0
 40
0.0
 40
0.5192185361
 40
1.0
 40
1.0
 40
1.0
 40
1.0
 10
40.574141561
 20
37.1210123831
 30
0.0
 10
40.5823615843
 20
37.133924682
 30
0.0
 10
40.5946657598
 20
37.1611655855
 30
0.0
 10
40.5986997654
 20
37.1910389592
 30
0.0
 10
40.5976735787
 20
37.2051753625
 30
0.0
  0
SPLINE
  5
4B2
100
AcDbEntity
  8
0
100
AcDbSpline
 62
7
  6
BYLAYER
 70
0
 71
3
 72
11
 73
7
 74
0
 42
0.0000001
 43
0.0000001
 44
0.0000000001
 40
0.0
 40
0.0
 40
0.0
 40
0.0
 40
0.2845103442
 40
0.5428175858
 40
0.7780649913
 40
1.0
 40
1.0
 40
1.0
 40
1.0
 10
40.5976735787
 20
37.2051753625
 30
0.0
 10
40.5972658009
 20
37.2107927721
 30
0.0
 10
40.5955586213
 20
37.2214816834
 30
0.0
 10
40.5898934507
 20
37.2359591518
 30
0.0
 10
40.5813335997
 20
37.2474880811
 30
0.0
 10
40.5737766455
 20
37.2528095955
 30
0.0
 10
40.5698116038
 20
37.2547018947
 30
0.0
  0
SPLINE
  5
4B3
100
AcDbEntity
  8
0
100
AcDbSpline
 62
7
  6
BYLAYER
 70
0
 71
3
 72
9
 73
5
 74
0
 42
0.0000001
 43
0.0000001
 44
0.0000000001
 40
0.0
 40
0.0
 40
0.0
 40
0.0
 40
0.2583259116
 40
1.0
 40
1.0
 40
1.0
 40
1.0
 10
40.4771808513
 20
38.0710765594
 30
0.0
 10
40.4810378938
 20
38.0777091059
 30
0.0
 10
40.4938655424
 20
38.1044815268
 30
0.0
 10
40.4988793402
 20
38.1355249173
 30
0.0
 10
40.4958180612
 20
38.1573395572
 30
0.0
  0
SPLINE
  5
4B4
100
AcDbEntity
  8
0
100
AcDbSpline
 62
7
  6
BYLAYER
 70
0
 71
3
 72
11
 73
7
 74
0
 42
0.0000001
 43
0.0000001
 44
0.0000000001
 40
0.0
 40
0.0
 40
0.0
 40
0.0
 40
0.2820572251
 40
0.5394366149
 40
0.775527735
 40
1.0
 40
1.0
 40
1.0
 40
1.0
 10
40.4958180612
 20
38.1573395572
 30
0.0
 10
40.4949107606
 20
38.1638049718
 30
0.0
 10
40.4919848361
 20
38.1760570582
 30
0.0
 10
40.4837785105
 20
38.1922471341
 30
0.0
 10
40.4721870633
 20
38.2045184324
 30
0.0
 10
40.4624967744
 20
38.209533605
 30
0.0
 10
40.4575347208
 20
38.2110746672
 30
0.0
  0
SPLINE
  5
4B5
100
AcDbEntity
  8
0
100
AcDbSpline
 62
7
  6
BYLAYER
 70
0
 71
3
 72
9
 73
5
 74
0
 42
0.0000001
 43
0.0000001
 44
0.0000000001
 40
0.0
 40
0.0
 40
0.0
 40
0.0
 40
0.2549656646
 40
1.0
 40
1.0
 40
1.0
 40
1.0
 10
40.3131045766
 20
39.0467287478
 30
0.0
 10
40.3166886303
 20
39.0534713723
 30
0.0
 10
40.3284362204
 20
39.0810347368
 30
0.0
 10
40.3313937401
 20
39.1126994198
 30
0.0
 10
40.3269203979
 20
39.1345595299
 30
0.0
  0
SPLINE
  5
4B6
100
AcDbEntity
  8
0
100
AcDbSpline
 62
7
  6
BYLAYER
 70
0
 71
3
 72
11
 73
7
 74
0
 42
0.0000001
 43
0.0000001
 44
0.0000000001
 40
0.0
 40
0.0
 40
0.0
 40
0.0
 40
0.2780691139
 40
0.5354934294
 40
0.7738885066
 40
1.0
 40
1.0
 40
1.0
 40
1.0
 10
40.3269203979
 20
39.1345595299
 30
0.0
 10
40.3255579834
 20
39.1412173105
 30
0.0
 10
40.3216973157
 20
39.1538379759
 30
0.0
 10
40.3121592786
 20
39.1703887345
 30
0.0
 10
40.2994344994
 20
39.1829508488
 30
0.0
 10
40.2890994803
 20
39.1881835837
 30
0.0
 10
40.2838224224
 20
39.1898233485
 30
0.0
  0
SPLINE
  5
4B7
100
AcDbEntity
  8
0
100
AcDbSpline
 62
7
  6
BYLAYER
 70
0
 71
3
 72
9
 73
5
 74
0
 42
0.0000001
 43
0.0000001
 44
0.0000000001
 40
0.0
 40
0.0
 40
0.0
 40
0.0
 40
0.4745518075
 40
1.0
 40
1.0
 40
1.0
 40
1.0
 10
30.9362039813
 20
52.155365147
 30
0.0
 10
30.9359235301
 20
52.1592432417
 30
0.0
 10
30.9335273782
 20
52.167348242
 30
0.0
 10
30.9283460469
 20
52.1739067302
 30
0.0
 10
30.9252668362
 20
52.176915642
 30
0.0
  0
SPLINE
  5
4B8
100
AcDbEntity
  8
0
100
AcDbSpline
 62
7
  6
BYLAYER
 70
0
 71
3
 72
9
 73
5
 74
0
 42
0.0000001
 43
0.0000001
 44
0.0000000001
 40
0.0
 40
0.0
 40
0.0
 40
0.0
 40
0.231786094
 40
1.0
 40
1.0
 40
1.0
 40
1.0
 10
30.9252668362
 20
52.176915642
 30
0.0
 10
30.924058028
 20
52.1780968529
 30
0.0
 10
30.9185768013
 20
52.182920456
 30
0.0
 10
30.9122282788
 20
52.1866953354
 30
0.0
 10
30.9071710806
 20
52.1891041481
 30
0.0
  0
SPLINE
  5
4B9
100
AcDbEntity
  8
0
100
AcDbSpline
 62
7
  6
BYLAYER
 70
0
 71
3
 72
9
 73
5
 74
0
 42
0.0000001
 43
0.0000001
 44
0.0000000001
 40
0.0
 40
0.0
 40
0.0
 40
0.0
 40
0.5039997437
 40
1.0
 40
1.0
 40
1.0
 40
1.0
 10
40.0831614565
 20
40.040543646
 30
0.0
 10
40.0898227663
 20
40.0542463108
 30
0.0
 10
40.0981033609
 20
40.0840096637
 30
0.0
 10
40.0961295779
 20
40.1149101756
 30
0.0
 10
40.0922660018
 20
40.1293980464
 30
0.0
  0
SPLINE
  5
4BA
100
AcDbEntity
  8
0
100
AcDbSpline
 62
7
  6
BYLAYER
 70
0
 71
3
 72
9
 73
5
 74
0
 42
0.0000001
 43
0.0000001
 44
0.0000000001
 40
0.0
 40
0.0
 40
0.0
 40
0.0
 40
0.4768431217
 40
1.0
 40
1.0
 40
1.0
 40
1.0
 10
31.7160580077
 20
51.737328807
 30
0.0
 10
31.7160565135
 20
51.7419872159
 30
0.0
 10
31.7139332411
 20
51.7518345611
 30
0.0
 10
31.7083482161
 20
51.7600959729
 30
0.0
 10
31.7049492146
 20
51.7639127368
 30
0.0
  0
SPLINE
  5
4BB
100
AcDbEntity
  8
0
100
AcDbSpline
 62
7
  6
BYLAYER
 70
0
 71
3
 72
9
 73
5
 74
0
 42
0.0000001
 43
0.0000001
 44
0.0000000001
 40
0.0
 40
0.0
 40
0.0
 40
0.0
 40
0.2347941709
 40
1.0
 40
1.0
 40
1.0
 40
1.0
 10
31.7049492146
 20
51.7639127368
 30
0.0
 10
31.7037392163
 20
51.7652714528
 30
0.0
 10
31.6983033634
 20
51.7708060978
 30
0.0
 10
31.6919089243
 20
51.7753498255
 30
0.0
 10
31.6867737936
 20
51.7783145275
 30
0.0
  0
SPLINE
  5
4BC
100
AcDbEntity
  8
0
100
AcDbSpline
 62
7
  6
BYLAYER
 70
0
 71
3
 72
11
 73
7
 74
0
 42
0.0000001
 43
0.0000001
 44
0.0000000001
 40
0.0
 40
0.0
 40
0.0
 40
0.0
 40
0.2745539881
 40
0.5319160805
 40
0.772260606
 40
1.0
 40
1.0
 40
1.0
 40
1.0
 10
40.0922660018
 20
40.1293980464
 30
0.0
 10
40.0904537366
 20
40.1361937877
 30
0.0
 10
40.0856731791
 20
40.1490721838
 30
0.0
 10
40.0748420231
 20
40.1658409053
 30
0.0
 10
40.0610082144
 20
40.1785731188
 30
0.0
 10
40.0500455278
 20
40.1839410679
 30
0.0
 10
40.0444661333
 20
40.1856457032
 30
0.0
  0
SPLINE
  5
4BD
100
AcDbEntity
  8
0
100
AcDbSpline
 62
7
  6
BYLAYER
 70
0
 71
3
 72
9
 73
5
 74
0
 42
0.0000001
 43
0.0000001
 44
0.0000000001
 40
0.0
 40
0.0
 40
0.0
 40
0.0
 40
0.4782241256
 40
1.0
 40
1.0
 40
1.0
 40
1.0
 10
32.4953366329
 20
51.2400258818
 30
0.0
 10
32.4957701108
 20
51.2455500815
 30
0.0
 10
32.4941462204
 20
51.2573990398
 30
0.0
 10
32.4881991098
 20
51.2676396718
 30
0.0
 10
32.4844677053
 20
51.2723966136
 30
0.0
  0
SPLINE
  5
4BE
100
AcDbEntity
  8
0
100
AcDbSpline
 62
7
  6
BYLAYER
 70
0
 71
3
 72
9
 73
5
 74
0
 42
0.0000001
 43
0.0000001
 44
0.0000000001
 40
0.0
 40
0.0
 40
0.0
 40
0.0
 40
0.2372891247
 40
1.0
 40
1.0
 40
1.0
 40
1.0
 10
32.4844677053
 20
51.2723966136
 30
0.0
 10
32.4832689699
 20
51.2739248087
 30
0.0
 10
32.4779220045
 20
51.2801324132
 30
0.0
 10
32.4715428792
 20
51.2854121765
 30
0.0
 10
32.4663765066
 20
51.2889168407
 30
0.0
  0
SPLINE
  5
4BF
100
AcDbEntity
  8
0
100
AcDbSpline
 62
7
  6
BYLAYER
 70
0
 71
3
 72
9
 73
5
 74
0
 42
0.0000001
 43
0.0000001
 44
0.0000000001
 40
0.0
 40
0.0
 40
0.0
 40
0.0
 40
0.4995183172
 40
1.0
 40
1.0
 40
1.0
 40
1.0
 10
39.7891014969
 20
41.0449577224
 30
0.0
 10
39.7952538467
 20
41.058787742
 30
0.0
 10
39.8021764414
 20
41.0890566627
 30
0.0
 10
39.7983606489
 20
41.1198710173
 30
0.0
 10
39.7936407346
 20
41.1342837849
 30
0.0
  0
SPLINE
  5
4C0
100
AcDbEntity
  8
0
100
AcDbSpline
 62
7
  6
BYLAYER
 70
0
 71
3
 72
10
 73
6
 74
0
 42
0.0000001
 43
0.0000001
 44
0.0000000001
 40
0.0
 40
0.0
 40
0.0
 40
0.0
 40
0.5271442024
 40
0.7699135201
 40
1.0
 40
1.0
 40
1.0
 40
1.0
 10
39.7936407346
 20
41.1342837849
 30
0.0
 10
39.789278008
 20
41.1476058411
 30
0.0
 10
39.7791022466
 20
41.1663566778
 30
0.0
 10
39.7587261875
 20
41.18380065
 30
0.0
 10
39.7471549723
 20
41.1892278512
 30
0.0
 10
39.7412874996
 20
41.1909629219
 30
0.0
  0
SPLINE
  5
4C1
100
AcDbEntity
  8
0
100
AcDbSpline
 62
7
  6
BYLAYER
 70
0
 71
3
 72
9
 73
5
 74
0
 42
0.0000001
 43
0.0000001
 44
0.0000000001
 40
0.0
 40
0.0
 40
0.0
 40
0.0
 40
0.4953160457
 40
1.0
 40
1.0
 40
1.0
 40
1.0
 10
39.4331626716
 20
42.0523267796
 30
0.0
 10
39.4388188487
 20
42.0662106695
 30
0.0
 10
39.4444026621
 20
42.0968044533
 30
0.0
 10
39.4388427717
 20
42.1273279601
 30
0.0
 10
39.4333173149
 20
42.1415689583
 30
0.0
  0
SPLINE
  5
4C2
100
AcDbEntity
  8
0
100
AcDbSpline
 62
7
  6
BYLAYER
 70
0
 71
3
 72
9
 73
5
 74
0
 42
0.0000001
 43
0.0000001
 44
0.0000000001
 40
0.0
 40
0.0
 40
0.0
 40
0.0
 40
0.5260116654
 40
1.0
 40
1.0
 40
1.0
 40
1.0
 10
39.4333173149
 20
42.1415689583
 30
0.0
 10
39.4281004994
 20
42.1550144821
 30
0.0
 10
39.4134234042
 20
42.1791645118
 30
0.0
 10
39.3891020727
 20
42.194597635
 30
0.0
 10
39.3765938936
 20
42.1981239336
 30
0.0
  0
SPLINE
  5
4C3
100
AcDbEntity
  8
0
100
AcDbSpline
 62
7
  6
BYLAYER
 70
0
 71
3
 72
9
 73
5
 74
0
 42
0.0000001
 43
0.0000001
 44
0.0000000001
 40
0.0
 40
0.0
 40
0.0
 40
0.0
 40
0.4913663197
 40
1.0
 40
1.0
 40
1.0
 40
1.0
 10
39.0180538901
 20
43.0549841306
 30
0.0
 10
39.0232313474
 20
43.0688462548
 30
0.0
 10
39.0275118487
 20
43.0995813254
 30
0.0
 10
39.0203138914
 20
43.1296147621
 30
0.0
 10
39.0140380216
 20
43.1435875181
 30
0.0
  0
SPLINE
  5
4C4
100
AcDbEntity
  8
0
100
AcDbSpline
 62
7
  6
BYLAYER
 70
0
 71
3
 72
9
 73
5
 74
0
 42
0.0000001
 43
0.0000001
 44
0.0000000001
 40
0.0
 40
0.0
 40
0.0
 40
0.0
 40
0.5226826651
 40
1.0
 40
1.0
 40
1.0
 40
1.0
 10
39.0140380216
 20
43.1435875181
 30
0.0
 10
39.007993749
 20
43.1570446401
 30
0.0
 10
38.9915927251
 20
43.1810163938
 30
0.0
 10
38.9661842893
 20
43.1960169375
 30
0.0
 10
38.9531608539
 20
43.1994636348
 30
0.0
  0
SPLINE
  5
4C5
100
AcDbEntity
  8
0
100
AcDbSpline
 62
7
  6
BYLAYER
 70
0
 71
3
 72
9
 73
5
 74
0
 42
0.0000001
 43
0.0000001
 44
0.0000000001
 40
0.0
 40
0.0
 40
0.0
 40
0.0
 40
0.4876350971
 40
1.0
 40
1.0
 40
1.0
 40
1.0
 10
38.5469343809
 20
44.0452989477
 30
0.0
 10
38.5516551972
 20
44.0590622796
 30
0.0
 10
38.5546832752
 20
44.0897551215
 30
0.0
 10
38.5459603637
 20
44.1191046408
 30
0.0
 10
38.5389938231
 20
44.132713498
 30
0.0
  0
SPLINE
  5
4C6
100
AcDbEntity
  8
0
100
AcDbSpline
 62
7
  6
BYLAYER
 70
0
 71
3
 72
9
 73
5
 74
0
 42
0.0000001
 43
0.0000001
 44
0.0000000001
 40
0.0
 40
0.0
 40
0.0
 40
0.0
 40
0.519338942
 40
1.0
 40
1.0
 40
1.0
 40
1.0
 10
38.5389938231
 20
44.132713498
 30
0.0
 10
38.5321555765
 20
44.1460717382
 30
0.0
 10
38.5141118725
 20
44.1696632196
 30
0.0
 10
38.4877032952
 20
44.1840648679
 30
0.0
 10
38.4742109617
 20
44.1873612258
 30
0.0
  0
SPLINE
  5
4C7
100
AcDbEntity
  8
0
100
AcDbSpline
 62
7
  6
BYLAYER
 70
0
 71
3
 72
9
 73
5
 74
0
 42
0.0000001
 43
0.0000001
 44
0.0000000001
 40
0.0
 40
0.0
 40
0.0
 40
0.0
 40
0.4840820223
 40
1.0
 40
1.0
 40
1.0
 40
1.0
 10
38.0233896478
 20
45.0157343372
 30
0.0
 10
38.0276803797
 20
45.0293212064
 30
0.0
 10
38.0295212659
 20
45.0597910372
 30
0.0
 10
38.0193927863
 20
45.0882681942
 30
0.0
 10
38.0118000928
 20
45.1014190521
 30
0.0
  0
SPLINE
  5
4C8
100
AcDbEntity
  8
0
100
AcDbSpline
 62
7
  6
BYLAYER
 70
0
 71
3
 72
9
 73
5
 74
0
 42
0.0000001
 43
0.0000001
 44
0.0000000001
 40
0.0
 40
0.0
 40
0.0
 40
0.0
 40
0.5159174111
 40
1.0
 40
1.0
 40
1.0
 40
1.0
 10
38.0118000928
 20
45.1014190521
 30
0.0
 10
38.0042073835
 20
45.1145699373
 30
0.0
 10
37.984609501
 20
45.1375800024
 30
0.0
 10
37.9573013133
 20
45.1512206364
 30
0.0
 10
37.9433893147
 20
45.1542982095
 30
0.0
  0
SPLINE
  5
4C9
100
AcDbEntity
  8
0
100
AcDbSpline
 62
7
  6
BYLAYER
 70
0
 71
3
 72
9
 73
5
 74
0
 42
0.0000001
 43
0.0000001
 44
0.0000000001
 40
0.0
 40
0.0
 40
0.0
 40
0.0
 40
0.480660512
 40
1.0
 40
1.0
 40
1.0
 40
1.0
 10
37.4514041824
 20
45.9589046996
 30
0.0
 10
37.4552956136
 20
45.9722375075
 30
0.0
 10
37.4560276514
 20
46.0023087315
 30
0.0
 10
37.4446185811
 20
46.0297306094
 30
0.0
 10
37.4364690931
 20
46.0423317462
 30
0.0
  0
SPLINE
  5
4CA
100
AcDbEntity
  8
0
100
AcDbSpline
 62
7
  6
BYLAYER
 70
0
 71
3
 72
9
 73
5
 74
0
 42
0.0000001
 43
0.0000001
 44
0.0000000001
 40
0.0
 40
0.0
 40
0.0
 40
0.0
 40
0.5123643058
 40
1.0
 40
1.0
 40
1.0
 40
1.0
 10
37.4364690931
 20
46.0423317462
 30
0.0
 10
37.4281666759
 20
46.0551693497
 30
0.0
 10
37.4071105372
 20
46.0773983063
 30
0.0
 10
37.379015639
 20
46.0901222817
 30
0.0
 10
37.3647357863
 20
46.0929156114
 30
0.0
  0
SPLINE
  5
4CB
100
AcDbEntity
  8
0
100
AcDbSpline
 62
7
  6
BYLAYER
 70
0
 71
3
 72
9
 73
5
 74
0
 42
0.0000001
 43
0.0000001
 44
0.0000000001
 40
0.0
 40
0.0
 40
0.0
 40
0.0
 40
0.477316798
 40
1.0
 40
1.0
 40
1.0
 40
1.0
 10
36.8353311395
 20
46.8676319392
 30
0.0
 10
36.8388579293
 20
46.8806338257
 30
0.0
 10
36.8385712536
 20
46.9101383223
 30
0.0
 10
36.8260115378
 20
46.9363277051
 30
0.0
 10
36.8173794405
 20
46.9482906666
 30
0.0
  0
SPLINE
  5
4CC
100
AcDbEntity
  8
0
100
AcDbSpline
 62
7
  6
BYLAYER
 70
0
 71
3
 72
9
 73
5
 74
0
 42
0.0000001
 43
0.0000001
 44
0.0000000001
 40
0.0
 40
0.0
 40
0.0
 40
0.0
 40
0.508633044
 40
1.0
 40
1.0
 40
1.0
 40
1.0
 10
36.8173794405
 20
46.9482906666
 30
0.0
 10
36.8084165501
 20
46.9607120643
 30
0.0
 10
36.7860056607
 20
46.9819622986
 30
0.0
 10
36.7572479999
 20
46.9936227334
 30
0.0
 10
36.7426542792
 20
46.9960699864
 30
0.0
  0
SPLINE
  5
4CD
100
AcDbEntity
  8
0
100
AcDbSpline
 62
7
  6
BYLAYER
 70
0
 71
3
 72
9
 73
5
 74
0
 42
0.0000001
 43
0.0000001
 44
0.0000000001
 40
0.0
 40
0.0
 40
0.0
 40
0.0
 40
0.4739877931
 40
1.0
 40
1.0
 40
1.0
 40
1.0
 10
36.1798592069
 20
47.7350000928
 30
0.0
 10
36.1830594375
 20
47.7475955417
 30
0.0
 10
36.1818546019
 20
47.7763748426
 30
0.0
 10
36.16827855
 20
47.8011603691
 30
0.0
 10
36.1592427809
 20
47.8124009189
 30
0.0
  0
SPLINE
  5
4CE
100
AcDbEntity
  8
0
100
AcDbSpline
 62
7
  6
BYLAYER
 70
0
 71
3
 72
9
 73
5
 74
0
 42
0.0000001
 43
0.0000001
 44
0.0000000001
 40
0.0
 40
0.0
 40
0.0
 40
0.0
 40
0.5046832714
 40
1.0
 40
1.0
 40
1.0
 40
1.0
 10
36.1592427809
 20
47.8124009189
 30
0.0
 10
36.1496723874
 20
47.8243065445
 30
0.0
 10
36.1260180682
 20
47.8443831743
 30
0.0
 10
36.0967311305
 20
47.8548442416
 30
0.0
 10
36.0818792093
 20
47.8568877844
 30
0.0
  0
SPLINE
  5
4CF
100
AcDbEntity
  8
0
100
AcDbSpline
 62
7
  6
BYLAYER
 70
0
 71
3
 72
10
 73
6
 74
0
 42
0.0000001
 43
0.0000001
 44
0.0000000001
 40
0.0
 40
0.0
 40
0.0
 40
0.0
 40
0.2300862105
 40
0.472855286
 40
1.0
 40
1.0
 40
1.0
 40
1.0
 10
35.4899769219
 20
48.5544079651
 30
0.0
 10
35.4914080485
 20
48.5603568255
 30
0.0
 10
35.4924935695
 20
48.5730912875
 30
0.0
 10
35.4875746612
 20
48.5994592601
 30
0.0
 10
35.4764238064
 20
48.6176469622
 30
0.0
 10
35.4670679318
 20
48.6280861021
 30
0.0
  0
SPLINE
  5
4D0
100
AcDbEntity
  8
0
100
AcDbSpline
 62
7
  6
BYLAYER
 70
0
 71
3
 72
9
 73
5
 74
0
 42
0.0000001
 43
0.0000001
 44
0.0000000001
 40
0.0
 40
0.0
 40
0.0
 40
0.0
 40
0.5004809472
 40
1.0
 40
1.0
 40
1.0
 40
1.0
 10
35.4670679318
 20
48.6280861021
 30
0.0
 10
35.4569460184
 20
48.6393799764
 30
0.0
 10
35.4321677861
 20
48.6580915652
 30
0.0
 10
35.4024928194
 20
48.6672307616
 30
0.0
 10
35.3874394738
 20
48.6688176622
 30
0.0
  0
SPLINE
  5
4D1
100
AcDbEntity
  8
0
100
AcDbSpline
 62
7
  6
BYLAYER
 70
0
 71
3
 72
11
 73
7
 74
0
 42
0.0000001
 43
0.0000001
 44
0.0000000001
 40
0.0
 40
0.0
 40
0.0
 40
0.0
 40
0.2277391243
 40
0.4680833558
 40
0.7254454063
 40
1.0
 40
1.0
 40
1.0
 40
1.0
 10
34.7709347051
 20
49.3196193674
 30
0.0
 10
34.7722481535
 20
49.3253035216
 30
0.0
 10
34.7730807325
 20
49.3374813451
 30
0.0
 10
34.7689712212
 20
49.3558277056
 30
0.0
 10
34.7598646518
 20
49.373591936
 30
0.0
 10
34.7511019123
 20
49.384171084
 30
0.0
 10
34.7461227617
 20
49.3891383597
 30
0.0
  0
SPLINE
  5
4D2
100
AcDbEntity
  8
0
100
AcDbSpline
 62
7
  6
BYLAYER
 70
0
 71
3
 72
9
 73
5
 74
0
 42
0.0000001
 43
0.0000001
 44
0.0000000001
 40
0.0
 40
0.0
 40
0.0
 40
0.0
 40
0.4959994637
 40
1.0
 40
1.0
 40
1.0
 40
1.0
 10
34.7461227617
 20
49.3891383597
 30
0.0
 10
34.735507646
 20
49.3997281594
 30
0.0
 10
34.7097338129
 20
49.4168875683
 30
0.0
 10
34.6798177029
 20
49.4245979003
 30
0.0
 10
34.6646201786
 20
49.4256803432
 30
0.0
  0
SPLINE
  5
4D3
100
AcDbEntity
  8
0
100
AcDbSpline
 62
7
  6
BYLAYER
 70
0
 71
3
 72
11
 73
7
 74
0
 42
0.0000001
 43
0.0000001
 44
0.0000000001
 40
0.0
 40
0.0
 40
0.0
 40
0.0
 40
0.2261112249
 40
0.4645059486
 40
0.7219302025
 40
1.0
 40
1.0
 40
1.0
 40
1.0
 10
34.028204902
 20
50.024810579
 30
0.0
 10
34.0294233646
 20
50.0302004615
 30
0.0
 10
34.0300592177
 20
50.0417670911
 30
0.0
 10
34.0255425147
 20
50.0590679392
 30
0.0
 10
34.0159781615
 20
50.0756032953
 30
0.0
 10
34.0069786909
 20
50.0852569171
 30
0.0
 10
34.0018940987
 20
50.0897656244
 30
0.0
  0
SPLINE
  5
4D4
100
AcDbEntity
  8
0
100
AcDbSpline
 62
7
  6
BYLAYER
 70
0
 71
3
 72
9
 73
5
 74
0
 42
0.0000001
 43
0.0000001
 44
0.0000000001
 40
0.0
 40
0.0
 40
0.0
 40
0.0
 40
0.2419720701
 40
1.0
 40
1.0
 40
1.0
 40
1.0
 10
34.0018940987
 20
50.0897656244
 30
0.0
 10
33.9964697168
 20
50.0945756365
 30
0.0
 10
33.9720807299
 20
50.1121562446
 30
0.0
 10
33.9416201084
 20
50.1209202798
 30
0.0
 10
33.9189224147
 20
50.1217156452
 30
0.0
  0
SPLINE
  5
4D5
100
AcDbEntity
  8
0
100
AcDbSpline
 62
7
  6
BYLAYER
 70
0
 71
3
 72
11
 73
7
 74
0
 42
0.0000001
 43
0.0000001
 44
0.0000000001
 40
0.0
 40
0.0
 40
0.0
 40
0.0
 40
0.2244719888
 40
0.4605626726
 40
0.717941979
 40
1.0
 40
1.0
 40
1.0
 40
1.0
 10
33.2674401349
 20
50.6646146688
 30
0.0
 10
33.2685865771
 20
50.6696823932
 30
0.0
 10
33.2690884889
 20
50.6805818788
 30
0.0
 10
33.2642569863
 20
50.696755811
 30
0.0
 10
33.2543391516
 20
50.7119575118
 30
0.0
 10
33.245191521
 20
50.7206173209
 30
0.0
 10
33.2400459723
 20
50.7246356996
 30
0.0
  0
SPLINE
  5
4D6
100
AcDbEntity
  8
0
100
AcDbSpline
 62
7
  6
BYLAYER
 70
0
 71
3
 72
9
 73
5
 74
0
 42
0.0000001
 43
0.0000001
 44
0.0000000001
 40
0.0
 40
0.0
 40
0.0
 40
0.0
 40
0.2378050902
 40
1.0
 40
1.0
 40
1.0
 40
1.0
 10
33.2400459723
 20
50.7246356996
 30
0.0
 10
33.234476026
 20
50.7289855083
 30
0.0
 10
33.2092008851
 20
50.7448376665
 30
0.0
 10
33.1786724965
 20
50.751697302
 30
0.0
 10
33.1560213926
 20
50.7516263195
 30
0.0
  0
SPLINE
  5
4D7
100
AcDbEntity
  8
0
100
AcDbSpline
 62
7
  6
BYLAYER
 70
0
 71
3
 72
9
 73
5
 74
0
 42
0.0000001
 43
0.0000001
 44
0.0000000001
 40
0.0
 40
0.0
 40
0.0
 40
0.0
 40
0.4807804999
 40
1.0
 40
1.0
 40
1.0
 40
1.0
 10
32.4663765066
 20
51.2889168407
 30
0.0
 10
32.4546470987
 20
51.2968736102
 30
0.0
 10
32.426758962
 20
51.3083164624
 30
0.0
 10
32.39701563
 20
51.3112810102
 30
0.0
 10
32.3817232496
 20
51.3106183654
 30
0.0
  0
SPLINE
  5
4D8
100
AcDbEntity
  8
0
100
AcDbSpline
 62
7
  6
BYLAYER
 70
0
 71
3
 72
9
 73
5
 74
0
 42
0.0000001
 43
0.0000001
 44
0.0000000001
 40
0.0
 40
0.0
 40
0.0
 40
0.0
 40
0.4751681112
 40
1.0
 40
1.0
 40
1.0
 40
1.0
 10
31.6867737936
 20
51.7783145275
 30
0.0
 10
31.6747988467
 20
51.7852281099
 30
0.0
 10
31.6465373212
 20
51.7944441506
 30
0.0
 10
31.617137818
 20
51.7957402278
 30
0.0
 10
31.6019208621
 20
51.794437516
 30
0.0
  0
SPLINE
  5
4D9
100
AcDbEntity
  8
0
100
AcDbSpline
 62
7
  6
BYLAYER
 70
0
 71
3
 72
9
 73
5
 74
0
 42
0.0000001
 43
0.0000001
 44
0.0000000001
 40
0.0
 40
0.0
 40
0.0
 40
0.0
 40
0.4693750161
 40
1.0
 40
1.0
 40
1.0
 40
1.0
 10
30.9071710806
 20
52.1891041481
 30
0.0
 10
30.89501666
 20
52.1948934652
 30
0.0
 10
30.8665705628
 20
52.2017471936
 30
0.0
 10
30.8376414643
 20
52.2013643798
 30
0.0
 10
30.8225489972
 20
52.1994016153
 30
0.0
  0
SPLINE
  5
4DA
100
AcDbEntity
  8
0
100
AcDbSpline
 62
7
  6
BYLAYER
 70
0
 71
3
 72
13
 73
9
 74
0
 42
0.0000001
 43
0.0000001
 44
0.0000000001
 40
0.0
 40
0.0
 40
0.0
 40
0.0
 40
0.0750831536
 40
0.1560717985
 40
0.2497682311
 40
0.3602303879
 40
0.6387643595
 40
1.0
 40
1.0
 40
1.0
 40
1.0
 10
42.6935227118
 20
47.0360323915
 30
0.0
 10
42.6942789223
 20
47.0346065827
 30
0.0
 10
42.6953020915
 20
47.0313196811
 30
0.0
 10
42.6950357943
 20
47.0258769747
 30
0.0
 10
42.6931599543
 20
47.019991165
 30
0.0
 10
42.6882313143
 20
47.010815675
 30
0.0
 10
42.6777998675
 20
46.9983483501
 30
0.0
 10
42.6675436124
 20
46.9891573406
 30
0.0
 10
42.6615365329
 20
46.9842371614
 30
0.0
  0
SPLINE
  5
4DB
100
AcDbEntity
  8
0
100
AcDbSpline
 62
7
  6
BYLAYER
 70
0
 71
3
 72
10
 73
6
 74
0
 42
0.0000001
 43
0.0000001
 44
0.0000000001
 40
0.0
 40
0.0
 40
0.0
 40
0.0
 40
0.2184231485
 40
0.4642090717
 40
1.0
 40
1.0
 40
1.0
 40
1.0
 10
30.133501615
 20
52.5181593456
 30
0.0
 10
30.1277148791
 20
52.5203220324
 30
0.0
 10
30.1149293156
 20
52.5236389054
 30
0.0
 10
30.0867611381
 20
52.5267107455
 30
0.0
 10
30.0644615961
 20
52.5250663451
 30
0.0
 10
30.0495391453
 20
52.522428642
 30
0.0
  0
SPLINE
  5
4DC
100
AcDbEntity
  8
0
100
AcDbSpline
 62
7
  6
BYLAYER
 70
0
 71
3
 72
10
 73
6
 74
0
 42
0.0000001
 43
0.0000001
 44
0.0000000001
 40
0.0
 40
0.0
 40
0.0
 40
0.0
 40
0.2136476602
 40
0.4583087345
 40
1.0
 40
1.0
 40
1.0
 40
1.0
 10
29.3716534885
 20
52.762975811
 30
0.0
 10
29.3659078957
 20
52.7645152576
 30
0.0
 10
29.3532459131
 20
52.7665756225
 30
0.0
 10
29.3253744042
 20
52.7673612677
 30
0.0
 10
29.3034852192
 20
52.7643830323
 30
0.0
 10
29.2887743782
 20
52.7610601655
 30
0.0
  0
SPLINE
  5
4DD
100
AcDbEntity
  8
0
100
AcDbSpline
 62
7
  6
BYLAYER
 70
0
 71
3
 72
9
 73
5
 74
0
 42
0.0000001
 43
0.0000001
 44
0.0000000001
 40
0.0
 40
0.0
 40
0.0
 40
0.0
 40
0.2275344665
 40
1.0
 40
1.0
 40
1.0
 40
1.0
 10
28.6274248255
 20
52.9216903433
 30
0.0
 10
28.6256537963
 20
52.9219685
 30
0.0
 10
28.6178318899
 20
52.9229457065
 30
0.0
 10
28.6099217672
 20
52.9230883337
 30
0.0
 10
28.6038385719
 20
52.9228958076
 30
0.0
  0
SPLINE
  5
4DE
100
AcDbEntity
  8
0
100
AcDbSpline
 62
7
  6
BYLAYER
 70
0
 71
3
 72
9
 73
5
 74
0
 42
0.0000001
 43
0.0000001
 44
0.0000000001
 40
0.0
 40
0.0
 40
0.0
 40
0.0
 40
0.4797926988
 40
1.0
 40
1.0
 40
1.0
 40
1.0
 10
28.6038385719
 20
52.9228958076
 30
0.0
 10
28.5944625052
 20
52.9225990658
 30
0.0
 10
28.5749643977
 20
52.9204624066
 30
0.0
 10
28.5558449879
 20
52.9162003196
 30
0.0
 10
28.5460445752
 20
52.9134800556
 30
0.0
  0
SPLINE
  5
4DF
100
AcDbEntity
  8
0
100
AcDbSpline
 62
7
  6
BYLAYER
 70
0
 71
3
 72
9
 73
5
 74
0
 42
0.0000001
 43
0.0000001
 44
0.0000000001
 40
0.0
 40
0.0
 40
0.0
 40
0.0
 40
0.2249218729
 40
1.0
 40
1.0
 40
1.0
 40
1.0
 10
27.9064796554
 20
52.9930950291
 30
0.0
 10
27.9047631557
 20
52.9931617836
 30
0.0
 10
27.8971233505
 20
52.9932428645
 30
0.0
 10
27.8894887708
 20
52.9926110447
 30
0.0
 10
27.8836144493
 20
52.9918810223
 30
0.0
  0
SPLINE
  5
4E0
100
AcDbEntity
  8
0
100
AcDbSpline
 62
7
  6
BYLAYER
 70
0
 71
3
 72
9
 73
5
 74
0
 42
0.0000001
 43
0.0000001
 44
0.0000000001
 40
0.0
 40
0.0
 40
0.0
 40
0.0
 40
0.4774258877
 40
1.0
 40
1.0
 40
1.0
 40
1.0
 10
27.8836144493
 20
52.9918810223
 30
0.0
 10
27.8744180581
 20
52.9907381545
 30
0.0
 10
27.8553110099
 20
52.9870795981
 30
0.0
 10
27.8366291167
 20
52.9817245342
 30
0.0
 10
27.8270023584
 20
52.9785283052
 30
0.0
  0
SPLINE
  5
4E1
100
AcDbEntity
  8
0
100
AcDbSpline
 62
7
  6
BYLAYER
 70
0
 71
3
 72
9
 73
5
 74
0
 42
0.0000001
 43
0.0000001
 44
0.0000000001
 40
0.0
 40
0.0
 40
0.0
 40
0.0
 40
0.4469868008
 40
1.0
 40
1.0
 40
1.0
 40
1.0
 10
27.2143048063
 20
52.9766464356
 30
0.0
 10
27.2068520407
 20
52.9759806692
 30
0.0
 10
27.1903314749
 20
52.9729420079
 30
0.0
 10
27.1741954343
 20
52.9684510914
 30
0.0
 10
27.1653654168
 20
52.9656710991
 30
0.0
  0
SPLINE
  5
4E2
100
AcDbEntity
  8
0
100
AcDbSpline
 62
7
  6
BYLAYER
 70
0
 71
3
 72
11
 73
7
 74
0
 42
0.0000001
 43
0.0000001
 44
0.0000000001
 40
0.0
 40
0.0
 40
0.0
 40
0.0
 40
0.2503014921
 40
0.5003993714
 40
0.7502226246
 40
1.0
 40
1.0
 40
1.0
 40
1.0
 10
41.2888958968
 20
45.8481980891
 30
0.0
 10
41.403440069
 20
45.9429586278
 30
0.0
 10
41.6325832788
 20
46.1322235849
 30
0.0
 10
41.9758906738
 20
46.4162629536
 30
0.0
 10
42.3187775265
 20
46.7003220938
 30
0.0
 10
42.5473062884
 20
46.8895855724
 30
0.0
 10
42.6615365329
 20
46.9842371614
 30
0.0
  0
SPLINE
  5
4E3
100
AcDbEntity
  8
0
100
AcDbSpline
 62
7
  6
BYLAYER
 70
0
 71
3
 72
9
 73
5
 74
0
 42
0.0000001
 43
0.0000001
 44
0.0000000001
 40
0.0
 40
0.0
 40
0.0
 40
0.0
 40
0.2205931729
 40
1.0
 40
1.0
 40
1.0
 40
1.0
 10
26.5561681467
 20
52.8724697464
 30
0.0
 10
26.5546032216
 20
52.8721079432
 30
0.0
 10
26.5475371347
 20
52.8703465423
 30
0.0
 10
26.5405708111
 20
52.8682037918
 30
0.0
 10
26.5351837809
 20
52.8664186935
 30
0.0
  0
SPLINE
  5
4E4
100
AcDbEntity
  8
0
100
AcDbSpline
 62
7
  6
BYLAYER
 70
0
 71
3
 72
9
 73
5
 74
0
 42
0.0000001
 43
0.0000001
 44
0.0000000001
 40
0.0
 40
0.0
 40
0.0
 40
0.0
 40
0.2343073994
 40
1.0
 40
1.0
 40
1.0
 40
1.0
 10
26.5351837809
 20
52.8664186935
 30
0.0
 10
26.533129246
 20
52.8657378829
 30
0.0
 10
26.5243871598
 20
52.8627525386
 30
0.0
 10
26.5157417295
 20
52.8594881526
 30
0.0
 10
26.5091688309
 20
52.8568757296
 30
0.0
  0
SPLINE
  5
4E5
100
AcDbEntity
  8
0
100
AcDbSpline
 62
7
  6
BYLAYER
 70
0
 71
3
 72
10
 73
6
 74
0
 42
0.0000001
 43
0.0000001
 44
0.0000000001
 40
0.0
 40
0.0
 40
0.0
 40
0.0
 40
0.5165731312
 40
0.7594943675
 40
1.0
 40
1.0
 40
1.0
 40
1.0
 10
37.9569621025
 20
52.8367553405
 30
0.0
 10
37.9730206252
 20
52.8389343509
 30
0.0
 10
37.9976339885
 20
52.8380874872
 30
0.0
 10
38.0272429368
 20
52.8271729073
 30
0.0
 10
38.0401336354
 20
52.8189015043
 30
0.0
 10
38.0459973371
 20
52.8141534051
 30
0.0
  0
SPLINE
  5
4E6
100
AcDbEntity
  8
0
100
AcDbSpline
 62
7
  6
BYLAYER
 70
0
 71
3
 72
9
 73
5
 74
0
 42
0.0000001
 43
0.0000001
 44
0.0000000001
 40
0.0
 40
0.0
 40
0.0
 40
0.0
 40
0.2193098783
 40
1.0
 40
1.0
 40
1.0
 40
1.0
 10
25.9370784941
 20
52.6813578093
 30
0.0
 10
25.9356110522
 20
52.6807831965
 30
0.0
 10
25.9289441713
 20
52.6781010842
 30
0.0
 10
25.922356112
 20
52.6752266055
 30
0.0
 10
25.9172396067
 20
52.6729259941
 30
0.0
  0
SPLINE
  5
4E7
100
AcDbEntity
  8
0
100
AcDbSpline
 62
7
  6
BYLAYER
 70
0
 71
3
 72
9
 73
5
 74
0
 42
0.0000001
 43
0.0000001
 44
0.0000000001
 40
0.0
 40
0.0
 40
0.0
 40
0.0
 40
0.2337848879
 40
1.0
 40
1.0
 40
1.0
 40
1.0
 10
25.9172396067
 20
52.6729259941
 30
0.0
 10
25.9152794757
 20
52.6720446308
 30
0.0
 10
25.9069130964
 20
52.6682347447
 30
0.0
 10
25.898610275
 20
52.6642861725
 30
0.0
 10
25.89227594
 20
52.6612054769
 30
0.0
  0
LINE
  5
4E8
100
AcDbEntity
  8
0
100
AcDbLine
 62
7
  6
BYLAYER
 10
38.0118000928
 20
30.4943529123
 11
38.0236501337
 21
30.5012374929
  0
LINE
  5
4E9
100
AcDbEntity
  8
0
100
AcDbLine
 62
7
  6
BYLAYER
 10
38.0236501337
 20
30.5012374929
 11
38.0276264927
 21
30.503642948
  0
SPLINE
  5
4EA
100
AcDbEntity
  8
0
100
AcDbSpline
 62
7
  6
BYLAYER
 70
0
 71
3
 72
9
 73
5
 74
0
 42
0.0000001
 43
0.0000001
 44
0.0000000001
 40
0.0
 40
0.0
 40
0.0
 40
0.0
 40
0.5145679325
 40
1.0
 40
1.0
 40
1.0
 40
1.0
 10
44.5139044455
 20
42.0661987739
 30
0.0
 10
44.6246247446
 20
41.5669394643
 30
0.0
 10
44.7952676072
 20
40.5860930205
 30
0.0
 10
44.8624204518
 20
39.5921226972
 30
0.0
 10
44.8653166167
 20
39.1096981348
 30
0.0
  0
SPLINE
  5
4EB
100
AcDbEntity
  8
0
100
AcDbSpline
 62
7
  6
BYLAYER
 70
0
 71
3
 72
9
 73
5
 74
0
 42
0.0000001
 43
0.0000001
 44
0.0000000001
 40
0.0
 40
0.0
 40
0.0
 40
0.0
 40
0.494548159
 40
1.0
 40
1.0
 40
1.0
 40
1.0
 10
13.1002350058
 20
45.1235428383
 30
0.0
 10
12.8784467932
 20
44.9955103302
 30
0.0
 10
12.4532526127
 20
44.6941549341
 30
0.0
 10
12.0898259346
 20
44.3211131949
 30
0.0
 10
11.9234218549
 20
44.1190840278
 30
0.0
  0
SPLINE
  5
4EC
100
AcDbEntity
  8
0
100
AcDbSpline
 62
7
  6
BYLAYER
 70
0
 71
3
 72
11
 73
7
 74
0
 42
0.0000001
 43
0.0000001
 44
0.0000000001
 40
0.0
 40
0.0
 40
0.0
 40
0.0
 40
0.1207151815
 40
0.3113027203
 40
0.6008673201
 40
1.0
 40
1.0
 40
1.0
 40
1.0
 10
12.3826474416
 20
16.3303964217
 30
0.0
 10
12.3877668382
 20
16.3291687616
 30
0.0
 10
12.4017783025
 20
16.3306299006
 30
0.0
 10
12.4262903306
 20
16.3397340758
 30
0.0
 10
12.460788824
 20
16.356690598
 30
0.0
 10
12.4870437152
 20
16.3712466354
 30
0.0
 10
12.5021779571
 20
16.3798458766
 30
0.0
  0
SPLINE
  5
4ED
100
AcDbEntity
  8
0
100
AcDbSpline
 62
7
  6
BYLAYER
 70
0
 71
3
 72
12
 73
8
 74
0
 42
0.0000001
 43
0.0000001
 44
0.0000000001
 40
0.0
 40
0.0
 40
0.0
 40
0.0
 40
0.2733848645
 40
0.5319211425
 40
0.6551670458
 40
0.7742790258
 40
1.0
 40
1.0
 40
1.0
 40
1.0
 10
6.7953117987
 20
19.5745579651
 30
0.0
 10
7.232073499
 20
19.1710331308
 30
0.0
 10
8.1198748765
 20
18.4256317544
 30
0.0
 10
9.3064401171
 20
17.6303523191
 30
0.0
 10
10.2650301205
 20
17.1108997572
 30
0.0
 10
11.1907775159
 20
16.6862280556
 30
0.0
 10
11.9054636642
 20
16.4458845016
 30
0.0
 10
12.3826521265
 20
16.3304009055
 30
0.0
  0
SPLINE
  5
4EE
100
AcDbEntity
  8
0
100
AcDbSpline
 62
7
  6
BYLAYER
 70
0
 71
3
 72
15
 73
11
 74
0
 42
0.0000001
 43
0.0000001
 44
0.0000000001
 40
0.0
 40
0.0
 40
0.0
 40
0.0
 40
0.1080131785
 40
0.2180620411
 40
0.3320000111
 40
0.4513603853
 40
0.5772771844
 40
0.7104918775
 40
0.8514203096
 40
1.0
 40
1.0
 40
1.0
 40
1.0
 10
19.6580505352
 20
50.9592486649
 30
0.0
 10
19.8916760681
 20
51.0941453876
 30
0.0
 10
20.3877298454
 20
51.3264041815
 30
0.0
 10
21.190334158
 20
51.5483868541
 30
0.0
 10
22.0459530513
 20
51.6438047505
 30
0.0
 10
22.945441726
 20
51.6125010771
 30
0.0
 10
23.8801376307
 20
51.4557351743
 30
0.0
 10
24.8413781366
 20
51.1755174548
 30
0.0
 10
25.8200256139
 20
50.7749428497
 30
0.0
 10
26.4616307218
 20
50.4390885372
 30
0.0
 10
26.7830085377
 20
50.2535451662
 30
0.0
  0
SPLINE
  5
4EF
100
AcDbEntity
  8
0
100
AcDbSpline
 62
7
  6
BYLAYER
 70
0
 71
3
 72
14
 73
10
 74
0
 42
0.0000001
 43
0.0000001
 44
0.0000000001
 40
0.0
 40
0.0
 40
0.0
 40
0.0
 40
0.1243704738
 40
0.2483951162
 40
0.3420478534
 40
0.43667057
 40
0.626575163
 40
0.8136757457
 40
1.0
 40
1.0
 40
1.0
 40
1.0
 10
44.88907041
 20
42.224109126
 30
0.0
 10
44.8968403582
 20
42.2308646752
 30
0.0
 10
44.9120962388
 20
42.2446565292
 30
0.0
 10
44.9329513962
 20
42.2638102891
 30
0.0
 10
44.9523857382
 20
42.2808674965
 30
0.0
 10
44.9765629303
 20
42.3007614814
 30
0.0
 10
45.0072049238
 20
42.3249754036
 30
0.0
 10
45.0420260787
 20
42.3560228343
 30
0.0
 10
45.064732136
 20
42.3770044805
 30
0.0
 10
45.0763615427
 20
42.3871379337
 30
0.0
  0
SPLINE
  5
4F0
100
AcDbEntity
  8
0
100
AcDbSpline
 62
7
  6
BYLAYER
 70
0
 71
3
 72
15
 73
11
 74
0
 42
0.0000001
 43
0.0000001
 44
0.0000000001
 40
0.0
 40
0.0
 40
0.0
 40
0.0
 40
0.1219043697
 40
0.2476703813
 40
0.3758737944
 40
0.5049862125
 40
0.633440589
 40
0.7596990325
 40
0.8823139627
 40
1.0
 40
1.0
 40
1.0
 40
1.0
 10
31.9303787309
 20
47.4526970946
 30
0.0
 10
32.2704089267
 20
47.1370489917
 30
0.0
 10
32.9313360402
 20
46.4628984333
 30
0.0
 10
33.8429927671
 20
45.3584888824
 30
0.0
 10
34.6778542973
 20
44.1612904205
 30
0.0
 10
35.4207385592
 20
42.8931507822
 30
0.0
 10
36.0582049466
 20
41.5770762055
 30
0.0
 10
36.5786241764
 20
40.2368444087
 30
0.0
 10
36.9724428129
 20
38.8967724658
 30
0.0
 10
37.1499473227
 20
37.9979060414
 30
0.0
 10
37.2140693987
 20
37.5546192119
 30
0.0
  0
SPLINE
  5
4F1
100
AcDbEntity
  8
0
100
AcDbSpline
 62
7
  6
BYLAYER
 70
0
 71
3
 72
9
 73
5
 74
0
 42
0.0000001
 43
0.0000001
 44
0.0000000001
 40
0.0
 40
0.0
 40
0.0
 40
0.0
 40
0.5098246157
 40
1.0
 40
1.0
 40
1.0
 40
1.0
 10
37.2140693987
 20
37.5546192119
 30
0.0
 10
37.2546344599
 20
37.2741860365
 30
0.0
 10
37.3162723506
 20
36.7213508852
 30
0.0
 10
37.3384025654
 20
36.1654151204
 30
0.0
 10
37.3384025654
 20
35.8929839465
 30
0.0
  0
SPLINE
  5
4F2
100
AcDbEntity
  8
0
100
AcDbSpline
 62
7
  6
BYLAYER
 70
0
 71
3
 72
11
 73
7
 74
0
 42
0.0000001
 43
0.0000001
 44
0.0000000001
 40
0.0
 40
0.0
 40
0.0
 40
0.0
 40
0.271572479
 40
0.5284507858
 40
0.7708088804
 40
1.0
 40
1.0
 40
1.0
 40
1.0
 10
37.3384025654
 20
35.8929839465
 30
0.0
 10
37.3384025654
 20
35.5748622981
 30
0.0
 10
37.3096677789
 20
34.9552915559
 30
0.0
 10
37.1718556588
 20
34.0610081243
 30
0.0
 10
36.9406282757
 20
33.2373635702
 30
0.0
 10
36.719036869
 20
32.7288205405
 30
0.0
 10
36.5926538084
 20
32.4919521948
 30
0.0
  0
SPLINE
  5
4F3
100
AcDbEntity
  8
0
100
AcDbSpline
 62
7
  6
BYLAYER
 70
0
 71
3
 72
9
 73
5
 74
0
 42
0.0000001
 43
0.0000001
 44
0.0000000001
 40
0.0
 40
0.0
 40
0.0
 40
0.0
 40
0.2569263573
 40
1.0
 40
1.0
 40
1.0
 40
1.0
 10
35.9834064526
 20
33.184203565
 30
0.0
 10
35.9924540606
 20
33.0375805608
 30
0.0
 10
36.0192486226
 20
32.4664363807
 30
0.0
 10
36.0115725996
 20
31.8934784581
 30
0.0
 10
35.9834064526
 20
31.4695484891
 30
0.0
  0
SPLINE
  5
4F4
100
AcDbEntity
  8
0
100
AcDbSpline
 62
7
  6
BYLAYER
 70
0
 71
3
 72
9
 73
5
 74
0
 42
0.0000001
 43
0.0000001
 44
0.0000000001
 40
0.0
 40
0.0
 40
0.0
 40
0.0
 40
0.4815074819
 40
1.0
 40
1.0
 40
1.0
 40
1.0
 10
22.3228345648
 20
22.0441909126
 30
0.0
 10
22.2992532624
 20
22.0305757225
 30
0.0
 10
22.2469962174
 20
22.0077651421
 30
0.0
 10
22.1914550678
 20
21.9955115266
 30
0.0
 10
22.1624159127
 20
21.9914548885
 30
0.0
  0
SPLINE
  5
4F5
100
AcDbEntity
  8
0
100
AcDbSpline
 62
7
  6
BYLAYER
 70
0
 71
3
 72
9
 73
5
 74
0
 42
0.0000001
 43
0.0000001
 44
0.0000000001
 40
0.0
 40
0.0
 40
0.0
 40
0.0
 40
0.2284879311
 40
1.0
 40
1.0
 40
1.0
 40
1.0
 10
22.1624159127
 20
21.9914548885
 30
0.0
 10
22.141581686
 20
21.9885444417
 30
0.0
 10
22.0496715588
 20
21.9809566674
 30
0.0
 10
21.9568959642
 20
21.9925407113
 30
0.0
 10
21.8875739851
 20
22.0080325911
 30
0.0
  0
SPLINE
  5
4F6
100
AcDbEntity
  8
0
100
AcDbSpline
 62
7
  6
BYLAYER
 70
0
 71
3
 72
9
 73
5
 74
0
 42
0.0000001
 43
0.0000001
 44
0.0000000001
 40
0.0
 40
0.0
 40
0.0
 40
0.0
 40
0.5037528362
 40
1.0
 40
1.0
 40
1.0
 40
1.0
 10
45.9448639925
 20
38.3128560333
 30
0.0
 10
45.8276752423
 20
38.1866488576
 30
0.0
 10
45.5768247683
 20
37.9523214251
 30
0.0
 10
45.2934724402
 20
37.7583515303
 30
0.0
 10
45.1465431902
 20
37.6735225724
 30
0.0
  0
SPLINE
  5
4F7
100
AcDbEntity
  8
0
100
AcDbSpline
 62
7
  6
BYLAYER
 70
0
 71
3
 72
9
 73
5
 74
0
 42
0.0000001
 43
0.0000001
 44
0.0000000001
 40
0.0
 40
0.0
 40
0.0
 40
0.0
 40
0.5161642359
 40
1.0
 40
1.0
 40
1.0
 40
1.0
 10
16.7791058577
 20
46.7028404944
 30
0.0
 10
16.8261361366
 20
46.7738006904
 30
0.0
 10
16.9305295236
 20
46.9032261566
 30
0.0
 10
17.0625122591
 20
47.0054143564
 30
0.0
 10
17.1316194551
 20
47.0453143105
 30
0.0
  0
SPLINE
  5
4F8
100
AcDbEntity
  8
0
100
AcDbSpline
 62
7
  6
BYLAYER
 70
0
 71
3
 72
11
 73
7
 74
0
 42
0.0000001
 43
0.0000001
 44
0.0000000001
 40
0.0
 40
0.0
 40
0.0
 40
0.0
 40
0.2765141305
 40
0.5317402144
 40
0.7704149733
 40
1.0
 40
1.0
 40
1.0
 40
1.0
 10
45.499606943
 20
40.9573730338
 30
0.0
 10
45.5314184703
 20
40.9679314379
 30
0.0
 10
45.5942786495
 20
40.9837042107
 30
0.0
 10
45.6880963566
 20
40.9895354812
 30
0.0
 10
45.7754924869
 20
40.9759772716
 30
0.0
 10
45.8284794739
 20
40.9537745411
 30
0.0
 10
45.8525828356
 20
40.9398640053
 30
0.0
  0
LINE
  5
4F9
100
AcDbEntity
  8
0
100
AcDbLine
 62
7
  6
BYLAYER
 10
18.6230383847
 20
44.4279651944
 11
10.7273187051
 21
39.6297013005
  0
SPLINE
  5
4FA
100
AcDbEntity
  8
0
100
AcDbSpline
 62
7
  6
BYLAYER
 70
0
 71
3
 72
11
 73
7
 74
0
 42
0.0000001
 43
0.0000001
 44
0.0000000001
 40
0.0
 40
0.0
 40
0.0
 40
0.0
 40
0.2514238674
 40
0.5018200632
 40
0.7514696331
 40
1.0
 40
1.0
 40
1.0
 40
1.0
 10
7.3703514433
 20
29.3712887809
 30
0.0
 10
7.3686356334
 20
29.2885939612
 30
0.0
 10
7.3648898313
 20
29.12354713
 30
0.0
 10
7.3620416741
 20
28.8763455333
 30
0.0
 10
7.3596462081
 20
28.6300900143
 30
0.0
 10
7.3601346457
 20
28.4661984626
 30
0.0
 10
7.3601356616
 20
28.3844377389
 30
0.0
  0
SPLINE
  5
4FB
100
AcDbEntity
  8
0
100
AcDbSpline
 62
7
  6
BYLAYER
 70
0
 71
3
 72
19
 73
15
 74
0
 42
0.0000001
 43
0.0000001
 44
0.0000000001
 40
0.0
 40
0.0
 40
0.0
 40
0.0
 40
0.0623902108
 40
0.1288288799
 40
0.2703466464
 40
0.4174384392
 40
0.5617171328
 40
0.6953263369
 40
0.7563224161
 40
0.8128046513
 40
0.8647390028
 40
0.9125531505
 40
0.9571919822
 40
1.0
 40
1.0
 40
1.0
 40
1.0
 10
7.3595310738
 20
28.384088682
 30
0.0
 10
7.359531692
 20
28.3343383947
 30
0.0
 10
7.3663097858
 20
28.2315387639
 30
0.0
 10
7.4040601542
 20
28.0189646374
 30
0.0
 10
7.4953653539
 20
27.74909297
 30
0.0
 10
7.6603788615
 20
27.4441480088
 30
0.0
 10
7.8699509282
 20
27.1758263643
 30
0.0
 10
8.073856609
 20
26.9952376929
 30
0.0
 10
8.2450256968
 20
26.890458089
 30
0.0
 10
8.3690259801
 20
26.8356752435
 30
0.0
 10
8.4899967943
 20
26.8035206486
 30
0.0
 10
8.6056221978
 20
26.7949811292
 30
0.0
 10
8.7132563286
 20
26.8108411885
 30
0.0
 10
8.7784854798
 20
26.8378936134
 30
0.0
 10
8.808047881
 20
26.8549607166
 30
0.0
  0
SPLINE
  5
4FC
100
AcDbEntity
  8
0
100
AcDbSpline
 62
7
  6
BYLAYER
 70
0
 71
3
 72
18
 73
14
 74
0
 42
0.0000001
 43
0.0000001
 44
0.0000000001
 40
0.0
 40
0.0
 40
0.0
 40
0.0
 40
0.259352355
 40
0.5127445749
 40
0.6370765779
 40
0.759762039
 40
0.8204746209
 40
0.8807594475
 40
0.9107404751
 40
0.9406108986
 40
0.9555092281
 40
0.9703781328
 40
1.0
 40
1.0
 40
1.0
 40
1.0
 10
8.6310001674
 20
39.9687825301
 30
0.0
 10
8.4414843704
 20
39.0645283152
 30
0.0
 10
8.1040579933
 20
37.2687461759
 30
0.0
 10
7.7831100628
 20
35.0212515952
 30
0.0
 10
7.5927503655
 20
33.2486773071
 30
0.0
 10
7.5015699252
 20
32.1561179936
 30
0.0
 10
7.4452411322
 20
31.2898495711
 30
0.0
 10
7.4170093972
 20
30.7527393387
 30
0.0
 10
7.3985126024
 20
30.3251710041
 30
0.0
 10
7.3887955075
 20
30.0590623927
 30
0.0
 10
7.3819117575
 20
29.8467246299
 30
0.0
 10
7.3756447937
 20
29.6352521942
 30
0.0
 10
7.3725404413
 20
29.4767891354
 30
0.0
 10
7.3703514433
 20
29.3712887809
 30
0.0
  0
SPLINE
  5
4FD
100
AcDbEntity
  8
0
100
AcDbSpline
 62
7
  6
BYLAYER
 70
0
 71
3
 72
9
 73
5
 74
0
 42
0.0000001
 43
0.0000001
 44
0.0000000001
 40
0.0
 40
0.0
 40
0.0
 40
0.0
 40
0.2450868532
 40
1.0
 40
1.0
 40
1.0
 40
1.0
 10
8.6310001674
 20
39.9687825301
 30
0.0
 10
8.6362626422
 20
39.9953318021
 30
0.0
 10
8.6595058979
 20
40.1033011729
 30
0.0
 10
8.6890992112
 20
40.2098864763
 30
0.0
 10
8.714665007
 20
40.2892373663
 30
0.0
  0
SPLINE
  5
4FE
100
AcDbEntity
  8
0
100
AcDbSpline
 62
7
  6
BYLAYER
 70
0
 71
3
 72
9
 73
5
 74
0
 42
0.0000001
 43
0.0000001
 44
0.0000000001
 40
0.0
 40
0.0
 40
0.0
 40
0.0
 40
0.5226637797
 40
1.0
 40
1.0
 40
1.0
 40
1.0
 10
45.9232569275
 20
45.0726817376
 30
0.0
 10
45.9300748847
 20
45.133657939
 30
0.0
 10
45.9405650147
 20
45.2506256677
 30
0.0
 10
45.9448640121
 20
45.3680252784
 30
0.0
 10
45.9448640121
 20
45.4240604037
 30
0.0
  0
SPLINE
  5
4FF
100
AcDbEntity
  8
0
100
AcDbSpline
 62
7
  6
BYLAYER
 70
0
 71
3
 72
11
 73
7
 74
0
 42
0.0000001
 43
0.0000001
 44
0.0000000001
 40
0.0
 40
0.0
 40
0.0
 40
0.0
 40
0.2611861382
 40
0.5210966757
 40
0.770134331
 40
1.0
 40
1.0
 40
1.0
 40
1.0
 10
8.714665007
 20
40.2892373663
 30
0.0
 10
8.7301675149
 20
40.3251835059
 30
0.0
 10
8.7661708556
 20
40.3948091124
 30
0.0
 10
8.8325855271
 20
40.4896478771
 30
0.0
 10
8.9085172911
 20
40.5707502122
 30
0.0
 10
8.9655394239
 20
40.6150835996
 30
0.0
 10
8.9947683073
 20
40.6333217346
 30
0.0
  0
LINE
  5
500
100
AcDbEntity
  8
0
100
AcDbLine
 62
7
  6
BYLAYER
 10
16.8906195581
 20
45.4315926936
 11
8.9947683073
 21
40.6333217346
  0
SPLINE
  5
501
100
AcDbEntity
  8
0
100
AcDbSpline
 62
7
  6
BYLAYER
 70
0
 71
3
 72
9
 73
5
 74
0
 42
0.0000001
 43
0.0000001
 44
0.0000000001
 40
0.0
 40
0.0
 40
0.0
 40
0.0
 40
0.2450843674
 40
1.0
 40
1.0
 40
1.0
 40
1.0
 10
10.3634174335
 20
38.9649346063
 30
0.0
 10
10.3686864738
 20
38.9915249394
 30
0.0
 10
10.3919620789
 20
39.0996620857
 30
0.0
 10
10.4216074164
 20
39.2064101248
 30
0.0
 10
10.4472067489
 20
39.2858858617
 30
0.0
  0
SPLINE
  5
502
100
AcDbEntity
  8
0
100
AcDbSpline
 62
7
  6
BYLAYER
 70
0
 71
3
 72
11
 73
7
 74
0
 42
0.0000001
 43
0.0000001
 44
0.0000000001
 40
0.0
 40
0.0
 40
0.0
 40
0.0
 40
0.261218751
 40
0.5212084821
 40
0.7701902512
 40
1.0
 40
1.0
 40
1.0
 40
1.0
 10
10.4472067489
 20
39.2858858617
 30
0.0
 10
10.4627007931
 20
39.321821033
 30
0.0
 10
10.4988080497
 20
39.3913740018
 30
0.0
 10
10.5651941587
 20
39.4861631212
 30
0.0
 10
10.6410658829
 20
39.5672569767
 30
0.0
 10
10.6981107893
 20
39.6114758258
 30
0.0
 10
10.7273187051
 20
39.6297013005
 30
0.0
  0
SPLINE
  5
503
100
AcDbEntity
  8
0
100
AcDbSpline
 62
7
  6
BYLAYER
 70
0
 71
3
 72
11
 73
7
 74
0
 42
0.0000001
 43
0.0000001
 44
0.0000000001
 40
0.0
 40
0.0
 40
0.0
 40
0.0
 40
0.2452158568
 40
0.4953634184
 40
0.7478481276
 40
1.0
 40
1.0
 40
1.0
 40
1.0
 10
43.0457139683
 20
52.1072052783
 30
0.0
 10
43.3206650633
 20
51.8057492056
 30
0.0
 10
43.8518157649
 20
51.1742117661
 30
0.0
 10
44.5794725614
 20
50.1634725303
 30
0.0
 10
45.2373777959
 20
49.092458256
 30
0.0
 10
45.62424152
 20
48.3462373975
 30
0.0
 10
45.803441978
 20
47.9668803153
 30
0.0
  0
SPLINE
  5
504
100
AcDbEntity
  8
0
100
AcDbSpline
 62
7
  6
BYLAYER
 70
0
 71
3
 72
14
 73
10
 74
0
 42
0.0000001
 43
0.0000001
 44
0.0000000001
 40
0.0
 40
0.0
 40
0.0
 40
0.0
 40
0.2151464889
 40
0.3320072874
 40
0.4549585457
 40
0.5837285363
 40
0.7178830344
 40
0.8568942338
 40
1.0
 40
1.0
 40
1.0
 40
1.0
 10
37.5227204096
 20
55.2791132016
 30
0.0
 10
37.9731023622
 20
55.2077783795
 30
0.0
 10
38.6554803272
 20
55.0077396097
 30
0.0
 10
39.5332490596
 20
54.6073840028
 30
0.0
 10
40.2136852178
 20
54.221352977
 30
0.0
 10
40.8910358568
 20
53.7616897778
 30
0.0
 10
41.5595425325
 20
53.2324841806
 30
0.0
 10
42.2128926474
 20
52.6386748935
 30
0.0
 10
42.6291899326
 20
52.208828765
 30
0.0
 10
42.8335831775
 20
51.9847322402
 30
0.0
  0
SPLINE
  5
505
100
AcDbEntity
  8
0
100
AcDbSpline
 62
7
  6
BYLAYER
 70
0
 71
3
 72
11
 73
7
 74
0
 42
0.0000001
 43
0.0000001
 44
0.0000000001
 40
0.0
 40
0.0
 40
0.0
 40
0.0
 40
0.2287335062
 40
0.4670189953
 40
0.7224990876
 40
1.0
 40
1.0
 40
1.0
 40
1.0
 10
16.385379009
 20
46.6144747599
 30
0.0
 10
16.4298788921
 20
46.6401675139
 30
0.0
 10
16.5280192953
 20
46.6808951663
 30
0.0
 10
16.6900411837
 20
46.7045471629
 30
0.0
 10
16.8639859518
 20
46.691485267
 30
0.0
 10
16.9803106166
 20
46.6604191898
 30
0.0
 10
17.0391629558
 20
46.6398604214
 30
0.0
  0
SPLINE
  5
506
100
AcDbEntity
  8
0
100
AcDbSpline
 62
7
  6
BYLAYER
 70
0
 71
3
 72
9
 73
5
 74
0
 42
0.0000001
 43
0.0000001
 44
0.0000000001
 40
0.0
 40
0.0
 40
0.0
 40
0.0
 40
0.2424460322
 40
1.0
 40
1.0
 40
1.0
 40
1.0
 10
17.0391629558
 20
46.6398604214
 30
0.0
 10
17.1604820412
 20
46.5973582347
 30
0.0
 10
17.6573954726
 20
46.4121788065
 30
0.0
 10
18.1399976724
 20
46.189290004
 30
0.0
 10
18.4961230849
 20
46.0035186998
 30
0.0
  0
SPLINE
  5
507
100
AcDbEntity
  8
0
100
AcDbSpline
 62
7
  6
BYLAYER
 70
0
 71
3
 72
9
 73
5
 74
0
 42
0.0000001
 43
0.0000001
 44
0.0000000001
 40
0.0
 40
0.0
 40
0.0
 40
0.0
 40
0.2437260753
 40
1.0
 40
1.0
 40
1.0
 40
1.0
 10
19.3853968523
 20
45.4942056977
 30
0.0
 10
19.5155913094
 20
45.4129915861
 30
0.0
 10
20.0443586342
 20
45.0711303966
 30
0.0
 10
20.5515745351
 20
44.6962371818
 30
0.0
 10
20.9225940215
 20
44.3978111715
 30
0.0
  0
SPLINE
  5
508
100
AcDbEntity
  8
0
100
AcDbSpline
 62
7
  6
BYLAYER
 70
0
 71
3
 72
15
 73
11
 74
0
 42
0.0000001
 43
0.0000001
 44
0.0000000001
 40
0.0
 40
0.0
 40
0.0
 40
0.0
 40
0.1235934185
 40
0.2537038369
 40
0.3872329093
 40
0.5210906004
 40
0.6520258942
 40
0.7770160595
 40
0.8936330405
 40
1.0
 40
1.0
 40
1.0
 40
1.0
 10
20.9225940215
 20
44.3978111715
 30
0.0
 10
21.004736987
 20
44.3316576265
 30
0.0
 10
21.163790778
 20
44.1837107058
 30
0.0
 10
21.3772851375
 20
43.9305912941
 30
0.0
 10
21.565882698
 20
43.6478038407
 30
0.0
 10
21.7229193031
 20
43.3455760172
 30
0.0
 10
21.8427579999
 20
43.0345189023
 30
0.0
 10
21.9212795836
 20
42.7255686275
 30
0.0
 10
21.9555282331
 20
42.4296785899
 30
0.0
 10
21.9476192997
 20
42.2383869532
 30
0.0
 10
21.934734231
 20
42.1485372342
 30
0.0
  0
SPLINE
  5
509
100
AcDbEntity
  8
0
100
AcDbSpline
 62
7
  6
BYLAYER
 70
0
 71
3
 72
9
 73
5
 74
0
 42
0.0000001
 43
0.0000001
 44
0.0000000001
 40
0.0
 40
0.0
 40
0.0
 40
0.0
 40
0.5171546419
 40
1.0
 40
1.0
 40
1.0
 40
1.0
 10
6.3920734311
 20
39.9965715189
 30
0.0
 10
6.4012744079
 20
40.1169470935
 30
0.0
 10
6.4364620669
 20
40.3488284637
 30
0.0
 10
6.5113397253
 20
40.5716571803
 30
0.0
 10
6.5583703264
 20
40.6740941637
 30
0.0
  0
SPLINE
  5
50A
100
AcDbEntity
  8
0
100
AcDbSpline
 62
7
  6
BYLAYER
 70
0
 71
3
 72
9
 73
5
 74
0
 42
0.0000001
 43
0.0000001
 44
0.0000000001
 40
0.0
 40
0.0
 40
0.0
 40
0.0
 40
0.5001189259
 40
1.0
 40
1.0
 40
1.0
 40
1.0
 10
6.5583703264
 20
40.6740941637
 30
0.0
 10
6.5835370765
 20
40.730077738
 30
0.0
 10
6.6432273756
 20
40.8379986564
 30
0.0
 10
6.7186249194
 20
40.9354611387
 30
0.0
 10
6.7595346284
 20
40.9811813625
 30
0.0
  0
SPLINE
  5
50B
100
AcDbEntity
  8
0
100
AcDbSpline
 62
7
  6
BYLAYER
 70
0
 71
3
 72
10
 73
6
 74
0
 42
0.0000001
 43
0.0000001
 44
0.0000000001
 40
0.0
 40
0.0
 40
0.0
 40
0.0
 40
0.4900810001
 40
0.7514061298
 40
1.0
 40
1.0
 40
1.0
 40
1.0
 10
6.7595346284
 20
40.9811813625
 30
0.0
 10
6.819789504
 20
41.0436367285
 30
0.0
 10
6.9232320876
 20
41.1287691928
 30
0.0
 10
7.0699722458
 20
41.2277986826
 30
0.0
 10
7.1470117846
 20
41.2749896643
 30
0.0
 10
7.1849991122
 20
41.2972336747
 30
0.0
  0
SPLINE
  5
50C
100
AcDbEntity
  8
0
100
AcDbSpline
 62
7
  6
BYLAYER
 70
0
 71
3
 72
9
 73
5
 74
0
 42
0.0000001
 43
0.0000001
 44
0.0000000001
 40
0.0
 40
0.0
 40
0.0
 40
0.0
 40
0.5119443889
 40
1.0
 40
1.0
 40
1.0
 40
1.0
 10
6.3920734311
 20
39.9965715189
 30
0.0
 10
6.2911952576
 20
38.6431353271
 30
0.0
 10
6.1276801327
 20
35.9968088041
 30
0.0
 10
6.0320721731
 20
33.3471329329
 30
0.0
 10
6.0035945284
 20
32.0535862677
 30
0.0
  0
SPLINE
  5
50D
100
AcDbEntity
  8
0
100
AcDbSpline
 62
7
  6
BYLAYER
 70
0
 71
3
 72
11
 73
7
 74
0
 42
0.0000001
 43
0.0000001
 44
0.0000000001
 40
0.0
 40
0.0
 40
0.0
 40
0.0
 40
0.2181415578
 40
0.4533579937
 40
0.7131222776
 40
1.0
 40
1.0
 40
1.0
 40
1.0
 10
8.881760265
 20
26.7829958314
 30
0.0
 10
8.9161967697
 20
26.8096767966
 30
0.0
 10
8.9793184766
 20
26.8766969557
 30
0.0
 10
9.045701944
 20
27.0042852519
 30
0.0
 10
9.0851321397
 20
27.1564565826
 30
0.0
 10
9.0929208511
 20
27.2659177239
 30
0.0
 10
9.0928446274
 20
27.3232075044
 30
0.0
  0
SPLINE
  5
50E
100
AcDbEntity
  8
0
100
AcDbSpline
 62
7
  6
BYLAYER
 70
0
 71
3
 72
19
 73
15
 74
0
 42
0.0000001
 43
0.0000001
 44
0.0000000001
 40
0.0
 40
0.0
 40
0.0
 40
0.0
 40
0.2604952411
 40
0.5143208936
 40
0.6385783004
 40
0.7609819186
 40
0.8214738634
 40
0.881483489
 40
0.9113056406
 40
0.9410052022
 40
0.9558065424
 40
0.970581452
 40
0.9853202536
 40
1.0
 40
1.0
 40
1.0
 40
1.0
 10
10.3634174335
 20
38.9649346063
 30
0.0
 10
10.1545354566
 20
37.9679813228
 30
0.0
 10
9.7873109739
 20
35.989795943
 30
0.0
 10
9.4514260834
 20
33.514370079
 30
0.0
 10
9.2639321972
 20
31.5661542402
 30
0.0
 10
9.1806383183
 20
30.3678365074
 30
0.0
 10
9.1343354124
 20
29.4191226466
 30
0.0
 10
9.1138469071
 20
28.8316544782
 30
0.0
 10
9.1025675889
 20
28.3643906515
 30
0.0
 10
9.0975698417
 20
28.0738091104
 30
0.0
 10
9.0949726993
 20
27.8420399335
 30
0.0
 10
9.0935616913
 20
27.6687633234
 30
0.0
 10
9.0925726729
 20
27.4959562073
 30
0.0
 10
9.0933643989
 20
27.3809232871
 30
0.0
 10
9.093440771
 20
27.3235219016
 30
0.0
  0
SPLINE
  5
50F
100
AcDbEntity
  8
0
100
AcDbSpline
 62
7
  6
BYLAYER
 70
0
 71
3
 72
14
 73
10
 74
0
 42
0.0000001
 43
0.0000001
 44
0.0000000001
 40
0.0
 40
0.0
 40
0.0
 40
0.0
 40
0.2795114563
 40
0.4125004556
 40
0.5406162445
 40
0.663616049
 40
0.7812930162
 40
0.8934669116
 40
1.0
 40
1.0
 40
1.0
 40
1.0
 10
6.0035945284
 20
32.0535862677
 30
0.0
 10
5.9796169213
 20
30.9644454705
 30
0.0
 10
5.9632417586
 20
29.3565490218
 30
0.0
 10
5.9863459818
 20
27.2495513952
 30
0.0
 10
6.0249470553
 20
25.7529261937
 30
0.0
 10
6.0854062601
 20
24.3167497169
 30
0.0
 10
6.1678113925
 20
22.943889721
 30
0.0
 10
6.2726903171
 20
21.636932584
 30
0.0
 10
6.3601489654
 20
20.7889118534
 30
0.0
 10
6.4082622651
 20
20.3764927804
 30
0.0
  0
SPLINE
  5
510
100
AcDbEntity
  8
0
100
AcDbSpline
 62
7
  6
BYLAYER
 70
0
 71
3
 72
9
 73
5
 74
0
 42
0.0000001
 43
0.0000001
 44
0.0000000001
 40
0.0
 40
0.0
 40
0.0
 40
0.0
 40
0.256906223
 40
1.0
 40
1.0
 40
1.0
 40
1.0
 10
6.7574014268
 20
19.6123447491
 30
0.0
 10
6.7368567156
 20
19.6403394102
 30
0.0
 10
6.6593675791
 20
19.7510512094
 30
0.0
 10
6.5926478454
 20
19.8697283391
 30
0.0
 10
6.5529115899
 20
19.9619731504
 30
0.0
  0
SPLINE
  5
511
100
AcDbEntity
  8
0
100
AcDbSpline
 62
7
  6
BYLAYER
 70
0
 71
3
 72
9
 73
5
 74
0
 42
0.0000001
 43
0.0000001
 44
0.0000000001
 40
0.0
 40
0.0
 40
0.0
 40
0.0
 40
0.5245298765
 40
1.0
 40
1.0
 40
1.0
 40
1.0
 10
6.5529115899
 20
19.9619731504
 30
0.0
 10
6.5216049522
 20
20.0321493695
 30
0.0
 10
6.4668043157
 20
20.1681973571
 30
0.0
 10
6.424420753
 20
20.3087373224
 30
0.0
 10
6.4082622651
 20
20.3764927804
 30
0.0
  0
LINE
  5
512
100
AcDbEntity
  8
0
100
AcDbLine
 62
7
  6
BYLAYER
 10
21.9166352395
 20
22.8140815209
 11
21.9347342298
 21
22.6684225464
  0
SPLINE
  5
513
100
AcDbEntity
  8
0
100
AcDbSpline
 62
7
  6
BYLAYER
 70
0
 71
3
 72
14
 73
10
 74
0
 42
0.0000001
 43
0.0000001
 44
0.0000000001
 40
0.0
 40
0.0
 40
0.0
 40
0.0
 40
0.1527326736
 40
0.2973148517
 40
0.5593573071
 40
0.6780268717
 40
0.7897392351
 40
0.8963213118
 40
1.0
 40
1.0
 40
1.0
 40
1.0
 10
21.9347342298
 20
22.6684225464
 30
0.0
 10
21.9420536344
 20
22.6089317076
 30
0.0
 10
21.951313698
 20
22.4923791045
 30
0.0
 10
21.9474457498
 20
22.2727753289
 30
0.0
 10
21.9108623661
 20
22.0671846813
 30
0.0
 10
21.8359131482
 20
21.8883061923
 30
0.0
 10
21.7652146034
 20
21.7757296074
 30
0.0
 10
21.6789879178
 20
21.6823578617
 30
0.0
 10
21.6116150815
 20
21.6335713067
 30
0.0
 10
21.5763781912
 20
21.6132266969
 30
0.0
  0
SPLINE
  5
514
100
AcDbEntity
  8
0
100
AcDbSpline
 62
7
  6
BYLAYER
 70
0
 71
3
 72
13
 73
9
 74
0
 42
0.0000001
 43
0.0000001
 44
0.0000000001
 40
0.0
 40
0.0
 40
0.0
 40
0.0
 40
0.2677052259
 40
0.5207585303
 40
0.6430380293
 40
0.7632183028
 40
0.8819716323
 40
1.0
 40
1.0
 40
1.0
 40
1.0
 10
22.2731913641
 20
23.0193931625
 30
0.0
 10
22.5727487958
 20
22.9685337404
 30
0.0
 10
23.1632995886
 20
22.9091743289
 30
0.0
 10
23.8955703943
 20
22.9524461286
 30
0.0
 10
24.4482164166
 20
23.0603873365
 30
0.0
 10
24.8422998204
 20
23.1756397923
 30
0.0
 10
25.2192355895
 20
23.3257636945
 30
0.0
 10
25.4586568629
 20
23.4489213204
 30
0.0
 10
25.5746749319
 20
23.5158954935
 30
0.0
  0
SPLINE
  5
515
100
AcDbEntity
  8
0
100
AcDbSpline
 62
7
  6
BYLAYER
 70
0
 71
3
 72
14
 73
10
 74
0
 42
0.0000001
 43
0.0000001
 44
0.0000000001
 40
0.0
 40
0.0
 40
0.0
 40
0.0
 40
0.2734834184
 40
0.4029009531
 40
0.5279908462
 40
0.6494116454
 40
0.7679433701
 40
0.884481723
 40
1.0
 40
1.0
 40
1.0
 40
1.0
 10
22.2972616236
 20
21.8664180824
 30
0.0
 10
22.7150115359
 20
21.7490263365
 30
0.0
 10
23.3452322361
 20
21.6206576087
 30
0.0
 10
24.1821084339
 20
21.5654571152
 30
0.0
 10
24.779335107
 20
21.5830808483
 30
0.0
 10
25.3546085392
 20
21.658886764
 30
0.0
 10
25.9053511908
 20
21.7928224157
 30
0.0
 10
26.4288790061
 20
21.984197241
 30
0.0
 10
26.7587591725
 20
22.1499295421
 30
0.0
 10
26.9174895324
 20
22.2415815582
 30
0.0
  0
SPLINE
  5
516
100
AcDbEntity
  8
0
100
AcDbSpline
 62
7
  6
BYLAYER
 70
0
 71
3
 72
16
 73
12
 74
0
 42
0.0000001
 43
0.0000001
 44
0.0000000001
 40
0.0
 40
0.0
 40
0.0
 40
0.0
 40
0.0546056323
 40
0.1111427786
 40
0.2293336798
 40
0.3533455661
 40
0.4815934244
 40
0.6122876393
 40
0.7435268875
 40
0.873385614
 40
1.0
 40
1.0
 40
1.0
 40
1.0
 10
27.666888479
 20
50.2127111062
 30
0.0
 10
27.909014496
 20
50.0729227476
 30
0.0
 10
28.39261997
 20
49.7721658921
 30
0.0
 10
29.351385776
 20
49.0933675578
 30
0.0
 10
30.5225598906
 20
48.1045845762
 30
0.0
 10
31.844695677
 20
46.7408041004
 30
0.0
 10
33.0759687315
 20
45.2114785877
 30
0.0
 10
34.1895627276
 20
43.5499612098
 30
0.0
 10
35.1613450414
 20
41.7922424065
 30
0.0
 10
35.9701035118
 20
39.976783758
 30
0.0
 10
36.3963504218
 20
38.7324005211
 30
0.0
 10
36.5764710159
 20
38.1096591564
 30
0.0
  0
SPLINE
  5
517
100
AcDbEntity
  8
0
100
AcDbSpline
 62
7
  6
BYLAYER
 70
0
 71
3
 72
16
 73
12
 74
0
 42
0.0000001
 43
0.0000001
 44
0.0000000001
 40
0.0
 40
0.0
 40
0.0
 40
0.0
 40
0.1458505423
 40
0.2846986991
 40
0.4166360543
 40
0.4801887189
 40
0.542228622
 40
0.6621446296
 40
0.7774826007
 40
0.8895815909
 40
1.0
 40
1.0
 40
1.0
 40
1.0
 10
36.8261692693
 20
31.8770350472
 30
0.0
 10
36.8027843604
 20
31.5584825936
 30
0.0
 10
36.7319278142
 20
30.9381065883
 30
0.0
 10
36.5462125945
 20
30.043464435
 30
0.0
 10
36.3253722879
 20
29.3437537258
 30
0.0
 10
36.1105603491
 20
28.8219635913
 30
0.0
 10
35.8769114046
 20
28.3374476638
 30
0.0
 10
35.540899256
 20
27.7775497103
 30
0.0
 10
35.0638688315
 20
27.1818433556
 30
0.0
 10
34.5213541793
 20
26.6749388011
 30
0.0
 10
34.1173785863
 20
26.3984384837
 30
0.0
 10
33.9079665401
 20
26.2775227671
 30
0.0
  0
SPLINE
  5
518
100
AcDbEntity
  8
0
100
AcDbSpline
 62
7
  6
BYLAYER
 70
0
 71
3
 72
23
 73
19
 74
0
 42
0.0000001
 43
0.0000001
 44
0.0000000001
 40
0.0
 40
0.0
 40
0.0
 40
0.0
 40
0.0554299263
 40
0.113252406
 40
0.1732185135
 40
0.2350857962
 40
0.2985570223
 40
0.3632989397
 40
0.4289579264
 40
0.4951642545
 40
0.5615375905
 40
0.627694534
 40
0.6932566633
 40
0.7578556584
 40
0.8211368819
 40
0.8827754889
 40
0.942494479
 40
1.0
 40
1.0
 40
1.0
 40
1.0
 10
26.7830085377
 20
50.2535451662
 30
0.0
 10
27.1027358716
 20
50.0689546799
 30
0.0
 10
27.7406698985
 20
49.6647668892
 30
0.0
 10
28.6680248536
 20
48.9769271448
 30
0.0
 10
29.5790644653
 20
48.1997991918
 30
0.0
 10
30.4658489053
 20
47.3402635529
 30
0.0
 10
31.3209422928
 20
46.4056749914
 30
0.0
 10
32.1369071402
 20
45.4040002565
 30
0.0
 10
32.9067565162
 20
44.3439015987
 30
0.0
 10
33.623893191
 20
43.2345132373
 30
0.0
 10
34.2820771035
 20
42.0853473247
 30
0.0
 10
34.8757064383
 20
40.9063390453
 30
0.0
 10
35.3996478148
 20
39.7076186593
 30
0.0
 10
35.8493386568
 20
38.4994987964
 30
0.0
 10
36.2210102372
 20
37.2924206349
 30
0.0
 10
36.5114167455
 20
36.0965950966
 30
0.0
 10
36.7179407826
 20
34.9225014082
 30
0.0
 10
36.8003086476
 20
34.1452931832
 30
0.0
 10
36.8261692693
 20
33.7631556307
 30
0.0
  0
SPLINE
  5
519
100
AcDbEntity
  8
0
100
AcDbSpline
 62
7
  6
BYLAYER
 70
0
 71
3
 72
9
 73
5
 74
0
 42
0.0000001
 43
0.0000001
 44
0.0000000001
 40
0.0
 40
0.0
 40
0.0
 40
0.0
 40
0.5177921727
 40
1.0
 40
1.0
 40
1.0
 40
1.0
 10
22.2730581553
 20
42.2301699111
 30
0.0
 10
22.0956003739
 20
41.7474686994
 30
0.0
 10
21.8042423896
 20
40.7951242976
 30
0.0
 10
21.6389453571
 20
39.8120287367
 30
0.0
 10
21.5952471293
 20
39.3350822975
 30
0.0
  0
SPLINE
  5
51A
100
AcDbEntity
  8
0
100
AcDbSpline
 62
7
  6
BYLAYER
 70
0
 71
3
 72
14
 73
10
 74
0
 42
0.0000001
 43
0.0000001
 44
0.0000000001
 40
0.0
 40
0.0
 40
0.0
 40
0.0
 40
0.3122232748
 40
0.4491164308
 40
0.5736835042
 40
0.6880262504
 40
0.7947591652
 40
0.8973302608
 40
1.0
 40
1.0
 40
1.0
 40
1.0
 10
22.4665299729
 20
22.7741261735
 30
0.0
 10
22.4896794505
 20
22.6941349892
 30
0.0
 10
22.5133262446
 20
22.5756409925
 30
0.0
 10
22.5185558496
 20
22.4224412688
 30
0.0
 10
22.5085449435
 20
22.3223174626
 30
0.0
 10
22.4839706316
 20
22.2329345832
 30
0.0
 10
22.4447836283
 20
22.1552723976
 30
0.0
 10
22.3910428187
 20
22.0907818783
 30
0.0
 10
22.3465488956
 20
22.0578829097
 30
0.0
 10
22.3228345648
 20
22.0441909126
 30
0.0
  0
SPLINE
  5
51B
100
AcDbEntity
  8
0
100
AcDbSpline
 62
7
  6
BYLAYER
 70
0
 71
3
 72
13
 73
9
 74
0
 42
0.0000001
 43
0.0000001
 44
0.0000000001
 40
0.0
 40
0.0
 40
0.0
 40
0.0
 40
0.1234831077
 40
0.2462070294
 40
0.4353950524
 40
0.6285230689
 40
0.8152507543
 40
1.0
 40
1.0
 40
1.0
 40
1.0
 10
45.0763615819
 20
39.8425624376
 30
0.0
 10
45.0686525086
 20
39.8397605749
 30
0.0
 10
45.0533836126
 20
39.8338972739
 30
0.0
 10
45.0264860561
 20
39.8232650685
 30
0.0
 10
44.9947965135
 20
39.8122179983
 30
0.0
 10
44.9586592011
 20
39.8011014438
 30
0.0
 10
44.923534484
 20
39.7879135846
 30
0.0
 10
44.9006089573
 20
39.77878115
 30
0.0
 10
44.8890704178
 20
39.7746018488
 30
0.0
  0
SPLINE
  5
51C
100
AcDbEntity
  8
0
100
AcDbSpline
 62
7
  6
BYLAYER
 70
0
 71
3
 72
15
 73
11
 74
0
 42
0.0000001
 43
0.0000001
 44
0.0000000001
 40
0.0
 40
0.0
 40
0.0
 40
0.0
 40
0.0765157778
 40
0.1566614424
 40
0.2456573795
 40
0.3489501506
 40
0.471717379
 40
0.6186482444
 40
0.7937429188
 40
1.0
 40
1.0
 40
1.0
 40
1.0
 10
45.9448639925
 20
38.3128560333
 30
0.0
 10
45.8971123794
 20
38.3178769391
 30
0.0
 10
45.8000854166
 20
38.3397246375
 30
0.0
 10
45.6616398437
 20
38.4110099308
 30
0.0
 10
45.5317650661
 20
38.5244392235
 30
0.0
 10
45.4122203668
 20
38.6833335637
 30
0.0
 10
45.304267926
 20
38.8919716317
 30
0.0
 10
45.2095903661
 20
39.1552108629
 30
0.0
 10
45.1303667403
 20
39.477583545
 30
0.0
 10
45.0927270397
 20
39.7141701171
 30
0.0
 10
45.0763604897
 20
39.8425607185
 30
0.0
  0
SPLINE
  5
51D
100
AcDbEntity
  8
0
100
AcDbSpline
 62
7
  6
BYLAYER
 70
0
 71
3
 72
15
 73
11
 74
0
 42
0.0000001
 43
0.0000001
 44
0.0000000001
 40
0.0
 40
0.0
 40
0.0
 40
0.0
 40
0.1039030435
 40
0.2074457291
 40
0.3147513256
 40
0.4295835564
 40
0.5545398059
 40
0.690786179
 40
0.8390535174
 40
1.0
 40
1.0
 40
1.0
 40
1.0
 10
22.3281631363
 20
22.0472673464
 30
0.0
 10
22.3521363065
 20
22.0611087849
 30
0.0
 10
22.3970764035
 20
22.0942868278
 30
0.0
 10
22.4513818586
 20
22.1591612457
 30
0.0
 10
22.4908274455
 20
22.2372132079
 30
0.0
 10
22.5154176311
 20
22.3268884466
 30
0.0
 10
22.5254544122
 20
22.4269666421
 30
0.0
 10
22.5206383481
 20
22.5362858228
 30
0.0
 10
22.5006409874
 20
22.6535080564
 30
0.0
 10
22.4791409268
 20
22.7331428106
 30
0.0
 10
22.4665299729
 20
22.7741261735
 30
0.0
  0
SPLINE
  5
51E
100
AcDbEntity
  8
0
100
AcDbSpline
 62
7
  6
BYLAYER
 70
0
 71
3
 72
26
 73
22
 74
0
 42
0.0000001
 43
0.0000001
 44
0.0000000001
 40
0.0
 40
0.0
 40
0.0
 40
0.0
 40
0.0706870728
 40
0.1433119041
 40
0.217118722
 40
0.2913527853
 40
0.3652236201
 40
0.4379610987
 40
0.5088284898
 40
0.5771539168
 40
0.6423589013
 40
0.7039907752
 40
0.7617609726
 40
0.8155898494
 40
0.8656577576
 40
0.8894447066
 40
0.9125027285
 40
0.934946268
 40
0.9569078666
 40
0.978538247
 40
1.0
 40
1.0
 40
1.0
 40
1.0
 10
22.4356428112
 20
42.323724306
 30
0.0
 10
22.791039456
 20
41.9737113588
 30
0.0
 10
23.4819311637
 20
41.233430824
 30
0.0
 10
24.4383070989
 20
40.0346848964
 30
0.0
 10
25.3171658287
 20
38.7475228468
 30
0.0
 10
26.1046755368
 20
37.3924141394
 30
0.0
 10
26.7884673804
 20
35.9904814651
 30
0.0
 10
27.3578138888
 20
34.5637815915
 30
0.0
 10
27.8037744768
 20
33.1346528747
 30
0.0
 10
28.1193625608
 20
31.7254405951
 30
0.0
 10
28.2995960187
 20
30.3580567539
 30
0.0
 10
28.3415336739
 20
29.0536522476
 30
0.0
 10
28.2441287438
 20
27.8321566656
 30
0.0
 10
28.0083306104
 20
26.7124634469
 30
0.0
 10
27.6928236222
 20
25.8638929198
 30
0.0
 10
27.3726448945
 20
25.2586719889
 30
0.0
 10
27.1049570074
 20
24.8486258084
 30
0.0
 10
26.8068220166
 20
24.4764723853
 30
0.0
 10
26.4792569643
 20
24.1438326341
 30
0.0
 10
26.123691015
 20
23.8521438086
 30
0.0
 10
25.8684694047
 20
23.6855119798
 30
0.0
 10
25.7373067921
 20
23.6097958267
 30
0.0
  0
SPLINE
  5
51F
100
AcDbEntity
  8
0
100
AcDbSpline
 62
7
  6
BYLAYER
 70
0
 71
3
 72
32
 73
28
 74
0
 42
0.0000001
 43
0.0000001
 44
0.0000000001
 40
0.0
 40
0.0
 40
0.0
 40
0.0
 40
0.0507722321
 40
0.0747646141
 40
0.0980423309
 40
0.1208387656
 40
0.1434083255
 40
0.1660173394
 40
0.1889314328
 40
0.2123995171
 40
0.2366392212
 40
0.2618321577
 40
0.2881171253
 40
0.315593987
 40
0.3443213031
 40
0.374324642
 40
0.4055954617
 40
0.4381000183
 40
0.4717780668
 40
0.5065509589
 40
0.5423201463
 40
0.6163642909
 40
0.6928994824
 40
0.7707583211
 40
0.8487099295
 40
0.9255175212
 40
1.0
 40
1.0
 40
1.0
 40
1.0
 10
22.4679296517
 20
22.7747381596
 30
0.0
 10
22.8923320262
 20
22.6989359418
 30
0.0
 10
23.5312857261
 20
22.6450571155
 30
0.0
 10
24.3619287876
 20
22.7207027271
 30
0.0
 10
24.9450115983
 20
22.8469830205
 30
0.0
 10
25.4955460642
 20
23.0434409167
 30
0.0
 10
26.0101141206
 20
23.3087481346
 30
0.0
 10
26.4851294418
 20
23.6414194289
 30
0.0
 10
26.9176355232
 20
24.039000867
 30
0.0
 10
27.3048205379
 20
24.4989330653
 30
0.0
 10
27.6446010954
 20
25.0180241556
 30
0.0
 10
27.9349185372
 20
25.5930664938
 30
0.0
 10
28.1744177494
 20
26.2204114439
 30
0.0
 10
28.3616638692
 20
26.8963379079
 30
0.0
 10
28.4958722418
 20
27.6167790424
 30
0.0
 10
28.5761708316
 20
28.3775029444
 30
0.0
 10
28.6023302083
 20
29.1740106082
 30
0.0
 10
28.5740762845
 20
30.001600284
 30
0.0
 10
28.4917650854
 20
30.8553874298
 30
0.0
 10
28.3557568841
 20
31.7303177022
 30
0.0
 10
28.1011501991
 20
32.9318573921
 30
0.0
 10
27.6520462485
 20
34.4521160761
 30
0.0
 10
26.9275883124
 20
36.2543324091
 30
0.0
 10
26.028284868
 20
38.0133138584
 30
0.0
 10
24.9753102399
 20
39.6875904101
 30
0.0
 10
23.7936045181
 20
41.2376135518
 30
0.0
 10
22.9205009512
 20
42.1832888829
 30
0.0
 10
22.4679091867
 20
42.6250478983
 30
0.0
  0
SPLINE
  5
520
100
AcDbEntity
  8
0
100
AcDbSpline
 62
7
  6
BYLAYER
 70
0
 71
3
 72
18
 73
14
 74
0
 42
0.0000001
 43
0.0000001
 44
0.0000000001
 40
0.0
 40
0.0
 40
0.0
 40
0.0
 40
0.1203978335
 40
0.1822934946
 40
0.2450315068
 40
0.3725200332
 40
0.5016847993
 40
0.6307854966
 40
0.694761414
 40
0.7580158128
 40
0.8203548517
 40
0.8816317056
 40
1.0
 40
1.0
 40
1.0
 40
1.0
 10
22.4665424471
 20
42.6246118554
 30
0.0
 10
22.4894429412
 20
42.7212777067
 30
0.0
 10
22.513589738
 20
42.8704081554
 30
0.0
 10
22.5246710772
 20
43.0724058632
 30
0.0
 10
22.5209944012
 20
43.2805673652
 30
0.0
 10
22.4891710637
 20
43.5430115843
 30
0.0
 10
22.410490007
 20
43.8522964782
 30
0.0
 10
22.31130964
 20
44.0999128424
 30
0.0
 10
22.2135767096
 20
44.2876229414
 30
0.0
 10
22.132061703
 20
44.4212667542
 30
0.0
 10
22.0424556184
 20
44.5469398154
 30
0.0
 10
21.9141246483
 20
44.7000836011
 30
0.0
 10
21.8057756314
 20
44.8023809872
 30
0.0
 10
21.7297216705
 20
44.8636558262
 30
0.0
  0
SPLINE
  5
521
100
AcDbEntity
  8
0
100
AcDbSpline
 62
7
  6
BYLAYER
 70
0
 71
3
 72
9
 73
5
 74
0
 42
0.0000001
 43
0.0000001
 44
0.0000000001
 40
0.0
 40
0.0
 40
0.0
 40
0.0
 40
0.5175560934
 40
1.0
 40
1.0
 40
1.0
 40
1.0
 10
37.2651799967
 20
35.7909237579
 30
0.0
 10
37.2651799967
 20
35.4258738147
 30
0.0
 10
37.2276890009
 20
34.7198097018
 30
0.0
 10
37.1018430525
 20
34.0232246866
 30
0.0
 10
37.016304727
 20
33.6938670112
 30
0.0
  0
SPLINE
  5
522
100
AcDbEntity
  8
0
100
AcDbSpline
 62
7
  6
BYLAYER
 70
0
 71
3
 72
18
 73
14
 74
0
 42
0.0000001
 43
0.0000001
 44
0.0000000001
 40
0.0
 40
0.0
 40
0.0
 40
0.0
 40
0.1181763824
 40
0.1794217391
 40
0.2418137197
 40
0.3051316558
 40
0.3691647743
 40
0.4984367786
 40
0.627831679
 40
0.7555684806
 40
0.8183568543
 40
0.8801415868
 40
1.0
 40
1.0
 40
1.0
 40
1.0
 10
21.7297216705
 20
44.8636558262
 30
0.0
 10
21.8054748788
 20
44.802611551
 30
0.0
 10
21.9117855651
 20
44.6987596324
 30
0.0
 10
22.0380123556
 20
44.5447355057
 30
0.0
 10
22.127122976
 20
44.4190720912
 30
0.0
 10
22.2084921706
 20
44.2855856734
 30
0.0
 10
22.3056399538
 20
44.09781971
 30
0.0
 10
22.4035008511
 20
43.8499446596
 30
0.0
 10
22.4819631448
 20
43.5408147912
 30
0.0
 10
22.5133268797
 20
43.2785055908
 30
0.0
 10
22.517912779
 20
43.0707111107
 30
0.0
 10
22.5095301919
 20
42.8695848568
 30
0.0
 10
22.4883297257
 20
42.7208491538
 30
0.0
 10
22.4665424471
 20
42.6246118554
 30
0.0
  0
SPLINE
  5
523
100
AcDbEntity
  8
0
100
AcDbSpline
 62
7
  6
BYLAYER
 70
0
 71
3
 72
11
 73
7
 74
0
 42
0.0000001
 43
0.0000001
 44
0.0000000001
 40
0.0
 40
0.0
 40
0.0
 40
0.0
 40
0.2469627731
 40
0.4911063767
 40
0.7403634734
 40
1.0
 40
1.0
 40
1.0
 40
1.0
 10
17.1316194551
 20
47.0453143105
 30
0.0
 10
17.1842881367
 20
47.0757232708
 30
0.0
 10
17.2957091224
 20
47.1255642529
 30
0.0
 10
17.4760611641
 20
47.1612541627
 30
0.0
 10
17.6627849862
 20
47.1560362078
 30
0.0
 10
17.7857392219
 20
47.1269142115
 30
0.0
 10
17.8461064419
 20
47.1058462916
 30
0.0
  0
SPLINE
  5
524
100
AcDbEntity
  8
0
100
AcDbSpline
 62
7
  6
BYLAYER
 70
0
 71
3
 72
12
 73
8
 74
0
 42
0.0000001
 43
0.0000001
 44
0.0000000001
 40
0.0
 40
0.0
 40
0.0
 40
0.0
 40
0.258571288
 40
0.3837750459
 40
0.5075728965
 40
0.7528638471
 40
1.0
 40
1.0
 40
1.0
 40
1.0
 10
17.8461064419
 20
47.1058462916
 30
0.0
 10
17.786395474
 20
47.1266897689
 30
0.0
 10
17.6946879891
 20
47.1502012045
 30
0.0
 10
17.5707815891
 20
47.1609530248
 30
0.0
 10
17.4496948205
 20
47.157695475
 30
0.0
 10
17.300533545
 20
47.1282073672
 30
0.0
 10
17.1895126992
 20
47.0787396551
 30
0.0
 10
17.1371639844
 20
47.0485154269
 30
0.0
  0
SPLINE
  5
525
100
AcDbEntity
  8
0
100
AcDbSpline
 62
7
  6
BYLAYER
 70
0
 71
3
 72
31
 73
27
 74
0
 42
0.0000001
 43
0.0000001
 44
0.0000000001
 40
0.0
 40
0.0
 40
0.0
 40
0.0
 40
0.021327401
 40
0.0428830846
 40
0.0648836595
 40
0.0875233395
 40
0.1109677564
 40
0.1353491387
 40
0.1607667185
 40
0.1872862395
 40
0.2149441509
 40
0.2437483561
 40
0.273683624
 40
0.3047119733
 40
0.3367781267
 40
0.3698092248
 40
0.4383909909
 40
0.5096613291
 40
0.5826690183
 40
0.6563837312
 40
0.7297439925
 40
0.8017040055
 40
0.8712803174
 40
0.9376037577
 40
0.969339597
 40
1.0
 40
1.0
 40
1.0
 40
1.0
 10
26.9174895324
 20
22.2415815582
 30
0.0
 10
27.0925590013
 20
22.3426678898
 30
0.0
 10
27.431946378
 20
22.5687254383
 30
0.0
 10
27.8977414773
 20
22.9726550044
 30
0.0
 10
28.3189442067
 20
23.4397778355
 30
0.0
 10
28.6932001985
 20
23.9672154492
 30
0.0
 10
29.0186045182
 20
24.5519286987
 30
0.0
 10
29.2935869489
 20
25.1905977239
 30
0.0
 10
29.5167809884
 20
25.879724531
 30
0.0
 10
29.687175794
 20
26.6155638374
 30
0.0
 10
29.8039017052
 20
27.3941736908
 30
0.0
 10
29.8664752131
 20
28.2113831106
 30
0.0
 10
29.8745426884
 20
29.06282334
 30
0.0
 10
29.8281695225
 20
29.9439368814
 30
0.0
 10
29.7275555807
 20
30.8500138653
 30
0.0
 10
29.5192976375
 20
32.1004223382
 30
0.0
 10
29.1242581433
 20
33.6938285889
 30
0.0
 10
28.4571068605
 20
35.6007840808
 30
0.0
 10
27.6050442857
 20
37.4860753586
 30
0.0
 10
26.5862945727
 20
39.3093685108
 30
0.0
 10
25.4225858031
 20
41.0318032649
 30
0.0
 10
24.1386866113
 20
42.6166852457
 30
0.0
 10
22.7620310351
 20
44.0301278154
 30
0.0
 10
21.5437865237
 20
45.0553890367
 30
0.0
 10
20.5469384419
 20
45.7598773608
 30
0.0
 10
20.0442150825
 20
46.0723034228
 30
0.0
 10
19.792526533
 20
46.2176125873
 30
0.0
  0
SPLINE
  5
526
100
AcDbEntity
  8
0
100
AcDbSpline
 62
7
  6
BYLAYER
 70
0
 71
3
 72
9
 73
5
 74
0
 42
0.0000001
 43
0.0000001
 44
0.0000000001
 40
0.0
 40
0.0
 40
0.0
 40
0.0
 40
0.5077192145
 40
1.0
 40
1.0
 40
1.0
 40
1.0
 10
45.3785471153
 20
44.7793511979
 30
0.0
 10
45.4711291229
 20
45.3466118535
 30
0.0
 10
45.6775737721
 20
46.4600187753
 30
0.0
 10
45.9209729888
 20
47.5657729411
 30
0.0
 10
46.0483899725
 20
48.1083002617
 30
0.0
  0
SPLINE
  5
527
100
AcDbEntity
  8
0
100
AcDbSpline
 62
7
  6
BYLAYER
 70
0
 71
3
 72
9
 73
5
 74
0
 42
0.0000001
 43
0.0000001
 44
0.0000000001
 40
0.0
 40
0.0
 40
0.0
 40
0.0
 40
0.2436255374
 40
1.0
 40
1.0
 40
1.0
 40
1.0
 10
22.4509200305
 20
42.4465554656
 30
0.0
 10
22.4529748154
 20
42.4608857685
 30
0.0
 10
22.4604513094
 20
42.5198421753
 30
0.0
 10
22.4641872061
 20
42.5792562028
 30
0.0
 10
22.465164652
 20
42.6241913278
 30
0.0
  0
SPLINE
  5
528
100
AcDbEntity
  8
0
100
AcDbSpline
 62
7
  6
BYLAYER
 70
0
 71
3
 72
9
 73
5
 74
0
 42
0.0000001
 43
0.0000001
 44
0.0000000001
 40
0.0
 40
0.0
 40
0.0
 40
0.0
 40
0.4901286846
 40
1.0
 40
1.0
 40
1.0
 40
1.0
 10
10.4470374998
 20
39.285369072
 30
0.0
 10
10.7793098458
 20
39.0583377818
 30
0.0
 10
11.4384530328
 20
38.5672072881
 30
0.0
 10
12.0595720098
 20
38.02906579
 30
0.0
 10
12.3665759239
 20
37.7444499382
 30
0.0
  0
SPLINE
  5
529
100
AcDbEntity
  8
0
100
AcDbSpline
 62
7
  6
BYLAYER
 70
0
 71
3
 72
9
 73
5
 74
0
 42
0.0000001
 43
0.0000001
 44
0.0000000001
 40
0.0
 40
0.0
 40
0.0
 40
0.0
 40
0.5091105627
 40
1.0
 40
1.0
 40
1.0
 40
1.0
 10
12.5012408097
 20
38.2286446767
 30
0.0
 10
12.216176797
 20
38.4856810932
 30
0.0
 10
11.640438084
 20
38.9733483035
 30
0.0
 10
11.0330734071
 20
39.4212249085
 30
0.0
 10
10.7272524618
 20
39.6296610381
 30
0.0
  0
SPLINE
  5
52A
100
AcDbEntity
  8
0
100
AcDbSpline
 62
7
  6
BYLAYER
 70
0
 71
3
 72
9
 73
5
 74
0
 42
0.0000001
 43
0.0000001
 44
0.0000000001
 40
0.0
 40
0.0
 40
0.0
 40
0.0
 40
0.4901975014
 40
1.0
 40
1.0
 40
1.0
 40
1.0
 10
17.0335933346
 20
46.6278660143
 30
0.0
 10
17.2786709562
 20
46.5421365445
 30
0.0
 10
17.7712654463
 20
46.3457417413
 30
0.0
 10
18.2479503502
 20
46.1138274093
 30
0.0
 10
18.4869275415
 20
45.9881193307
 30
0.0
  0
SPLINE
  5
52B
100
AcDbEntity
  8
0
100
AcDbSpline
 62
7
  6
BYLAYER
 70
0
 71
3
 72
9
 73
5
 74
0
 42
0.0000001
 43
0.0000001
 44
0.0000000001
 40
0.0
 40
0.0
 40
0.0
 40
0.0
 40
0.2384653665
 40
1.0
 40
1.0
 40
1.0
 40
1.0
 10
6.5583703264
 20
40.6740941637
 30
0.0
 10
6.7261881628
 20
40.6403192469
 30
0.0
 10
7.4250092783
 20
40.4744457928
 30
0.0
 10
8.1007020493
 20
40.2174176441
 30
0.0
 10
8.5957135824
 20
39.9854460564
 30
0.0
  0
SPLINE
  5
52C
100
AcDbEntity
  8
0
100
AcDbSpline
 62
7
  6
BYLAYER
 70
0
 71
3
 72
9
 73
5
 74
0
 42
0.0000001
 43
0.0000001
 44
0.0000000001
 40
0.0
 40
0.0
 40
0.0
 40
0.0
 40
0.259946236
 40
1.0
 40
1.0
 40
1.0
 40
1.0
 10
8.9594781392
 20
40.6501586447
 30
0.0
 10
8.811414179
 20
40.7201918367
 30
0.0
 10
8.2361568224
 20
40.9772509893
 30
0.0
 10
7.6372497306
 20
41.1830868225
 30
0.0
 10
7.1851686079
 20
41.2973823275
 30
0.0
  0
SPLINE
  5
52D
100
AcDbEntity
  8
0
100
AcDbSpline
 62
7
  6
BYLAYER
 70
0
 71
3
 72
9
 73
5
 74
0
 42
0.0000001
 43
0.0000001
 44
0.0000000001
 40
0.0
 40
0.0
 40
0.0
 40
0.0
 40
0.2394166179
 40
1.0
 40
1.0
 40
1.0
 40
1.0
 10
6.7595346284
 20
40.9811813625
 30
0.0
 10
6.9180786907
 20
40.9451229928
 30
0.0
 10
7.5756099773
 20
40.7741169383
 30
0.0
 10
8.2120409831
 20
40.526057797
 30
0.0
 10
8.6792798039
 20
40.3058553699
 30
0.0
  0
SPLINE
  5
52E
100
AcDbEntity
  8
0
100
AcDbSpline
 62
7
  6
BYLAYER
 70
0
 71
3
 72
28
 73
24
 74
0
 42
0.0000001
 43
0.0000001
 44
0.0000000001
 40
0.0
 40
0.0
 40
0.0
 40
0.0
 40
0.1267058461
 40
0.2532280869
 40
0.3795229543
 40
0.4425657316
 40
0.5055241048
 40
0.5683829185
 40
0.6311216064
 40
0.6937110362
 40
0.7561074027
 40
0.7872127219
 40
0.8182395139
 40
0.849169201
 40
0.8799742855
 40
0.9106109036
 40
0.9258442062
 40
0.941001514
 40
0.956059082
 40
0.9709774606
 40
0.9856815949
 40
0.9929086455
 40
1.0
 40
1.0
 40
1.0
 40
1.0
 10
12.5012023301
 20
38.2286665163
 30
0.0
 10
12.8659349103
 20
38.4683886772
 30
0.0
 10
13.5940008596
 20
38.948812348
 30
0.0
 10
14.6822016031
 20
39.6733394041
 30
0.0
 10
15.5847296282
 20
40.2810160107
 30
0.0
 10
16.3032079277
 20
40.7699775794
 30
0.0
 10
16.8396206668
 20
41.1380688074
 30
0.0
 10
17.3734989078
 20
41.5079915695
 30
0.0
 10
17.9043098747
 20
41.8800953094
 30
0.0
 10
18.4312894286
 20
42.2548661544
 30
0.0
 10
18.8667394101
 20
42.5702965188
 30
0.0
 10
19.2118536975
 20
42.825059772
 30
0.0
 10
19.4683659744
 20
43.017326818
 30
0.0
 10
19.7223098243
 20
43.211278397
 30
0.0
 10
19.9729155916
 20
43.4073543494
 30
0.0
 10
20.1783573084
 20
43.5733748689
 30
0.0
 10
20.3395152834
 20
43.7083654956
 30
0.0
 10
20.4580018834
 20
43.8106982156
 30
0.0
 10
20.5736236256
 20
43.9146596228
 30
0.0
 10
20.6850825296
 20
44.0208135416
 30
0.0
 10
20.7731637173
 20
44.1123691828
 30
0.0
 10
20.8376485927
 20
44.1887962215
 30
0.0
 10
20.8668110772
 20
44.2287053257
 30
0.0
 10
20.8798362335
 20
44.2493702739
 30
0.0
  0
SPLINE
  5
52F
100
AcDbEntity
  8
0
100
AcDbSpline
 62
7
  6
BYLAYER
 70
0
 71
3
 72
14
 73
10
 74
0
 42
0.0000001
 43
0.0000001
 44
0.0000000001
 40
0.0
 40
0.0
 40
0.0
 40
0.0
 40
0.248988043
 40
0.4932756491
 40
0.6139443659
 40
0.734688466
 40
0.8595576454
 40
0.9268804499
 40
1.0
 40
1.0
 40
1.0
 40
1.0
 10
20.8798362335
 20
44.2493702739
 30
0.0
 10
20.8863422819
 20
44.2596923883
 30
0.0
 10
20.8985029649
 20
44.2806069035
 30
0.0
 10
20.9106433191
 20
44.3083011303
 30
0.0
 10
20.9165098894
 20
44.3314444437
 30
0.0
 10
20.917922449
 20
44.349452557
 30
0.0
 10
20.9149465125
 20
44.3648338513
 30
0.0
 10
20.9086188651
 20
44.3763365834
 30
0.0
 10
20.9038130539
 20
44.3813585911
 30
0.0
 10
20.9011505749
 20
44.3837565483
 30
0.0
  0
SPLINE
  5
530
100
AcDbEntity
  8
0
100
AcDbSpline
 62
7
  6
BYLAYER
 70
0
 71
3
 72
9
 73
5
 74
0
 42
0.0000001
 43
0.0000001
 44
0.0000000001
 40
0.0
 40
0.0
 40
0.0
 40
0.0
 40
0.4673138271
 40
1.0
 40
1.0
 40
1.0
 40
1.0
 10
17.0237419156
 20
46.6309571328
 30
0.0
 10
17.0187348126
 20
46.6325512696
 30
0.0
 10
17.007519247
 20
46.6343089513
 30
0.0
 10
16.9962657859
 20
46.634461115
 30
0.0
 10
16.9902794313
 20
46.6342571016
 30
0.0
  0
SPLINE
  5
531
100
AcDbEntity
  8
0
100
AcDbSpline
 62
7
  6
BYLAYER
 70
0
 71
3
 72
9
 73
5
 74
0
 42
0.0000001
 43
0.0000001
 44
0.0000000001
 40
0.0
 40
0.0
 40
0.0
 40
0.0
 40
0.5005602029
 40
1.0
 40
1.0
 40
1.0
 40
1.0
 10
16.9902794313
 20
46.6342571016
 30
0.0
 10
16.9741727345
 20
46.6337081897
 30
0.0
 10
16.9422022868
 20
46.6285109333
 30
0.0
 10
16.911004024
 20
46.62063227
 30
0.0
 10
16.8955215926
 20
46.6162894703
 30
0.0
  0
SPLINE
  5
532
100
AcDbEntity
  8
0
100
AcDbSpline
 62
7
  6
BYLAYER
 70
0
 71
3
 72
26
 73
22
 74
0
 42
0.0000001
 43
0.0000001
 44
0.0000000001
 40
0.0
 40
0.0
 40
0.0
 40
0.0
 40
0.0088054605
 40
0.0174492047
 40
0.0343923954
 40
0.0510389403
 40
0.067491859
 40
0.1000041572
 40
0.1321666066
 40
0.1640811803
 40
0.1958148056
 40
0.2274081991
 40
0.2588848358
 40
0.3215675407
 40
0.3839579492
 40
0.4461277162
 40
0.5081220006
 40
0.6316705871
 40
0.7547652542
 40
0.8775258474
 40
1.0
 40
1.0
 40
1.0
 40
1.0
 10
16.8955215926
 20
46.6162894703
 30
0.0
 10
16.8704413566
 20
46.6092545002
 30
0.0
 10
16.8212503261
 20
46.5935108371
 30
0.0
 10
16.7255365628
 20
46.5589943912
 30
0.0
 10
16.6096918303
 20
46.5121097898
 30
0.0
 10
16.4739236143
 20
46.4530943958
 30
0.0
 10
16.2972576391
 20
46.372695886
 30
0.0
 10
16.0806356276
 20
46.269362029
 30
0.0
 10
15.8245006836
 20
46.1427162583
 30
0.0
 10
15.5717356028
 20
46.0144889338
 30
0.0
 10
15.3214225274
 20
45.8851706445
 30
0.0
 10
15.0730094383
 20
45.7550083571
 30
0.0
 10
14.7443379794
 20
45.5807671194
 30
0.0
 10
14.3364345121
 20
45.3614878814
 30
0.0
 10
13.8501111321
 20
45.0963525085
 30
0.0
 10
13.3667590583
 20
44.8300343987
 30
0.0
 10
12.7262315705
 20
44.4740939039
 30
0.0
 10
11.9302001283
 20
44.02696321
 30
0.0
 10
10.9798146022
 20
43.487602453
 30
0.0
 10
10.0340387101
 20
42.946573
 30
0.0
 10
9.4053563555
 20
42.5845810823
 30
0.0
 10
9.0915936386
 20
42.4034309494
 30
0.0
  0
LINE
  5
533
100
AcDbEntity
  8
0
100
AcDbLine
 62
7
  6
BYLAYER
 10
8.9777781056
 20
40.6612796615
 11
16.8552640718
 21
45.4484649614
  0
SPLINE
  5
534
100
AcDbEntity
  8
0
100
AcDbSpline
 62
7
  6
BYLAYER
 70
0
 71
3
 72
9
 73
5
 74
0
 42
0.0000001
 43
0.0000001
 44
0.0000000001
 40
0.0
 40
0.0
 40
0.0
 40
0.0
 40
0.2418004016
 40
1.0
 40
1.0
 40
1.0
 40
1.0
 10
8.7146283035
 20
40.2891207685
 30
0.0
 10
8.8573394815
 20
40.2212538679
 30
0.0
 10
9.4415942318
 20
39.9281399723
 30
0.0
 10
10.001744009
 20
39.5877985917
 30
0.0
 10
10.4116889881
 20
39.3094462143
 30
0.0
  0
SPLINE
  5
535
100
AcDbEntity
  8
0
100
AcDbSpline
 62
7
  6
BYLAYER
 70
0
 71
3
 72
9
 73
5
 74
0
 42
0.0000001
 43
0.0000001
 44
0.0000000001
 40
0.0
 40
0.0
 40
0.0
 40
0.0
 40
0.2581210556
 40
1.0
 40
1.0
 40
1.0
 40
1.0
 10
10.6918439455
 20
39.6537196194
 30
0.0
 10
10.5521856871
 20
39.7483175598
 30
0.0
 10
10.0049516557
 20
40.1055168346
 30
0.0
 10
9.4323820838
 20
40.424564937
 30
0.0
 10
8.9948336257
 20
40.6333614336
 30
0.0
  0
SPLINE
  5
536
100
AcDbEntity
  8
0
100
AcDbSpline
 62
7
  6
BYLAYER
 70
0
 71
3
 72
9
 73
5
 74
0
 42
0.0000001
 43
0.0000001
 44
0.0000000001
 40
0.0
 40
0.0
 40
0.0
 40
0.0
 40
0.488751482
 40
1.0
 40
1.0
 40
1.0
 40
1.0
 10
8.6310690499
 20
39.9688003421
 30
0.0
 10
8.9198762425
 20
39.8321942315
 30
0.0
 10
9.4987445214
 20
39.5267431682
 30
0.0
 10
10.0519798018
 20
39.1773384227
 30
0.0
 10
10.3281321016
 20
38.9891269727
 30
0.0
  0
SPLINE
  5
537
100
AcDbEntity
  8
0
100
AcDbSpline
 62
7
  6
BYLAYER
 70
0
 71
3
 72
9
 73
5
 74
0
 42
0.0000001
 43
0.0000001
 44
0.0000000001
 40
0.0
 40
0.0
 40
0.0
 40
0.0
 40
0.237842621
 40
1.0
 40
1.0
 40
1.0
 40
1.0
 10
10.6918318
 20
39.6536441012
 30
0.0
 10
10.6824196201
 20
39.6477711264
 30
0.0
 10
10.6436962104
 20
39.6217244282
 30
0.0
 10
10.6082788411
 20
39.5909081547
 30
0.0
 10
10.5832200104
 20
39.5656906916
 30
0.0
  0
SPLINE
  5
538
100
AcDbEntity
  8
0
100
AcDbSpline
 62
7
  6
BYLAYER
 70
0
 71
3
 72
9
 73
5
 74
0
 42
0.0000001
 43
0.0000001
 44
0.0000000001
 40
0.0
 40
0.0
 40
0.0
 40
0.0
 40
0.4939867794
 40
1.0
 40
1.0
 40
1.0
 40
1.0
 10
10.5832200104
 20
39.5656906916
 30
0.0
 10
10.5472913539
 20
39.5295345924
 30
0.0
 10
10.4821223731
 20
39.4486218278
 30
0.0
 10
10.4324052814
 20
39.3575051296
 30
0.0
 10
10.4117282555
 20
39.3095610062
 30
0.0
  0
SPLINE
  5
539
100
AcDbEntity
  8
0
100
AcDbSpline
 62
7
  6
BYLAYER
 70
0
 71
3
 72
11
 73
7
 74
0
 42
0.0000001
 43
0.0000001
 44
0.0000000001
 40
0.0
 40
0.0
 40
0.0
 40
0.0
 40
0.2222933977
 40
0.4575783471
 40
0.7150683229
 40
1.0
 40
1.0
 40
1.0
 40
1.0
 10
8.8085531054
 20
26.8552528924
 30
0.0
 10
8.8437949314
 20
26.8756682687
 30
0.0
 10
8.9100834109
 20
26.9294108336
 30
0.0
 10
8.9848232342
 20
27.0388475417
 30
0.0
 10
9.0344780393
 20
27.1736451805
 30
0.0
 10
9.049675751
 20
27.2724806482
 30
0.0
 10
9.0536149041
 20
27.3245362981
 30
0.0
  0
SPLINE
  5
53A
100
AcDbEntity
  8
0
100
AcDbSpline
 62
7
  6
BYLAYER
 70
0
 71
3
 72
19
 73
15
 74
0
 42
0.0000001
 43
0.0000001
 44
0.0000000001
 40
0.0
 40
0.0
 40
0.0
 40
0.0
 40
0.0146834285
 40
0.0294309168
 40
0.0442098642
 40
0.0590169017
 40
0.0887264921
 40
0.1185578579
 40
0.1785833919
 40
0.2390880699
 40
0.3615079644
 40
0.4857697175
 40
0.7395705046
 40
1.0
 40
1.0
 40
1.0
 40
1.0
 10
9.0571746254
 20
27.4046458543
 30
0.0
 10
9.0571739153
 20
27.461783441
 30
0.0
 10
9.0564423958
 20
27.5763079884
 30
0.0
 10
9.0577923698
 20
27.7483394168
 30
0.0
 10
9.0593242007
 20
27.920846742
 30
0.0
 10
9.0622366006
 20
28.1515658724
 30
0.0
 10
9.0675344046
 20
28.4408302747
 30
0.0
 10
9.0793017393
 20
28.9059531647
 30
0.0
 10
9.1003143052
 20
29.4906992799
 30
0.0
 10
9.1473231094
 20
30.4349444141
 30
0.0
 10
9.2312264726
 20
31.6275120718
 30
0.0
 10
9.4191307922
 20
33.5661402478
 30
0.0
 10
9.7544504958
 20
36.0290735622
 30
0.0
 10
10.1201857867
 20
37.997250296
 30
0.0
 10
10.3280637116
 20
38.9891090491
 30
0.0
  0
SPLINE
  5
53B
100
AcDbEntity
  8
0
100
AcDbSpline
 62
7
  6
BYLAYER
 70
0
 71
3
 72
11
 73
7
 74
0
 42
0.0000001
 43
0.0000001
 44
0.0000000001
 40
0.0
 40
0.0
 40
0.0
 40
0.0
 40
0.2306991429
 40
0.4731018326
 40
0.7292007001
 40
1.0
 40
1.0
 40
1.0
 40
1.0
 10
36.734201836
 20
31.9057782149
 30
0.0
 10
36.8698569521
 20
32.0840658055
 30
0.0
 10
37.1199202478
 20
32.4717807506
 30
0.0
 10
37.4183216637
 20
33.1160851604
 30
0.0
 10
37.6459986252
 20
33.8293908465
 30
0.0
 10
37.7466625096
 20
34.3321705186
 30
0.0
 10
37.7857372716
 20
34.5922204251
 30
0.0
  0
LINE
  5
53C
100
AcDbEntity
  8
0
100
AcDbLine
 62
7
  6
BYLAYER
 10
10.7388296397
 20
39.6822045014
 11
18.5876830759
 21
44.4519130491
  0
SPLINE
  5
53D
100
AcDbEntity
  8
0
100
AcDbSpline
 62
7
  6
BYLAYER
 70
0
 71
3
 72
9
 73
5
 74
0
 42
0.0000001
 43
0.0000001
 44
0.0000000001
 40
0.0
 40
0.0
 40
0.0
 40
0.0
 40
0.2600332569
 40
1.0
 40
1.0
 40
1.0
 40
1.0
 10
37.3557849413
 20
34.8404479031
 30
0.0
 10
37.337047752
 20
34.7232658268
 30
0.0
 10
37.2543738666
 20
34.2744663506
 30
0.0
 10
37.1276833611
 20
33.8331497383
 30
0.0
 10
37.0052104597
 20
33.5184445837
 30
0.0
  0
SPLINE
  5
53E
100
AcDbEntity
  8
0
100
AcDbSpline
 62
7
  6
BYLAYER
 70
0
 71
3
 72
9
 73
5
 74
0
 42
0.0000001
 43
0.0000001
 44
0.0000000001
 40
0.0
 40
0.0
 40
0.0
 40
0.0
 40
0.4894321715
 40
1.0
 40
1.0
 40
1.0
 40
1.0
 10
10.3634875711
 20
38.9649530143
 30
0.0
 10
10.7176135735
 20
38.7220467121
 30
0.0
 10
11.4192380185
 20
38.1932622985
 30
0.0
 10
12.0764783518
 20
37.6105920431
 30
0.0
 10
12.4007303252
 20
37.3014961429
 30
0.0
  0
SPLINE
  5
53F
100
AcDbEntity
  8
0
100
AcDbSpline
 62
7
  6
BYLAYER
 70
0
 71
3
 72
13
 73
9
 74
0
 42
0.0000001
 43
0.0000001
 44
0.0000000001
 40
0.0
 40
0.0
 40
0.0
 40
0.0
 40
0.1115370683
 40
0.2277174665
 40
0.3488263774
 40
0.4741209338
 40
0.733526413
 40
1.0
 40
1.0
 40
1.0
 40
1.0
 10
12.5012023301
 20
38.2286665163
 30
0.0
 10
12.4853952864
 20
38.2175657965
 30
0.0
 10
12.4565657759
 20
38.1897371225
 30
0.0
 10
12.4248093791
 20
38.1378569037
 30
0.0
 10
12.4018327386
 20
38.079176543
 30
0.0
 10
12.3802590803
 20
37.9941252702
 30
0.0
 10
12.3670657819
 20
37.881732918
 30
0.0
 10
12.3655995808
 20
37.7905863392
 30
0.0
 10
12.3665759239
 20
37.7444499382
 30
0.0
  0
SPLINE
  5
540
100
AcDbEntity
  8
0
100
AcDbSpline
 62
7
  6
BYLAYER
 70
0
 71
3
 72
9
 73
5
 74
0
 42
0.0000001
 43
0.0000001
 44
0.0000000001
 40
0.0
 40
0.0
 40
0.0
 40
0.0
 40
0.2529080028
 40
1.0
 40
1.0
 40
1.0
 40
1.0
 10
12.3665759239
 20
37.7444499382
 30
0.0
 10
12.3710145915
 20
37.7072549466
 30
0.0
 10
12.3868421916
 20
37.5599814309
 30
0.0
 10
12.3964181801
 20
37.4120659395
 30
0.0
 10
12.4007303252
 20
37.3014961429
 30
0.0
  0
SPLINE
  5
541
100
AcDbEntity
  8
0
100
AcDbSpline
 62
7
  6
BYLAYER
 70
0
 71
3
 72
9
 73
5
 74
0
 42
0.0000001
 43
0.0000001
 44
0.0000000001
 40
0.0
 40
0.0
 40
0.0
 40
0.0
 40
0.2600371244
 40
1.0
 40
1.0
 40
1.0
 40
1.0
 10
12.4007303252
 20
37.3014961429
 30
0.0
 10
12.4025339062
 20
37.2386894293
 30
0.0
 10
12.3997501275
 20
36.9970868434
 30
0.0
 10
12.3571061113
 20
36.7551101423
 30
0.0
 10
12.2996986993
 20
36.5857800815
 30
0.0
  0
SPLINE
  5
542
100
AcDbEntity
  8
0
100
AcDbSpline
 62
7
  6
BYLAYER
 70
0
 71
3
 72
13
 73
9
 74
0
 42
0.0000001
 43
0.0000001
 44
0.0000000001
 40
0.0
 40
0.0
 40
0.0
 40
0.0
 40
0.2217376044
 40
0.3399218704
 40
0.4629471826
 40
0.5907079705
 40
0.7230006121
 40
1.0
 40
1.0
 40
1.0
 40
1.0
 10
12.4010386958
 20
16.5832788836
 30
0.0
 10
11.9379754402
 20
16.6765269366
 30
0.0
 10
11.2404982955
 20
16.8870056772
 30
0.0
 10
10.333886173
 20
17.2761284074
 30
0.0
 10
9.6346471942
 20
17.6366434931
 30
0.0
 10
8.9348028276
 20
18.0574082351
 30
0.0
 10
7.9914891099
 20
18.7056511419
 30
0.0
 10
7.316410486
 20
19.2609802337
 30
0.0
 10
6.8796342545
 20
19.657744345
 30
0.0
  0
SPLINE
  5
543
100
AcDbEntity
  8
0
100
AcDbSpline
 62
7
  6
BYLAYER
 70
0
 71
3
 72
13
 73
9
 74
0
 42
0.0000001
 43
0.0000001
 44
0.0000000001
 40
0.0
 40
0.0
 40
0.0
 40
0.0
 40
0.2225103431
 40
0.340944005
 40
0.4640635575
 40
0.59176907
 40
0.7238804705
 40
1.0
 40
1.0
 40
1.0
 40
1.0
 10
12.3672577516
 20
16.3726355877
 30
0.0
 10
11.8977555153
 20
16.4794501105
 30
0.0
 10
11.1921416677
 20
16.7088041473
 30
0.0
 10
10.2759356258
 20
17.1208157819
 30
0.0
 10
9.5705948399
 20
17.4977093733
 30
0.0
 10
8.8654614507
 20
17.9339457942
 30
0.0
 10
7.9164422798
 20
18.6013938429
 30
0.0
 10
7.2373409089
 20
19.1697352753
 30
0.0
 10
6.7980519485
 20
19.5747529527
 30
0.0
  0
SPLINE
  5
544
100
AcDbEntity
  8
0
100
AcDbSpline
 62
7
  6
BYLAYER
 70
0
 71
3
 72
10
 73
6
 74
0
 42
0.0000001
 43
0.0000001
 44
0.0000000001
 40
0.0
 40
0.0
 40
0.0
 40
0.0
 40
0.5413434083
 40
0.7811098167
 40
1.0
 40
1.0
 40
1.0
 40
1.0
 10
12.2999449138
 20
17.1058075456
 30
0.0
 10
12.3340332211
 20
17.0154309291
 30
0.0
 10
12.374897746
 20
16.8812110649
 30
0.0
 10
12.4006656567
 20
16.704384925
 30
0.0
 10
12.4028962869
 20
16.6222911533
 30
0.0
 10
12.4010386958
 20
16.5832788836
 30
0.0
  0
SPLINE
  5
545
100
AcDbEntity
  8
0
100
AcDbSpline
 62
7
  6
BYLAYER
 70
0
 71
3
 72
9
 73
5
 74
0
 42
0.0000001
 43
0.0000001
 44
0.0000000001
 40
0.0
 40
0.0
 40
0.0
 40
0.0
 40
0.5516748341
 40
1.0
 40
1.0
 40
1.0
 40
1.0
 10
12.4010386958
 20
16.5832788836
 30
0.0
 10
12.398525002
 20
16.5440581965
 30
0.0
 10
12.391823498
 20
16.4730791286
 30
0.0
 10
12.377091897
 20
16.4030224429
 30
0.0
 10
12.3672577516
 20
16.3726355877
 30
0.0
  0
SPLINE
  5
546
100
AcDbEntity
  8
0
100
AcDbSpline
 62
7
  6
BYLAYER
 70
0
 71
3
 72
11
 73
7
 74
0
 42
0.0000001
 43
0.0000001
 44
0.0000000001
 40
0.0
 40
0.0
 40
0.0
 40
0.0
 40
0.253699502
 40
0.6296485701
 40
0.8154880351
 40
1.0
 40
1.0
 40
1.0
 40
1.0
 10
34.1516718076
 20
44.5958883259
 30
0.0
 10
34.0801028657
 20
44.6779253734
 30
0.0
 10
33.8780353596
 20
44.8608040978
 30
0.0
 10
33.5695585931
 20
45.0323923536
 30
0.0
 10
33.2723789265
 20
45.1518936496
 30
0.0
 10
33.1212207643
 20
45.2014257604
 30
0.0
 10
33.0453539685
 20
45.2240835728
 30
0.0
  0
SPLINE
  5
547
100
AcDbEntity
  8
0
100
AcDbSpline
 62
7
  6
BYLAYER
 70
0
 71
3
 72
11
 73
7
 74
0
 42
0.0000001
 43
0.0000001
 44
0.0000000001
 40
0.0
 40
0.0
 40
0.0
 40
0.0
 40
0.243502486
 40
0.489999973
 40
0.7414844968
 40
1.0
 40
1.0
 40
1.0
 40
1.0
 10
34.4435532666
 20
42.9151617636
 30
0.0
 10
34.4647850091
 20
43.0293128491
 30
0.0
 10
34.4990129849
 20
43.2607658491
 30
0.0
 10
34.5140712862
 20
43.61491161
 30
0.0
 10
34.4748866492
 20
43.9753125021
 30
0.0
 10
34.3950799547
 20
44.2083948324
 30
0.0
 10
34.3392871853
 20
44.3183131185
 30
0.0
  0
SPLINE
  5
548
100
AcDbEntity
  8
0
100
AcDbSpline
 62
7
  6
BYLAYER
 70
0
 71
3
 72
18
 73
14
 74
0
 42
0.0000001
 43
0.0000001
 44
0.0000000001
 40
0.0
 40
0.0
 40
0.0
 40
0.0
 40
0.0296308473
 40
0.0445033967
 40
0.0594053287
 40
0.0892829243
 40
0.1192704101
 40
0.1795665589
 40
0.240288218
 40
0.3629852767
 40
0.4873203496
 40
0.7406947479
 40
1.0
 40
1.0
 40
1.0
 40
1.0
 10
7.3367358237
 20
29.433528139
 30
0.0
 10
7.3390047667
 20
29.5386074588
 30
0.0
 10
7.3422469632
 20
29.6964347754
 30
0.0
 10
7.3486452603
 20
29.9070559812
 30
0.0
 10
7.3556639509
 20
30.1185318187
 30
0.0
 10
7.3655464232
 20
30.3835563437
 30
0.0
 10
7.3842726439
 20
30.8093719657
 30
0.0
 10
7.4127507244
 20
31.3442619399
 30
0.0
 10
7.4693712069
 20
32.2069058983
 30
0.0
 10
7.5607305821
 20
33.2948303504
 30
0.0
 10
7.750978423
 20
35.059738897
 30
0.0
 10
8.0710380468
 20
37.2973270084
 30
0.0
 10
8.4070270236
 20
39.085191228
 30
0.0
 10
8.5956432362
 20
39.985427865
 30
0.0
  0
SPLINE
  5
549
100
AcDbEntity
  8
0
100
AcDbSpline
 62
7
  6
BYLAYER
 70
0
 71
3
 72
9
 73
5
 74
0
 42
0.0000001
 43
0.0000001
 44
0.0000000001
 40
0.0
 40
0.0
 40
0.0
 40
0.0
 40
0.2379404136
 40
1.0
 40
1.0
 40
1.0
 40
1.0
 10
8.9595443931
 20
40.650198902
 30
0.0
 10
8.9501786364
 20
40.6443547507
 30
0.0
 10
8.911646982
 20
40.6184714941
 30
0.0
 10
8.8763617645
 20
40.587886672
 30
0.0
 10
8.8514118918
 20
40.5628347155
 30
0.0
  0
SPLINE
  5
54A
100
AcDbEntity
  8
0
100
AcDbSpline
 62
7
  6
BYLAYER
 70
0
 71
3
 72
9
 73
5
 74
0
 42
0.0000001
 43
0.0000001
 44
0.0000000001
 40
0.0
 40
0.0
 40
0.0
 40
0.0
 40
0.4939142235
 40
1.0
 40
1.0
 40
1.0
 40
1.0
 10
8.8514118918
 20
40.5628347155
 30
0.0
 10
8.8153860712
 20
40.5266614934
 30
0.0
 10
8.7501413043
 20
40.4455861586
 30
0.0
 10
8.7001438567
 20
40.3544179636
 30
0.0
 10
8.6794325492
 20
40.3063821052
 30
0.0
  0
SPLINE
  5
54B
100
AcDbEntity
  8
0
100
AcDbSpline
 62
7
  6
BYLAYER
 70
0
 71
3
 72
19
 73
15
 74
0
 42
0.0000001
 43
0.0000001
 44
0.0000000001
 40
0.0
 40
0.0
 40
0.0
 40
0.0
 40
0.062359566
 40
0.128783304
 40
0.2702967431
 40
0.41741406
 40
0.5617353734
 40
0.6953868981
 40
0.7563986847
 40
0.8128852953
 40
0.8648170787
 40
0.9126043147
 40
0.9572048681
 40
1.0
 40
1.0
 40
1.0
 40
1.0
 10
7.3250957539
 20
28.3437942936
 30
0.0
 10
7.3251659274
 20
28.2920095832
 30
0.0
 10
7.3323691906
 20
28.1850014039
 30
0.0
 10
7.3719559788
 20
27.9637171205
 30
0.0
 10
7.4673717516
 20
27.6827812135
 30
0.0
 10
7.6395348177
 20
27.3653283115
 30
0.0
 10
7.8580153494
 20
27.0859656181
 30
0.0
 10
8.0704819203
 20
26.897923063
 30
0.0
 10
8.2487691871
 20
26.7887559589
 30
0.0
 10
8.3779112272
 20
26.7316922103
 30
0.0
 10
8.5038503972
 20
26.6981363825
 30
0.0
 10
8.6241991347
 20
26.6891932566
 30
0.0
 10
8.7362456223
 20
26.7056042183
 30
0.0
 10
8.8041258286
 20
26.7337867042
 30
0.0
 10
8.834912076
 20
26.7515393912
 30
0.0
  0
SPLINE
  5
54C
100
AcDbEntity
  8
0
100
AcDbSpline
 62
7
  6
BYLAYER
 70
0
 71
3
 72
12
 73
8
 74
0
 42
0.0000001
 43
0.0000001
 44
0.0000000001
 40
0.0
 40
0.0
 40
0.0
 40
0.0
 40
0.2433090141
 40
0.3664200756
 40
0.4906226209
 40
0.7425920928
 40
1.0
 40
1.0
 40
1.0
 40
1.0
 10
10.706774585
 20
23.9071560657
 30
0.0
 10
10.6040321524
 20
24.9460564739
 30
0.0
 10
10.5403724483
 20
26.5214542956
 30
0.0
 10
10.6323774418
 20
28.6252943959
 30
0.0
 10
10.8441019118
 20
30.7581220988
 30
0.0
 10
11.3323199106
 20
33.4377830878
 30
0.0
 10
11.9424056452
 20
35.5407061646
 30
0.0
 10
12.2996986993
 20
36.5857800815
 30
0.0
  0
SPLINE
  5
54D
100
AcDbEntity
  8
0
100
AcDbSpline
 62
7
  6
BYLAYER
 70
0
 71
3
 72
15
 73
11
 74
0
 42
0.0000001
 43
0.0000001
 44
0.0000000001
 40
0.0
 40
0.0
 40
0.0
 40
0.0
 40
0.1214486069
 40
0.2471682263
 40
0.3755787184
 40
0.5050363353
 40
0.6338306024
 40
0.7602780637
 40
0.8828147347
 40
1.0
 40
1.0
 40
1.0
 40
1.0
 10
32.0647659937
 20
47.5707036532
 30
0.0
 10
32.4071597632
 20
47.2606599996
 30
0.0
 10
33.0733124893
 20
46.5951105397
 30
0.0
 10
33.9918468159
 20
45.499003604
 30
0.0
 10
34.8331270662
 20
44.305035288
 30
0.0
 10
35.5806828547
 20
43.0367489123
 30
0.0
 10
36.2198699391
 20
41.7188081434
 30
0.0
 10
36.7383249316
 20
40.3769074029
 30
0.0
 10
37.1257613154
 20
39.0373901552
 30
0.0
 10
37.2961669386
 20
38.1398957622
 30
0.0
 10
37.3557849413
 20
37.698206363
 30
0.0
  0
SPLINE
  5
54E
100
AcDbEntity
  8
0
100
AcDbSpline
 62
7
  6
BYLAYER
 70
0
 71
3
 72
15
 73
11
 74
0
 42
0.0000001
 43
0.0000001
 44
0.0000000001
 40
0.0
 40
0.0
 40
0.0
 40
0.0
 40
0.1160434479
 40
0.2369634246
 40
0.3617039405
 40
0.4891140549
 40
0.6179403491
 40
0.7468849316
 40
0.8746659588
 40
1.0
 40
1.0
 40
1.0
 40
1.0
 10
37.7857372716
 20
37.449978885
 30
0.0
 10
37.7337577399
 20
37.8559319012
 30
0.0
 10
37.5885447716
 20
38.6802566304
 30
0.0
 10
37.2626646482
 20
39.9149357752
 30
0.0
 10
36.8284591961
 20
41.1583478322
 30
0.0
 10
36.2925355261
 20
42.3917709559
 30
0.0
 10
35.6628429467
 20
43.5967764218
 30
0.0
 10
34.9488452116
 20
44.7553808759
 30
0.0
 10
34.1612623394
 20
45.8500743752
 30
0.0
 10
33.5875482663
 20
46.5353133321
 30
0.0
 10
33.2907569041
 20
46.8628934838
 30
0.0
  0
SPLINE
  5
54F
100
AcDbEntity
  8
0
100
AcDbSpline
 62
7
  6
BYLAYER
 70
0
 71
3
 72
9
 73
5
 74
0
 42
0.0000001
 43
0.0000001
 44
0.0000000001
 40
0.0
 40
0.0
 40
0.0
 40
0.0
 40
0.4977627185
 40
1.0
 40
1.0
 40
1.0
 40
1.0
 10
12.2999449138
 20
17.1058075456
 30
0.0
 10
11.8879006848
 20
18.1918399441
 30
0.0
 10
11.2037226058
 20
20.430917231
 30
0.0
 10
10.8221185297
 20
22.7408330723
 30
0.0
 10
10.706774585
 20
23.9071560657
 30
0.0
  0
SPLINE
  5
550
100
AcDbEntity
  8
0
100
AcDbSpline
 62
7
  6
BYLAYER
 70
0
 71
3
 72
9
 73
5
 74
0
 42
0.0000001
 43
0.0000001
 44
0.0000000001
 40
0.0
 40
0.0
 40
0.0
 40
0.0
 40
0.5128521468
 40
1.0
 40
1.0
 40
1.0
 40
1.0
 10
21.5952469805
 20
25.8802853591
 30
0.0
 10
21.6363238065
 20
25.3777889048
 30
0.0
 10
21.7829872899
 20
24.4017164389
 30
0.0
 10
22.0848524596
 20
23.4602066631
 30
0.0
 10
22.2728855412
 20
23.0197615007
 30
0.0
  0
SPLINE
  5
551
100
AcDbEntity
  8
0
100
AcDbSpline
 62
7
  6
BYLAYER
 70
0
 71
3
 72
9
 73
5
 74
0
 42
0.0000001
 43
0.0000001
 44
0.0000000001
 40
0.0
 40
0.0
 40
0.0
 40
0.0
 40
0.2446447462
 40
1.0
 40
1.0
 40
1.0
 40
1.0
 10
22.4651397352
 20
22.7735161773
 30
0.0
 10
22.4647946102
 20
22.7892915278
 30
0.0
 10
22.4625197748
 20
22.8537536797
 30
0.0
 10
22.4568686004
 20
22.9180863101
 30
0.0
 10
22.4509200305
 20
22.9664407785
 30
0.0
  0
SPLINE
  5
552
100
AcDbEntity
  8
0
100
AcDbSpline
 62
7
  6
BYLAYER
 70
0
 71
3
 72
15
 73
11
 74
0
 42
0.0000001
 43
0.0000001
 44
0.0000000001
 40
0.0
 40
0.0
 40
0.0
 40
0.0
 40
0.1080138248
 40
0.2180618821
 40
0.3319997887
 40
0.451361198
 40
0.5772762751
 40
0.7104917908
 40
0.8514246181
 40
1.0
 40
1.0
 40
1.0
 40
1.0
 10
25.5746749319
 20
23.5158954935
 30
0.0
 10
25.779218258
 20
23.6339729641
 30
0.0
 10
26.1724429326
 20
23.9084102666
 30
0.0
 10
26.6920625903
 20
24.4197575052
 30
0.0
 10
27.1389492625
 20
25.0266897699
 30
0.0
 10
27.5089250772
 20
25.7223721022
 30
0.0
 10
27.7992208646
 20
26.4996514509
 30
0.0
 10
28.0075238128
 20
27.3511090862
 30
0.0
 10
28.1321833959
 20
28.2684413194
 30
0.0
 10
28.158398724
 20
28.9019027902
 30
0.0
 10
28.158398724
 20
29.2267714244
 30
0.0
  0
SPLINE
  5
553
100
AcDbEntity
  8
0
100
AcDbSpline
 62
7
  6
BYLAYER
 70
0
 71
3
 72
15
 73
11
 74
0
 42
0.0000001
 43
0.0000001
 44
0.0000000001
 40
0.0
 40
0.0
 40
0.0
 40
0.0
 40
0.1485786923
 40
0.2895069098
 40
0.4227215948
 40
0.5486383811
 40
0.6679990993
 40
0.7819373907
 40
0.8919865509
 40
1.0
 40
1.0
 40
1.0
 40
1.0
 10
19.792526533
 20
46.2176125873
 30
0.0
 10
19.471150655
 20
46.4031548394
 30
0.0
 10
18.8295479102
 20
46.7390081454
 30
0.0
 10
17.850903403
 20
47.1395836474
 30
0.0
 10
16.8896635855
 20
47.4198043592
 30
0.0
 10
15.9549664054
 20
47.5765710864
 30
0.0
 10
15.0554757333
 20
47.6078794365
 30
0.0
 10
14.1998533358
 20
47.5124625232
 30
0.0
 10
13.3972472389
 20
47.2904771568
 30
0.0
 10
12.9011896874
 20
47.0582220917
 30
0.0
 10
12.6675635336
 20
46.9233247221
 30
0.0
  0
SPLINE
  5
554
100
AcDbEntity
  8
0
100
AcDbSpline
 62
7
  6
BYLAYER
 70
0
 71
3
 72
21
 73
17
 74
0
 42
0.0000001
 43
0.0000001
 44
0.0000000001
 40
0.0
 40
0.0
 40
0.0
 40
0.0
 40
0.1201874925
 40
0.1777392511
 40
0.2341291711
 40
0.2899126936
 40
0.3456611621
 40
0.4019402871
 40
0.4592943416
 40
0.518214614
 40
0.5791272315
 40
0.6423712772
 40
0.7082048486
 40
0.8482433246
 40
0.9227187653
 40
1.0
 40
1.0
 40
1.0
 40
1.0
 10
21.5952469182
 20
25.8802860678
 30
0.0
 10
21.8641234179
 20
25.8647936778
 30
0.0
 10
22.266121689
 20
25.8789905804
 30
0.0
 10
22.7802867241
 20
25.9881699282
 30
0.0
 10
23.1410876206
 20
26.1115706787
 30
0.0
 10
23.4802744939
 20
26.2766997097
 30
0.0
 10
23.7960924534
 20
26.4826068194
 30
0.0
 10
24.0867856894
 20
26.7281324739
 30
0.0
 10
24.3506526901
 20
27.011993404
 30
0.0
 10
24.5864622414
 20
27.332455112
 30
0.0
 10
24.7929187641
 20
27.6878211249
 30
0.0
 10
24.9692089817
 20
28.0760876918
 30
0.0
 10
25.1669691506
 20
28.6465211706
 30
0.0
 10
25.294436218
 20
29.2649046969
 30
0.0
 10
25.3575117334
 20
29.9159825056
 30
0.0
 10
25.3680646938
 20
30.2561874563
 30
0.0
 10
25.3682930854
 20
30.429363163
 30
0.0
  0
SPLINE
  5
555
100
AcDbEntity
  8
0
100
AcDbSpline
 62
7
  6
BYLAYER
 70
0
 71
3
 72
15
 73
11
 74
0
 42
0.0000001
 43
0.0000001
 44
0.0000000001
 40
0.0
 40
0.0
 40
0.0
 40
0.0
 40
0.110976111
 40
0.2288498086
 40
0.3524417048
 40
0.4802922653
 40
0.6107496445
 40
0.7420440748
 40
0.8723870342
 40
1.0
 40
1.0
 40
1.0
 40
1.0
 10
25.3682930854
 20
30.429363163
 30
0.0
 10
25.3678122085
 20
30.7945386029
 30
0.0
 10
25.3201753087
 20
31.5480602265
 30
0.0
 10
25.1212688301
 20
32.6925504192
 30
0.0
 10
24.797600491
 20
33.865762819
 30
0.0
 10
24.3559426402
 20
35.0439521075
 30
0.0
 10
23.8049545617
 20
36.2031796388
 30
0.0
 10
23.1561042299
 20
37.3200834291
 30
0.0
 10
22.4224284001
 20
38.3717548315
 30
0.0
 10
21.8781304678
 20
39.0247412029
 30
0.0
 10
21.5952469182
 20
39.3350801384
 30
0.0
  0
SPLINE
  5
556
100
AcDbEntity
  8
0
100
AcDbSpline
 62
7
  6
BYLAYER
 70
0
 71
3
 72
11
 73
7
 74
0
 42
0.0000001
 43
0.0000001
 44
0.0000000001
 40
0.0
 40
0.0
 40
0.0
 40
0.0
 40
0.2399585466
 40
0.4867246532
 40
0.7401448442
 40
1.0
 40
1.0
 40
1.0
 40
1.0
 10
21.5952469182
 20
39.3350801384
 30
0.0
 10
21.4904029399
 20
38.2625615268
 30
0.0
 10
21.334548329
 20
36.0812031846
 30
0.0
 10
21.2590131575
 20
32.7569633169
 30
0.0
 10
21.3386715186
 20
29.3435028998
 30
0.0
 10
21.4931322235
 20
27.0427945187
 30
0.0
 10
21.5952469182
 20
25.8802860678
 30
0.0
  0
SPLINE
  5
557
100
AcDbEntity
  8
0
100
AcDbSpline
 62
7
  6
BYLAYER
 70
0
 71
3
 72
16
 73
12
 74
0
 42
0.0000001
 43
0.0000001
 44
0.0000000001
 40
0.0
 40
0.0
 40
0.0
 40
0.0
 40
0.0546593692
 40
0.1113161517
 40
0.2298889126
 40
0.3543825129
 40
0.4830742339
 40
0.6140255517
 40
0.7451878437
 40
0.8745024122
 40
1.0
 40
1.0
 40
1.0
 40
1.0
 10
28.158398724
 20
29.2267714244
 30
0.0
 10
28.158398724
 20
29.4929393337
 30
0.0
 10
28.139978261
 20
30.0351435452
 30
0.0
 10
28.0330675775
 20
31.1500416442
 30
0.0
 10
27.7664202662
 20
32.5882976855
 30
0.0
 10
27.2552051746
 20
34.3278035757
 30
0.0
 10
26.5596141972
 20
36.0671312688
 30
0.0
 10
25.6959101332
 20
37.7656877954
 30
0.0
 10
24.6841187644
 20
39.3840657026
 30
0.0
 10
23.5479766901
 20
40.8843911735
 30
0.0
 10
22.7083089422
 20
41.801124837
 30
0.0
 10
22.2728950637
 20
42.2299398773
 30
0.0
  0
ELLIPSE
  5
558
100
AcDbEntity
  8
0
100
AcDbEllipse
 62
7
  6
BYLAYER
 10
45.6460103336
 20
39.9044333546
 30
0.0
 11
0.1944956456
 21
1.0390056746
 31
0.0
 40
0.2183847418
 41
-0.8621513259
 42
-0.47951887
  0
ELLIPSE
  5
559
100
AcDbEntity
  8
0
100
AcDbEllipse
 62
7
  6
BYLAYER
 10
21.2759673592
 20
36.2568827845
 30
0.0
 11
15.9167627577
 21
24.1583576846
 31
0.0
 40
0.2360574074
 41
1.3407851049
 42
1.3843177515
  0
ELLIPSE
  5
55A
100
AcDbEntity
  8
0
100
AcDbEllipse
 62
7
  6
BYLAYER
 10
22.6005213854
 20
35.3858647199
 30
0.0
 11
37.0563624112
 21
10.7069478904
 31
0.0
 40
0.2920105908
 41
1.5985666203
 42
1.6407742594
  0
ELLIPSE
  5
55B
100
AcDbEntity
  8
0
100
AcDbEllipse
 62
7
  6
BYLAYER
 10
45.6460102068
 20
44.7801182423
 30
0.0
 11
0.1944957281
 21
1.0390061155
 31
0.0
 40
0.2183847418
 41
-2.2235078842
 42
-1.6309841436
  0
ELLIPSE
  5
55C
100
AcDbEntity
  8
0
100
AcDbEllipse
 62
7
  6
BYLAYER
 10
17.4492380313
 20
33.2295629686
 30
0.0
 11
115.4487637194
 21
77.8550572413
 31
0.0
 40
0.0751468995
 41
-1.4604002586
 42
-1.4530096677
  0
ELLIPSE
  5
55D
100
AcDbEntity
  8
0
100
AcDbEllipse
 62
7
  6
BYLAYER
 10
22.6954374634
 20
35.4404641085
 30
0.0
 11
37.0654291761
 21
10.7095682421
 31
0.0
 40
0.2920105705
 41
7.8839338056
 42
7.9274667405
  0
ELLIPSE
  5
55E
100
AcDbEntity
  8
0
100
AcDbEllipse
 62
7
  6
BYLAYER
 10
21.1813978828
 20
36.2020832903
 30
0.0
 11
15.912867891
 21
24.1524485257
 31
0.0
 40
0.2360574117
 41
1.338603175
 42
1.3808105385
  0
ELLIPSE
  5
55F
100
AcDbEntity
  8
0
100
AcDbEllipse
 62
7
  6
BYLAYER
 10
45.6460103336
 20
39.9044333546
 30
0.0
 11
0.1944956456
 21
1.0390056746
 31
0.0
 40
0.2183847418
 41
-0.0767404375
 42
0.4992055761
  0
ELLIPSE
  5
560
100
AcDbEntity
  8
0
100
AcDbEllipse
 62
7
  6
BYLAYER
 10
17.4492380313
 20
33.2295629686
 30
0.0
 11
115.5247976481
 21
54.4742053903
 31
0.0
 40
0.0749448309
 41
-1.4450913937
 42
-1.4377008028
  0
ENDSEC
  0
SECTION
  2
OBJECTS
  0
DICTIONARY
  5
C
100
AcDbDictionary
280
0
281
1
  3
ACAD_GROUP
350
D
  3
ACAD_MLINESTYLE
350
17
  3
ACAD_LAYOUT
350
1A
  3
ACAD_PLOTSETTINGS
350
19
  3
ACAD_PLOTSTYLENAME
350
E
  0
DICTIONARY
  5
D
102
{ACAD_REACTORS
330
C
102
}
100
AcDbDictionary
280
0
281
1
  0
ACDBDICTIONARYWDFLT
  5
E
102
{ACAD_REACTORS
330
C
102
}
100
AcDbDictionary
281
1
  3
Normal
350
F
100
AcDbDictionaryWithDefault
340
F
  0
DICTIONARY
  5
17
102
{ACAD_REACTORS
330
C
102
}
100
AcDbDictionary
280
0
281
1
  3
Standard
350
18
  0
DICTIONARY
  5
19
102
{ACAD_REACTORS
330
C
102
}
100
AcDbDictionary
281
1
  0
DICTIONARY
  5
1A
102
{ACAD_REACTORS
330
C
102
}
100
AcDbDictionary
281
1
  3
Model
350
561
  3
Layout1
350
562
  0
ACDBPLACEHOLDER
  5
F
102
{ACAD_REACTORS
330
E
102
}
  0
MLINESTYLE
  5
18
102
{ACAD_REACTORS
330
17
102
}
100
AcDbMlineStyle
  2
STANDARD
 70
0
  3

 62
256
 51
90.0
 52
90.0
 71
2
 49
0.5
 62
256
  6
BYLAYER
 49
-0.5
 62
256
  6
BYLAYER
  0
LAYOUT
  5
561
102
{ACAD_REACTORS
330
1A
102
}
100
AcDbPlotSettings
  1

  2
none_device
  4

  6

 40
0.0
 41
0.0
 42
0.0
 43
0.0
 44
210.0
 45
297.0
 46
0.0
 47
0.0
 48
0.0
 49
0.0
140
0.0
141
0.0
142
1.0
143
1.0
 70
1024
 72
1
 73
0
 74
0
  7

 75
0
147
1.0
148
0.0
149
0.0
100
AcDbLayout
  1
Model
 70
0
 71
0
 10
0.0
 20
0.0
 11
210.0
 21
297.0
 12
0.0
 22
0.0
 32
0.0
 14
0.0
 24
0.0
 34
0.0
 15
0.0
 25
0.0
 35
0.0
146
0.0
 13
0.0
 23
0.0
 33
0.0
 16
1.0
 26
0.0
 36
0.0
 17
0.0
 27
1.0
 37
0.0
 76
0
330
210
345
0
346
0
  0
LAYOUT
  5
562
102
{ACAD_REACTORS
330
1A
102
}
100
AcDbPlotSettings
  1

  2
none_device
  4

  6

 40
0.0
 41
0.0
 42
0.0
 43
0.0
 44
210.0
 45
297.0
 46
0.0
 47
0.0
 48
0.0
 49
0.0
140
0.0
141
0.0
142
1.0
143
1.0
 70
0
 72
1
 73
0
 74
0
  7

 75
0
147
1.0
148
0.0
149
0.0
100
AcDbLayout
  1
Layout1
 70
0
 71
1
 10
0.0
 20
0.0
 11
210.0
 21
297.0
 12
0.0
 22
0.0
 32
0.0
 14
0.0
 24
0.0
 34
0.0
 15
0.0
 25
0.0
 35
0.0
146
0.0
 13
0.0
 23
0.0
 33
0.0
 16
1.0
 26
0.0
 36
0.0
 17
0.0
 27
1.0
 37
0.0
 76
0
330
211
345
0
346
0
  0
ENDSEC
  0
EOF
