999
DXF file: C:\Users\sesa63760\Dev\_Creo\CAD\MCADID0003627_3D-CAD\drw0001_1.dxf
999
Pro/ENGINEER 2019471 by Parametric Technology Corporation
  0
SECTION
  2
HEADER
  9
$ACADVER
  1
AC1024
  9
$DWGCODEPAGE
  3
ANSI_1252
  9
$EXTMAX
 10
222.9550718698
 20
315.322173073
 30
0.0
  9
$EXTMIN
 10
0.0
 20
0.0
 30
0.0
  9
$LIMMIN
 10
0.0
 20
0.0
  9
$LIMMAX
 10
222.9550718698
 20
315.322173073
  9
$VIEWCTR
 10
111.4775359349
 20
157.6610865365
  9
$VIEWSIZE
 40
315.322173073
  9
$CLAYER
  8
0
  9
$LTSCALE
 40
20.5543342448
  9
$CELTYPE
  6
BYLAYER
  9
$DIMSCALE
 40
1.0
  9
$DIMASZ
 40
2.6542270461
  9
$DIMEXO
 40
1.0
  9
$DIMDLI
 40
14.2011763873
  9
$DIMEXE
 40
1.0
  9
$DIMCEN
 40
3.3634365128
  9
$DIMLFAC
 40
1.0
  9
$DIMBLK
  1
_FILLED
  9
$DIMALT
 70
0
  9
$DIMALTF
 40
0.0393700787
  9
$DIMTXT
 40
3.7159178645
  9
$DIMTOL
 70
1
  9
$DIMLIM
 70
0
  9
$DIMTFAC
 40
1.0
  9
$DIMTP
 40
0.01
  9
$DIMTM
 40
0.01
  9
$DIMGAP
 40
0.625
  9
$DIMDSEP
 70
46
  9
$AUNITS
 70
0
  9
$PDMODE
 70
3
  9
$PDSIZE
 40
0.3125
  9
$HANDSEED
  5
4A4
  9
$TILEMODE
 70
1
  9
$MEASUREMENT
 70
1
  9
$INSUNITS
 70
4
  0
ENDSEC
  0
SECTION
  2
CLASSES
  0
CLASS
  1
ACDBDICTIONARYWDFLT
  2
AcDbDictionaryWithDefault
  3
AutoCAD 2000
 90
0
 91
1
280
0
281
0
  0
CLASS
  1
ACDBPLACEHOLDER
  2
AcDbPlaceHolder
  3
AutoCAD 2000
 90
0
 91
1
280
0
281
0
  0
CLASS
  1
LAYOUT
  2
AcDbLayout
  3
AutoCAD 2000
 90
0
 91
0
280
0
281
0
  0
ENDSEC
  0
SECTION
  2
TABLES
  0
TABLE
  2
VPORT
  5
8
100
AcDbSymbolTable
 70
2
  0
VPORT
  5
1F4
100
AcDbSymbolTableRecord
100
AcDbViewportTableRecord
  2
*ACTIVE
 70
0
 10
0.0
 20
0.0
 11
1.0
 21
1.0
 12
111.4775359349
 22
157.6610865365
 13
0.0
 23
0.0
 14
1.0
 24
1.0
 15
0.0
 25
0.0
 16
0.0
 26
0.0
 36
1.0
 17
0.0
 27
0.0
 37
0.0
 40
315.322173073
 41
0.7070707071
 42
50.0
 43
0.0
 44
0.0
 50
0.0
 51
0.0
 71
0
 72
100
 73
1
 74
1
 75
0
 76
0
 77
0
 78
0
  0
ENDTAB
  0
TABLE
  2
LTYPE
  5
5
100
AcDbSymbolTable
 70
6
  0
LTYPE
  5
14
100
AcDbSymbolTableRecord
100
AcDbLinetypeTableRecord
  2
BYBLOCK
 70
0
  3

 72
65
 73
0
 40
0.0
  0
LTYPE
  5
15
100
AcDbSymbolTableRecord
100
AcDbLinetypeTableRecord
  2
BYLAYER
 70
0
  3

 72
65
 73
0
 40
0.0
  0
LTYPE
  5
16
100
AcDbSymbolTableRecord
100
AcDbLinetypeTableRecord
  2
CONTINUOUS
 70
64
  3
Solid line
 72
65
 73
0
 40
0.0
  0
LTYPE
  5
1F5
100
AcDbSymbolTableRecord
100
AcDbLinetypeTableRecord
  2
CENTER
 70
64
  3
____ _ ____ _ ____ _ ____ _ ____ _ ____ _ ____
 72
65
 73
4
 40
0.6
 49
0.375
 74
0
 49
-0.075
 74
0
 49
0.075
 74
0
 49
-0.075
 74
0
  0
LTYPE
  5
1F6
100
AcDbSymbolTableRecord
100
AcDbLinetypeTableRecord
  2
HIDDEN
 70
64
  3
- - - - - - - - - - - - - - - - - - - -
 72
65
 73
2
 40
0.2
 49
0.1
 74
0
 49
-0.1
 74
0
  0
LTYPE
  5
1F7
100
AcDbSymbolTableRecord
100
AcDbLinetypeTableRecord
  2
PHANTOM
 70
64
  3
_____ _ _ _____ _ _ _____ _ _ _____
 72
65
 73
6
 40
0.8
 49
0.45
 74
0
 49
-0.05
 74
0
 49
0.1
 74
0
 49
-0.05
 74
0
 49
0.1
 74
0
 49
-0.05
 74
0
  0
LTYPE
  5
1F8
100
AcDbSymbolTableRecord
100
AcDbLinetypeTableRecord
  2
DOT
 70
64
  3
. . . . . . . . . . . . . . . . . . . .
 72
65
 73
2
 40
0.2
 49
0.1
 74
0
 49
-0.1
 74
0
  0
LTYPE
  5
1F9
100
AcDbSymbolTableRecord
100
AcDbLinetypeTableRecord
  2
DASHED
 70
64
  3
- - - - - - - - - - - - - - - - - - - -
 72
65
 73
2
 40
0.2
 49
0.1
 74
0
 49
-0.1
 74
0
  0
ENDTAB
  0
TABLE
  2
LAYER
  5
2
100
AcDbSymbolTable
 70
36
  0
LAYER
  5
10
100
AcDbSymbolTableRecord
100
AcDbLayerTableRecord
  2
0
 70
0
 62
7
  6
CONTINUOUS
370
-3
390
F
  0
LAYER
  5
1FA
100
AcDbSymbolTableRecord
100
AcDbLayerTableRecord
  2
DEFAULT_1
 70
0
 62
7
  6
CENTER
370
-3
390
F
  0
LAYER
  5
1FB
100
AcDbSymbolTableRecord
100
AcDbLayerTableRecord
  2
DEFAULT_2
 70
0
 62
7
  6
HIDDEN
370
-3
390
F
  0
LAYER
  5
1FC
100
AcDbSymbolTableRecord
100
AcDbLayerTableRecord
  2
DEFAULT_3
 70
0
 62
7
  6
PHANTOM
370
-3
390
F
  0
LAYER
  5
1FD
100
AcDbSymbolTableRecord
100
AcDbLayerTableRecord
  2
00_COMPONENTS
 70
0
 62
7
  6
CONTINUOUS
370
-3
390
F
  0
LAYER
  5
1FE
100
AcDbSymbolTableRecord
100
AcDbLayerTableRecord
  2
01_1_DEFAULT_DATUMS
 70
0
 62
7
  6
CONTINUOUS
370
-3
390
F
  0
LAYER
  5
1FF
100
AcDbSymbolTableRecord
100
AcDbLayerTableRecord
  2
01_PLANES
 70
0
 62
7
  6
CONTINUOUS
370
-3
390
F
  0
LAYER
  5
200
100
AcDbSymbolTableRecord
100
AcDbLayerTableRecord
  2
02_COORD_SYS
 70
0
 62
7
  6
CONTINUOUS
370
-3
390
F
  0
LAYER
  5
201
100
AcDbSymbolTableRecord
100
AcDbLayerTableRecord
  2
03_AXES
 70
0
 62
7
  6
CONTINUOUS
370
-3
390
F
  0
LAYER
  5
202
100
AcDbSymbolTableRecord
100
AcDbLayerTableRecord
  2
04_POINTS
 70
0
 62
7
  6
CONTINUOUS
370
-3
390
F
  0
LAYER
  5
203
100
AcDbSymbolTableRecord
100
AcDbLayerTableRecord
  2
05_CURVES
 70
0
 62
7
  6
CONTINUOUS
370
-3
390
F
  0
LAYER
  5
204
100
AcDbSymbolTableRecord
100
AcDbLayerTableRecord
  2
06_SURFS
 70
0
 62
7
  6
CONTINUOUS
370
-3
390
F
  0
LAYER
  5
205
100
AcDbSymbolTableRecord
100
AcDbLayerTableRecord
  2
07_COSMETICS
 70
0
 62
7
  6
CONTINUOUS
370
-3
390
F
  0
LAYER
  5
206
100
AcDbSymbolTableRecord
100
AcDbLayerTableRecord
  2
1
 70
0
 62
7
  6
CONTINUOUS
370
-3
390
F
  0
LAYER
  5
207
100
AcDbSymbolTableRecord
100
AcDbLayerTableRecord
  2
10_NOTES
 70
0
 62
7
  6
CONTINUOUS
370
-3
390
F
  0
LAYER
  5
208
100
AcDbSymbolTableRecord
100
AcDbLayerTableRecord
  2
11_NOTES_PUB
 70
0
 62
7
  6
CONTINUOUS
370
-3
390
F
  0
LAYER
  5
209
100
AcDbSymbolTableRecord
100
AcDbLayerTableRecord
  2
13_REF_GTOL
 70
0
 62
7
  6
CONTINUOUS
370
-3
390
F
  0
LAYER
  5
20A
100
AcDbSymbolTableRecord
100
AcDbLayerTableRecord
  2
16_MISC
 70
0
 62
7
  6
CONTINUOUS
370
-3
390
F
  0
LAYER
  5
20B
100
AcDbSymbolTableRecord
100
AcDbLayerTableRecord
  2
17_NO_PRINT
 70
0
 62
7
  6
CONTINUOUS
370
-3
390
F
  0
LAYER
  5
20C
100
AcDbSymbolTableRecord
100
AcDbLayerTableRecord
  2
18_DATUM_CAMS_JOINTS
 70
0
 62
7
  6
CONTINUOUS
370
-3
390
F
  0
LAYER
  5
20D
100
AcDbSymbolTableRecord
100
AcDbLayerTableRecord
  2
19_DATUM_FUNCTIONAL
 70
0
 62
7
  6
CONTINUOUS
370
-3
390
F
  0
LAYER
  5
20E
100
AcDbSymbolTableRecord
100
AcDbLayerTableRecord
  2
2
 70
0
 62
7
  6
CONTINUOUS
370
-3
390
F
  0
LAYER
  5
20F
100
AcDbSymbolTableRecord
100
AcDbLayerTableRecord
  2
20_DATUM_KINEMATIC_SCHEME
 70
0
 62
7
  6
CONTINUOUS
370
-3
390
F
  0
ENDTAB
  0
TABLE
  2
STYLE
  5
3
100
AcDbSymbolTable
 70
1
  0
STYLE
  5
11
100
AcDbSymbolTableRecord
100
AcDbTextStyleTableRecord
  2
STANDARD
 70
0
 40
0.0
 41
1.0
 50
0.0
 71
0
 42
0.2
  3
ARIAL.TTF
  4

  0
STYLE
  5
210
100
AcDbSymbolTableRecord
100
AcDbTextStyleTableRecord
  2
TEXTSTYLE_1
 70
0
 40
0.0
 41
0.8
 50
0.0
 71
0
 42
0.2
  3
gdt
  4

  0
ENDTAB
  0
TABLE
  2
VIEW
  5
6
100
AcDbSymbolTable
 70
0
  0
ENDTAB
  0
TABLE
  2
UCS
  5
7
100
AcDbSymbolTable
 70
0
  0
ENDTAB
  0
TABLE
  2
APPID
  5
9
100
AcDbSymbolTable
 70
1
  0
APPID
  5
211
100
AcDbSymbolTableRecord
100
AcDbRegAppTableRecord
  2
ACAD
 70
0
  0
ENDTAB
  0
TABLE
  2
BLOCK_RECORD
  5
1
100
AcDbSymbolTable
 70
0
  0
BLOCK_RECORD
  5
212
100
AcDbSymbolTableRecord
100
AcDbBlockTableRecord
  2
*Model_Space
  0
BLOCK_RECORD
  5
213
100
AcDbSymbolTableRecord
100
AcDbBlockTableRecord
  2
*Paper_Space
  0
BLOCK_RECORD
  5
214
100
AcDbSymbolTableRecord
100
AcDbBlockTableRecord
  2
_FILLED
  0
ENDTAB
  0
TABLE
  2
DIMSTYLE
  5
A
100
AcDbSymbolTable
 70
1
100
AcDbDimStyleTable
 71
0
  0
DIMSTYLE
105
215
100
AcDbSymbolTableRecord
100
AcDbDimStyleTableRecord
  2
STANDARD
 70
0
  3

  4

 40
1.0
 41
2.6542270461
 42
1.0
 43
0.38
 44
1.0
 45
0.0
 46
0.0
 47
0.01
 48
0.01
140
3.7159178645
141
0.09
142
0.0
143
25.4
144
1.0
145
0.0
146
1.0
147
0.625
 71
1
 72
0
 73
0
 74
0
 75
0
 76
0
 77
1
 78
8
 79
2
170
0
171
1
172
0
173
0
174
0
175
0
176
0
177
0
178
0
270
2
179
2
271
2
272
2
273
2
274
2
275
0
280
0
281
0
282
0
283
1
284
8
285
0
286
0
287
3
288
0
340
11
278
46
341
214
342
214
343
214
344
214
  0
ENDTAB
  0
ENDSEC
  0
SECTION
  2
BLOCKS
  0
BLOCK
  5
20
100
AcDbEntity
  8
0
100
AcDbBlockBegin
  2
*Model_Space
 70
0
 10
0.0
 20
0.0
 30
0.0
  3
*Model_Space
  1

  0
ENDBLK
  5
21
100
AcDbEntity
  8
0
100
AcDbBlockEnd
  0
BLOCK
  5
1C
100
AcDbEntity
  8
0
100
AcDbBlockBegin
  2
*Paper_Space
 70
0
 10
0.0
 20
0.0
 30
0.0
  3
*Paper_Space
  1

  0
ENDBLK
  5
1D
100
AcDbEntity
  8
0
100
AcDbBlockEnd
  0
BLOCK
  5
216
100
AcDbEntity
  8
0
100
AcDbBlockBegin
  2
_FILLED
 70
64
 10
0.0
 20
0.0
  3
_FILLED
  1

  0
SOLID
  5
217
100
AcDbEntity
  8
0
  6
BYBLOCK
 62
0
100
AcDbTrace
 10
0.0
 20
0.0
 11
-1.0
 21
0.25
 12
-1.0
 22
-0.25
 13
-1.0
 23
-0.25
  0
ENDBLK
  5
218
100
AcDbEntity
  8
0
  6
BYBLOCK
 62
0
100
AcDbBlockEnd
  0
ENDSEC
  0
SECTION
  2
ENTITIES
  0
LINE
  5
219
100
AcDbEntity
  8
1
100
AcDbLine
 62
7
  6
BYLAYER
 10
25.8653534959
 20
117.8264126773
 11
25.8653534959
 21
150.1599083956
  0
LINE
  5
21A
100
AcDbEntity
  8
1
100
AcDbLine
 62
7
  6
BYLAYER
 10
32.2203484367
 20
149.4046810093
 11
32.2203484367
 21
117.071185291
  0
LINE
  5
21B
100
AcDbEntity
  8
1
100
AcDbLine
 62
7
  6
BYLAYER
 10
33.0101504578
 20
154.2849342218
 11
33.0101504578
 21
162.6266699705
  0
LINE
  5
21C
100
AcDbEntity
  8
1
100
AcDbLine
 62
7
  6
BYLAYER
 10
33.8587416215
 20
153.8867637609
 11
33.8587416215
 21
145.5450280121
  0
LINE
  5
21D
100
AcDbEntity
  8
1
100
AcDbLine
 62
7
  6
BYLAYER
 10
37.1115163658
 20
149.4046810093
 11
37.1115163658
 21
117.071185291
  0
LINE
  5
21E
100
AcDbEntity
  8
1
100
AcDbLine
 62
7
  6
BYLAYER
 10
57.1874083412
 20
99.7430249817
 11
25.8653534959
 21
117.8264126773
  0
LINE
  5
21F
100
AcDbEntity
  8
1
100
AcDbLine
 62
7
  6
BYLAYER
 10
38.1751232346
 20
148.0370772228
 11
38.1750996828
 21
159.6447526051
  0
LINE
  5
220
100
AcDbEntity
  8
1
100
AcDbLine
 62
7
  6
BYLAYER
 10
39.346684334
 20
149.6700402409
 11
39.346684334
 21
158.0117759896
  0
LINE
  5
221
100
AcDbEntity
  8
1
100
AcDbLine
 62
7
  6
BYLAYER
 10
49.5986177131
 20
162.9664584068
 11
49.5751666726
 21
163.5519488004
  0
LINE
  5
222
100
AcDbEntity
  8
1
100
AcDbLine
 62
7
  6
BYLAYER
 10
49.1940202156
 20
145.0331368323
 11
49.1940202156
 21
136.6914010836
  0
LINE
  5
223
100
AcDbEntity
  8
1
100
AcDbLine
 62
7
  6
BYLAYER
 10
52.4336401911
 20
104.8239626554
 11
52.4336647316
 21
137.1649662998
  0
LINE
  5
224
100
AcDbEntity
  8
1
100
AcDbLine
 62
7
  6
BYLAYER
 10
53.4876888195
 20
165.2118012554
 11
53.4642377789
 21
165.797291649
  0
LINE
  5
225
100
AcDbEntity
  8
1
100
AcDbLine
 62
7
  6
BYLAYER
 10
53.5994065933
 20
163.1267046949
 11
53.5803358748
 21
163.6028337796
  0
LINE
  5
226
100
AcDbEntity
  8
1
100
AcDbLine
 62
7
  6
BYLAYER
 10
57.4884776885
 20
165.3720475431
 11
57.46940697
 21
165.8481766281
  0
LINE
  5
227
100
AcDbEntity
  8
1
100
AcDbLine
 62
7
  6
BYLAYER
 10
53.5104018286
 20
147.525186043
 11
53.5104018286
 21
139.1834502942
  0
LINE
  5
228
100
AcDbEntity
  8
1
100
AcDbLine
 62
7
  6
BYLAYER
 10
55.8661911698
 20
139.1467245334
 11
55.8661911698
 21
106.8132288151
  0
LINE
  5
229
100
AcDbEntity
  8
1
100
AcDbLine
 62
7
  6
BYLAYER
 10
55.8922571415
 20
135.168192214
 11
55.8922571415
 21
102.8346964957
  0
LINE
  5
22A
100
AcDbEntity
  8
1
100
AcDbLine
 62
7
  6
BYLAYER
 10
57.1874083412
 20
132.0765207
 11
57.1874083412
 21
99.7430249817
  0
LINE
  5
22B
100
AcDbEntity
  8
1
100
AcDbLine
 62
7
  6
BYLAYER
 10
59.167256078
 20
139.1834638917
 11
59.167256078
 21
147.5251996404
  0
LINE
  5
22C
100
AcDbEntity
  8
1
100
AcDbLine
 62
7
  6
BYLAYER
 10
59.3247835797
 20
104.8164547293
 11
59.3248081202
 21
137.1574583737
  0
LINE
  5
22D
100
AcDbEntity
  8
2
100
AcDbLine
 62
7
  6
BYLAYER
 10
67.5538092863
 20
116.4462862403
 11
65.6094899978
 21
117.56881411
  0
LINE
  5
22E
100
AcDbEntity
  8
2
100
AcDbLine
 62
7
  6
BYLAYER
 10
32.343115864
 20
136.7747296752
 11
32.8268220728
 21
136.4954680831
  0
LINE
  5
22F
100
AcDbEntity
  8
1
100
AcDbLine
 62
7
  6
BYLAYER
 10
89.3956132822
 20
105.8033096594
 11
88.8652718244
 21
106.1095111972
  0
LINE
  5
230
100
AcDbEntity
  8
1
100
AcDbLine
 62
7
  6
BYLAYER
 10
66.9859521155
 20
119.9005952945
 11
35.6638972703
 21
137.9839829901
  0
LINE
  5
231
100
AcDbEntity
  8
1
100
AcDbLine
 62
7
  6
BYLAYER
 10
64.3322053031
 20
136.2015465262
 11
64.3322053031
 21
144.543282275
  0
LINE
  5
232
100
AcDbEntity
  8
1
100
AcDbLine
 62
7
  6
BYLAYER
 10
33.8587416215
 20
145.5450280121
 11
25.8653534959
 21
150.1599083956
  0
LINE
  5
233
100
AcDbEntity
  8
1
100
AcDbLine
 62
7
  6
BYLAYER
 10
49.1940202156
 20
136.6914010836
 11
57.1874083412
 21
132.0765207
  0
LINE
  5
234
100
AcDbEntity
  8
1
100
AcDbLine
 62
7
  6
BYLAYER
 10
33.0101504578
 20
162.6266699705
 11
134.8639570251
 21
221.4316415918
  0
LINE
  5
235
100
AcDbEntity
  8
1
100
AcDbLine
 62
7
  6
BYLAYER
 10
38.1750996828
 20
151.3030168564
 11
33.0101504578
 21
154.2849342218
  0
LINE
  5
236
100
AcDbEntity
  8
1
100
AcDbLine
 62
7
  6
BYLAYER
 10
59.167256078
 20
139.1834638917
 11
64.3322053031
 21
136.2015465262
  0
LINE
  5
237
100
AcDbEntity
  8
1
100
AcDbLine
 62
7
  6
BYLAYER
 10
33.8587416215
 20
153.8867637609
 11
49.1940202156
 21
145.0331368323
  0
LINE
  5
238
100
AcDbEntity
  8
1
100
AcDbLine
 62
7
  6
BYLAYER
 10
76.2357951705
 20
135.9221558757
 11
44.9137403253
 21
154.0055435713
  0
LINE
  5
239
100
AcDbEntity
  8
1
100
AcDbLine
 62
7
  6
BYLAYER
 10
84.4510203494
 20
116.5267068401
 11
83.1101157318
 21
138.1771641703
  0
LINE
  5
23A
100
AcDbEntity
  8
1
100
AcDbLine
 62
7
  6
BYLAYER
 10
77.191759523
 20
138.5039951001
 11
77.191759523
 21
141.933305252
  0
LINE
  5
23B
100
AcDbEntity
  8
1
100
AcDbLine
 62
7
  6
BYLAYER
 10
78.9597599951
 20
95.5589248149
 11
78.9597550012
 21
97.0030547278
  0
LINE
  5
23C
100
AcDbEntity
  8
1
100
AcDbLine
 62
7
  6
BYLAYER
 10
79.0958644254
 20
97.2933100065
 11
79.0958644254
 21
98.0449412655
  0
LINE
  5
23D
100
AcDbEntity
  8
1
100
AcDbLine
 62
7
  6
BYLAYER
 10
79.095884446
 20
95.2686701906
 11
79.095884446
 21
94.5170389316
  0
LINE
  5
23E
100
AcDbEntity
  8
1
100
AcDbLine
 62
7
  6
BYLAYER
 10
79.2757784881
 20
98.7296054197
 11
79.2757784881
 21
97.9779741607
  0
LINE
  5
23F
100
AcDbEntity
  8
1
100
AcDbLine
 62
7
  6
BYLAYER
 10
79.2758083833
 20
93.8323756423
 11
79.2758083833
 21
94.5840069013
  0
LINE
  5
240
100
AcDbEntity
  8
1
100
AcDbLine
 62
7
  6
BYLAYER
 10
79.5417595232
 20
94.5868066743
 11
79.5417595232
 21
96.699023269
  0
LINE
  5
241
100
AcDbEntity
  8
1
100
AcDbLine
 62
7
  6
BYLAYER
 10
79.7680270997
 20
96.3256185709
 11
79.7680270997
 21
98.4310498593
  0
LINE
  5
242
100
AcDbEntity
  8
1
100
AcDbLine
 62
7
  6
BYLAYER
 10
79.7680520801
 20
92.8615672305
 11
79.7680520801
 21
94.9669977665
  0
LINE
  5
243
100
AcDbEntity
  8
1
100
AcDbLine
 62
7
  6
BYLAYER
 10
82.4970876629
 20
102.4679744921
 11
82.4970876629
 21
103.2196057511
  0
LINE
  5
244
100
AcDbEntity
  8
1
100
AcDbLine
 62
7
  6
BYLAYER
 10
82.4971823156
 20
90.0940220562
 11
82.4971823156
 21
89.3423907972
  0
LINE
  5
245
100
AcDbEntity
  8
1
100
AcDbLine
 62
7
  6
BYLAYER
 10
82.9480966902
 20
144.1376652422
 11
82.9480966902
 21
146.1789212851
  0
LINE
  5
246
100
AcDbEntity
  8
1
100
AcDbLine
 62
7
  6
BYLAYER
 10
83.2084120667
 20
103.7771883956
 11
83.2084120667
 21
103.0255571366
  0
LINE
  5
247
100
AcDbEntity
  8
1
100
AcDbLine
 62
7
  6
BYLAYER
 10
83.2085147612
 20
88.7848115724
 11
83.2085147612
 21
89.5364428314
  0
LINE
  5
248
100
AcDbEntity
  8
1
100
AcDbLine
 62
7
  6
BYLAYER
 10
83.4382583442
 20
101.5603079242
 11
83.4382583442
 21
103.5467772267
  0
LINE
  5
249
100
AcDbEntity
  8
1
100
AcDbLine
 62
7
  6
BYLAYER
 10
83.4383571067
 20
87.864822189
 11
83.4383571067
 21
89.8512880436
  0
LINE
  5
24A
100
AcDbEntity
  8
1
100
AcDbLine
 62
7
  6
BYLAYER
 10
25.8653534959
 20
150.1599083956
 11
33.0101504578
 21
154.2849342218
  0
LINE
  5
24B
100
AcDbEntity
  8
1
100
AcDbLine
 62
7
  6
BYLAYER
 10
134.8639570251
 20
213.0899058431
 11
146.071552845
 21
219.5605756819
  0
LINE
  5
24C
100
AcDbEntity
  8
1
100
AcDbLine
 62
7
  6
BYLAYER
 10
38.1751232346
 20
156.3788129715
 11
33.8587416215
 21
153.8867637609
  0
LINE
  5
24D
100
AcDbEntity
  8
1
100
AcDbLine
 62
7
  6
BYLAYER
 10
131.9490372255
 20
209.7759038645
 11
126.7392703818
 21
206.7680615293
  0
LINE
  5
24E
100
AcDbEntity
  8
1
100
AcDbLine
 62
7
  6
BYLAYER
 10
173.0789702863
 20
232.7899838783
 11
151.1032733405
 21
220.1023850658
  0
LINE
  5
24F
100
AcDbEntity
  8
1
100
AcDbLine
 62
7
  6
BYLAYER
 10
139.1883356015
 20
212.1553932848
 11
142.7302414839
 21
214.200301393
  0
LINE
  5
250
100
AcDbEntity
  8
1
100
AcDbLine
 62
7
  6
BYLAYER
 10
163.2047015676
 20
225.3396117608
 11
172.3205334515
 21
230.602608337
  0
LINE
  5
251
100
AcDbEntity
  8
1
100
AcDbLine
 62
7
  6
BYLAYER
 10
131.9490372255
 20
206.1837938142
 11
126.7392703818
 21
203.1759514789
  0
LINE
  5
252
100
AcDbEntity
  8
1
100
AcDbLine
 62
7
  6
BYLAYER
 10
146.895943619
 20
211.7952865527
 11
143.3540377366
 21
209.7503784444
  0
LINE
  5
253
100
AcDbEntity
  8
1
100
AcDbLine
 62
7
  6
BYLAYER
 10
64.3322053031
 20
144.543282275
 11
59.167256078
 21
147.5251996404
  0
LINE
  5
254
100
AcDbEntity
  8
1
100
AcDbLine
 62
7
  6
BYLAYER
 10
33.0101504578
 20
162.6266699705
 11
38.1750996828
 21
159.6447526051
  0
LINE
  5
255
100
AcDbEntity
  8
2
100
AcDbLine
 62
7
  6
BYLAYER
 10
79.5565765768
 20
137.236159338
 11
77.6122572883
 21
138.3586872077
  0
LINE
  5
256
100
AcDbEntity
  8
2
100
AcDbLine
 62
7
  6
BYLAYER
 10
44.3458831545
 20
157.5646027729
 11
46.290202443
 21
156.4420749033
  0
LINE
  5
257
100
AcDbEntity
  8
1
100
AcDbLine
 62
7
  6
BYLAYER
 10
112.1784447634
 20
109.6697102542
 11
112.6348821855
 21
109.080445337
  0
LINE
  5
258
100
AcDbEntity
  8
1
100
AcDbLine
 62
7
  6
BYLAYER
 10
83.941759523
 20
98.1356639738
 11
83.941759523
 21
105.545037788
  0
LINE
  5
259
100
AcDbEntity
  8
1
100
AcDbLine
 62
7
  6
BYLAYER
 10
84.3882201789
 20
103.8178534898
 11
84.3882201789
 21
104.5694847488
  0
LINE
  5
25A
100
AcDbEntity
  8
1
100
AcDbLine
 62
7
  6
BYLAYER
 10
84.3883343004
 20
88.74415215
 11
84.3883343004
 21
87.992520891
  0
LINE
  5
25B
100
AcDbEntity
  8
1
100
AcDbLine
 62
7
  6
BYLAYER
 10
84.691759523
 20
111.9268414225
 11
84.691759523
 21
116.8258559253
  0
LINE
  5
25C
100
AcDbEntity
  8
1
100
AcDbLine
 62
7
  6
BYLAYER
 10
85.2363629475
 20
105.0591572816
 11
85.2363629475
 21
104.3075260226
  0
LINE
  5
25D
100
AcDbEntity
  8
1
100
AcDbLine
 62
7
  6
BYLAYER
 10
85.2364841314
 20
87.5028524356
 11
85.2364841314
 21
88.2544836946
  0
LINE
  5
25E
100
AcDbEntity
  8
1
100
AcDbLine
 62
7
  6
BYLAYER
 10
85.39956502
 20
102.9489230835
 11
85.39956502
 21
104.8638864335
  0
LINE
  5
25F
100
AcDbEntity
  8
1
100
AcDbLine
 62
7
  6
BYLAYER
 10
85.3996827787
 20
86.6192294021
 11
85.3996827787
 21
88.5341882656
  0
LINE
  5
260
100
AcDbEntity
  8
1
100
AcDbLine
 62
7
  6
BYLAYER
 10
85.441759523
 20
106.2521496235
 11
85.441759523
 21
111.3144646097
  0
LINE
  5
261
100
AcDbEntity
  8
1
100
AcDbLine
 62
7
  6
BYLAYER
 10
86.6086702803
 20
104.9886854132
 11
86.6086702803
 21
105.7403166723
  0
LINE
  5
262
100
AcDbEntity
  8
1
100
AcDbLine
 62
7
  6
BYLAYER
 10
86.6088012883
 20
87.5733309013
 11
86.6088012883
 21
86.8216996422
  0
LINE
  5
263
100
AcDbEntity
  8
1
100
AcDbLine
 62
7
  6
BYLAYER
 10
87.5744396334
 20
106.1509987801
 11
87.5744396334
 21
105.3993675211
  0
LINE
  5
264
100
AcDbEntity
  8
1
100
AcDbLine
 62
7
  6
BYLAYER
 10
87.5745765645
 20
86.4110221773
 11
87.5745765645
 21
87.1626534363
  0
LINE
  5
265
100
AcDbEntity
  8
1
100
AcDbLine
 62
7
  6
BYLAYER
 10
87.6808813675
 20
104.1732093402
 11
87.6808813675
 21
105.9962421499
  0
LINE
  5
266
100
AcDbEntity
  8
1
100
AcDbLine
 62
7
  6
BYLAYER
 10
87.6810154576
 20
85.5788164309
 11
87.6810154576
 21
87.4018435164
  0
LINE
  5
267
100
AcDbEntity
  8
1
100
AcDbLine
 62
7
  6
BYLAYER
 10
88.3480966902
 20
144.1376652422
 11
88.3480966902
 21
146.1789212851
  0
LINE
  5
268
100
AcDbEntity
  8
1
100
AcDbLine
 62
7
  6
BYLAYER
 10
89.441759523
 20
92.0097811501
 11
89.441759523
 21
92.2547318752
  0
LINE
  5
269
100
AcDbEntity
  8
1
100
AcDbLine
 62
7
  6
BYLAYER
 10
90.441759523
 20
91.8865223191
 11
90.441759523
 21
92.1308504671
  0
LINE
  5
26A
100
AcDbEntity
  8
1
100
AcDbLine
 62
7
  6
BYLAYER
 10
167.3903001542
 20
223.0076039924
 11
173.0088715993
 21
226.2514683654
  0
LINE
  5
26B
100
AcDbEntity
  8
1
100
AcDbLine
 62
7
  6
BYLAYER
 10
33.8587416215
 20
145.5450280121
 11
38.1751232346
 21
148.0370772228
  0
LINE
  5
26C
100
AcDbEntity
  8
1
100
AcDbLine
 62
7
  6
BYLAYER
 10
133.5546717135
 20
202.8332767525
 11
138.7760553086
 21
205.8478259823
  0
LINE
  5
26D
100
AcDbEntity
  8
1
100
AcDbLine
 62
7
  6
BYLAYER
 10
172.392556327
 20
222.6535533569
 11
170.2712453209
 21
221.4288211871
  0
LINE
  5
26E
100
AcDbEntity
  8
1
100
AcDbLine
 62
7
  6
BYLAYER
 10
133.5546717135
 20
199.2411667021
 11
138.7760553086
 21
202.2557159319
  0
LINE
  5
26F
100
AcDbEntity
  8
2
100
AcDbLine
 62
7
  6
BYLAYER
 10
35.5264077798
 20
139.0180479195
 11
34.6071727914
 21
138.4873305195
  0
LINE
  5
270
100
AcDbEntity
  8
1
100
AcDbLine
 62
7
  6
BYLAYER
 10
95.3514326893
 20
107.2592020397
 11
95.3514326893
 21
108.0108332987
  0
LINE
  5
271
100
AcDbEntity
  8
1
100
AcDbLine
 62
7
  6
BYLAYER
 10
95.3515964437
 20
85.3028563049
 11
95.3515964437
 21
84.5512250459
  0
LINE
  5
272
100
AcDbEntity
  8
1
100
AcDbLine
 62
7
  6
BYLAYER
 10
96.5373212457
 20
108.1147109473
 11
96.5373212457
 21
107.3630796883
  0
LINE
  5
273
100
AcDbEntity
  8
1
100
AcDbLine
 62
7
  6
BYLAYER
 10
96.5374864983
 20
84.4473530984
 11
96.5374864983
 21
85.1989843574
  0
LINE
  5
274
100
AcDbEntity
  8
1
100
AcDbLine
 62
7
  6
BYLAYER
 10
96.5416771972
 20
106.8359445783
 11
96.5416771972
 21
108.1152634514
  0
LINE
  5
275
100
AcDbEntity
  8
1
100
AcDbLine
 62
7
  6
BYLAYER
 10
96.5418418489
 20
84.0035626226
 11
96.5418418489
 21
85.2828648125
  0
LINE
  5
276
100
AcDbEntity
  8
1
100
AcDbLine
 62
7
  6
BYLAYER
 10
98.34194633
 20
107.4416700532
 11
98.34194633
 21
108.1933013122
  0
LINE
  5
277
100
AcDbEntity
  8
1
100
AcDbLine
 62
7
  6
BYLAYER
 10
98.342112716
 20
85.1204026681
 11
98.342112716
 21
84.3687714091
  0
LINE
  5
278
100
AcDbEntity
  8
1
100
AcDbLine
 62
7
  6
BYLAYER
 10
53.5104018286
 20
147.525186043
 11
49.1940202156
 21
145.0331368323
  0
LINE
  5
279
100
AcDbEntity
  8
2
100
AcDbLine
 62
7
  6
BYLAYER
 10
41.3139987884
 20
139.9346276885
 11
39.9640406476
 21
139.1552336449
  0
LINE
  5
27A
100
AcDbEntity
  8
1
100
AcDbLine
 62
7
  6
BYLAYER
 10
42.8396208794
 20
140.0648865258
 11
36.9014016241
 21
136.6364745051
  0
LINE
  5
27B
100
AcDbEntity
  8
1
100
AcDbLine
 62
7
  6
BYLAYER
 10
192.8716858088
 20
214.7839266652
 11
196.6604485035
 21
216.5502697361
  0
LINE
  5
27C
100
AcDbEntity
  8
1
100
AcDbLine
 62
7
  6
BYLAYER
 10
114.1580783738
 20
95.3420922234
 11
114.2602013191
 21
95.0381673297
  0
LINE
  5
27D
100
AcDbEntity
  8
1
100
AcDbLine
 62
7
  6
BYLAYER
 10
112.1020273786
 20
98.1629694087
 11
112.0142922596
 21
98.4460622886
  0
LINE
  5
27E
100
AcDbEntity
  8
1
100
AcDbLine
 62
7
  6
BYLAYER
 10
111.2971440466
 20
94.1402710499
 11
111.3800660904
 21
93.8282802423
  0
LINE
  5
27F
100
AcDbEntity
  8
1
100
AcDbLine
 62
7
  6
BYLAYER
 10
110.1128974827
 20
98.0404491768
 11
110.0384232297
 21
98.3243588582
  0
LINE
  5
280
100
AcDbEntity
  8
1
100
AcDbLine
 62
7
  6
BYLAYER
 10
109.5548787614
 20
96.629965692
 11
109.4841246332
 21
96.9232785966
  0
LINE
  5
281
100
AcDbEntity
  8
1
100
AcDbLine
 62
7
  6
BYLAYER
 10
107.3257422441
 20
100.9204965333
 11
107.269849026
 21
101.1852058989
  0
LINE
  5
282
100
AcDbEntity
  8
1
100
AcDbLine
 62
7
  6
BYLAYER
 10
105.703035911
 20
98.8537778892
 11
105.6579607351
 21
99.1322653792
  0
LINE
  5
283
100
AcDbEntity
  8
1
100
AcDbLine
 62
7
  6
BYLAYER
 10
105.3911961537
 20
100.2957707166
 11
105.3481999095
 21
100.564644921
  0
LINE
  5
284
100
AcDbEntity
  8
1
100
AcDbLine
 62
7
  6
BYLAYER
 10
99.54140633
 20
108.1933041953
 11
99.54140633
 21
107.4416729363
  0
LINE
  5
285
100
AcDbEntity
  8
1
100
AcDbLine
 62
7
  6
BYLAYER
 10
99.541572716
 20
84.3687742922
 11
99.541572716
 21
85.1204055512
  0
LINE
  5
286
100
AcDbEntity
  8
1
100
AcDbLine
 62
7
  6
BYLAYER
 10
101.3416771971
 20
106.8359756837
 11
101.3416771971
 21
108.1152778736
  0
LINE
  5
287
100
AcDbEntity
  8
1
100
AcDbLine
 62
7
  6
BYLAYER
 10
101.3418418488
 20
84.0035603617
 11
101.3418418488
 21
85.2828792347
  0
LINE
  5
288
100
AcDbEntity
  8
1
100
AcDbLine
 62
7
  6
BYLAYER
 10
101.3460325476
 20
107.363091247
 11
101.3460325476
 21
108.114722506
  0
LINE
  5
289
100
AcDbEntity
  8
1
100
AcDbLine
 62
7
  6
BYLAYER
 10
101.3461978002
 20
85.1989959161
 11
101.3461978002
 21
84.4473646571
  0
LINE
  5
28A
100
AcDbEntity
  8
1
100
AcDbLine
 62
7
  6
BYLAYER
 10
102.5319226022
 20
108.0108505585
 11
102.5319226022
 21
107.2592192995
  0
LINE
  5
28B
100
AcDbEntity
  8
1
100
AcDbLine
 62
7
  6
BYLAYER
 10
102.5320863567
 20
84.5512423057
 11
102.5320863567
 21
85.3028735647
  0
LINE
  5
28C
100
AcDbEntity
  8
1
100
AcDbLine
 62
7
  6
BYLAYER
 10
92.4923228922
 20
85.7440928767
 11
92.5353191364
 21
86.1099782667
  0
LINE
  5
28D
100
AcDbEntity
  8
1
100
AcDbLine
 62
7
  6
BYLAYER
 10
92.180483135
 20
86.5989135774
 11
92.2255583109
 21
86.9591001628
  0
LINE
  5
28E
100
AcDbEntity
  8
1
100
AcDbLine
 62
7
  6
BYLAYER
 10
90.5577768018
 20
85.7244647866
 11
90.61367002
 21
86.0904810306
  0
LINE
  5
28F
100
AcDbEntity
  8
1
100
AcDbLine
 62
7
  6
BYLAYER
 10
88.3286402846
 20
88.8227257746
 11
88.3993944128
 21
89.1680869453
  0
LINE
  5
290
100
AcDbEntity
  8
1
100
AcDbLine
 62
7
  6
BYLAYER
 10
87.7706215632
 20
87.9994144164
 11
87.8450958163
 21
88.3502643295
  0
LINE
  5
291
100
AcDbEntity
  8
1
100
AcDbLine
 62
7
  6
BYLAYER
 10
85.7814916673
 20
88.4819919111
 11
85.8692267864
 21
88.8296246409
  0
LINE
  5
292
100
AcDbEntity
  8
1
100
AcDbLine
 62
7
  6
BYLAYER
 10
86.5863749993
 20
94.1402710499
 11
86.5034529555
 21
93.8282802423
  0
LINE
  5
293
100
AcDbEntity
  8
1
100
AcDbLine
 62
7
  6
BYLAYER
 10
83.7254406722
 20
95.3420922234
 11
83.6233177269
 21
95.0381673297
  0
LINE
  5
294
100
AcDbEntity
  8
1
100
AcDbLine
 62
7
  6
BYLAYER
 10
49.1940202156
 20
136.6914010836
 11
53.5104018286
 21
139.1834502942
  0
LINE
  5
295
100
AcDbEntity
  8
1
100
AcDbLine
 62
7
  6
BYLAYER
 10
64.3322053031
 20
144.543282275
 11
166.1860118704
 21
203.3482538962
  0
LINE
  5
296
100
AcDbEntity
  8
1
100
AcDbLine
 62
7
  6
BYLAYER
 10
55.8661911698
 20
139.1467245334
 11
52.4336647316
 21
137.1649662998
  0
LINE
  5
297
100
AcDbEntity
  8
1
100
AcDbLine
 62
7
  6
BYLAYER
 10
187.2531143638
 20
211.5400622922
 11
192.8716858088
 21
214.7839266652
  0
LINE
  5
298
100
AcDbEntity
  8
1
100
AcDbLine
 62
7
  6
BYLAYER
 10
187.5446166196
 20
211.2872731598
 11
196.6604485035
 21
216.5502697361
  0
LINE
  5
299
100
AcDbEntity
  8
1
100
AcDbLine
 62
7
  6
BYLAYER
 10
55.8922571415
 20
135.168192214
 11
59.3247835797
 21
137.1499504476
  0
LINE
  5
29A
100
AcDbEntity
  8
1
100
AcDbLine
 62
7
  6
BYLAYER
 10
25.8653534959
 20
117.8264126773
 11
146.071552845
 21
187.2270799636
  0
LINE
  5
29B
100
AcDbEntity
  8
1
100
AcDbLine
 62
7
  6
BYLAYER
 10
200.5526830568
 20
216.9283872519
 11
175.5212072195
 21
202.4765442048
  0
LINE
  5
29C
100
AcDbEntity
  8
1
100
AcDbLine
 62
7
  6
BYLAYER
 10
107.441759523
 20
91.8865223191
 11
107.441759523
 21
92.1308504671
  0
LINE
  5
29D
100
AcDbEntity
  8
1
100
AcDbLine
 62
7
  6
BYLAYER
 10
108.441759523
 20
92.0097811501
 11
108.441759523
 21
92.2547318752
  0
LINE
  5
29E
100
AcDbEntity
  8
1
100
AcDbLine
 62
7
  6
BYLAYER
 10
109.5354223557
 20
128.7878128723
 11
109.5354223557
 21
130.8290689151
  0
LINE
  5
29F
100
AcDbEntity
  8
1
100
AcDbLine
 62
7
  6
BYLAYER
 10
110.2025035884
 20
104.1732720841
 11
110.2025035884
 21
105.9962991697
  0
LINE
  5
2A0
100
AcDbEntity
  8
1
100
AcDbLine
 62
7
  6
BYLAYER
 10
110.2026376785
 20
85.5788677265
 11
110.2026376785
 21
87.4019005362
  0
LINE
  5
2A1
100
AcDbEntity
  8
1
100
AcDbLine
 62
7
  6
BYLAYER
 10
110.3089424815
 20
105.3994221681
 11
110.3089424815
 21
106.1510534271
  0
LINE
  5
2A2
100
AcDbEntity
  8
1
100
AcDbLine
 62
7
  6
BYLAYER
 10
110.3090794125
 20
87.1627080833
 11
110.3090794125
 21
86.4110768243
  0
LINE
  5
2A3
100
AcDbEntity
  8
1
100
AcDbLine
 62
7
  6
BYLAYER
 10
111.2747177577
 20
105.7403759621
 11
111.2747177577
 21
104.9887447031
  0
LINE
  5
2A4
100
AcDbEntity
  8
1
100
AcDbLine
 62
7
  6
BYLAYER
 10
111.2748487656
 20
86.8217589321
 11
111.2748487656
 21
87.5733901911
  0
LINE
  5
2A5
100
AcDbEntity
  8
1
100
AcDbLine
 62
7
  6
BYLAYER
 10
112.441759523
 20
106.2521496235
 11
112.441759523
 21
111.3144646097
  0
LINE
  5
2A6
100
AcDbEntity
  8
1
100
AcDbLine
 62
7
  6
BYLAYER
 10
112.4838362673
 20
102.948995557
 11
112.4838362673
 21
104.8639544205
  0
LINE
  5
2A7
100
AcDbEntity
  8
1
100
AcDbLine
 62
7
  6
BYLAYER
 10
112.4839540259
 20
86.6192929027
 11
112.4839540259
 21
88.5342562526
  0
LINE
  5
2A8
100
AcDbEntity
  8
1
100
AcDbLine
 62
7
  6
BYLAYER
 10
112.6470349146
 20
104.3075919097
 11
112.6470349146
 21
105.0592231688
  0
LINE
  5
2A9
100
AcDbEntity
  8
1
100
AcDbLine
 62
7
  6
BYLAYER
 10
112.6471560985
 20
88.2545495818
 11
112.6471560985
 21
87.5029183228
  0
LINE
  5
2AA
100
AcDbEntity
  8
1
100
AcDbLine
 62
7
  6
BYLAYER
 10
113.191759523
 20
111.9268414225
 11
113.191759523
 21
116.8258559253
  0
LINE
  5
2AB
100
AcDbEntity
  8
1
100
AcDbLine
 62
7
  6
BYLAYER
 10
113.4951847455
 20
104.5695547133
 11
113.4951847455
 21
103.8179234543
  0
LINE
  5
2AC
100
AcDbEntity
  8
1
100
AcDbLine
 62
7
  6
BYLAYER
 10
113.4952988671
 20
87.9925908556
 11
113.4952988671
 21
88.7442221146
  0
LINE
  5
2AD
100
AcDbEntity
  8
1
100
AcDbLine
 62
7
  6
BYLAYER
 10
113.941759523
 20
98.1356639738
 11
113.941759523
 21
105.545037788
  0
LINE
  5
2AE
100
AcDbEntity
  8
1
100
AcDbLine
 62
7
  6
BYLAYER
 10
139.1883356015
 20
179.8218975665
 11
142.7302414839
 21
181.8668056747
  0
LINE
  5
2AF
100
AcDbEntity
  8
1
100
AcDbLine
 62
7
  6
BYLAYER
 10
177.3936076902
 20
201.4771879864
 11
166.1860118704
 21
195.0065181475
  0
LINE
  5
2B0
100
AcDbEntity
  8
1
100
AcDbLine
 62
7
  6
BYLAYER
 10
57.1874083412
 20
132.0765207
 11
64.3322053031
 21
136.2015465262
  0
LINE
  5
2B1
100
AcDbEntity
  8
1
100
AcDbLine
 62
7
  6
BYLAYER
 10
146.895943619
 20
179.4617908343
 11
143.3540377366
 21
177.4168827261
  0
LINE
  5
2B2
100
AcDbEntity
  8
1
100
AcDbLine
 62
7
  6
BYLAYER
 10
52.0895794682
 20
124.0433926471
 11
46.151360213
 21
120.6149806264
  0
LINE
  5
2B3
100
AcDbEntity
  8
2
100
AcDbLine
 62
7
  6
BYLAYER
 10
51.2139544673
 20
122.7872991049
 11
49.84605194
 21
121.9975449267
  0
LINE
  5
2B4
100
AcDbEntity
  8
1
100
AcDbLine
 62
7
  6
BYLAYER
 10
114.4451619392
 20
101.560388788
 11
114.4451619392
 21
103.5468546426
  0
LINE
  5
2B5
100
AcDbEntity
  8
1
100
AcDbLine
 62
7
  6
BYLAYER
 10
114.4452607018
 20
87.864896157
 11
114.4452607018
 21
89.8513654594
  0
LINE
  5
2B6
100
AcDbEntity
  8
1
100
AcDbLine
 62
7
  6
BYLAYER
 10
114.6750042847
 20
103.0256327729
 11
114.6750042847
 21
103.777264032
  0
LINE
  5
2B7
100
AcDbEntity
  8
1
100
AcDbLine
 62
7
  6
BYLAYER
 10
114.6751069793
 20
89.5365184678
 11
114.6751069793
 21
88.7848872088
  0
LINE
  5
2B8
100
AcDbEntity
  8
1
100
AcDbLine
 62
7
  6
BYLAYER
 10
114.9354223557
 20
128.7878128723
 11
114.9354223557
 21
130.8290689151
  0
LINE
  5
2B9
100
AcDbEntity
  8
1
100
AcDbLine
 62
7
  6
BYLAYER
 10
115.3863367303
 20
103.2196848072
 11
115.3863367303
 21
102.4680535482
  0
LINE
  5
2BA
100
AcDbEntity
  8
1
100
AcDbLine
 62
7
  6
BYLAYER
 10
115.3864313831
 20
89.3424698532
 11
115.3864313831
 21
90.0941011123
  0
LINE
  5
2BB
100
AcDbEntity
  8
1
100
AcDbLine
 62
7
  6
BYLAYER
 10
118.1154669659
 20
96.3257143836
 11
118.1154669659
 21
98.4311449196
  0
LINE
  5
2BC
100
AcDbEntity
  8
1
100
AcDbLine
 62
7
  6
BYLAYER
 10
118.1154919463
 20
92.8616615385
 11
118.1154919463
 21
94.9670928268
  0
LINE
  5
2BD
100
AcDbEntity
  8
1
100
AcDbLine
 62
7
  6
BYLAYER
 10
118.3417595228
 20
94.5869028225
 11
118.3417595228
 21
96.6991194171
  0
LINE
  5
2BE
100
AcDbEntity
  8
1
100
AcDbLine
 62
7
  6
BYLAYER
 10
118.6077106626
 20
97.978068703
 11
118.6077106626
 21
98.7296999621
  0
LINE
  5
2BF
100
AcDbEntity
  8
1
100
AcDbLine
 62
7
  6
BYLAYER
 10
118.6077405579
 20
94.5841014437
 11
118.6077405579
 21
93.8324701847
  0
LINE
  5
2C0
100
AcDbEntity
  8
1
100
AcDbLine
 62
7
  6
BYLAYER
 10
118.7876346
 20
98.0450366727
 11
118.7876346
 21
97.2934054137
  0
LINE
  5
2C1
100
AcDbEntity
  8
1
100
AcDbLine
 62
7
  6
BYLAYER
 10
118.7876546205
 20
94.5171343389
 11
118.7876546205
 21
95.2687655979
  0
LINE
  5
2C2
100
AcDbEntity
  8
1
100
AcDbLine
 62
7
  6
BYLAYER
 10
118.9237590509
 20
97.0031507895
 11
118.9237640447
 21
95.5590208766
  0
LINE
  5
2C3
100
AcDbEntity
  8
1
100
AcDbLine
 62
7
  6
BYLAYER
 10
120.691759523
 20
138.5039951001
 11
120.691759523
 21
141.933305252
  0
LINE
  5
2C4
100
AcDbEntity
  8
1
100
AcDbLine
 62
7
  6
BYLAYER
 10
113.4324986966
 20
116.5267068401
 11
114.7734033142
 21
138.1771641703
  0
LINE
  5
2C5
100
AcDbEntity
  8
1
100
AcDbLine
 62
7
  6
BYLAYER
 10
85.7050742825
 20
109.6697102542
 11
85.2486368605
 21
109.080445337
  0
LINE
  5
2C6
100
AcDbEntity
  8
2
100
AcDbLine
 62
7
  6
BYLAYER
 10
47.5263540573
 20
118.233407212
 11
46.6071190689
 21
117.702689812
  0
LINE
  5
2C7
100
AcDbEntity
  8
1
100
AcDbLine
 62
7
  6
BYLAYER
 10
126.7392703818
 20
203.1759514789
 11
126.7392703818
 21
206.7680615293
  0
LINE
  5
2C8
100
AcDbEntity
  8
1
100
AcDbLine
 62
7
  6
BYLAYER
 10
52.4336647316
 20
104.8314705815
 11
55.8661911698
 21
106.8132288151
  0
LINE
  5
2C9
100
AcDbEntity
  8
1
100
AcDbLine
 62
7
  6
BYLAYER
 10
131.0625253082
 20
208.2258573745
 11
131.0625253082
 21
212.4174337287
  0
LINE
  5
2CA
100
AcDbEntity
  8
2
100
AcDbLine
 62
7
  6
BYLAYER
 10
131.0625253082
 20
212.4174337287
 11
131.0625253082
 21
214.6628153758
  0
LINE
  5
2CB
100
AcDbEntity
  8
1
100
AcDbLine
 62
7
  6
BYLAYER
 10
131.9490372255
 20
206.1837938142
 11
131.9490372255
 21
209.7759038645
  0
LINE
  5
2CC
100
AcDbEntity
  8
1
100
AcDbLine
 62
7
  6
BYLAYER
 10
133.5546717135
 20
199.2411667021
 11
133.5546717135
 21
202.8332767525
  0
LINE
  5
2CD
100
AcDbEntity
  8
1
100
AcDbLine
 62
7
  6
BYLAYER
 10
134.8639570251
 20
213.0899058431
 11
134.8639570251
 21
221.4316415918
  0
LINE
  5
2CE
100
AcDbEntity
  8
1
100
AcDbLine
 62
7
  6
BYLAYER
 10
159.3122629907
 20
208.1362123786
 11
163.0119374881
 21
216.0407166042
  0
LINE
  5
2CF
100
AcDbEntity
  8
1
100
AcDbLine
 62
7
  6
BYLAYER
 10
59.3247835797
 20
104.8164547293
 11
55.8922571415
 21
102.8346964957
  0
LINE
  5
2D0
100
AcDbEntity
  8
1
100
AcDbLine
 62
7
  6
BYLAYER
 10
200.5526830568
 20
185.2043669944
 11
175.5212072195
 21
170.7525239473
  0
LINE
  5
2D1
100
AcDbEntity
  8
1
100
AcDbLine
 62
7
  6
BYLAYER
 10
57.1874083412
 20
99.7430249817
 11
177.3936076902
 21
169.143692268
  0
LINE
  5
2D2
100
AcDbEntity
  8
1
100
AcDbLine
 62
7
  6
BYLAYER
 10
138.7760553086
 20
205.8478259823
 11
138.7760553086
 21
202.2557159319
  0
LINE
  5
2D3
100
AcDbEntity
  8
1
100
AcDbLine
 62
7
  6
BYLAYER
 10
139.1883356015
 20
179.8218975665
 11
139.1883356015
 21
212.1553932848
  0
LINE
  5
2D4
100
AcDbEntity
  8
1
100
AcDbLine
 62
7
  6
BYLAYER
 10
141.3059658348
 20
209.3706944625
 11
141.3059658348
 21
217.7124302112
  0
LINE
  5
2D5
100
AcDbEntity
  8
1
100
AcDbLine
 62
7
  6
BYLAYER
 10
142.7302414839
 20
214.200301393
 11
142.7302414839
 21
181.8668056747
  0
LINE
  5
2D6
100
AcDbEntity
  8
1
100
AcDbLine
 62
7
  6
BYLAYER
 10
143.250696914
 20
217.4155993676
 11
143.250696914
 21
209.0738636189
  0
LINE
  5
2D7
100
AcDbEntity
  8
1
100
AcDbLine
 62
7
  6
BYLAYER
 10
143.3540377366
 20
209.7503784444
 11
143.3540377366
 21
177.4168827261
  0
LINE
  5
2D8
100
AcDbEntity
  8
1
100
AcDbLine
 62
7
  6
BYLAYER
 10
163.0119374881
 20
207.6989808555
 11
159.3122629907
 21
199.7944766299
  0
LINE
  5
2D9
100
AcDbEntity
  8
1
100
AcDbLine
 62
7
  6
BYLAYER
 10
146.071552845
 20
187.2270799636
 11
146.071552845
 21
219.5605756819
  0
LINE
  5
2DA
100
AcDbEntity
  8
1
100
AcDbLine
 62
7
  6
BYLAYER
 10
146.895943619
 20
179.4617908343
 11
146.895943619
 21
211.7952865527
  0
LINE
  5
2DB
100
AcDbEntity
  8
1
100
AcDbLine
 62
7
  6
BYLAYER
 10
146.9105346106
 20
179.6550140795
 11
146.9105346106
 21
211.9885097978
  0
LINE
  5
2DC
100
AcDbEntity
  8
1
100
AcDbLine
 62
7
  6
BYLAYER
 10
148.0474944489
 20
205.9338603234
 11
148.0474944489
 21
186.6141205738
  0
LINE
  5
2DD
100
AcDbEntity
  8
1
100
AcDbLine
 62
7
  6
BYLAYER
 10
155.5625253082
 20
208.2258573745
 11
155.5625253082
 21
212.4174337287
  0
LINE
  5
2DE
100
AcDbEntity
  8
2
100
AcDbLine
 62
7
  6
BYLAYER
 10
155.5625253082
 20
212.4174337287
 11
155.5625253082
 21
214.6628153758
  0
LINE
  5
2DF
100
AcDbEntity
  8
1
100
AcDbLine
 62
7
  6
BYLAYER
 10
156.8587543447
 20
211.2353242499
 11
156.8587543447
 21
219.5770599987
  0
LINE
  5
2E0
100
AcDbEntity
  8
1
100
AcDbLine
 62
7
  6
BYLAYER
 10
159.2430128433
 20
207.8349941722
 11
159.2430128433
 21
199.4932584234
  0
LINE
  5
2E1
100
AcDbEntity
  8
1
100
AcDbLine
 62
7
  6
BYLAYER
 10
159.3122629907
 20
199.7944766299
 11
159.3122629907
 21
208.1362123786
  0
LINE
  5
2E2
100
AcDbEntity
  8
1
100
AcDbLine
 62
7
  6
BYLAYER
 10
159.8288051689
 20
207.0185058644
 11
159.8288051689
 21
198.6767701157
  0
LINE
  5
2E3
100
AcDbEntity
  8
1
100
AcDbLine
 62
7
  6
BYLAYER
 10
108.4879057637
 20
105.8033096594
 11
109.0182472208
 21
106.1095111968
  0
LINE
  5
2E4
100
AcDbEntity
  8
1
100
AcDbLine
 62
7
  6
BYLAYER
 10
143.250696914
 20
209.0738636189
 11
156.8587543447
 21
211.2353242499
  0
LINE
  5
2E5
100
AcDbEntity
  8
1
100
AcDbLine
 62
7
  6
BYLAYER
 10
177.3936076902
 20
169.143692268
 11
146.071552845
 21
187.2270799636
  0
LINE
  5
2E6
100
AcDbEntity
  8
1
100
AcDbLine
 62
7
  6
BYLAYER
 10
148.0474944489
 20
186.6141205738
 11
175.5212072195
 21
170.7525239473
  0
LINE
  5
2E7
100
AcDbEntity
  8
1
100
AcDbLine
 62
7
  6
BYLAYER
 10
126.7392703818
 20
203.1759514789
 11
133.5546717135
 21
199.2411667021
  0
LINE
  5
2E8
100
AcDbEntity
  8
1
100
AcDbLine
 62
7
  6
BYLAYER
 10
161.300225323
 20
199.7616313623
 11
161.300225323
 21
167.428135644
  0
LINE
  5
2E9
100
AcDbEntity
  8
1
100
AcDbLine
 62
7
  6
BYLAYER
 10
163.0119374881
 20
216.0407166042
 11
163.0119374881
 21
207.6989808555
  0
LINE
  5
2EA
100
AcDbEntity
  8
1
100
AcDbLine
 62
7
  6
BYLAYER
 10
163.1850628564
 20
208.4520263716
 11
163.1850628564
 21
216.7937621203
  0
LINE
  5
2EB
100
AcDbEntity
  8
1
100
AcDbLine
 62
7
  6
BYLAYER
 10
166.1860118704
 20
203.3482538962
 11
166.1860118704
 21
195.0065181475
  0
LINE
  5
2EC
100
AcDbEntity
  8
1
100
AcDbLine
 62
7
  6
BYLAYER
 10
167.256259478
 20
167.3874472438
 11
167.256259478
 21
199.7209429621
  0
LINE
  5
2ED
100
AcDbEntity
  8
1
100
AcDbLine
 62
7
  6
BYLAYER
 10
172.392556327
 20
222.6535533569
 11
173.0088715993
 21
226.2514683654
  0
LINE
  5
2EE
100
AcDbEntity
  8
1
100
AcDbLine
 62
7
  6
BYLAYER
 10
156.8587543447
 20
219.5770599987
 11
143.250696914
 21
217.4155993676
  0
LINE
  5
2EF
100
AcDbEntity
  8
1
100
AcDbLine
 62
7
  6
BYLAYER
 10
126.7392703818
 20
206.7680615293
 11
133.5546717135
 21
202.8332767525
  0
LINE
  5
2F0
100
AcDbEntity
  8
1
100
AcDbLine
 62
7
  6
BYLAYER
 10
172.392556327
 20
222.6535533569
 11
172.392556327
 21
220.2041094134
  0
LINE
  5
2F1
100
AcDbEntity
  8
1
100
AcDbLine
 62
7
  6
BYLAYER
 10
175.5212072195
 20
170.7525239473
 11
175.5212072195
 21
202.4765442048
  0
LINE
  5
2F2
100
AcDbEntity
  8
1
100
AcDbLine
 62
7
  6
BYLAYER
 10
166.1860118704
 20
195.0065181475
 11
159.8288051689
 21
198.6767701157
  0
LINE
  5
2F3
100
AcDbEntity
  8
1
100
AcDbLine
 62
7
  6
BYLAYER
 10
141.3059658348
 20
209.3706944625
 11
134.8639570251
 21
213.0899058431
  0
LINE
  5
2F4
100
AcDbEntity
  8
1
100
AcDbLine
 62
7
  6
BYLAYER
 10
177.3936076902
 20
201.4771879864
 11
177.3936076902
 21
169.143692268
  0
LINE
  5
2F5
100
AcDbEntity
  8
1
100
AcDbLine
 62
7
  6
BYLAYER
 10
134.8639570251
 20
221.4316415918
 11
141.3059658348
 21
217.7124302112
  0
LINE
  5
2F6
100
AcDbEntity
  8
1
100
AcDbLine
 62
7
  6
BYLAYER
 10
159.8288051689
 20
207.0185058644
 11
166.1860118704
 21
203.3482538962
  0
LINE
  5
2F7
100
AcDbEntity
  8
1
100
AcDbLine
 62
7
  6
BYLAYER
 10
175.5212072195
 20
202.4765442048
 11
155.5625253082
 21
213.9994338964
  0
LINE
  5
2F8
100
AcDbEntity
  8
1
100
AcDbLine
 62
7
  6
BYLAYER
 10
177.3936076902
 20
201.4771879864
 11
146.071552845
 21
219.5605756819
  0
LINE
  5
2F9
100
AcDbEntity
  8
1
100
AcDbLine
 62
7
  6
BYLAYER
 10
173.0088715993
 20
226.2514683654
 11
172.3205334515
 21
230.602608337
  0
LINE
  5
2FA
100
AcDbEntity
  8
1
100
AcDbLine
 62
7
  6
BYLAYER
 10
167.3903001542
 20
223.0076039924
 11
170.2712453209
 21
221.4288211871
  0
LINE
  5
2FB
100
AcDbEntity
  8
1
100
AcDbLine
 62
7
  6
BYLAYER
 10
163.2047015676
 20
225.3396117608
 11
167.3903001542
 21
223.0076039924
  0
LINE
  5
2FC
100
AcDbEntity
  8
1
100
AcDbLine
 62
7
  6
BYLAYER
 10
163.2047015676
 20
225.3396117608
 11
187.5446166196
 21
211.2872731598
  0
LINE
  5
2FD
100
AcDbEntity
  8
1
100
AcDbLine
 62
7
  6
BYLAYER
 10
170.2712453209
 20
221.4288211871
 11
187.3262893896
 21
211.5823096609
  0
LINE
  5
2FE
100
AcDbEntity
  8
1
100
AcDbLine
 62
7
  6
BYLAYER
 10
200.5526830568
 20
185.2043669944
 11
200.5526830568
 21
216.9283872519
  0
LINE
  5
2FF
100
AcDbEntity
  8
1
100
AcDbLine
 62
7
  6
BYLAYER
 10
189.4476003957
 20
212.8070418306
 11
172.392556327
 21
222.6535533569
  0
LINE
  5
300
100
AcDbEntity
  8
1
100
AcDbLine
 62
7
  6
BYLAYER
 10
196.6604485035
 20
216.5502697361
 11
172.3205334515
 21
230.602608337
  0
LINE
  5
301
100
AcDbEntity
  8
1
100
AcDbLine
 62
7
  6
BYLAYER
 10
187.5446166196
 20
211.2872731598
 11
187.2531143638
 21
211.5400622922
  0
LINE
  5
302
100
AcDbEntity
  8
1
100
AcDbLine
 62
7
  6
BYLAYER
 10
200.5526830568
 20
216.9283872519
 11
173.0789702863
 21
232.7899838783
  0
ARC
  5
303
100
AcDbEntity
  8
1
100
AcDbCircle
 62
7
  6
BYLAYER
 10
95.3176406358
 20
85.718469503
 40
21.1468222108
100
AcDbArc
 50
114.3200865666
 51
118.4720066099
  0
ARC
  5
304
100
AcDbEntity
  8
1
100
AcDbCircle
 62
7
  6
BYLAYER
 10
95.1880473333
 20
86.7312319792
 40
20.8554099405
100
AcDbArc
 50
114.2911017404
 51
118.5010451281
  0
ARC
  5
305
100
AcDbEntity
  8
1
100
AcDbCircle
 62
7
  6
BYLAYER
 10
95.1882198775
 20
86.773882115
 40
20.8544915452
100
AcDbArc
 50
114.2911013754
 51
118.50104549
  0
ARC
  5
306
100
AcDbEntity
  8
1
100
AcDbCircle
 62
7
  6
BYLAYER
 10
93.0599624605
 20
90.3804739309
 40
16.6290184968
100
AcDbArc
 50
121.4315651473
 51
126.3296713839
  0
ARC
  5
307
100
AcDbEntity
  8
1
100
AcDbCircle
 62
7
  6
BYLAYER
 10
93.0602298795
 20
90.4229640789
 40
16.6282861812
100
AcDbArc
 50
121.4315647153
 51
126.3296718081
  0
ARC
  5
308
100
AcDbEntity
  8
1
100
AcDbCircle
 62
7
  6
BYLAYER
 10
87.7228245681
 20
95.9824498641
 40
8.7787376762
100
AcDbArc
 50
191.8742087747
 51
197.534390531
  0
ARC
  5
309
100
AcDbEntity
  8
1
100
AcDbCircle
 62
7
  6
BYLAYER
 10
92.6871515129
 20
85.1987485381
 40
8.6590462624
100
AcDbArc
 50
0.0016368676
 51
0.2843694555
  0
ARC
  5
30A
100
AcDbEntity
  8
1
100
AcDbCircle
 62
7
  6
BYLAYER
 10
85.7497148584
 20
95.8940752662
 40
6.7993891282
100
AcDbArc
 50
168.1243364301
 51
176.9873648555
  0
ARC
  5
30B
100
AcDbEntity
  8
1
100
AcDbCircle
 62
7
  6
BYLAYER
 10
85.719693533
 20
95.9124455591
 40
6.7691629762
100
AcDbArc
 50
182.9936405783
 51
191.8962822371
  0
ARC
  5
30C
100
AcDbEntity
  8
1
100
AcDbCircle
 62
7
  6
BYLAYER
 10
96.7912032624
 20
85.3026291435
 40
5.74088317
100
AcDbArc
 50
0.0024393984
 51
0.4288433969
  0
ARC
  5
30D
100
AcDbEntity
  8
1
100
AcDbCircle
 62
7
  6
BYLAYER
 10
89.3963883459
 20
87.1623341098
 40
1.8218121316
100
AcDbArc
 50
178.6487620671
 51
179.9899572159
  0
ARC
  5
30E
100
AcDbEntity
  8
1
100
AcDbCircle
 62
7
  6
BYLAYER
 10
88.269067909
 20
87.5731959177
 40
1.6602665571
100
AcDbArc
 50
178.5242690847
 51
179.9953417174
  0
ARC
  5
30F
100
AcDbEntity
  8
1
100
AcDbCircle
 62
7
  6
BYLAYER
 10
86.7410666216
 20
88.2542040677
 40
1.5045828568
100
AcDbArc
 50
178.3671590897
 51
179.9893515704
  0
ARC
  5
310
100
AcDbEntity
  8
1
100
AcDbCircle
 62
7
  6
BYLAYER
 10
85.791332138
 20
88.7440326205
 40
1.4029977702
100
AcDbArc
 50
178.2563521287
 51
179.9951186414
  0
ARC
  5
311
100
AcDbEntity
  8
1
100
AcDbCircle
 62
7
  6
BYLAYER
 10
84.512934083
 20
89.5362066912
 40
1.3044196745
100
AcDbArc
 50
178.1209370984
 51
179.9896276904
  0
ARC
  5
312
100
AcDbEntity
  8
1
100
AcDbCircle
 62
7
  6
BYLAYER
 10
83.7346054223
 20
90.0939214871
 40
1.2374230416
100
AcDbArc
 50
178.0266231361
 51
179.9953433995
  0
ARC
  5
313
100
AcDbEntity
  8
1
100
AcDbCircle
 62
7
  6
BYLAYER
 10
80.3004866502
 20
94.5839343562
 40
1.0246783977
100
AcDbArc
 50
177.6294268559
 51
179.9959435743
  0
ARC
  5
314
100
AcDbEntity
  8
1
100
AcDbCircle
 62
7
  6
BYLAYER
 10
80.1072797713
 20
95.2686462198
 40
1.0113953061
100
AcDbArc
 50
177.6028030925
 51
179.998642045
  0
ARC
  5
315
100
AcDbEntity
  8
1
100
AcDbCircle
 62
7
  6
BYLAYER
 10
62.8331625164
 20
105.5013835491
 40
30.4663322224
100
AcDbArc
 50
324.9374975084
 51
326.8080497755
  0
ARC
  5
316
100
AcDbEntity
  8
1
100
AcDbCircle
 62
7
  6
BYLAYER
 10
63.5160924714
 20
105.4358544901
 40
29.7290667444
100
AcDbArc
 50
324.920687136
 51
326.8248495145
  0
ARC
  5
317
100
AcDbEntity
  8
1
100
AcDbCircle
 62
7
  6
BYLAYER
 10
95.3177470889
 20
106.8438227789
 40
21.1470635772
100
AcDbArc
 50
241.5283934491
 51
245.6802819883
  0
ARC
  5
318
100
AcDbEntity
  8
1
100
AcDbCircle
 62
7
  6
BYLAYER
 10
95.3179141721
 20
106.8855974641
 40
21.1461329049
100
AcDbArc
 50
241.5283931522
 51
245.680282297
  0
ARC
  5
319
100
AcDbEntity
  8
1
100
AcDbCircle
 62
7
  6
BYLAYER
 10
95.1881553704
 20
105.8310590946
 40
20.8556509244
100
AcDbArc
 50
241.4993554473
 51
245.7092662955
  0
ARC
  5
31A
100
AcDbEntity
  8
1
100
AcDbCircle
 62
7
  6
BYLAYER
 10
93.0600875588
 20
102.1817860489
 40
16.629241241
100
AcDbArc
 50
233.6707971657
 51
238.5688595643
  0
ARC
  5
31B
100
AcDbEntity
  8
1
100
AcDbCircle
 62
7
  6
BYLAYER
 10
92.8169572278
 20
100.069305001
 40
15.4005206163
100
AcDbArc
 50
231.5346104617
 51
232.0950366684
  0
ARC
  5
31C
100
AcDbEntity
  8
1
100
AcDbCircle
 62
7
  6
BYLAYER
 10
93.2629939375
 20
108.1149309423
 40
8.0830385718
100
AcDbArc
 50
359.9985225208
 51
0.2941591422
  0
ARC
  5
31D
100
AcDbEntity
  8
1
100
AcDbCircle
 62
7
  6
BYLAYER
 10
85.7497413742
 20
96.6680040416
 40
6.7994158748
100
AcDbArc
 50
183.0134651287
 51
191.8764695914
  0
ARC
  5
31E
100
AcDbEntity
  8
1
100
AcDbCircle
 62
7
  6
BYLAYER
 10
85.7472534643
 20
96.7098923843
 40
6.7960218305
100
AcDbArc
 50
183.012054813
 51
191.8750593203
  0
ARC
  5
31F
100
AcDbEntity
  8
1
100
AcDbCircle
 62
7
  6
BYLAYER
 10
85.7196702967
 20
96.6496328852
 40
6.7691395881
100
AcDbArc
 50
168.1045258732
 51
177.0071873386
  0
ARC
  5
320
100
AcDbEntity
  8
1
100
AcDbCircle
 62
7
  6
BYLAYER
 10
85.7202636945
 20
96.6918506229
 40
6.7688415681
100
AcDbArc
 50
168.1045251442
 51
177.0071880595
  0
ARC
  5
321
100
AcDbEntity
  8
1
100
AcDbCircle
 62
7
  6
BYLAYER
 10
89.288823614
 20
106.1511376767
 40
1.714384055
100
AcDbArc
 50
178.6077120737
 51
180.0046420104
  0
ARC
  5
322
100
AcDbEntity
  8
1
100
AcDbCircle
 62
7
  6
BYLAYER
 10
88.1749342689
 20
105.7406168824
 40
1.5662636632
100
AcDbArc
 50
178.4812315236
 51
180.0109820409
  0
ARC
  5
323
100
AcDbEntity
  8
1
100
AcDbCircle
 62
7
  6
BYLAYER
 10
86.6622529624
 20
105.0592812671
 40
1.4258900947
100
AcDbArc
 50
178.3233883477
 51
180.004982042
  0
ARC
  5
324
100
AcDbEntity
  8
1
100
AcDbCircle
 62
7
  6
BYLAYER
 10
85.7219512881
 20
104.5697420811
 40
1.333730778
100
AcDbArc
 50
178.2122699017
 51
180.0110547429
  0
ARC
  5
325
100
AcDbEntity
  8
1
100
AcDbCircle
 62
7
  6
BYLAYER
 10
84.4547933457
 20
103.7772936513
 40
1.2463813565
100
AcDbArc
 50
178.0783424996
 51
180.0048385736
  0
ARC
  5
326
100
AcDbEntity
  8
1
100
AcDbCircle
 62
7
  6
BYLAYER
 10
83.6837494976
 20
103.2198161618
 40
1.1866615267
100
AcDbArc
 50
177.9854444091
 51
180.01015929
  0
ARC
  5
327
100
AcDbEntity
  8
1
100
AcDbCircle
 62
7
  6
BYLAYER
 10
80.2868423663
 20
98.7296340502
 40
1.011063904
100
AcDbArc
 50
177.6137529515
 51
180.0016224575
  0
ARC
  5
328
100
AcDbEntity
  8
1
100
AcDbCircle
 62
7
  6
BYLAYER
 10
80.098509778
 20
98.0449803809
 40
1.0026452805
100
AcDbArc
 50
177.5925160699
 51
180.0022352371
  0
ARC
  5
329
100
AcDbEntity
  8
1
100
AcDbCircle
 62
7
  6
BYLAYER
 10
79.9619247483
 20
96.3105390985
 40
1.002164783
100
AcDbArc
 50
177.5837256801
 51
179.9990294819
  0
ARC
  5
32A
100
AcDbEntity
  8
1
100
AcDbCircle
 62
7
  6
BYLAYER
 10
79.959540489
 20
97.0030570472
 40
0.9997854908
100
AcDbArc
 50
177.5808935913
 51
180.0001329189
  0
ARC
  5
32B
100
AcDbEntity
  8
1
100
AcDbCircle
 62
7
  6
BYLAYER
 10
98.9459290419
 20
73.7551957397
 40
34.4432579314
100
AcDbArc
 50
86.0042293278
 51
89.009384161
  0
ARC
  5
32C
100
AcDbEntity
  8
1
100
AcDbCircle
 62
7
  6
BYLAYER
 10
98.9375885179
 20
73.0036047554
 40
34.4432176335
100
AcDbArc
 50
90.9908913477
 51
93.9960484415
  0
ARC
  5
32D
100
AcDbEntity
  8
1
100
AcDbCircle
 62
7
  6
BYLAYER
 10
98.9460953788
 20
73.804428028
 40
34.4357270926
100
AcDbArc
 50
86.0048639195
 51
89.0094898874
  0
ARC
  5
32E
100
AcDbEntity
  8
1
100
AcDbCircle
 62
7
  6
BYLAYER
 10
98.9481971749
 20
73.0556660572
 40
34.3911169853
100
AcDbArc
 50
86.0019502893
 51
89.0116616368
  0
ARC
  5
32F
100
AcDbEntity
  8
1
100
AcDbCircle
 62
7
  6
BYLAYER
 10
98.9353198862
 20
73.8073432786
 40
34.3910709857
100
AcDbArc
 50
90.9886136198
 51
93.9983277356
  0
ARC
  5
330
100
AcDbEntity
  8
1
100
AcDbCircle
 62
7
  6
BYLAYER
 10
98.9353210233
 20
73.8505605931
 40
34.3895569386
100
AcDbArc
 50
90.9886133774
 51
93.9983279771
  0
ARC
  5
331
100
AcDbEntity
  8
1
100
AcDbCircle
 62
7
  6
BYLAYER
 10
98.9390685108
 20
74.4801101899
 40
33.4194034519
100
AcDbArc
 50
89.9955248783
 51
94.9908760297
  0
ARC
  5
332
100
AcDbEntity
  8
1
100
AcDbCircle
 62
7
  6
BYLAYER
 10
98.9481060826
 20
74.5641107233
 40
33.3353679043
100
AcDbArc
 50
85.003098327
 51
90.011047082
  0
ARC
  5
333
100
AcDbEntity
  8
1
100
AcDbCircle
 62
7
  6
BYLAYER
 10
102.5657719696
 20
86.4698840776
 40
21.1470635773
100
AcDbArc
 50
61.5283934895
 51
65.6802820284
  0
ARC
  5
334
100
AcDbEntity
  8
1
100
AcDbCircle
 62
7
  6
BYLAYER
 10
102.5656048865
 20
86.5125452139
 40
21.1461329049
100
AcDbArc
 50
61.5283931926
 51
65.6802823371
  0
ARC
  5
335
100
AcDbEntity
  8
1
100
AcDbCircle
 62
7
  6
BYLAYER
 10
102.6953637089
 20
85.9793852358
 40
20.8556509244
100
AcDbArc
 50
61.4993555472
 51
65.7092663958
  0
ARC
  5
336
100
AcDbEntity
  8
1
100
AcDbCircle
 62
7
  6
BYLAYER
 10
104.8234315055
 20
89.6286582839
 40
16.629241241
100
AcDbArc
 50
53.6707972421
 51
58.5688596406
  0
ARC
  5
337
100
AcDbEntity
  8
1
100
AcDbCircle
 62
7
  6
BYLAYER
 10
110.1684545603
 20
95.9805986105
 40
8.7707700203
100
AcDbArc
 50
342.4652670165
 51
348.1246463797
  0
ARC
  5
338
100
AcDbEntity
  8
1
100
AcDbCircle
 62
7
  6
BYLAYER
 10
105.3013551132
 20
85.1984767347
 40
8.7638687408
100
AcDbArc
 50
179.7173304079
 51
179.9966813018
  0
ARC
  5
339
100
AcDbEntity
  8
1
100
AcDbCircle
 62
7
  6
BYLAYER
 10
112.1338041992
 20
95.9163691681
 40
6.7993891282
100
AcDbArc
 50
348.1243356763
 51
356.9873641017
  0
ARC
  5
33A
100
AcDbEntity
  8
1
100
AcDbCircle
 62
7
  6
BYLAYER
 10
112.1638255012
 20
95.8979988763
 40
6.7691629762
100
AcDbArc
 50
2.9936398125
 51
11.8962814712
  0
ARC
  5
33B
100
AcDbEntity
  8
1
100
AcDbCircle
 62
7
  6
BYLAYER
 10
101.0641886108
 20
85.3027193936
 40
5.7125921507
100
AcDbArc
 50
179.5701110853
 51
179.998626816
  0
ARC
  5
33C
100
AcDbEntity
  8
1
100
AcDbCircle
 62
7
  6
BYLAYER
 10
108.50044768
 20
87.1625451409
 40
1.8086316578
100
AcDbArc
 50
0.0051618646
 51
1.3561311014
  0
ARC
  5
33D
100
AcDbEntity
  8
1
100
AcDbCircle
 62
7
  6
BYLAYER
 10
109.6052745812
 20
87.5731346768
 40
1.6695744752
100
AcDbArc
 50
0.0087686403
 51
1.4716397708
  0
ARC
  5
33E
100
AcDbEntity
  8
1
100
AcDbCircle
 62
7
  6
BYLAYER
 10
111.152103078
 20
88.2544064969
 40
1.4950529406
100
AcDbArc
 50
0.0054835233
 51
1.6380164699
  0
ARC
  5
33F
100
AcDbEntity
  8
1
100
AcDbCircle
 62
7
  6
BYLAYER
 10
112.0852800781
 20
88.743995235
 40
1.4100190935
100
AcDbArc
 50
0.0092191974
 51
1.7393270151
  0
ARC
  5
340
100
AcDbEntity
  8
1
100
AcDbCircle
 62
7
  6
BYLAYER
 10
113.3776722708
 20
89.536397398
 40
1.2974346304
100
AcDbArc
 50
0.0053465444
 51
1.8840978261
  0
ARC
  5
341
100
AcDbEntity
  8
1
100
AcDbCircle
 62
7
  6
BYLAYER
 10
114.1437698974
 20
90.0939099571
 40
1.2426617744
100
AcDbArc
 50
0.0088136496
 51
1.9692338807
  0
ARC
  5
342
100
AcDbEntity
  8
1
100
AcDbCircle
 62
7
  6
BYLAYER
 10
117.5847540526
 20
94.5840639283
 40
1.0229864737
100
AcDbArc
 50
0.0021011725
 51
2.3725318401
  0
ARC
  5
343
100
AcDbEntity
  8
1
100
AcDbCircle
 62
7
  6
BYLAYER
 10
117.775256043
 20
95.2687205977
 40
1.0123986566
100
AcDbArc
 50
0.0025467471
 51
2.3960109186
  0
ARC
  5
344
100
AcDbEntity
  8
1
100
AcDbCircle
 62
7
  6
BYLAYER
 10
131.4257282083
 20
100.7775972066
 40
41.5644630619
100
AcDbArc
 50
199.4181224752
 51
200.6640979011
  0
ARC
  5
345
100
AcDbEntity
  8
1
100
AcDbCircle
 62
7
  6
BYLAYER
 10
130.7608643163
 20
100.1881003009
 40
40.9036695992
100
AcDbArc
 50
199.4038180747
 51
200.6784198157
  0
ARC
  5
346
100
AcDbEntity
  8
1
100
AcDbCircle
 62
7
  6
BYLAYER
 10
98.9375901056
 20
119.5585111203
 40
34.4432579314
100
AcDbArc
 50
266.0042291588
 51
269.009383992
  0
ARC
  5
347
100
AcDbEntity
  8
1
100
AcDbCircle
 62
7
  6
BYLAYER
 10
98.9459306296
 20
118.8068395943
 40
34.4432176335
100
AcDbArc
 50
270.9908911786
 51
273.9960482724
  0
ARC
  5
348
100
AcDbEntity
  8
1
100
AcDbCircle
 62
7
  6
BYLAYER
 10
98.9373752346
 20
119.5919712622
 40
34.4339831745
100
AcDbArc
 50
266.0050480043
 51
269.0095203167
  0
ARC
  5
349
100
AcDbEntity
  8
1
100
AcDbCircle
 62
7
  6
BYLAYER
 10
98.9353219734
 20
118.7547782839
 40
34.3911169854
100
AcDbArc
 50
266.0019501187
 51
269.0116614662
  0
ARC
  5
34A
100
AcDbEntity
  8
1
100
AcDbCircle
 62
7
  6
BYLAYER
 10
98.9481992621
 20
119.5063635904
 40
34.3910709857
100
AcDbArc
 50
270.9886134492
 51
273.998327565
  0
ARC
  5
34B
100
AcDbEntity
  8
1
100
AcDbCircle
 62
7
  6
BYLAYER
 10
98.948198125
 20
119.5475820975
 40
34.3895569386
100
AcDbArc
 50
270.9886132068
 51
273.9983278065
  0
ARC
  5
34C
100
AcDbEntity
  8
1
100
AcDbCircle
 62
7
  6
BYLAYER
 10
98.9444507181
 20
118.9180325033
 40
33.4194034519
100
AcDbArc
 50
269.9955245646
 51
274.9908757161
  0
ARC
  5
34D
100
AcDbEntity
  8
1
100
AcDbCircle
 62
7
  6
BYLAYER
 10
98.9354131483
 20
118.8340319555
 40
33.3353679042
100
AcDbArc
 50
265.0030980093
 51
270.0110467641
  0
ARC
  5
34E
100
AcDbEntity
  8
1
100
AcDbCircle
 62
7
  6
BYLAYER
 10
102.565878419
 20
106.0919748453
 40
21.1468222108
100
AcDbArc
 50
294.3200865414
 51
298.472006585
  0
ARC
  5
34F
100
AcDbEntity
  8
1
100
AcDbCircle
 62
7
  6
BYLAYER
 10
102.6954717439
 20
106.5824749027
 40
20.8554099405
100
AcDbArc
 50
294.2911016425
 51
298.5010450299
  0
ARC
  5
350
100
AcDbEntity
  8
1
100
AcDbCircle
 62
7
  6
BYLAYER
 10
102.6952992011
 20
106.6242605892
 40
20.8544915452
100
AcDbArc
 50
294.2911012731
 51
298.5010453874
  0
ARC
  5
351
100
AcDbEntity
  8
1
100
AcDbCircle
 62
7
  6
BYLAYER
 10
104.8235566044
 20
102.9332329463
 40
16.6290184968
100
AcDbArc
 50
301.4315650688
 51
306.3296713055
  0
ARC
  5
352
100
AcDbEntity
  8
1
100
AcDbCircle
 62
7
  6
BYLAYER
 10
104.8232891864
 20
102.9751786206
 40
16.6282861812
100
AcDbArc
 50
301.4315646327
 51
306.3296717255
  0
ARC
  5
353
100
AcDbEntity
  8
1
100
AcDbCircle
 62
7
  6
BYLAYER
 10
105.0667483556
 20
100.0690198418
 40
15.4001804074
100
AcDbArc
 50
307.9063389967
 51
308.4646210069
  0
ARC
  5
354
100
AcDbEntity
  8
1
100
AcDbCircle
 62
7
  6
BYLAYER
 10
104.6544904919
 20
108.1148308265
 40
8.1171692571
100
AcDbArc
 50
179.7064526324
 51
180.0008461779
  0
ARC
  5
355
100
AcDbEntity
  8
1
100
AcDbCircle
 62
7
  6
BYLAYER
 10
112.1337776601
 20
96.6457029116
 40
6.7994158748
100
AcDbArc
 50
3.013464377
 51
11.8764688398
  0
ARC
  5
356
100
AcDbEntity
  8
1
100
AcDbCircle
 62
7
  6
BYLAYER
 10
112.1355730089
 20
96.6881762788
 40
6.7967176992
100
AcDbArc
 50
3.0123711785
 51
11.8753759835
  0
ARC
  5
357
100
AcDbEntity
  8
1
100
AcDbCircle
 62
7
  6
BYLAYER
 10
112.1638487609
 20
96.664074069
 40
6.7691395881
100
AcDbArc
 50
348.1045251097
 51
357.0071865749
  0
ARC
  5
358
100
AcDbEntity
  8
1
100
AcDbCircle
 62
7
  6
BYLAYER
 10
112.1632553631
 20
96.7062921529
 40
6.7688415681
100
AcDbArc
 50
348.1045243806
 51
357.0071872959
  0
ARC
  5
359
100
AcDbEntity
  8
1
100
AcDbCircle
 62
7
  6
BYLAYER
 10
97.1730086383
 20
108.0110710793
 40
5.3589140074
100
AcDbArc
 50
359.9976422621
 51
0.44361462
  0
ARC
  5
35A
100
AcDbEntity
  8
1
100
AcDbCircle
 62
7
  6
BYLAYER
 10
100.6518049653
 20
108.011278195
 40
5.3003721357
100
AcDbArc
 50
179.5539111465
 51
180.0048092241
  0
ARC
  5
35B
100
AcDbEntity
  8
1
100
AcDbCircle
 62
7
  6
BYLAYER
 10
108.6050528958
 20
106.1513195996
 40
1.7038893266
100
AcDbArc
 50
359.9910495609
 51
1.3965836362
  0
ARC
  5
35C
100
AcDbEntity
  8
1
100
AcDbCircle
 62
7
  6
BYLAYER
 10
109.6971925686
 20
105.7405282727
 40
1.5775252836
100
AcDbArc
 50
359.9944680726
 51
1.51329771
  0
ARC
  5
35D
100
AcDbEntity
  8
1
100
AcDbCircle
 62
7
  6
BYLAYER
 10
111.22897366
 20
105.0594615
 40
1.4180609724
100
AcDbArc
 50
359.9903703898
 51
1.6812482736
  0
ARC
  5
35E
100
AcDbEntity
  8
1
100
AcDbCircle
 62
7
  6
BYLAYER
 10
112.1532772475
 20
104.5696854734
 40
1.3419075921
100
AcDbArc
 50
359.9944169014
 51
1.7822405461
  0
ARC
  5
35F
100
AcDbEntity
  8
1
100
AcDbCircle
 62
7
  6
BYLAYER
 10
113.4344461124
 20
103.7774668013
 40
1.2405578945
100
AcDbArc
 50
359.9906349983
 51
1.9261746106
  0
ARC
  5
360
100
AcDbEntity
  8
1
100
AcDbCircle
 62
7
  6
BYLAYER
 10
114.1937548026
 20
103.2197918037
 40
1.1925820136
100
AcDbArc
 50
359.9948595138
 51
2.0095223246
  0
ARC
  5
361
100
AcDbEntity
  8
1
100
AcDbCircle
 62
7
  6
BYLAYER
 10
117.5979564838
 20
98.7297558765
 40
1.0097540791
100
AcDbArc
 50
359.9968272864
 51
2.3877941791
  0
ARC
  5
362
100
AcDbEntity
  8
1
100
AcDbCircle
 62
7
  6
BYLAYER
 10
117.7840599456
 20
98.0450562977
 40
1.0035746728
100
AcDbArc
 50
359.9988795762
 51
2.4063667924
  0
ARC
  5
363
100
AcDbEntity
  8
1
100
AcDbCircle
 62
7
  6
BYLAYER
 10
117.921974306
 20
96.3106430627
 40
1.0017897314
100
AcDbArc
 50
0.0005189111
 51
2.416726758
  0
ARC
  5
364
100
AcDbEntity
  8
1
100
AcDbCircle
 62
7
  6
BYLAYER
 10
117.9241201536
 20
97.0031562049
 40
0.9996388858
100
AcDbArc
 50
359.9996896048
 51
2.4192835047
  0
ARC
  5
365
100
AcDbEntity
  8
1
100
AcDbCircle
 62
7
  6
BYLAYER
 10
10.3740990724
 20
136.9430560239
 40
106.8848994877
100
AcDbArc
 50
338.0115666754
 51
338.8192645214
  0
ARC
  5
366
100
AcDbEntity
  8
1
100
AcDbCircle
 62
7
  6
BYLAYER
 10
10.7640663369
 20
136.5289128433
 40
106.5436532945
100
AcDbArc
 50
338.007544935
 51
338.8232679357
  0
ARC
  5
367
100
AcDbEntity
  8
1
100
AcDbCircle
 62
7
  6
BYLAYER
 10
83.6820112454
 20
170.8285994581
 40
73.7981635667
100
AcDbArc
 50
287.1077571643
 51
288.6861330368
  0
ARC
  5
368
100
AcDbEntity
  8
1
100
AcDbCircle
 62
7
  6
BYLAYER
 10
83.8027030231
 20
170.5685402281
 40
73.2444790834
100
AcDbArc
 50
287.1070929158
 51
288.6867983449
  0
ARC
  5
369
100
AcDbEntity
  8
1
100
AcDbCircle
 62
7
  6
BYLAYER
 10
104.0378415189
 20
159.3917907307
 40
73.2222222263
100
AcDbArc
 50
255.5622501085
 51
257.1639307916
  0
ARC
  5
36A
100
AcDbEntity
  8
1
100
AcDbCircle
 62
7
  6
BYLAYER
 10
104.0061950526
 20
159.276284125
 40
72.7439445062
100
AcDbArc
 50
255.5623586496
 51
257.1638220003
  0
ARC
  5
36B
100
AcDbEntity
  8
1
100
AcDbCircle
 62
7
  6
BYLAYER
 10
106.9493899319
 20
165.6100842188
 40
67.6436508747
100
AcDbArc
 50
272.680543846
 51
274.368638306
  0
ARC
  5
36C
100
AcDbEntity
  8
1
100
AcDbCircle
 62
7
  6
BYLAYER
 10
106.9022817327
 20
165.3417254726
 40
67.0907018998
100
AcDbArc
 50
272.6792559777
 51
274.3699167414
  0
ARC
  5
36D
100
AcDbEntity
  8
1
100
AcDbCircle
 62
7
  6
BYLAYER
 10
90.8806269989
 20
149.2342825173
 40
63.5106369279
100
AcDbArc
 50
269.7087411832
 51
271.4541387496
  0
ARC
  5
36E
100
AcDbEntity
  8
1
100
AcDbCircle
 62
7
  6
BYLAYER
 10
90.9329354198
 20
149.3183868601
 40
63.2287176908
100
AcDbArc
 50
269.7106909639
 51
271.4521828053
  0
ARC
  5
36F
100
AcDbEntity
  8
2
100
AcDbCircle
 62
7
  6
BYLAYER
 10
48.3462573106
 20
135.2428768211
 40
8.0927171021
100
AcDbArc
 50
177.3092633827
 51
180.0256615685
  0
ARC
  5
370
100
AcDbEntity
  8
1
100
AcDbCircle
 62
7
  6
BYLAYER
 10
278.7806604523
 20
137.0370284947
 40
177.2394618418
100
AcDbArc
 50
191.9640126984
 51
192.4409392734
  0
ARC
  5
371
100
AcDbEntity
  8
1
100
AcDbCircle
 62
7
  6
BYLAYER
 10
275.7246317257
 20
136.6593761516
 40
174.1578481271
100
AcDbArc
 50
191.9614172287
 51
192.4435469601
  0
SPLINE
  5
372
100
AcDbEntity
  8
2
100
AcDbSpline
 62
7
  6
BYLAYER
 70
0
 71
3
 72
25
 73
21
 74
0
 42
0.0000001
 43
0.0000001
 44
0.0000000001
 40
0.0
 40
0.0
 40
0.0
 40
0.0
 40
0.0623844369
 40
0.1287220483
 40
0.1983152935
 40
0.2702917372
 40
0.3436692738
 40
0.4174011342
 40
0.4904256613
 40
0.5617124144
 40
0.6303100737
 40
0.6953980456
 40
0.7563459252
 40
0.8127833931
 40
0.8646840025
 40
0.9124586405
 40
0.9351030102
 40
0.9571080972
 40
0.9786682685
 40
1.0
 40
1.0
 40
1.0
 40
1.0
 10
151.974547314
 20
219.6638062608
 30
0.0
 10
151.5344188416
 20
219.9179088042
 30
0.0
 10
150.5912437887
 20
220.3829458615
 30
0.0
 10
149.0697648647
 20
220.9342025902
 30
0.0
 10
147.4256065103
 20
221.3516009306
 30
0.0
 10
145.6938961093
 20
221.626176902
 30
0.0
 10
143.9113903952
 20
221.7521854293
 30
0.0
 10
142.1161120317
 20
221.7269180755
 30
0.0
 10
140.3463552098
 20
221.5509231202
 30
0.0
 10
138.6398289881
 20
221.2279385355
 30
0.0
 10
137.032788506
 20
220.7647923546
 30
0.0
 10
135.5592042463
 20
220.1711309108
 30
0.0
 10
134.2500519246
 20
219.4591132462
 30
0.0
 10
133.1326997303
 20
218.642590255
 30
0.0
 10
132.231101198
 20
217.7373704252
 30
0.0
 10
131.6666954756
 20
216.9068569788
 30
0.0
 10
131.3522059155
 20
216.2211422372
 30
0.0
 10
131.1854578109
 20
215.7067862313
 30
0.0
 10
131.0849715299
 20
215.1864145843
 30
0.0
 10
131.0625292355
 20
214.8365939547
 30
0.0
 10
131.0625349636
 20
214.6628153818
 30
0.0
  0
SPLINE
  5
373
100
AcDbEntity
  8
2
100
AcDbSpline
 62
7
  6
BYLAYER
 70
0
 71
3
 72
15
 73
11
 74
0
 42
0.0000001
 43
0.0000001
 44
0.0000000001
 40
0.0
 40
0.0
 40
0.0
 40
0.0
 40
0.1485903184
 40
0.2895080319
 40
0.4227234349
 40
0.5486444249
 40
0.6680023184
 40
0.7819389526
 40
0.8919878798
 40
1.0
 40
1.0
 40
1.0
 40
1.0
 10
134.6505033023
 20
207.4164428438
 30
0.0
 10
134.3742100705
 20
207.5759572069
 30
0.0
 10
133.8483784458
 20
207.9092372023
 30
0.0
 10
133.129509303
 20
208.4656484306
 30
0.0
 10
132.5077302487
 20
209.0608128092
 30
0.0
 10
131.9892166735
 20
209.6892629902
 30
0.0
 10
131.5792940936
 20
210.345469419
 30
0.0
 10
131.2825779282
 20
211.0234672755
 30
0.0
 10
131.1027964962
 20
211.7163884457
 30
0.0
 10
131.062542388
 20
212.1855239177
 30
0.0
 10
131.0625346564
 20
212.4174337364
 30
0.0
  0
SPLINE
  5
374
100
AcDbEntity
  8
2
100
AcDbSpline
 62
7
  6
BYLAYER
 70
0
 71
3
 72
15
 73
11
 74
0
 42
0.0000001
 43
0.0000001
 44
0.0000000001
 40
0.0
 40
0.0
 40
0.0
 40
0.0
 40
0.1080117127
 40
0.2180603223
 40
0.3319968005
 40
0.4513547266
 40
0.5772757902
 40
0.71049141
 40
0.8514096237
 40
1.0
 40
1.0
 40
1.0
 40
1.0
 10
155.5625156527
 20
214.6628153699
 30
0.0
 10
155.5625080085
 20
214.8947243074
 30
0.0
 10
155.5222541767
 20
215.3638581921
 30
0.0
 10
155.342474184
 20
216.0567777529
 30
0.0
 10
155.0457586259
 20
216.7347748485
 30
0.0
 10
154.6358366507
 20
217.3909814491
 30
0.0
 10
154.1173237527
 20
218.0194330785
 30
0.0
 10
153.4955435749
 20
218.6145987759
 30
0.0
 10
152.7766731012
 20
219.171010943
 30
0.0
 10
152.2508406463
 20
219.5042918397
 30
0.0
 10
151.974547314
 20
219.6638062608
 30
0.0
  0
SPLINE
  5
375
100
AcDbEntity
  8
2
100
AcDbSpline
 62
7
  6
BYLAYER
 70
0
 71
3
 72
25
 73
21
 74
0
 42
0.0000001
 43
0.0000001
 44
0.0000000001
 40
0.0
 40
0.0
 40
0.0
 40
0.0
 40
0.0213317766
 40
0.0428919921
 40
0.0648971296
 40
0.0875415542
 40
0.1353163489
 40
0.1872171517
 40
0.2436547637
 40
0.3046026337
 40
0.3696904276
 40
0.4382878287
 40
0.5095743344
 40
0.5825986371
 40
0.6563302751
 40
0.7297076671
 40
0.8016841423
 40
0.8712775534
 40
0.9376154021
 40
1.0
 40
1.0
 40
1.0
 40
1.0
 10
155.5625159599
 20
212.4174337211
 30
0.0
 10
155.5625217534
 20
212.2436547802
 30
0.0
 10
155.5400786456
 20
211.8938334776
 30
0.0
 10
155.4395927174
 20
211.3734606109
 30
0.0
 10
155.2728432981
 20
210.8591037122
 30
0.0
 10
154.9583527002
 20
210.1733871198
 30
0.0
 10
154.3939437699
 20
209.3428717227
 30
0.0
 10
153.492341143
 20
208.4376503024
 30
0.0
 10
152.3749855207
 20
207.6211274274
 30
0.0
 10
151.0658325765
 20
206.9091116911
 30
0.0
 10
149.592251122
 20
206.3154530713
 30
0.0
 10
147.98521576
 20
205.8523093344
 30
0.0
 10
146.2786953436
 20
205.529326166
 30
0.0
 10
144.5089441895
 20
205.3533315223
 30
0.0
 10
142.7136706673
 20
205.3280635228
 30
0.0
 10
140.9311676061
 20
205.454070745
 30
0.0
 10
139.1994565948
 20
205.7286456125
 30
0.0
 10
137.555294474
 20
206.1460435974
 30
0.0
 10
136.033811015
 20
206.6973013848
 30
0.0
 10
135.0906329125
 20
207.1623396435
 30
0.0
 10
134.6505033023
 20
207.4164428438
 30
0.0
  0
SPLINE
  5
376
100
AcDbEntity
  8
2
100
AcDbSpline
 62
7
  6
BYLAYER
 70
0
 71
3
 72
25
 73
21
 74
0
 42
0.0000001
 43
0.0000001
 44
0.0000000001
 40
0.0
 40
0.0
 40
0.0
 40
0.0
 40
0.0623844369
 40
0.1287220483
 40
0.1983152935
 40
0.2702917372
 40
0.3436692738
 40
0.4174011342
 40
0.4904256613
 40
0.5617124144
 40
0.6303100737
 40
0.6953980456
 40
0.7563459252
 40
0.8127833931
 40
0.8646840025
 40
0.9124586405
 40
0.9351030102
 40
0.9571080972
 40
0.9786682685
 40
1.0
 40
1.0
 40
1.0
 40
1.0
 10
134.6505033023
 20
209.6618244909
 30
0.0
 10
135.0906317747
 20
209.4077219475
 30
0.0
 10
136.0338068276
 20
208.9426848902
 30
0.0
 10
137.5552857516
 20
208.3914281615
 30
0.0
 10
139.199444106
 20
207.974029821
 30
0.0
 10
140.931154507
 20
207.6994538496
 30
0.0
 10
142.7136602211
 20
207.5734453224
 30
0.0
 10
144.5089385846
 20
207.5987126762
 30
0.0
 10
146.2786954065
 20
207.7747076314
 30
0.0
 10
147.9852216282
 20
208.0976922162
 30
0.0
 10
149.5922621104
 20
208.560838397
 30
0.0
 10
151.06584637
 20
209.1544998409
 30
0.0
 10
152.3749986917
 20
209.8665175055
 30
0.0
 10
153.492350886
 20
210.6830404967
 30
0.0
 10
154.3939494183
 20
211.5882603265
 30
0.0
 10
154.9583551407
 20
212.4187737729
 30
0.0
 10
155.2728447008
 20
213.1044885145
 30
0.0
 10
155.4395928054
 20
213.6188445204
 30
0.0
 10
155.5400790864
 20
214.1392161674
 30
0.0
 10
155.5625213808
 20
214.489036797
 30
0.0
 10
155.5625156527
 20
214.6628153699
 30
0.0
  0
SPLINE
  5
377
100
AcDbEntity
  8
2
100
AcDbSpline
 62
7
  6
BYLAYER
 70
0
 71
3
 72
15
 73
11
 74
0
 42
0.0000001
 43
0.0000001
 44
0.0000000001
 40
0.0
 40
0.0
 40
0.0
 40
0.0
 40
0.1080117127
 40
0.2180603223
 40
0.3319968005
 40
0.4513547266
 40
0.5772757902
 40
0.71049141
 40
0.8514096237
 40
1.0
 40
1.0
 40
1.0
 40
1.0
 10
131.0625349636
 20
214.6628153818
 30
0.0
 10
131.0625426078
 20
214.4309064443
 30
0.0
 10
131.1027964396
 20
213.9617725596
 30
0.0
 10
131.2825764323
 20
213.2688529987
 30
0.0
 10
131.5792919904
 20
212.5908559032
 30
0.0
 10
131.9892139656
 20
211.9346493026
 30
0.0
 10
132.5077268637
 20
211.3061976732
 30
0.0
 10
133.1295070414
 20
210.7110319758
 30
0.0
 10
133.8483775151
 20
210.1546198087
 30
0.0
 10
134.37420997
 20
209.821338912
 30
0.0
 10
134.6505033023
 20
209.6618244909
 30
0.0
  0
SPLINE
  5
378
100
AcDbEntity
  8
2
100
AcDbSpline
 62
7
  6
BYLAYER
 70
0
 71
3
 72
20
 73
16
 74
0
 42
0.0000001
 43
0.0000001
 44
0.0000000001
 40
0.0
 40
0.0
 40
0.0
 40
0.0
 40
0.1503944191
 40
0.3007469866
 40
0.446109916
 40
0.5155539972
 40
0.5821714914
 40
0.6455909202
 40
0.7055549466
 40
0.7619480923
 40
0.8148281554
 40
0.864459072
 40
0.9113382915
 40
0.9562034995
 40
1.0
 40
1.0
 40
1.0
 40
1.0
 10
44.8195867646
 20
140.3757590406
 30
0.0
 10
45.3613415877
 20
141.0834820045
 30
0.0
 10
46.3508927652
 20
142.5730826587
 30
0.0
 10
47.5244099387
 20
144.9494702513
 30
0.0
 10
48.2218049871
 20
147.0063530155
 30
0.0
 10
48.5784864098
 20
148.6370155784
 30
0.0
 10
48.7387551174
 20
149.8096804034
 30
0.0
 10
48.7938380936
 20
150.9358857855
 30
0.0
 10
48.7428834602
 20
152.001927959
 30
0.0
 10
48.586209956
 20
152.9948175872
 30
0.0
 10
48.3251762154
 20
153.9024585528
 30
0.0
 10
47.9621568932
 20
154.713549585
 30
0.0
 10
47.5004677654
 20
155.4175219189
 30
0.0
 10
46.9452930685
 20
156.0040487916
 30
0.0
 10
46.5149791716
 20
156.3123018823
 30
0.0
 10
46.2901977159
 20
156.4420667038
 30
0.0
  0
SPLINE
  5
379
100
AcDbEntity
  8
2
100
AcDbSpline
 62
7
  6
BYLAYER
 70
0
 71
3
 72
15
 73
11
 74
0
 42
0.0000001
 43
0.0000001
 44
0.0000000001
 40
0.0
 40
0.0
 40
0.0
 40
0.0
 40
0.1485926221
 40
0.2895046258
 40
0.4227199833
 40
0.5486416449
 40
0.6679998252
 40
0.7819373137
 40
0.8919868282
 40
1.0
 40
1.0
 40
1.0
 40
1.0
 10
38.3444995092
 20
156.9701210136
 30
0.0
 10
38.6152199704
 20
157.1264206118
 30
0.0
 10
39.1556289154
 20
157.4093317378
 30
0.0
 10
39.9799524391
 20
157.7467151466
 30
0.0
 10
40.7895866406
 20
157.9827315832
 30
0.0
 10
41.5768836895
 20
158.1148317289
 30
0.0
 10
42.3345354924
 20
158.1411812338
 30
0.0
 10
43.0552174855
 20
158.0607944325
 30
0.0
 10
43.7312691769
 20
157.8738624945
 30
0.0
 10
44.1490912607
 20
157.6782129878
 30
0.0
 10
44.345880963
 20
157.5645989771
 30
0.0
  0
SPLINE
  5
37A
100
AcDbEntity
  8
2
100
AcDbSpline
 62
7
  6
BYLAYER
 70
0
 71
3
 72
25
 73
21
 74
0
 42
0.0000001
 43
0.0000001
 44
0.0000000001
 40
0.0
 40
0.0
 40
0.0
 40
0.0
 40
0.0213320692
 40
0.0428925719
 40
0.0648979862
 40
0.0875426735
 40
0.135317938
 40
0.187219126
 40
0.2436570327
 40
0.3046051057
 40
0.3696930106
 40
0.4382904312
 40
0.5095768655
 40
0.5826010077
 40
0.6563323994
 40
0.7297094659
 40
0.8016855467
 40
0.8712785102
 40
0.9376158803
 40
1.0
 40
1.0
 40
1.0
 40
1.0
 10
32.3431204391
 20
136.7747376149
 30
0.0
 10
32.1956510554
 20
136.8598706233
 30
0.0
 10
31.9097925407
 20
137.0503000469
 30
0.0
 10
31.517440639
 20
137.3905116853
 30
0.0
 10
31.1626573599
 20
137.7840056732
 30
0.0
 10
30.7348416389
 20
138.3868218457
 30
0.0
 10
30.3065906768
 20
139.272652645
 30
0.0
 10
29.9801421103
 20
140.4812186311
 30
0.0
 10
29.8346635239
 20
141.8294117072
 30
0.0
 10
29.8718336269
 20
143.2891582156
 30
0.0
 10
30.0899968321
 20
144.8304477719
 30
0.0
 10
30.4842949569
 20
146.4210392932
 30
0.0
 10
31.0462711118
 20
148.0273816033
 30
0.0
 10
31.763957581
 20
149.6153646503
 30
0.0
 10
32.6220522498
 20
151.1511583466
 30
0.0
 10
33.6022600333
 20
152.6019993504
 30
0.0
 10
34.6836555857
 20
153.9369498387
 30
0.0
 10
35.8433560727
 20
155.1276331891
 30
0.0
 10
37.0565443587
 20
156.1486305249
 30
0.0
 10
37.9132458743
 20
156.7211380976
 30
0.0
 10
38.3444995092
 20
156.9701210136
 30
0.0
  0
SPLINE
  5
37B
100
AcDbEntity
  8
2
100
AcDbSpline
 62
7
  6
BYLAYER
 70
0
 71
3
 72
23
 73
19
 74
0
 42
0.0000001
 43
0.0000001
 44
0.0000000001
 40
0.0
 40
0.0
 40
0.0
 40
0.0
 40
0.0600899152
 40
0.1236680061
 40
0.190209197
 40
0.2590645419
 40
0.3294931818
 40
0.4006964452
 40
0.471847866
 40
0.5421230061
 40
0.610728877
 40
0.6769342066
 40
0.7401024368
 40
0.7997292815
 40
0.855486076
 40
0.9072709832
 40
0.9552672592
 40
1.0
 40
1.0
 40
1.0
 40
1.0
 10
40.2888187978
 20
155.8475931439
 30
0.0
 10
39.9027368815
 20
155.6246899762
 30
0.0
 10
39.134697519
 20
155.1189250795
 30
0.0
 10
38.0385199965
 20
154.2270901967
 30
0.0
 10
36.981328538
 20
153.1940603796
 30
0.0
 10
35.9814136997
 20
152.0377375804
 30
0.0
 10
35.0559021758
 20
150.7779774136
 30
0.0
 10
34.2207658773
 20
149.4365268439
 30
0.0
 10
33.4904219825
 20
148.0365424296
 30
0.0
 10
32.8774794614
 20
146.6021952921
 30
0.0
 10
32.3925127385
 20
145.1582134392
 30
0.0
 10
32.0438873223
 20
143.7294221099
 30
0.0
 10
31.8376417834
 20
142.3402755717
 30
0.0
 10
31.7774732258
 20
141.0143672123
 30
0.0
 10
31.8647514535
 20
139.7740708663
 30
0.0
 10
32.09894199
 20
138.6399994676
 30
0.0
 10
32.477190089
 20
137.6317935994
 30
0.0
 10
32.833831319
 20
137.0374437286
 30
0.0
 10
33.0337831896
 20
136.7725682347
 30
0.0
  0
SPLINE
  5
37C
100
AcDbEntity
  8
2
100
AcDbSpline
 62
7
  6
BYLAYER
 70
0
 71
3
 72
15
 73
11
 74
0
 42
0.0000001
 43
0.0000001
 44
0.0000000001
 40
0.0
 40
0.0
 40
0.0
 40
0.0
 40
0.1080128921
 40
0.2180625133
 40
0.3319996951
 40
0.4513579219
 40
0.5772788348
 40
0.7104938494
 40
0.8514110318
 40
1.0
 40
1.0
 40
1.0
 40
1.0
 10
46.2901977159
 20
156.4420667038
 30
0.0
 10
46.0934047669
 20
156.5556739486
 30
0.0
 10
45.6755959846
 20
156.7513490329
 30
0.0
 10
44.999538597
 20
156.9382665124
 30
0.0
 10
44.2788578261
 20
157.0186504265
 30
0.0
 10
43.5212081623
 20
156.9923003145
 30
0.0
 10
42.7339116662
 20
156.8602104277
 30
0.0
 10
41.9242694676
 20
156.6241882628
 30
0.0
 10
41.0999469616
 20
156.2867964621
 30
0.0
 10
40.5595326228
 20
156.0038889107
 30
0.0
 10
40.2888187978
 20
155.8475931439
 30
0.0
  0
SPLINE
  5
37D
100
AcDbEntity
  8
2
100
AcDbSpline
 62
7
  6
BYLAYER
 70
0
 71
3
 72
25
 73
21
 74
0
 42
0.0000001
 43
0.0000001
 44
0.0000000001
 40
0.0
 40
0.0
 40
0.0
 40
0.0
 40
0.0213320692
 40
0.0428925719
 40
0.0648979862
 40
0.0875426735
 40
0.135317938
 40
0.187219126
 40
0.2436570327
 40
0.3046051057
 40
0.3696930106
 40
0.4382904312
 40
0.5095768655
 40
0.5826010077
 40
0.6563323994
 40
0.7297094659
 40
0.8016855467
 40
0.8712785102
 40
0.9376158803
 40
1.0
 40
1.0
 40
1.0
 40
1.0
 10
65.6094945729
 20
117.5688220496
 30
0.0
 10
65.4620251892
 20
117.6539550581
 30
0.0
 10
65.1761666745
 20
117.8443844816
 30
0.0
 10
64.7838147727
 20
118.1845961201
 30
0.0
 10
64.4290314937
 20
118.5780901079
 30
0.0
 10
64.0012157727
 20
119.1809062804
 30
0.0
 10
63.5729648106
 20
120.0667370797
 30
0.0
 10
63.2465162441
 20
121.2753030658
 30
0.0
 10
63.1010376577
 20
122.623496142
 30
0.0
 10
63.1382077607
 20
124.0832426503
 30
0.0
 10
63.3563709659
 20
125.6245322066
 30
0.0
 10
63.7506690907
 20
127.215123728
 30
0.0
 10
64.3126452456
 20
128.8214660381
 30
0.0
 10
65.0303317148
 20
130.4094490851
 30
0.0
 10
65.8884263836
 20
131.9452427813
 30
0.0
 10
66.8686341671
 20
133.3960837851
 30
0.0
 10
67.9500297195
 20
134.7310342735
 30
0.0
 10
69.1097302065
 20
135.9217176239
 30
0.0
 10
70.3229184925
 20
136.9427149596
 30
0.0
 10
71.1796200081
 20
137.5152225324
 30
0.0
 10
71.610873643
 20
137.7642054484
 30
0.0
  0
SPLINE
  5
37E
100
AcDbEntity
  8
2
100
AcDbSpline
 62
7
  6
BYLAYER
 70
0
 71
3
 72
15
 73
11
 74
0
 42
0.0000001
 43
0.0000001
 44
0.0000000001
 40
0.0
 40
0.0
 40
0.0
 40
0.0
 40
0.1485889103
 40
0.2895055926
 40
0.4227203903
 40
0.5486412296
 40
0.6679994238
 40
0.7819367617
 40
0.8919867003
 40
1.0
 40
1.0
 40
1.0
 40
1.0
 10
71.610873643
 20
137.7642054484
 30
0.0
 10
71.8815873697
 20
137.9205011584
 30
0.0
 10
72.422000537
 20
138.2034084469
 30
0.0
 10
73.2463215945
 20
138.5407995781
 30
0.0
 10
74.0559621235
 20
138.7768214358
 30
0.0
 10
74.8432577222
 20
138.9089126069
 30
0.0
 10
75.6009075365
 20
138.9352633161
 30
0.0
 10
76.3215892504
 20
138.8548795442
 30
0.0
 10
76.997648709
 20
138.6679624984
 30
0.0
 10
77.4154589735
 20
138.4722868703
 30
0.0
 10
77.6122527131
 20
138.358679268
 30
0.0
  0
SPLINE
  5
37F
100
AcDbEntity
  8
2
100
AcDbSpline
 62
7
  6
BYLAYER
 70
0
 71
3
 72
15
 73
11
 74
0
 42
0.0000001
 43
0.0000001
 44
0.0000000001
 40
0.0
 40
0.0
 40
0.0
 40
0.0
 40
0.1485934314
 40
0.2895060695
 40
0.4227218309
 40
0.5486436222
 40
0.6680016432
 40
0.7819387041
 40
0.8919875811
 40
1.0
 40
1.0
 40
1.0
 40
1.0
 10
82.0425397449
 20
131.7413655066
 30
0.0
 10
82.0425397449
 20
132.053980217
 30
0.0
 10
82.0173437814
 20
132.6634709653
 30
0.0
 10
81.8973607131
 20
133.5460868962
 30
0.0
 10
81.6969316905
 20
134.3652939559
 30
0.0
 10
81.417673022
 20
135.1131934548
 30
0.0
 10
81.0616503722
 20
135.7825384716
 30
0.0
 10
80.6316726882
 20
136.3664922263
 30
0.0
 10
80.1317361744
 20
136.8585154482
 30
0.0
 10
79.7533705308
 20
137.1225378149
 30
0.0
 10
79.5565743853
 20
137.2361555422
 30
0.0
  0
SPLINE
  5
380
100
AcDbEntity
  8
2
100
AcDbSpline
 62
7
  6
BYLAYER
 70
0
 71
3
 72
15
 73
11
 74
0
 42
0.0000001
 43
0.0000001
 44
0.0000000001
 40
0.0
 40
0.0
 40
0.0
 40
0.0
 40
0.1141562023
 40
0.2373248158
 40
0.3669742753
 40
0.4999983942
 40
0.6330227365
 40
0.7626728485
 40
0.8858424896
 40
1.0
 40
1.0
 40
1.0
 40
1.0
 10
73.5551929316
 20
117.0407679996
 30
0.0
 10
74.1362297519
 20
117.3762277619
 30
0.0
 10
75.2838591104
 20
118.1807076586
 30
0.0
 10
76.8629412326
 20
119.6580601713
 30
0.0
 10
78.3181354621
 20
121.4044042514
 30
0.0
 10
79.5946781456
 20
123.3542269025
 30
0.0
 10
80.6449942767
 20
125.434665172
 30
0.0
 10
81.4297704924
 20
127.568086053
 30
0.0
 10
81.9196528751
 20
129.6743057617
 30
0.0
 10
82.0425397449
 20
131.0704352903
 30
0.0
 10
82.0425397449
 20
131.7413655066
 30
0.0
  0
SPLINE
  5
381
100
AcDbEntity
  8
2
100
AcDbSpline
 62
7
  6
BYLAYER
 70
0
 71
3
 72
15
 73
11
 74
0
 42
0.0000001
 43
0.0000001
 44
0.0000000001
 40
0.0
 40
0.0
 40
0.0
 40
0.0
 40
0.108013171
 40
0.2180626848
 40
0.3320001729
 40
0.451358353
 40
0.5772800145
 40
0.7104953721
 40
0.8514073777
 40
1.0
 40
1.0
 40
1.0
 40
1.0
 10
67.5538114778
 20
116.4462900362
 30
0.0
 10
67.7506011799
 20
116.3326760289
 30
0.0
 10
68.168423258
 20
116.1370265182
 30
0.0
 10
68.8444749468
 20
115.950094584
 30
0.0
 10
69.5651569367
 20
115.8697077816
 30
0.0
 10
70.322808738
 20
115.8960572839
 30
0.0
 10
71.110105787
 20
116.0281574269
 30
0.0
 10
71.9197399927
 20
116.2641738632
 30
0.0
 10
72.7440635203
 20
116.6015572748
 30
0.0
 10
73.28447247
 20
116.8844684013
 30
0.0
 10
73.5551929316
 20
117.0407679996
 30
0.0
  0
SPLINE
  5
382
100
AcDbEntity
  8
2
100
AcDbSpline
 62
7
  6
BYLAYER
 70
0
 71
3
 72
15
 73
11
 74
0
 42
0.0000001
 43
0.0000001
 44
0.0000000001
 40
0.0
 40
0.0
 40
0.0
 40
0.0
 40
0.1141562023
 40
0.2373248158
 40
0.3669742753
 40
0.4999983942
 40
0.6330227365
 40
0.7626728485
 40
0.8858424896
 40
1.0
 40
1.0
 40
1.0
 40
1.0
 10
73.5551929316
 20
136.6416775787
 30
0.0
 10
72.9741561112
 20
136.3062178165
 30
0.0
 10
71.8265267527
 20
135.5017379197
 30
0.0
 10
70.2474446306
 20
134.024385407
 30
0.0
 10
68.792250401
 20
132.2780413269
 30
0.0
 10
67.5157077175
 20
130.3282186758
 30
0.0
 10
66.4653915864
 20
128.2477804063
 30
0.0
 10
65.6806153707
 20
126.1143595253
 30
0.0
 10
65.190732988
 20
124.0081398166
 30
0.0
 10
65.0678461182
 20
122.612010288
 30
0.0
 10
65.0678461182
 20
121.9410800717
 30
0.0
  0
SPLINE
  5
383
100
AcDbEntity
  8
2
100
AcDbSpline
 62
7
  6
BYLAYER
 70
0
 71
3
 72
15
 73
11
 74
0
 42
0.0000001
 43
0.0000001
 44
0.0000000001
 40
0.0
 40
0.0
 40
0.0
 40
0.0
 40
0.108013171
 40
0.2180626848
 40
0.3320001729
 40
0.451358353
 40
0.5772800145
 40
0.7104953721
 40
0.8514073777
 40
1.0
 40
1.0
 40
1.0
 40
1.0
 10
79.5565743853
 20
137.2361555422
 30
0.0
 10
79.3597846832
 20
137.3497695494
 30
0.0
 10
78.9419626051
 20
137.5454190602
 30
0.0
 10
78.2659109163
 20
137.7323509944
 30
0.0
 10
77.5452289264
 20
137.8127377967
 30
0.0
 10
76.7875771251
 20
137.7863882945
 30
0.0
 10
76.0002800762
 20
137.6542881515
 30
0.0
 10
75.1906458704
 20
137.4182717151
 30
0.0
 10
74.3663223428
 20
137.0808883036
 30
0.0
 10
73.8259133931
 20
136.7979771771
 30
0.0
 10
73.5551929316
 20
136.6416775787
 30
0.0
  0
SPLINE
  5
384
100
AcDbEntity
  8
2
100
AcDbSpline
 62
7
  6
BYLAYER
 70
0
 71
3
 72
15
 73
11
 74
0
 42
0.0000001
 43
0.0000001
 44
0.0000000001
 40
0.0
 40
0.0
 40
0.0
 40
0.0
 40
0.1485934314
 40
0.2895060695
 40
0.4227218309
 40
0.5486436222
 40
0.6680016432
 40
0.7819387041
 40
0.8919875811
 40
1.0
 40
1.0
 40
1.0
 40
1.0
 10
65.0678461182
 20
121.9410800717
 30
0.0
 10
65.0678461182
 20
121.6284653613
 30
0.0
 10
65.0930420817
 20
121.018974613
 30
0.0
 10
65.2130251501
 20
120.1363586822
 30
0.0
 10
65.4134541726
 20
119.3171516224
 30
0.0
 10
65.6927128411
 20
118.5692521235
 30
0.0
 10
66.048735491
 20
117.8999071067
 30
0.0
 10
66.4787131749
 20
117.315953352
 30
0.0
 10
66.9786496888
 20
116.8239301301
 30
0.0
 10
67.3570153323
 20
116.5599077634
 30
0.0
 10
67.5538114778
 20
116.4462900362
 30
0.0
  0
SPLINE
  5
385
100
AcDbEntity
  8
2
100
AcDbSpline
 62
7
  6
BYLAYER
 70
0
 71
3
 72
14
 73
10
 74
0
 42
0.0000001
 43
0.0000001
 44
0.0000000001
 40
0.0
 40
0.0
 40
0.0
 40
0.0
 40
0.263035364
 40
0.3897742976
 40
0.5140871
 40
0.6366772666
 40
0.7582355139
 40
0.8791861844
 40
1.0
 40
1.0
 40
1.0
 40
1.0
 10
53.8501434565
 20
128.135861436
 30
0.0
 10
53.8501434565
 20
127.5883245554
 30
0.0
 10
53.7795831757
 20
126.7728936697
 30
0.0
 10
53.5126255605
 20
125.7346172198
 30
0.0
 10
53.2289079931
 20
125.0081148064
 30
0.0
 10
52.8564975077
 20
124.3348055578
 30
0.0
 10
52.3946921634
 20
123.727575646
 30
0.0
 10
51.8478135662
 20
123.2008329993
 30
0.0
 10
51.4317490716
 20
122.9130421277
 30
0.0
 10
51.2139544673
 20
122.7872991049
 30
0.0
  0
SPLINE
  5
386
100
AcDbEntity
  8
2
100
AcDbSpline
 62
7
  6
BYLAYER
 70
0
 71
3
 72
25
 73
21
 74
0
 42
0.0000001
 43
0.0000001
 44
0.0000000001
 40
0.0
 40
0.0
 40
0.0
 40
0.0
 40
0.0623844978
 40
0.1287220429
 40
0.1983151081
 40
0.2702912313
 40
0.3436683492
 40
0.4173997558
 40
0.4904238486
 40
0.5617101991
 40
0.630307551
 40
0.6953953658
 40
0.7563432512
 40
0.8127809052
 40
0.8646818898
 40
0.9124570836
 40
0.935101805
 40
0.9571072779
 40
0.9786678535
 40
1.0
 40
1.0
 40
1.0
 40
1.0
 10
32.1218292284
 20
132.99389922
 30
0.0
 10
32.1218292284
 20
132.4960548534
 30
0.0
 10
32.1892681896
 20
131.4681331825
 30
0.0
 10
32.4668111849
 20
129.9073743388
 30
0.0
 10
32.9180031285
 20
128.3081056429
 30
0.0
 10
33.5332434569
 20
126.704518447
 30
0.0
 10
34.2994027397
 20
125.1306093434
 30
0.0
 10
35.2001555404
 20
123.6199608858
 30
0.0
 10
36.2162807405
 20
122.2047912425
 30
0.0
 10
37.3261374709
 20
120.9152596355
 30
0.0
 10
38.5061759423
 20
119.7787787036
 30
0.0
 10
39.7315741088
 20
118.8194422094
 30
0.0
 10
40.9768450413
 20
118.0575730944
 30
0.0
 10
42.2168329671
 20
117.5096051463
 30
0.0
 10
43.4263937847
 20
117.188116422
 30
0.0
 10
44.407419263
 20
117.1160936954
 30
0.0
 10
45.1431944842
 20
117.1851635343
 30
0.0
 10
45.6612318999
 20
117.2956371637
 30
0.0
 10
46.1519181267
 20
117.4652705268
 30
0.0
 10
46.4596882016
 20
117.617575503
 30
0.0
 10
46.6071143393
 20
117.7026979932
 30
0.0
  0
SPLINE
  5
387
100
AcDbEntity
  8
2
100
AcDbSpline
 62
7
  6
BYLAYER
 70
0
 71
3
 72
14
 73
10
 74
0
 42
0.0000001
 43
0.0000001
 44
0.0000000001
 40
0.0
 40
0.0
 40
0.0
 40
0.0
 40
0.2892803009
 40
0.4225382398
 40
0.5484954908
 40
0.6678940208
 40
0.7818679731
 40
0.8919520683
 40
1.0
 40
1.0
 40
1.0
 40
1.0
 10
46.9711334565
 20
124.420843375
 30
0.0
 10
46.9711334565
 20
123.9646571231
 30
0.0
 10
46.9178724395
 20
123.2950519494
 30
0.0
 10
46.7120210549
 20
122.4534221916
 30
0.0
 10
46.5025749294
 20
121.8926044626
 30
0.0
 10
46.2356521165
 20
121.3907289216
 30
0.0
 10
45.9132585826
 20
120.9528533819
 30
0.0
 10
45.5383778194
 20
120.5839511126
 30
0.0
 10
45.2546856623
 20
120.3859653317
 30
0.0
 10
45.1071208894
 20
120.3007784005
 30
0.0
  0
SPLINE
  5
388
100
AcDbEntity
  8
2
100
AcDbSpline
 62
7
  6
BYLAYER
 70
0
 71
3
 72
24
 73
20
 74
0
 42
0.0000001
 43
0.0000001
 44
0.0000000001
 40
0.0
 40
0.0
 40
0.0
 40
0.0
 40
0.0270339863
 40
0.0540364957
 40
0.1082255778
 40
0.1630421567
 40
0.2190999385
 40
0.2770270182
 40
0.3372931674
 40
0.4000834176
 40
0.4652750308
 40
0.5324700666
 40
0.6010589922
 40
0.6702944509
 40
0.7393677803
 40
0.8074860071
 40
0.8739459736
 40
0.9382176948
 40
1.0
 40
1.0
 40
1.0
 40
1.0
 10
41.3139987884
 20
139.9346276885
 30
0.0
 10
41.4696528833
 20
140.0244940857
 30
0.0
 10
41.7915920089
 20
140.1861676334
 30
0.0
 10
42.4687912672
 20
140.4330801418
 30
0.0
 10
43.366350546
 20
140.5961707715
 30
0.0
 10
44.4701907151
 20
140.5628526987
 30
0.0
 10
45.5720729559
 20
140.3221984849
 30
0.0
 10
46.6538050912
 20
139.8957784116
 30
0.0
 10
47.7045287836
 20
139.3026317074
 30
0.0
 10
48.714447355
 20
138.5588672087
 30
0.0
 10
49.672326766
 20
137.6801391295
 30
0.0
 10
50.5650943849
 20
136.6833187739
 30
0.0
 10
51.3785754805
 20
135.5873340222
 30
0.0
 10
52.0984810952
 20
134.4131405961
 30
0.0
 10
52.7113306885
 20
133.1831584754
 30
0.0
 10
53.2050636067
 20
131.9204158977
 30
0.0
 10
53.5694102937
 20
130.6473545174
 30
0.0
 10
53.7955971821
 20
129.3853121549
 30
0.0
 10
53.8501434565
 20
128.5466168435
 30
0.0
 10
53.8501434565
 20
128.135861436
 30
0.0
  0
SPLINE
  5
389
100
AcDbEntity
  8
2
100
AcDbSpline
 62
7
  6
BYLAYER
 70
0
 71
3
 72
15
 73
11
 74
0
 42
0.0000001
 43
0.0000001
 44
0.0000000001
 40
0.0
 40
0.0
 40
0.0
 40
0.0
 40
0.1468970743
 40
0.2865543523
 40
0.4190038128
 40
0.5446993714
 40
0.6643879772
 40
0.7791770481
 40
0.8904894325
 40
1.0
 40
1.0
 40
1.0
 40
1.0
 10
50.0702756753
 20
123.8084866624
 30
0.0
 10
50.0702756753
 20
123.4944197521
 30
0.0
 10
50.0448255823
 20
122.8813411212
 30
0.0
 10
49.9235943166
 20
121.9923178768
 30
0.0
 10
49.7204924484
 20
121.1646090925
 30
0.0
 10
49.4365330506
 20
120.4061296629
 30
0.0
 10
49.0731058415
 20
119.7244467849
 30
0.0
 10
48.632476085
 20
119.1271913281
 30
0.0
 10
48.1185566865
 20
118.622085698
 30
0.0
 10
47.7291206228
 20
118.3504738444
 30
0.0
 10
47.5263540573
 20
118.233407212
 30
0.0
  0
SPLINE
  5
38A
100
AcDbEntity
  8
2
100
AcDbSpline
 62
7
  6
BYLAYER
 70
0
 71
3
 72
25
 73
21
 74
0
 42
0.0000001
 43
0.0000001
 44
0.0000000001
 40
0.0
 40
0.0
 40
0.0
 40
0.0
 40
0.021906856
 40
0.0440165562
 40
0.0665244526
 40
0.089609354
 40
0.1380434832
 40
0.1903096478
 40
0.2468596699
 40
0.3077239797
 40
0.3725863109
 40
0.4408615574
 40
0.5117655509
 40
0.5843759474
 40
0.65768666
 40
0.7306585149
 40
0.8022679918
 40
0.8715583696
 40
0.9376886219
 40
1.0
 40
1.0
 40
1.0
 40
1.0
 10
35.5264077798
 20
139.0180479195
 30
0.0
 10
35.6779324036
 20
139.1055301796
 30
0.0
 10
35.9939678969
 20
139.2620385757
 30
0.0
 10
36.4971578459
 20
139.4366123112
 30
0.0
 10
37.0271156461
 20
139.5504848087
 30
0.0
 10
37.776092558
 20
139.6223385
 30
0.0
 10
38.7698415785
 20
139.5520564703
 30
0.0
 10
39.9900744946
 20
139.2311868055
 30
0.0
 10
41.2352740808
 20
138.6844205627
 30
0.0
 10
42.4817692335
 20
137.925249977
 30
0.0
 10
43.7058131261
 20
136.9702885694
 30
0.0
 10
44.8830330584
 20
135.8396550767
 30
0.0
 10
45.9894101812
 20
134.5570771195
 30
0.0
 10
47.0019536695
 20
133.1495481399
 30
0.0
 10
47.899407398
 20
131.6467887861
 30
0.0
 10
48.6628169436
 20
130.0805465473
 30
0.0
 10
49.2760255963
 20
128.4838716055
 30
0.0
 10
49.7259777008
 20
126.8901196787
 30
0.0
 10
50.0030001037
 20
125.3326822754
 30
0.0
 10
50.0702756753
 20
124.306154113
 30
0.0
 10
50.0702756753
 20
123.8084866624
 30
0.0
  0
SPLINE
  5
38B
100
AcDbEntity
  8
2
100
AcDbSpline
 62
7
  6
BYLAYER
 70
0
 71
3
 72
15
 73
11
 74
0
 42
0.0000001
 43
0.0000001
 44
0.0000000001
 40
0.0
 40
0.0
 40
0.0
 40
0.0
 40
0.108012546
 40
0.2180618733
 40
0.3319988891
 40
0.4513571168
 40
0.5772781867
 40
0.710493438
 40
0.8514108175
 40
1.0
 40
1.0
 40
1.0
 40
1.0
 10
34.6071775211
 20
138.4873223383
 30
0.0
 10
34.4104346474
 20
138.3737248202
 30
0.0
 10
34.0321479665
 20
138.1097892979
 30
0.0
 10
33.5323458067
 20
137.6178730264
 30
0.0
 10
33.1024784183
 20
137.0340620327
 30
0.0
 10
32.7465459389
 20
136.3648840158
 30
0.0
 10
32.4673481379
 20
135.6171761201
 30
0.0
 10
32.2669700712
 20
134.7981642698
 30
0.0
 10
32.1470246404
 20
133.9157671151
 30
0.0
 10
32.1218292284
 20
133.3064272571
 30
0.0
 10
32.1218292284
 20
132.99389922
 30
0.0
  0
SPLINE
  5
38C
100
AcDbEntity
  8
2
100
AcDbSpline
 62
7
  6
BYLAYER
 70
0
 71
3
 72
24
 73
20
 74
0
 42
0.0000001
 43
0.0000001
 44
0.0000000001
 40
0.0
 40
0.0
 40
0.0
 40
0.0
 40
0.0213338992
 40
0.0428961199
 40
0.0874743593
 40
0.1352531464
 40
0.1871579184
 40
0.2435996788
 40
0.3045519243
 40
0.3696443067
 40
0.4382464876
 40
0.5095380801
 40
0.5825676307
 40
0.6563045718
 40
0.7296871273
 40
0.8016689512
 40
0.8712669463
 40
0.9376114975
 40
1.0
 40
1.0
 40
1.0
 40
1.0
 10
36.1071709709
 20
135.8892419309
 30
0.0
 10
36.2177463609
 20
135.9530754459
 30
0.0
 10
36.448593014
 20
136.06730993
 30
0.0
 10
36.9444370119
 20
136.2388198501
 30
0.0
 10
37.6257979755
 20
136.339121976
 30
0.0
 10
38.4924859681
 20
136.2750994581
 30
0.0
 10
39.3999540297
 20
136.0340801561
 30
0.0
 10
40.3298517563
 20
135.6230774369
 30
0.0
 10
41.263829168
 20
135.0516882372
 30
0.0
 10
42.1828664694
 20
134.3321884611
 30
0.0
 10
43.0678954687
 20
133.4798336644
 30
0.0
 10
43.9002865752
 20
132.5126886172
 30
0.0
 10
44.6623817461
 20
131.4513140125
 30
0.0
 10
45.3379457887
 20
130.3183289811
 30
0.0
 10
45.9125693721
 20
129.1378982287
 30
0.0
 10
46.3739946459
 20
127.9352073877
 30
0.0
 10
46.7124017709
 20
126.735747459
 30
0.0
 10
46.9205491985
 20
125.5651706709
 30
0.0
 10
46.9711334565
 20
124.7942223842
 30
0.0
 10
46.9711334565
 20
124.420843375
 30
0.0
  0
SPLINE
  5
38D
100
AcDbEntity
  8
2
100
AcDbSpline
 62
7
  6
BYLAYER
 70
0
 71
3
 72
15
 73
11
 74
0
 42
0.0000001
 43
0.0000001
 44
0.0000000001
 40
0.0
 40
0.0
 40
0.0
 40
0.0
 40
0.1485890847
 40
0.2895057845
 40
0.422720599
 40
0.5486415436
 40
0.668000107
 40
0.7819375604
 40
0.891987106
 40
1.0
 40
1.0
 40
1.0
 40
1.0
 10
50.0116976203
 20
123.7268385115
 30
0.0
 10
50.0116976203
 20
123.4143106004
 30
0.0
 10
49.9865026217
 20
122.8049722161
 30
0.0
 10
49.8665576996
 20
121.9225773227
 30
0.0
 10
49.6661807033
 20
121.103567774
 30
0.0
 10
49.3869854623
 20
120.3558591886
 30
0.0
 10
49.0310524875
 20
119.686679637
 30
0.0
 10
48.6011850926
 20
119.1028658632
 30
0.0
 10
48.1013819171
 20
118.6109472909
 30
0.0
 10
47.7230944551
 20
118.3470105977
 30
0.0
 10
47.5263510382
 20
118.233412441
 30
0.0
  0
SPLINE
  5
38E
100
AcDbEntity
  8
2
100
AcDbSpline
 62
7
  6
BYLAYER
 70
0
 71
3
 72
25
 73
21
 74
0
 42
0.0000001
 43
0.0000001
 44
0.0000000001
 40
0.0
 40
0.0
 40
0.0
 40
0.0
 40
0.0213321927
 40
0.0428928946
 40
0.0648983036
 40
0.0875433305
 40
0.1353186254
 40
0.1872195872
 40
0.2436571799
 40
0.3046049308
 40
0.3696925322
 40
0.4382896941
 40
0.5095760724
 40
0.5826002604
 40
0.6563316887
 40
0.7297087497
 40
0.8016851308
 40
0.8712779901
 40
0.9376159434
 40
1.0
 40
1.0
 40
1.0
 40
1.0
 10
41.3140040833
 20
139.9346185175
 30
0.0
 10
41.4356332497
 20
140.004840695
 30
0.0
 10
41.6895315293
 20
140.130520787
 30
0.0
 10
42.0943622071
 20
140.2704293281
 30
0.0
 10
42.5217362626
 20
140.3616098195
 30
0.0
 10
43.1287593873
 20
140.4185474639
 30
0.0
 10
43.938104612
 20
140.3591503841
 30
0.0
 10
44.9359935223
 20
140.0939137937
 30
0.0
 10
45.9589822642
 20
139.6418439755
 30
0.0
 10
46.9863292003
 20
139.0133034429
 30
0.0
 10
47.9972807228
 20
138.2218541708
 30
0.0
 10
48.9708115205
 20
137.2842597434
 30
0.0
 10
49.8864437003
 20
136.220396933
 30
0.0
 10
50.72474798
 20
135.0528813147
 30
0.0
 10
51.4678687135
 20
133.8065955681
 30
0.0
 10
52.0999509725
 20
132.5081191217
 30
0.0
 10
52.6075213777
 20
131.1851585735
 30
0.0
 10
52.9797573091
 20
129.8657592725
 30
0.0
 10
53.2087245048
 20
128.5781336592
 30
0.0
 10
53.2643629068
 20
127.7300986588
 30
0.0
 10
53.2643629068
 20
127.3193799269
 30
0.0
  0
SPLINE
  5
38F
100
AcDbEntity
  8
2
100
AcDbSpline
 62
7
  6
BYLAYER
 70
0
 71
3
 72
25
 73
21
 74
0
 42
0.0000001
 43
0.0000001
 44
0.0000000001
 40
0.0
 40
0.0
 40
0.0
 40
0.0
 40
0.0623844978
 40
0.1287220429
 40
0.1983151081
 40
0.2702912313
 40
0.3436683492
 40
0.4173997558
 40
0.4904238486
 40
0.5617101991
 40
0.630307551
 40
0.6953953658
 40
0.7563432512
 40
0.8127809052
 40
0.8646818898
 40
0.9124570836
 40
0.935101805
 40
0.9571072779
 40
0.9786678535
 40
1.0
 40
1.0
 40
1.0
 40
1.0
 10
49.0924626319
 20
123.1961211115
 30
0.0
 10
49.0924626319
 20
123.6939654781
 30
0.0
 10
49.0250236707
 20
124.7218871489
 30
0.0
 10
48.7474806755
 20
126.2826459927
 30
0.0
 10
48.2962887318
 20
127.8819146885
 30
0.0
 10
47.6810484034
 20
129.4855018844
 30
0.0
 10
46.9148891207
 20
131.0594109881
 30
0.0
 10
46.0141363199
 20
132.5700594457
 30
0.0
 10
44.9980111199
 20
133.9852290889
 30
0.0
 10
43.8881543895
 20
135.2747606959
 30
0.0
 10
42.708115918
 20
136.4112416278
 30
0.0
 10
41.4827177515
 20
137.3705781221
 30
0.0
 10
40.237446819
 20
138.1324472371
 30
0.0
 10
38.9974588932
 20
138.6804151851
 30
0.0
 10
37.7878980756
 20
139.0019039095
 30
0.0
 10
36.8068725973
 20
139.0739266361
 30
0.0
 10
36.0710973761
 20
139.0048567971
 30
0.0
 10
35.5530599604
 20
138.8943831677
 30
0.0
 10
35.0623737336
 20
138.7247498046
 30
0.0
 10
34.7546036587
 20
138.5724448284
 30
0.0
 10
34.6071775211
 20
138.4873223383
 30
0.0
  0
SPLINE
  5
390
100
AcDbEntity
  8
2
100
AcDbSpline
 62
7
  6
BYLAYER
 70
0
 71
3
 72
14
 73
10
 74
0
 42
0.0000001
 43
0.0000001
 44
0.0000000001
 40
0.0
 40
0.0
 40
0.0
 40
0.0
 40
0.2892786411
 40
0.4225360025
 40
0.548495751
 40
0.6678934772
 40
0.7818678487
 40
0.8919524998
 40
1.0
 40
1.0
 40
1.0
 40
1.0
 10
53.2643629068
 20
127.3193799269
 30
0.0
 10
53.2643629068
 20
126.8175776652
 30
0.0
 10
53.2057792307
 20
126.0810143017
 30
0.0
 10
52.9793349088
 20
125.1552235765
 30
0.0
 10
52.7489629221
 20
124.5383142647
 30
0.0
 10
52.4553303707
 20
123.9862543973
 30
0.0
 10
52.1006969296
 20
123.5045945465
 30
0.0
 10
51.6883460581
 20
123.0987777097
 30
0.0
 10
51.3762655357
 20
122.8810210655
 30
0.0
 10
51.2139491724
 20
122.7873082759
 30
0.0
  0
SPLINE
  5
391
100
AcDbEntity
  8
2
100
AcDbSpline
 62
7
  6
BYLAYER
 70
0
 71
3
 72
14
 73
10
 74
0
 42
0.0000001
 43
0.0000001
 44
0.0000000001
 40
0.0
 40
0.0
 40
0.0
 40
0.0
 40
0.2892803009
 40
0.4225382398
 40
0.5484954908
 40
0.6678940208
 40
0.7818679731
 40
0.8919520683
 40
1.0
 40
1.0
 40
1.0
 40
1.0
 10
34.2431584038
 20
131.7691769564
 30
0.0
 10
34.2431584038
 20
132.2253632083
 30
0.0
 10
34.2964194208
 20
132.894968382
 30
0.0
 10
34.5022708055
 20
133.7365981399
 30
0.0
 10
34.711716931
 20
134.2974158688
 30
0.0
 10
34.9786397439
 20
134.7992914098
 30
0.0
 10
35.3010332777
 20
135.2371669495
 30
0.0
 10
35.6759140409
 20
135.6060692189
 30
0.0
 10
35.959606198
 20
135.8040549997
 30
0.0
 10
36.1071709709
 20
135.8892419309
 30
0.0
  0
SPLINE
  5
392
100
AcDbEntity
  8
2
100
AcDbSpline
 62
7
  6
BYLAYER
 70
0
 71
3
 72
9
 73
5
 74
0
 42
0.0000001
 43
0.0000001
 44
0.0000000001
 40
0.0
 40
0.0
 40
0.0
 40
0.0
 40
0.4941567797
 40
1.0
 40
1.0
 40
1.0
 40
1.0
 10
35.5264107988
 20
139.0180426905
 30
0.0
 10
35.7475174614
 20
139.1457080004
 30
0.0
 10
36.2209967677
 20
139.361272303
 30
0.0
 10
36.7260783721
 20
139.4842671476
 30
0.0
 10
36.9843728704
 20
139.5241447911
 30
0.0
  0
SPLINE
  5
393
100
AcDbEntity
  8
2
100
AcDbSpline
 62
7
  6
BYLAYER
 70
0
 71
3
 72
9
 73
5
 74
0
 42
0.0000001
 43
0.0000001
 44
0.0000000001
 40
0.0
 40
0.0
 40
0.0
 40
0.0
 40
0.4904994266
 40
1.0
 40
1.0
 40
1.0
 40
1.0
 10
36.9843728704
 20
139.5241447911
 30
0.0
 10
37.1769103043
 20
139.5538703145
 30
0.0
 10
37.5736214414
 20
139.5894766614
 30
0.0
 10
37.9715708871
 20
139.5784153953
 30
0.0
 10
38.1732821656
 20
139.562156253
 30
0.0
  0
SPLINE
  5
394
100
AcDbEntity
  8
2
100
AcDbSpline
 62
7
  6
BYLAYER
 70
0
 71
3
 72
9
 73
5
 74
0
 42
0.0000001
 43
0.0000001
 44
0.0000000001
 40
0.0
 40
0.0
 40
0.0
 40
0.0
 40
0.244686098
 40
1.0
 40
1.0
 40
1.0
 40
1.0
 10
38.1732821656
 20
139.562156253
 30
0.0
 10
38.2407743355
 20
139.5567159781
 30
0.0
 10
38.516202326
 20
139.5296201724
 30
0.0
 10
38.7896743477
 20
139.4834611527
 30
0.0
 10
38.9939657516
 20
139.4392754123
 30
0.0
  0
SPLINE
  5
395
100
AcDbEntity
  8
2
100
AcDbSpline
 62
7
  6
BYLAYER
 70
0
 71
3
 72
21
 73
17
 74
0
 42
0.0000001
 43
0.0000001
 44
0.0000000001
 40
0.0
 40
0.0
 40
0.0
 40
0.0
 40
0.0492472498
 40
0.1018814738
 40
0.1578926661
 40
0.2171034307
 40
0.2792018399
 40
0.3437698168
 40
0.4103075521
 40
0.4782549602
 40
0.615873317
 40
0.7517259008
 40
0.8175173889
 40
0.8811222301
 40
0.9420793898
 40
1.0
 40
1.0
 40
1.0
 40
1.0
 10
38.9939657516
 20
139.4392754123
 30
0.0
 10
39.3207946432
 20
139.368586307
 30
0.0
 10
39.9868025945
 20
139.172761372
 30
0.0
 10
40.9722880302
 20
138.7451070704
 30
0.0
 10
41.9644502894
 20
138.180116863
 30
0.0
 10
42.9499613914
 20
137.485601143
 30
0.0
 10
43.915831355
 20
136.6709542697
 30
0.0
 10
44.8490845689
 20
135.7471978673
 30
0.0
 10
45.7372120145
 20
134.7267844052
 30
0.0
 10
46.8494571627
 20
133.2499235722
 30
0.0
 10
48.051288347
 20
131.2589326386
 30
0.0
 10
48.9713512031
 20
129.1384560763
 30
0.0
 10
49.5056505061
 20
127.4170053092
 30
0.0
 10
49.7938365289
 20
126.1556017802
 30
0.0
 10
49.9697398798
 20
124.9276800503
 30
0.0
 10
50.0116976203
 20
124.1201162664
 30
0.0
 10
50.0116976203
 20
123.7268385115
 30
0.0
  0
SPLINE
  5
396
100
AcDbEntity
  8
2
100
AcDbSpline
 62
7
  6
BYLAYER
 70
0
 71
3
 72
15
 73
11
 74
0
 42
0.0000001
 43
0.0000001
 44
0.0000000001
 40
0.0
 40
0.0
 40
0.0
 40
0.0
 40
0.108012546
 40
0.2180618733
 40
0.3319988891
 40
0.4513571168
 40
0.5772781867
 40
0.710493438
 40
0.8514108175
 40
1.0
 40
1.0
 40
1.0
 40
1.0
 10
46.6071143393
 20
117.7026979932
 30
0.0
 10
46.8038572129
 20
117.8162955112
 30
0.0
 10
47.1821438939
 20
118.0802310335
 30
0.0
 10
47.6819460536
 20
118.572147305
 30
0.0
 10
48.111813442
 20
119.1559582987
 30
0.0
 10
48.4677459215
 20
119.8251363156
 30
0.0
 10
48.7469437224
 20
120.5728442113
 30
0.0
 10
48.9473217891
 20
121.3918560616
 30
0.0
 10
49.06726722
 20
122.2742532164
 30
0.0
 10
49.0924626319
 20
122.8835930743
 30
0.0
 10
49.0924626319
 20
123.1961211115
 30
0.0
  0
SPLINE
  5
397
100
AcDbEntity
  8
2
100
AcDbSpline
 62
7
  6
BYLAYER
 70
0
 71
3
 72
24
 73
20
 74
0
 42
0.0000001
 43
0.0000001
 44
0.0000000001
 40
0.0
 40
0.0
 40
0.0
 40
0.0
 40
0.0213338992
 40
0.0428961199
 40
0.0874743593
 40
0.1352531464
 40
0.1871579184
 40
0.2435996788
 40
0.3045519243
 40
0.3696443067
 40
0.4382464876
 40
0.5095380801
 40
0.5825676307
 40
0.6563045718
 40
0.7296871273
 40
0.8016689512
 40
0.8712669463
 40
0.9376114975
 40
1.0
 40
1.0
 40
1.0
 40
1.0
 10
45.1071208894
 20
120.3007784005
 30
0.0
 10
44.9965454994
 20
120.2369448856
 30
0.0
 10
44.7656988463
 20
120.1227104014
 30
0.0
 10
44.2698548485
 20
119.9512004813
 30
0.0
 10
43.5884938848
 20
119.8508983554
 30
0.0
 10
42.7218058922
 20
119.9149208733
 30
0.0
 10
41.8143378306
 20
120.1559401754
 30
0.0
 10
40.8844401041
 20
120.5669428946
 30
0.0
 10
39.9504626924
 20
121.1383320942
 30
0.0
 10
39.0314253909
 20
121.8578318703
 30
0.0
 10
38.1463963916
 20
122.7101866671
 30
0.0
 10
37.3140052851
 20
123.6773317143
 30
0.0
 10
36.5519101142
 20
124.738706319
 30
0.0
 10
35.8763460717
 20
125.8716913503
 30
0.0
 10
35.3017224882
 20
127.0521221028
 30
0.0
 10
34.8402972144
 20
128.2548129437
 30
0.0
 10
34.5018900894
 20
129.4542728725
 30
0.0
 10
34.2937426618
 20
130.6248496606
 30
0.0
 10
34.2431584038
 20
131.3957979473
 30
0.0
 10
34.2431584038
 20
131.7691769564
 30
0.0
  0
SPLINE
  5
398
100
AcDbEntity
  8
2
100
AcDbSpline
 62
7
  6
BYLAYER
 70
0
 71
3
 72
15
 73
11
 74
0
 42
0.0000001
 43
0.0000001
 44
0.0000000001
 40
0.0
 40
0.0
 40
0.0
 40
0.0
 40
0.1147727372
 40
0.2387958357
 40
0.369341314
 40
0.5030668814
 40
0.6363625961
 40
0.7656549947
 40
0.8877151284
 40
1.0
 40
1.0
 40
1.0
 40
1.0
 10
40.2535410202
 20
135.2392522643
 30
0.0
 10
40.2535410202
 20
134.7202615243
 30
0.0
 10
40.3516239176
 20
133.6394120296
 30
0.0
 10
40.7411383163
 20
132.0106568775
 30
0.0
 10
41.3638182124
 20
130.3641851265
 30
0.0
 10
42.1950912491
 20
128.765631943
 30
0.0
 10
43.2018767262
 20
127.2781853469
 30
0.0
 10
44.3445309836
 20
125.9607478452
 30
0.0
 10
45.5775040294
 20
124.8656318919
 30
0.0
 10
46.4708515576
 20
124.2848200776
 30
0.0
 10
46.9209110555
 20
124.0497727806
 30
0.0
  0
SPLINE
  5
399
100
AcDbEntity
  8
1
100
AcDbSpline
 62
7
  6
BYLAYER
 70
0
 71
3
 72
10
 73
6
 74
0
 42
0.0000001
 43
0.0000001
 44
0.0000000001
 40
0.0
 40
0.0
 40
0.0
 40
0.0
 40
0.3279522602
 40
0.6612980663
 40
1.0
 40
1.0
 40
1.0
 40
1.0
 10
83.2084120667
 20
103.0255571366
 30
0.0
 10
83.3335354071
 20
103.1177135082
 30
0.0
 10
83.588635359
 20
103.2997775017
 30
0.0
 10
83.9821167644
 20
103.563888504
 30
0.0
 10
84.2513949876
 20
103.7339693055
 30
0.0
 10
84.3882201789
 20
103.8178534898
 30
0.0
  0
SPLINE
  5
39A
100
AcDbEntity
  8
1
100
AcDbSpline
 62
7
  6
BYLAYER
 70
0
 71
3
 72
22
 73
18
 74
0
 42
0.0000001
 43
0.0000001
 44
0.0000000001
 40
0.0
 40
0.0
 40
0.0
 40
0.0
 40
0.0856830231
 40
0.1669472802
 40
0.2426520139
 40
0.311386248
 40
0.3717145788
 40
0.4228003325
 40
0.463902313
 40
0.5021285299
 40
0.5490961574
 40
0.6087051599
 40
0.6773799589
 40
0.7526142115
 40
0.8320814068
 40
0.9145714955
 40
1.0
 40
1.0
 40
1.0
 40
1.0
 10
82.4970876629
 20
102.4679744921
 30
0.0
 10
82.4972684055
 20
102.3662829995
 30
0.0
 10
82.5125402401
 20
102.1679923224
 30
0.0
 10
82.5714996513
 20
101.8852345716
 30
0.0
 10
82.6654991397
 20
101.6331640514
 30
0.0
 10
82.7893983826
 20
101.4222420177
 30
0.0
 10
82.9396073789
 20
101.2663305179
 30
0.0
 10
83.1036778579
 20
101.1803991758
 30
0.0
 10
83.2687126863
 20
101.1804401917
 30
0.0
 10
83.3905443924
 20
101.2853400793
 30
0.0
 10
83.4411191079
 20
101.4553899871
 30
0.0
 10
83.4393258561
 20
101.6644823208
 30
0.0
 10
83.3993627637
 20
101.9032282541
 30
0.0
 10
83.3393632659
 20
102.1614108945
 30
0.0
 10
83.2747798878
 20
102.4354621474
 30
0.0
 10
83.2236390937
 20
102.7248077398
 30
0.0
 10
83.208584468
 20
102.9241677016
 30
0.0
 10
83.2084120667
 20
103.0255571366
 30
0.0
  0
SPLINE
  5
39B
100
AcDbEntity
  8
1
100
AcDbSpline
 62
7
  6
BYLAYER
 70
0
 71
3
 72
10
 73
6
 74
0
 42
0.0000001
 43
0.0000001
 44
0.0000000001
 40
0.0
 40
0.0
 40
0.0
 40
0.0
 40
0.3091086923
 40
0.640680852
 40
1.0
 40
1.0
 40
1.0
 40
1.0
 10
79.2757784881
 20
97.9779741607
 30
0.0
 10
79.449508783
 20
98.5274013664
 30
0.0
 10
79.9466077919
 20
99.6259660584
 30
0.0
 10
81.0506780897
 20
101.1404400845
 30
0.0
 10
81.9829802375
 20
102.0385771002
 30
0.0
 10
82.4970876629
 20
102.4679744921
 30
0.0
  0
SPLINE
  5
39C
100
AcDbEntity
  8
1
100
AcDbSpline
 62
7
  6
BYLAYER
 70
0
 71
3
 72
22
 73
18
 74
0
 42
0.0000001
 43
0.0000001
 44
0.0000000001
 40
0.0
 40
0.0
 40
0.0
 40
0.0
 40
0.0917304663
 40
0.1757488612
 40
0.251299246
 40
0.3165941984
 40
0.3691639396
 40
0.4072911061
 40
0.4343198
 40
0.4674058752
 40
0.5177047928
 40
0.5840597751
 40
0.6590280795
 40
0.7389872505
 40
0.822044291
 40
0.9084083392
 40
1.0
 40
1.0
 40
1.0
 40
1.0
 10
79.0958644254
 20
97.2933100065
 30
0.0
 10
79.0960779082
 20
97.1938387783
 30
0.0
 10
79.1137940276
 20
97.0030162521
 30
0.0
 10
79.1817821853
 20
96.7378363136
 30
0.0
 10
79.2816993874
 20
96.5145179533
 30
0.0
 10
79.4009449803
 20
96.338955988
 30
0.0
 10
79.5262386886
 20
96.2263481216
 30
0.0
 10
79.65044471
 20
96.1686064952
 30
0.0
 10
79.7616098437
 20
96.2203189783
 30
0.0
 10
79.774744346
 20
96.3525356455
 30
0.0
 10
79.739061645
 20
96.5081025795
 30
0.0
 10
79.6613929901
 20
96.702829133
 30
0.0
 10
79.5606020245
 20
96.9199994239
 30
0.0
 10
79.455687247
 20
97.1559851657
 30
0.0
 10
79.3612044176
 20
97.4097341384
 30
0.0
 10
79.2939215117
 20
97.6854431574
 30
0.0
 10
79.2759897
 20
97.8786534472
 30
0.0
 10
79.2757784881
 20
97.9779741607
 30
0.0
  0
SPLINE
  5
39D
100
AcDbEntity
  8
1
100
AcDbSpline
 62
7
  6
BYLAYER
 70
0
 71
3
 72
22
 73
18
 74
0
 42
0.0000001
 43
0.0000001
 44
0.0000000001
 40
0.0
 40
0.0
 40
0.0
 40
0.0
 40
0.0940222924
 40
0.1789282258
 40
0.2540556881
 40
0.3174691843
 40
0.366302817
 40
0.3985607437
 40
0.4206775676
 40
0.4542152275
 40
0.5071911153
 40
0.5763932753
 40
0.6533870642
 40
0.7345722118
 40
0.8185062047
 40
0.906094268
 40
1.0
 40
1.0
 40
1.0
 40
1.0
 10
78.9597599951
 20
95.5589248149
 30
0.0
 10
78.9599733087
 20
95.4602279703
 30
0.0
 10
78.9774791981
 20
95.2721654644
 30
0.0
 10
79.0450940841
 20
95.0127339679
 30
0.0
 10
79.1415600956
 20
94.7986689735
 30
0.0
 10
79.254424205
 20
94.6329495032
 30
0.0
 10
79.3626581526
 20
94.5335852785
 30
0.0
 10
79.4745549287
 20
94.4783975662
 30
0.0
 10
79.5566036642
 20
94.5508059182
 30
0.0
 10
79.5311317172
 20
94.674119239
 30
0.0
 10
79.4768755499
 20
94.8232003951
 30
0.0
 10
79.3769090429
 20
95.0096211648
 30
0.0
 10
79.2616229453
 20
95.2177157814
 30
0.0
 10
79.1467607909
 20
95.444826979
 30
0.0
 10
79.0470387401
 20
95.6911790614
 30
0.0
 10
78.9778241618
 20
95.9620383225
 30
0.0
 10
78.9599680345
 20
96.1528489796
 30
0.0
 10
78.9597550012
 20
96.2514234688
 30
0.0
  0
SPLINE
  5
39E
100
AcDbEntity
  8
1
100
AcDbSpline
 62
7
  6
BYLAYER
 70
0
 71
3
 72
22
 73
18
 74
0
 42
0.0000001
 43
0.0000001
 44
0.0000000001
 40
0.0
 40
0.0
 40
0.0
 40
0.0
 40
0.0964137571
 40
0.1821362971
 40
0.2565833988
 40
0.3176776213
 40
0.3621348642
 40
0.3875992898
 40
0.4057350577
 40
0.4412230549
 40
0.4975299447
 40
0.5696569861
 40
0.6484207214
 40
0.7304698639
 40
0.81498687
 40
0.9036903365
 40
1.0
 40
1.0
 40
1.0
 40
1.0
 10
79.2758083833
 20
93.8323756423
 30
0.0
 10
79.2760166888
 20
93.7344654029
 30
0.0
 10
79.2928332603
 20
93.5492838769
 30
0.0
 10
79.3587422034
 20
93.2955495853
 30
0.0
 10
79.4488769837
 20
93.0904256087
 30
0.0
 10
79.5545729421
 20
92.934043374
 30
0.0
 10
79.63966668
 20
92.8464141516
 30
0.0
 10
79.7432070316
 20
92.7936503703
 30
0.0
 10
79.7828106841
 20
92.8857174249
 30
0.0
 10
79.7287252439
 20
92.9883274297
 30
0.0
 10
79.6551955795
 20
93.1354665053
 30
0.0
 10
79.5358456926
 20
93.3102289789
 30
0.0
 10
79.4080456144
 20
93.5089110741
 30
0.0
 10
79.2857327599
 20
93.7263690951
 30
0.0
 10
79.1829292464
 20
93.9651458184
 30
0.0
 10
79.1134297756
 20
94.2310080413
 30
0.0
 10
79.0960944146
 20
94.4192344055
 30
0.0
 10
79.095884446
 20
94.5170389316
 30
0.0
  0
SPLINE
  5
39F
100
AcDbEntity
  8
1
100
AcDbSpline
 62
7
  6
BYLAYER
 70
0
 71
3
 72
10
 73
6
 74
0
 42
0.0000001
 43
0.0000001
 44
0.0000000001
 40
0.0
 40
0.0
 40
0.0
 40
0.0
 40
0.3593193154
 40
0.690891546
 40
1.0
 40
1.0
 40
1.0
 40
1.0
 10
82.4971823156
 20
89.3423907972
 30
0.0
 10
81.9830686584
 20
89.77178575
 30
0.0
 10
81.0507537645
 20
90.6699180954
 30
0.0
 10
79.9466619267
 20
92.1843862373
 30
0.0
 10
79.4495467423
 20
93.2829488293
 30
0.0
 10
79.2758083833
 20
93.8323756423
 30
0.0
  0
SPLINE
  5
3A0
100
AcDbEntity
  8
1
100
AcDbSpline
 62
7
  6
BYLAYER
 70
0
 71
3
 72
22
 73
18
 74
0
 42
0.0000001
 43
0.0000001
 44
0.0000000001
 40
0.0
 40
0.0
 40
0.0
 40
0.0
 40
0.1027952842
 40
0.1893287309
 40
0.2592623507
 40
0.3105092572
 40
0.3391466455
 40
0.3437233832
 40
0.3705754601
 40
0.4198373227
 40
0.4876060204
 40
0.5659256895
 40
0.6453670971
 40
0.7251040726
 40
0.8075085644
 40
0.8973583825
 40
1.0
 40
1.0
 40
1.0
 40
1.0
 10
83.2085147612
 20
88.7848115724
 30
0.0
 10
83.2086774331
 20
88.6892906873
 30
0.0
 10
83.2226453095
 20
88.51315474
 30
0.0
 10
83.267374482
 20
88.2765169225
 30
0.0
 10
83.3415512458
 20
88.09383228
 30
0.0
 10
83.3712615732
 20
87.9656938251
 30
0.0
 10
83.4499612717
 20
87.8972560037
 30
0.0
 10
83.4151306819
 20
87.8447435323
 30
0.0
 10
83.3465016683
 20
87.946443289
 30
0.0
 10
83.2473100216
 20
87.9931684235
 30
0.0
 10
83.1035643322
 20
88.1227602449
 30
0.0
 10
82.9460282168
 20
88.2549655321
 30
0.0
 10
82.7942401098
 20
88.4177484735
 30
0.0
 10
82.6665505583
 20
88.6031854374
 30
0.0
 10
82.5696154921
 20
88.8180107321
 30
0.0
 10
82.5105038476
 20
89.0678116599
 30
0.0
 10
82.4973520769
 20
89.2470127172
 30
0.0
 10
82.4971823156
 20
89.3423907972
 30
0.0
  0
SPLINE
  5
3A1
100
AcDbEntity
  8
1
100
AcDbSpline
 62
7
  6
BYLAYER
 70
0
 71
3
 72
22
 73
18
 74
0
 42
0.0000001
 43
0.0000001
 44
0.0000000001
 40
0.0
 40
0.0
 40
0.0
 40
0.0
 40
0.1029469368
 40
0.1882247603
 40
0.2556600778
 40
0.3035716981
 40
0.3291355513
 40
0.3419701147
 40
0.375829833
 40
0.4295145523
 40
0.4991257133
 40
0.5765645742
 40
0.6531536666
 40
0.7293887851
 40
0.8088892545
 40
0.8972529806
 40
1.0
 40
1.0
 40
1.0
 40
1.0
 10
85.2364841314
 20
87.5028524356
 30
0.0
 10
85.2366249254
 20
87.4079581615
 30
0.0
 10
85.2483641432
 20
87.2336618843
 30
0.0
 10
85.287274576
 20
87.003464248
 30
0.0
 10
85.3451666409
 20
86.8198026076
 30
0.0
 10
85.3701118677
 20
86.7089518561
 30
0.0
 10
85.4198763736
 20
86.6116940679
 30
0.0
 10
85.3419920292
 20
86.5889302449
 30
0.0
 10
85.2654687695
 20
86.6514691594
 30
0.0
 10
85.1373280982
 20
86.7140317822
 30
0.0
 10
84.9839079948
 20
86.8199828859
 30
0.0
 10
84.8182649791
 20
86.9423563434
 30
0.0
 10
84.6660811045
 20
87.0919212325
 30
0.0
 10
84.5423987571
 20
87.2683555838
 30
0.0
 10
84.4524421637
 20
87.4763354474
 30
0.0
 10
84.3997734358
 20
87.7213841302
 30
0.0
 10
84.3884835082
 20
87.8978109098
 30
0.0
 10
84.3883343004
 20
87.992520891
 30
0.0
  0
SPLINE
  5
3A2
100
AcDbEntity
  8
1
100
AcDbSpline
 62
7
  6
BYLAYER
 70
0
 71
3
 72
22
 73
18
 74
0
 42
0.0000001
 43
0.0000001
 44
0.0000000001
 40
0.0
 40
0.0
 40
0.0
 40
0.0
 40
0.1028237458
 40
0.186802079
 40
0.2520319235
 40
0.2975883422
 40
0.3231144391
 40
0.3452236011
 40
0.3861911432
 40
0.4438530421
 40
0.5144061152
 40
0.5898343524
 40
0.662535388
 40
0.734542937
 40
0.810766516
 40
0.8974372152
 40
1.0
 40
1.0
 40
1.0
 40
1.0
 10
87.5745765645
 20
86.4110221773
 30
0.0
 10
87.5746926908
 20
86.3166661339
 30
0.0
 10
87.5837032924
 20
86.1446563075
 30
0.0
 10
87.6172076589
 20
85.9172102003
 30
0.0
 10
87.6553002758
 20
85.7384295981
 30
0.0
 10
87.6801113198
 20
85.6248475153
 30
0.0
 10
87.6849863305
 20
85.521280801
 30
0.0
 10
87.5881864511
 20
85.5074505286
 30
0.0
 10
87.488617286
 20
85.5485698214
 30
0.0
 10
87.3435682591
 20
85.6079715551
 30
0.0
 10
87.1794673863
 20
85.6969657735
 30
0.0
 10
87.010470244
 20
85.8062182988
 30
0.0
 10
86.8605697327
 20
85.9436358562
 30
0.0
 10
86.743856993
 20
86.1115814631
 30
0.0
 10
86.6631971206
 20
86.3132776866
 30
0.0
 10
86.6182084347
 20
86.5537423044
 30
0.0
 10
86.6089269544
 20
86.7275830819
 30
0.0
 10
86.6088012883
 20
86.8216996422
 30
0.0
  0
SPLINE
  5
3A3
100
AcDbEntity
  8
1
100
AcDbSpline
 62
7
  6
BYLAYER
 70
0
 71
3
 72
10
 73
6
 74
0
 42
0.0000001
 43
0.0000001
 44
0.0000000001
 40
0.0
 40
0.0
 40
0.0
 40
0.0
 40
0.3449470092
 40
0.679591834
 40
1.0
 40
1.0
 40
1.0
 40
1.0
 10
95.3515964437
 20
84.5512250459
 30
0.0
 10
94.4347087742
 20
84.6478630288
 30
0.0
 10
92.6350732301
 20
84.9127284514
 30
0.0
 10
90.0314553334
 20
85.5307759486
 30
0.0
 10
88.3699568107
 20
86.0936012157
 30
0.0
 10
87.5745765645
 20
86.4110221773
 30
0.0
  0
SPLINE
  5
3A4
100
AcDbEntity
  8
1
100
AcDbSpline
 62
7
  6
BYLAYER
 70
0
 71
3
 72
22
 73
18
 74
0
 42
0.0000001
 43
0.0000001
 44
0.0000000001
 40
0.0
 40
0.0
 40
0.0
 40
0.0
 40
0.1019740286
 40
0.1834466407
 40
0.2464408149
 40
0.2946721516
 40
0.3365215916
 40
0.3858399174
 40
0.4458373532
 40
0.5109879974
 40
0.5777043541
 40
0.639437915
 40
0.6941992395
 40
0.7504721327
 40
0.8166007392
 40
0.898563087
 40
1.0
 40
1.0
 40
1.0
 40
1.0
 10
96.5374864983
 20
84.4473530984
 30
0.0
 10
96.5375108172
 20
84.3539527787
 30
0.0
 10
96.539583895
 20
84.1860052651
 30
0.0
 10
96.5437234477
 20
83.960075406
 30
0.0
 10
96.5357976006
 20
83.7841085497
 30
0.0
 10
96.5013646254
 20
83.6445338137
 30
0.0
 10
96.4078235192
 20
83.5481135785
 30
0.0
 10
96.2700354046
 20
83.5120470134
 30
0.0
 10
96.110472105
 20
83.5048894215
 30
0.0
 10
95.9348111515
 20
83.5217044142
 30
0.0
 10
95.7614441666
 20
83.560473164
 30
0.0
 10
95.6043594775
 20
83.6241666784
 30
0.0
 10
95.4816342163
 20
83.7299342363
 30
0.0
 10
95.4071486496
 20
83.8776792867
 30
0.0
 10
95.3693692764
 20
84.0620494793
 30
0.0
 10
95.3539534293
 20
84.2903248853
 30
0.0
 10
95.3516325643
 20
84.4583166865
 30
0.0
 10
95.3515964437
 20
84.5512250459
 30
0.0
  0
SPLINE
  5
3A5
100
AcDbEntity
  8
1
100
AcDbSpline
 62
7
  6
BYLAYER
 70
0
 71
3
 72
22
 73
18
 74
0
 42
0.0000001
 43
0.0000001
 44
0.0000000001
 40
0.0
 40
0.0
 40
0.0
 40
0.0
 40
0.101934461
 40
0.1835848142
 40
0.2478425205
 40
0.2998431052
 40
0.3485196733
 40
0.4048719176
 40
0.4690027439
 40
0.5345306157
 40
0.5979256919
 40
0.6534198597
 40
0.701567715
 40
0.7533699997
 40
0.8174241264
 40
0.898704319
 40
1.0
 40
1.0
 40
1.0
 40
1.0
 10
99.541572716
 20
84.3687742922
 30
0.0
 10
99.5415666511
 20
84.2753947285
 30
0.0
 10
99.5414623903
 20
84.1072476565
 30
0.0
 10
99.5356619832
 20
83.8801146262
 30
0.0
 10
99.5127297827
 20
83.6998527714
 30
0.0
 10
99.4560204356
 20
83.5559073876
 30
0.0
 10
99.3448582973
 20
83.4567216589
 30
0.0
 10
99.1953053962
 20
83.4076336856
 30
0.0
 10
99.0260700623
 20
83.3853173486
 30
0.0
 10
98.8485571314
 20
83.3861366001
 30
0.0
 10
98.6809474675
 20
83.4094254277
 30
0.0
 10
98.5337155591
 20
83.4596515487
 30
0.0
 10
98.4254226491
 20
83.559688326
 30
0.0
 10
98.3703470585
 20
83.7031460379
 30
0.0
 10
98.3479053491
 20
83.8827322642
 30
0.0
 10
98.3422295056
 20
84.1087538309
 30
0.0
 10
98.3421187412
 20
84.2759770154
 30
0.0
 10
98.342112716
 20
84.3687714091
 30
0.0
  0
SPLINE
  5
3A6
100
AcDbEntity
  8
1
100
AcDbSpline
 62
7
  6
BYLAYER
 70
0
 71
3
 72
22
 73
18
 74
0
 42
0.0000001
 43
0.0000001
 44
0.0000000001
 40
0.0
 40
0.0
 40
0.0
 40
0.0
 40
0.1020778913
 40
0.1844246645
 40
0.2508079069
 40
0.3073850224
 40
0.3627710055
 40
0.4253269062
 40
0.492624594
 40
0.5575646326
 40
0.6166810735
 40
0.6651255563
 40
0.7065797667
 40
0.7547244944
 40
0.8175552905
 40
0.8986648189
 40
1.0
 40
1.0
 40
1.0
 40
1.0
 10
102.5320863567
 20
84.5512423057
 30
0.0
 10
102.5320500063
 20
84.4577469147
 30
0.0
 10
102.5297074071
 20
84.2888148644
 30
0.0
 10
102.5140578891
 20
84.0593759966
 30
0.0
 10
102.4755424618
 20
83.874221571
 30
0.0
 10
102.3992228997
 20
83.7260391939
 30
0.0
 10
102.2737888681
 20
83.6208941967
 30
0.0
 10
102.1144567538
 20
83.5580071401
 30
0.0
 10
101.9397638549
 20
83.5200743473
 30
0.0
 10
101.7644198831
 20
83.5049153937
 30
0.0
 10
101.6067179716
 20
83.5131548942
 30
0.0
 10
101.4712539458
 20
83.5508066771
 30
0.0
 10
101.3807951168
 20
83.6482263207
 30
0.0
 10
101.3476324498
 20
83.7872153673
 30
0.0
 10
101.3399801357
 20
83.962672713
 30
0.0
 10
101.3441328279
 20
84.1875132357
 30
0.0
 10
101.3461736321
 20
84.354549527
 30
0.0
 10
101.3461978002
 20
84.4473646571
 30
0.0
  0
SPLINE
  5
3A7
100
AcDbEntity
  8
1
100
AcDbSpline
 62
7
  6
BYLAYER
 70
0
 71
3
 72
10
 73
6
 74
0
 42
0.0000001
 43
0.0000001
 44
0.0000000001
 40
0.0
 40
0.0
 40
0.0
 40
0.0
 40
0.320407913
 40
0.6550527298
 40
1.0
 40
1.0
 40
1.0
 40
1.0
 10
110.3090794125
 20
86.4110768243
 30
0.0
 10
109.5137034504
 20
86.0936519217
 30
0.0
 10
107.8522123673
 20
85.5308185055
 30
0.0
 10
105.2486033115
 20
84.9127585708
 30
0.0
 10
103.4489722729
 20
84.6478846586
 30
0.0
 10
102.5320863567
 20
84.5512423057
 30
0.0
  0
SPLINE
  5
3A8
100
AcDbEntity
  8
1
100
AcDbSpline
 62
7
  6
BYLAYER
 70
0
 71
3
 72
22
 73
18
 74
0
 42
0.0000001
 43
0.0000001
 44
0.0000000001
 40
0.0
 40
0.0
 40
0.0
 40
0.0
 40
0.1032254394
 40
0.1903633193
 40
0.2670284264
 40
0.3395910379
 40
0.4130464022
 40
0.4890747851
 40
0.5596770897
 40
0.6164869455
 40
0.6561769466
 40
0.6775580027
 40
0.7034331842
 40
0.7491431258
 40
0.8142312774
 40
0.8978235636
 40
1.0
 40
1.0
 40
1.0
 40
1.0
 10
111.2748487656
 20
86.8217589321
 30
0.0
 10
111.274722291
 20
86.727037844
 30
0.0
 10
111.2653339546
 20
86.5521630444
 30
0.0
 10
111.2197296868
 20
86.3103262081
 30
0.0
 10
111.1377822188
 20
86.1076544167
 30
0.0
 10
111.0191171636
 20
85.939079299
 30
0.0
 10
110.8669608628
 20
85.8015101297
 30
0.0
 10
110.6964359775
 20
85.6924488112
 30
0.0
 10
110.5321047554
 20
85.6037625904
 30
0.0
 10
110.3887889232
 20
85.5467528496
 30
0.0
 10
110.2904399096
 20
85.5059643535
 30
0.0
 10
110.1968814565
 20
85.5246216641
 30
0.0
 10
110.2047939393
 20
85.6273912471
 30
0.0
 10
110.2286498608
 20
85.741490904
 30
0.0
 10
110.2670499833
 20
85.9198285014
 30
0.0
 10
110.3000010075
 20
86.146283304
 30
0.0
 10
110.3089640201
 20
86.3173183032
 30
0.0
 10
110.3090794125
 20
86.4110768243
 30
0.0
  0
SPLINE
  5
3A9
100
AcDbEntity
  8
1
100
AcDbSpline
 62
7
  6
BYLAYER
 70
0
 71
3
 72
24
 73
20
 74
0
 42
0.0000001
 43
0.0000001
 44
0.0000000001
 40
0.0
 40
0.0
 40
0.0
 40
0.0
 40
0.0570056581
 40
0.1083525195
 40
0.1547267446
 40
0.1978252193
 40
0.2402140496
 40
0.2846748776
 40
0.3333886522
 40
0.3875374728
 40
0.4473576154
 40
0.5123560934
 40
0.5815215422
 40
0.6534945731
 40
0.7267069965
 40
0.7995038539
 40
0.8702589415
 40
0.9374924422
 40
1.0
 40
1.0
 40
1.0
 40
1.0
 10
85.5066747452
 20
102.0287916743
 30
0.0
 10
84.7191382969
 20
101.574110008
 30
0.0
 10
83.2829128832
 20
100.5943564393
 30
0.0
 10
81.5356417978
 20
98.825137045
 30
0.0
 10
80.3690097885
 20
96.8741557767
 30
0.0
 10
79.8501346597
 20
94.7997200587
 30
0.0
 10
80.0246915723
 20
92.6969255776
 30
0.0
 10
80.8755667663
 20
90.6750197515
 30
0.0
 10
82.3409170004
 20
88.8090164196
 30
0.0
 10
84.3547473759
 20
87.1469895477
 30
0.0
 10
86.8478753654
 20
85.731963187
 30
0.0
 10
89.7396040796
 20
84.604685543
 30
0.0
 10
92.9359347864
 20
83.8001767732
 30
0.0
 10
96.3317028546
 20
83.3444553885
 30
0.0
 10
99.8143185531
 20
83.2525624945
 30
0.0
 10
103.2678295692
 20
83.5275030285
 30
0.0
 10
106.5777655441
 20
84.1603355119
 30
0.0
 10
109.6336553696
 20
85.1297630186
 30
0.0
 10
111.5132987915
 20
86.0170777464
 30
0.0
 10
112.3768443008
 20
86.5156430025
 30
0.0
  0
SPLINE
  5
3AA
100
AcDbEntity
  8
1
100
AcDbSpline
 62
7
  6
BYLAYER
 70
0
 71
3
 72
22
 73
18
 74
0
 42
0.0000001
 43
0.0000001
 44
0.0000000001
 40
0.0
 40
0.0
 40
0.0
 40
0.0
 40
0.081134564
 40
0.1600957101
 40
0.2352596734
 40
0.3051962555
 40
0.3689146222
 40
0.4265513031
 40
0.4771172327
 40
0.5237513369
 40
0.5740413757
 40
0.6315099947
 40
0.6953198933
 40
0.765476691
 40
0.8406749658
 40
0.919373275
 40
1.0
 40
1.0
 40
1.0
 40
1.0
 10
95.3514326893
 20
107.2592020397
 30
0.0
 10
95.3514728922
 20
107.155543441
 30
0.0
 10
95.3546733524
 20
106.9509912931
 30
0.0
 10
95.3716958925
 20
106.6507430848
 30
0.0
 10
95.4111428031
 20
106.3667085799
 30
0.0
 10
95.4820490318
 20
106.1083655695
 30
0.0
 10
95.5938375325
 20
105.8882104272
 30
0.0
 10
95.750128245
 20
105.7275466675
 30
0.0
 10
95.9389635172
 20
105.6481346237
 30
0.0
 10
96.1344229083
 20
105.6680854286
 30
0.0
 10
96.3031483893
 20
105.7828854669
 30
0.0
 10
96.4254877469
 20
105.9696743244
 30
0.0
 10
96.4989277827
 20
106.2049752648
 30
0.0
 10
96.5341019283
 20
106.4705971667
 30
0.0
 10
96.5434954918
 20
106.7569114234
 30
0.0
 10
96.5399565722
 20
107.0565249036
 30
0.0
 10
96.537348002
 20
107.2600699072
 30
0.0
 10
96.5373212457
 20
107.3630796883
 30
0.0
  0
SPLINE
  5
3AB
100
AcDbEntity
  8
1
100
AcDbSpline
 62
7
  6
BYLAYER
 70
0
 71
3
 72
10
 73
6
 74
0
 42
0.0000001
 43
0.0000001
 44
0.0000000001
 40
0.0
 40
0.0
 40
0.0
 40
0.0
 40
0.320407913
 40
0.6550527298
 40
1.0
 40
1.0
 40
1.0
 40
1.0
 10
87.5744396334
 20
105.3993675211
 30
0.0
 10
88.3698155955
 20
105.7167924237
 30
0.0
 10
90.0313066787
 20
106.2796258399
 30
0.0
 10
92.6349157344
 20
106.8976857746
 30
0.0
 10
94.4345467731
 20
107.1625596868
 30
0.0
 10
95.3514326893
 20
107.2592020397
 30
0.0
  0
SPLINE
  5
3AC
100
AcDbEntity
  8
1
100
AcDbSpline
 62
7
  6
BYLAYER
 70
0
 71
3
 72
22
 73
18
 74
0
 42
0.0000001
 43
0.0000001
 44
0.0000000001
 40
0.0
 40
0.0
 40
0.0
 40
0.0
 40
0.0831416491
 40
0.1630884703
 40
0.2384529927
 40
0.3079133508
 40
0.3704217783
 40
0.4256802364
 40
0.4723878998
 40
0.514927952
 40
0.5628597649
 40
0.6206669521
 40
0.6865956569
 40
0.7592717004
 40
0.8366565585
 40
0.9172042056
 40
1.0
 40
1.0
 40
1.0
 40
1.0
 10
86.6086702803
 20
104.9886854132
 30
0.0
 10
86.6088071789
 20
104.8859558934
 30
0.0
 10
86.620377083
 20
104.6843590886
 30
0.0
 10
86.6664004989
 20
104.3927636223
 30
0.0
 10
86.7449983502
 20
104.1253875781
 30
0.0
 10
86.8567757545
 20
103.8932110114
 30
0.0
 10
87.0032733714
 20
103.7105412043
 30
0.0
 10
87.1769887592
 20
103.5969457796
 30
0.0
 10
87.3612992975
 20
103.5681419352
 30
0.0
 10
87.5244372148
 20
103.6416484894
 30
0.0
 10
87.6311447595
 20
103.7989460315
 30
0.0
 10
87.6800359738
 20
104.0080059734
 30
0.0
 10
87.6839438401
 20
104.2515909808
 30
0.0
 10
87.6590877973
 20
104.5174863183
 30
0.0
 10
87.6206794579
 20
104.7998224285
 30
0.0
 10
87.5856906308
 20
105.0952319909
 30
0.0
 10
87.5745652826
 20
105.2970653243
 30
0.0
 10
87.5744396334
 20
105.3993675211
 30
0.0
  0
SPLINE
  5
3AD
100
AcDbEntity
  8
1
100
AcDbSpline
 62
7
  6
BYLAYER
 70
0
 71
3
 72
21
 73
17
 74
0
 42
0.0000001
 43
0.0000001
 44
0.0000000001
 40
0.0
 40
0.0
 40
0.0
 40
0.0
 40
0.0927226129
 40
0.1848311092
 40
0.2744411872
 40
0.3598326564
 40
0.4395863345
 40
0.5127447424
 40
0.5790105398
 40
0.6389831724
 40
0.6943660023
 40
0.7479232055
 40
0.8029205223
 40
0.8622238323
 40
0.9276755806
 40
1.0
 40
1.0
 40
1.0
 40
1.0
 10
96.6565147995
 20
105.1620824175
 30
0.0
 10
97.7723814388
 20
105.2401352805
 30
0.0
 10
100.0063529519
 20
105.281170094
 30
0.0
 10
103.3112578272
 20
105.0058107833
 30
0.0
 10
106.4831115525
 20
104.4022527004
 30
0.0
 10
109.4251004352
 20
103.4886395242
 30
0.0
 10
112.0487720639
 20
102.2918283723
 30
0.0
 10
114.2759193232
 20
100.8453841976
 30
0.0
 10
116.0396667187
 20
99.1867869926
 30
0.0
 10
117.2816078742
 20
97.3554349316
 30
0.0
 10
117.9452529138
 20
95.3983219303
 30
0.0
 10
117.9837729381
 20
93.3883978122
 30
0.0
 10
117.3938435462
 20
91.4203423488
 30
0.0
 10
116.2187889413
 20
89.5708950798
 30
0.0
 10
114.5156136069
 20
87.8894779465
 30
0.0
 10
113.1324630487
 20
86.9518970859
 30
0.0
 10
112.3768443008
 20
86.5156430025
 30
0.0
  0
SPLINE
  5
3AE
100
AcDbEntity
  8
1
100
AcDbSpline
 62
7
  6
BYLAYER
 70
0
 71
3
 72
11
 73
7
 74
0
 42
0.0000001
 43
0.0000001
 44
0.0000000001
 40
0.0
 40
0.0
 40
0.0
 40
0.0
 40
0.2296079719
 40
0.4752394493
 40
0.7334546405
 40
1.0
 40
1.0
 40
1.0
 40
1.0
 10
85.5066747452
 20
102.0287916743
 30
0.0
 10
86.2802952491
 20
102.4754390144
 30
0.0
 10
87.9514456787
 20
103.2816529095
 30
0.0
 10
90.659277065
 20
104.200099941
 30
0.0
 10
93.5907192138
 20
104.8498256946
 30
0.0
 10
95.6220374193
 20
105.0897225868
 30
0.0
 10
96.6565147995
 20
105.1620824175
 30
0.0
  0
SPLINE
  5
3AF
100
AcDbEntity
  8
1
100
AcDbSpline
 62
7
  6
BYLAYER
 70
0
 71
3
 72
24
 73
20
 74
0
 42
0.0000001
 43
0.0000001
 44
0.0000000001
 40
0.0
 40
0.0
 40
0.0
 40
0.0
 40
0.0570056581
 40
0.1083525195
 40
0.1547267446
 40
0.1978252193
 40
0.2402140496
 40
0.2846748776
 40
0.3333886522
 40
0.3875374728
 40
0.4473576154
 40
0.5123560934
 40
0.5815215422
 40
0.6534945731
 40
0.7267069965
 40
0.7995038539
 40
0.8702589415
 40
0.9374924422
 40
1.0
 40
1.0
 40
1.0
 40
1.0
 10
111.8541979822
 20
86.5059701679
 30
0.0
 10
112.6110980011
 20
86.9429639891
 30
0.0
 10
113.9914519456
 20
87.8846035746
 30
0.0
 10
115.670751387
 20
89.5849975004
 30
0.0
 10
116.7919995424
 20
91.4600824723
 30
0.0
 10
117.2906895976
 20
93.4538193179
 30
0.0
 10
117.1229232284
 20
95.4748117253
 30
0.0
 10
116.3051484425
 20
97.4180621761
 30
0.0
 10
114.8968026797
 20
99.2114749893
 30
0.0
 10
112.9613135316
 20
100.8088463536
 30
0.0
 10
110.5651722144
 20
102.1688259223
 30
0.0
 10
107.7859363793
 20
103.2522506602
 30
0.0
 10
104.713948057
 20
104.0254627502
 30
0.0
 10
101.4502808061
 20
104.463455843
 30
0.0
 10
98.1031444369
 20
104.5517739563
 30
0.0
 10
94.7839805312
 20
104.2875290494
 30
0.0
 10
91.6028063677
 20
103.6793147634
 30
0.0
 10
88.6657955514
 20
102.7475995395
 30
0.0
 10
86.8592732694
 20
101.894802776
 30
0.0
 10
86.0293210638
 20
101.4156325069
 30
0.0
  0
SPLINE
  5
3B0
100
AcDbEntity
  8
1
100
AcDbSpline
 62
7
  6
BYLAYER
 70
0
 71
3
 72
35
 73
31
 74
0
 42
0.0000001
 43
0.0000001
 44
0.0000000001
 40
0.0
 40
0.0
 40
0.0
 40
0.0
 40
0.034245596
 40
0.0665146996
 40
0.0967533198
 40
0.1251827298
 40
0.1520815496
 40
0.1777943094
 40
0.2026326046
 40
0.2273343828
 40
0.252601835
 40
0.2788311248
 40
0.306681693
 40
0.3362637146
 40
0.3676967812
 40
0.4011160886
 40
0.4363127141
 40
0.4733457574
 40
0.5119555188
 40
0.5520024901
 40
0.5929836545
 40
0.6348383593
 40
0.6775412304
 40
0.7204860687
 40
0.7657922069
 40
0.8106004323
 40
0.858292011
 40
0.9044913378
 40
0.9536435487
 40
1.0
 40
1.0
 40
1.0
 40
1.0
 10
92.2242171341
 20
96.1330190432
 30
0.0
 10
91.987449846
 20
95.9963222016
 30
0.0
 10
91.5392973788
 20
95.7095950703
 30
0.0
 10
90.9347215497
 20
95.2263684463
 30
0.0
 10
90.423949014
 20
94.7077338912
 30
0.0
 10
90.0128689361
 20
94.1592469712
 30
0.0
 10
89.7064955492
 20
93.5862383894
 30
0.0
 10
89.5100590382
 20
92.9965568408
 30
0.0
 10
89.4262852435
 20
92.398154421
 30
0.0
 10
89.4558628769
 20
91.7981381155
 30
0.0
 10
89.5987348239
 20
91.2033554872
 30
0.0
 10
89.853621748
 20
90.620163976
 30
0.0
 10
90.2172009371
 20
90.0567976142
 30
0.0
 10
90.6847558732
 20
89.5203651853
 30
0.0
 10
91.2491820091
 20
89.0179176522
 30
0.0
 10
91.9023175411
 20
88.5556245753
 30
0.0
 10
92.6364442226
 20
88.1379075004
 30
0.0
 10
93.4420868882
 20
87.7694201125
 30
0.0
 10
94.3109420145
 20
87.4535191727
 30
0.0
 10
95.2310182801
 20
87.1941835312
 30
0.0
 10
96.1920910281
 20
86.9937350407
 30
0.0
 10
97.1851863654
 20
86.8537558316
 30
0.0
 10
98.2007884913
 20
86.7759745017
 30
0.0
 10
99.2468095631
 20
86.7614996279
 30
0.0
 10
100.3085132947
 20
86.8149731779
 30
0.0
 10
101.4019432883
 20
86.9436609345
 30
0.0
 10
102.490600311
 20
87.1518540928
 30
0.0
 10
103.593053019
 20
87.4544487415
 30
0.0
 10
104.6545554134
 20
87.8506697156
 30
0.0
 10
105.3388025621
 20
88.1914054259
 30
0.0
 10
105.6593019119
 20
88.3764447073
 30
0.0
  0
SPLINE
  5
3B1
100
AcDbEntity
  8
1
100
AcDbSpline
 62
7
  6
BYLAYER
 70
0
 71
3
 72
14
 73
10
 74
0
 42
0.0000001
 43
0.0000001
 44
0.0000000001
 40
0.0
 40
0.0
 40
0.0
 40
0.0
 40
0.1487024115
 40
0.2840228312
 40
0.4116566733
 40
0.5401230166
 40
0.6778898432
 40
0.8305533407
 40
1.0
 40
1.0
 40
1.0
 40
1.0
 10
88.3286402846
 20
88.8227257746
 30
0.0
 10
87.921212019
 20
89.1919523879
 30
0.0
 10
87.208258157
 20
89.9778590159
 30
0.0
 10
86.5025550407
 20
91.3503432318
 30
0.0
 10
86.2753547503
 20
92.8080738943
 30
0.0
 10
86.5590285996
 20
94.2647470683
 30
0.0
 10
87.3241104258
 20
95.6361216882
 30
0.0
 10
88.5127559524
 20
96.8719649117
 30
0.0
 10
89.5009613021
 20
97.5503320633
 30
0.0
 10
90.043566673
 20
97.8636035502
 30
0.0
  0
SPLINE
  5
3B2
100
AcDbEntity
  8
1
100
AcDbSpline
 62
7
  6
BYLAYER
 70
0
 71
3
 72
14
 73
10
 74
0
 42
0.0000001
 43
0.0000001
 44
0.0000000001
 40
0.0
 40
0.0
 40
0.0
 40
0.0
 40
0.1711051817
 40
0.323985436
 40
0.4612767432
 40
0.5890656706
 40
0.7160636091
 40
0.8510022553
 40
1.0
 40
1.0
 40
1.0
 40
1.0
 10
87.908000389
 20
99.6926803529
 30
0.0
 10
87.2285786522
 20
99.3004183718
 30
0.0
 10
85.9964822078
 20
98.4532998393
 30
0.0
 10
84.5219130286
 20
96.912185471
 30
0.0
 10
83.5812543976
 20
95.2121488195
 30
0.0
 10
83.2363153906
 20
93.4133659614
 30
0.0
 10
83.5186259756
 20
91.6142639576
 30
0.0
 10
84.3915962431
 20
89.915220992
 30
0.0
 10
85.2752731396
 20
88.940745926
 30
0.0
 10
85.7814916673
 20
88.4819919111
 30
0.0
  0
SPLINE
  5
3B3
100
AcDbEntity
  8
1
100
AcDbSpline
 62
7
  6
BYLAYER
 70
0
 71
3
 72
24
 73
20
 74
0
 42
0.0000001
 43
0.0000001
 44
0.0000000001
 40
0.0
 40
0.0
 40
0.0
 40
0.0
 40
0.0598004537
 40
0.1246134433
 40
0.1934791374
 40
0.2647616913
 40
0.3379933008
 40
0.4109553392
 40
0.4813869981
 40
0.5475007935
 40
0.6082331801
 40
0.6631555221
 40
0.7125375376
 40
0.7575653841
 40
0.8004113382
 40
0.8436215239
 40
0.8904136174
 40
0.9423653601
 40
1.0
 40
1.0
 40
1.0
 40
1.0
 10
111.8541979822
 20
86.5059701679
 30
0.0
 10
111.0601995302
 20
86.0475576842
 30
0.0
 10
109.3285539032
 20
85.2226554842
 30
0.0
 10
106.5015154518
 20
84.3023207698
 30
0.0
 10
103.4144686571
 20
83.6805263988
 30
0.0
 10
100.1505722007
 20
83.3828584927
 30
0.0
 10
96.8104230506
 20
83.4298494808
 30
0.0
 10
93.5069634344
 20
83.8323115016
 30
0.0
 10
90.3756946356
 20
84.581346351
 30
0.0
 10
87.5366203101
 20
85.6499628917
 30
0.0
 10
85.0862981852
 20
87.0010476728
 30
0.0
 10
83.1011042304
 20
88.5944083359
 30
0.0
 10
81.6459619717
 20
90.3898010938
 30
0.0
 10
80.785365219
 20
92.343164296
 30
0.0
 10
80.5844650057
 20
94.3795493153
 30
0.0
 10
81.0618325411
 20
96.3948742415
 30
0.0
 10
82.1772181701
 20
98.2950630154
 30
0.0
 10
83.8685949857
 20
100.0202216816
 30
0.0
 10
85.2640791303
 20
100.9738225078
 30
0.0
 10
86.0293210638
 20
101.4156325069
 30
0.0
  0
SPLINE
  5
3B4
100
AcDbEntity
  8
1
100
AcDbSpline
 62
7
  6
BYLAYER
 70
0
 71
3
 72
15
 73
11
 74
0
 42
0.0000001
 43
0.0000001
 44
0.0000000001
 40
0.0
 40
0.0
 40
0.0
 40
0.0
 40
0.1396179339
 40
0.2795449623
 40
0.416797425
 40
0.5489802845
 40
0.6743295175
 40
0.7916918416
 40
0.9002982842
 40
1.0
 40
1.0
 40
1.0
 40
1.0
 10
90.5577768018
 20
85.7244647866
 30
0.0
 10
91.4315155646
 20
85.4031001318
 30
0.0
 10
93.2278896255
 20
84.8827686853
 30
0.0
 10
95.9750273227
 20
84.4287236118
 30
0.0
 10
98.7048687689
 20
84.2700007291
 30
0.0
 10
101.3392042385
 20
84.3786199558
 30
0.0
 10
103.818982638
 20
84.7241213432
 30
0.0
 10
106.0997751607
 20
85.2762498527
 30
0.0
 10
108.1492444298
 20
86.0060007184
 30
0.0
 10
109.3997795005
 20
86.6198797941
 30
0.0
 10
109.975518657
 20
86.9522809669
 30
0.0
  0
SPLINE
  5
3B5
100
AcDbEntity
  8
1
100
AcDbSpline
 62
7
  6
BYLAYER
 70
0
 71
3
 72
16
 73
12
 74
0
 42
0.0000001
 43
0.0000001
 44
0.0000000001
 40
0.0
 40
0.0
 40
0.0
 40
0.0
 40
0.0676577384
 40
0.1441762867
 40
0.2308434712
 40
0.3290508638
 40
0.4397323157
 40
0.5634589064
 40
0.6996393142
 40
0.8463688102
 40
1.0
 40
1.0
 40
1.0
 40
1.0
 10
107.839952373
 20
87.5890879163
 30
0.0
 10
107.5248556049
 20
87.4071677984
 30
0.0
 10
106.8353503575
 20
87.0501613647
 30
0.0
 10
105.6875269121
 20
86.5737471936
 30
0.0
 10
104.347394536
 20
86.1440779575
 30
0.0
 10
102.7969169361
 20
85.7861019548
 30
0.0
 10
101.0239358405
 20
85.5330437937
 30
0.0
 10
99.0310267273
 20
85.427773853
 30
0.0
 10
96.8424804057
 20
85.5220232911
 30
0.0
 10
94.5166533378
 20
85.8733326368
 30
0.0
 10
92.9558783694
 20
86.3137200705
 30
0.0
 10
92.180483135
 20
86.5989135774
 30
0.0
  0
SPLINE
  5
3B6
100
AcDbEntity
  8
1
100
AcDbSpline
 62
7
  6
BYLAYER
 70
0
 71
3
 72
14
 73
10
 74
0
 42
0.0000001
 43
0.0000001
 44
0.0000000001
 40
0.0
 40
0.0
 40
0.0
 40
0.0
 40
0.1501098674
 40
0.2856152692
 40
0.4128650998
 40
0.5407140657
 40
0.6778187167
 40
0.8300940199
 40
1.0
 40
1.0
 40
1.0
 40
1.0
 10
109.5548787614
 20
96.629965692
 30
0.0
 10
109.9661652683
 20
96.2572425972
 30
0.0
 10
110.6826004611
 20
95.466075782
 30
0.0
 10
111.3860295047
 20
94.0870946289
 30
0.0
 10
111.607210835
 20
92.6316530112
 30
0.0
 10
111.3214196725
 20
91.1821164568
 30
0.0
 10
110.5589144701
 20
89.8167254523
 30
0.0
 10
109.372374993
 20
88.5819656172
 30
0.0
 10
108.3840311918
 20
87.9032100938
 30
0.0
 10
107.839952373
 20
87.5890879163
 30
0.0
  0
SPLINE
  5
3B7
100
AcDbEntity
  8
1
100
AcDbSpline
 62
7
  6
BYLAYER
 70
0
 71
3
 72
14
 73
10
 74
0
 42
0.0000001
 43
0.0000001
 44
0.0000000001
 40
0.0
 40
0.0
 40
0.0
 40
0.0
 40
0.1699059801
 40
0.3221812833
 40
0.4592859343
 40
0.5871349002
 40
0.7143847308
 40
0.8498901326
 40
1.0
 40
1.0
 40
1.0
 40
1.0
 10
109.975518657
 20
86.9522809669
 30
0.0
 10
110.6501763924
 20
87.341792467
 30
0.0
 10
111.8757227058
 20
88.183449316
 30
0.0
 10
113.3470316573
 20
89.7145515115
 30
0.0
 10
114.2925381083
 20
91.4076363571
 30
0.0
 10
114.6469191499
 20
93.2050616845
 30
0.0
 10
114.3726543004
 20
95.0098092905
 30
0.0
 10
113.5004022863
 20
96.7197459203
 30
0.0
 10
112.6120226471
 20
97.7007927712
 30
0.0
 10
112.1020273786
 20
98.1629694087
 30
0.0
  0
SPLINE
  5
3B8
100
AcDbEntity
  8
1
100
AcDbSpline
 62
7
  6
BYLAYER
 70
0
 71
3
 72
14
 73
10
 74
0
 42
0.0000001
 43
0.0000001
 44
0.0000000001
 40
0.0
 40
0.0
 40
0.0
 40
0.0
 40
0.1398238635
 40
0.2865329343
 40
0.436697734
 40
0.5866214844
 40
0.7326256382
 40
0.8713368784
 40
1.0
 40
1.0
 40
1.0
 40
1.0
 10
107.3257422441
 20
100.9204965333
 30
0.0
 10
106.45084457
 20
101.2422874403
 30
0.0
 10
104.6098109644
 20
101.7753602797
 30
0.0
 10
101.7299533686
 20
102.2425454591
 30
0.0
 10
98.748349907
 20
102.3859697382
 30
0.0
 10
95.7739946051
 20
102.2002401279
 30
0.0
 10
92.9142440462
 20
101.6919807168
 30
0.0
 10
90.2732937839
 20
100.8798770486
 30
0.0
 10
88.6508703316
 20
100.1215739541
 30
0.0
 10
87.908000389
 20
99.6926803529
 30
0.0
  0
SPLINE
  5
3B9
100
AcDbEntity
  8
1
100
AcDbSpline
 62
7
  6
BYLAYER
 70
0
 71
3
 72
14
 73
10
 74
0
 42
0.0000001
 43
0.0000001
 44
0.0000000001
 40
0.0
 40
0.0
 40
0.0
 40
0.0
 40
0.1286631216
 40
0.2673743618
 40
0.4133785156
 40
0.563302266
 40
0.7134670657
 40
0.8601761365
 40
1.0
 40
1.0
 40
1.0
 40
1.0
 10
90.043566673
 20
97.8636035502
 30
0.0
 10
90.6426553364
 20
98.2094854867
 30
0.0
 10
91.9510613463
 20
98.8210202403
 30
0.0
 10
94.0808599449
 20
99.4759425533
 30
0.0
 10
96.3871103957
 20
99.8858291752
 30
0.0
 10
98.7857840262
 20
100.035611119
 30
0.0
 10
101.1903029469
 20
99.9199463778
 30
0.0
 10
103.5127687499
 20
99.5431841364
 30
0.0
 10
104.9974732706
 20
99.1132866852
 30
0.0
 10
105.703035911
 20
98.8537778892
 30
0.0
  0
SPLINE
  5
3BA
100
AcDbEntity
  8
1
100
AcDbSpline
 62
7
  6
BYLAYER
 70
0
 71
3
 72
21
 73
17
 74
0
 42
0.0000001
 43
0.0000001
 44
0.0000000001
 40
0.0
 40
0.0
 40
0.0
 40
0.0
 40
0.0684783205
 40
0.1287396916
 40
0.182585623
 40
0.2339483143
 40
0.2877944228
 40
0.3480560788
 40
0.4165347121
 40
0.4931078805
 40
0.5763022172
 40
0.6637856223
 40
0.7527496849
 40
0.8402329811
 40
0.9234271113
 40
1.0
 40
1.0
 40
1.0
 40
1.0
 10
105.6593019119
 20
88.3764447073
 30
0.0
 10
106.1319983953
 20
88.6493545202
 30
0.0
 10
106.9786996839
 20
89.2449894494
 30
0.0
 10
107.9435346653
 20
90.3588449317
 30
0.0
 10
108.4603541649
 20
91.6036835629
 30
0.0
 10
108.4603206206
 20
92.9058353199
 30
0.0
 10
107.9435850131
 20
94.150622471
 30
0.0
 10
106.9783129176
 20
95.26469674
 30
0.0
 10
105.6298779151
 20
96.2135884648
 30
0.0
 10
103.9628356947
 20
96.9639839194
 30
0.0
 10
102.0548269161
 20
97.484457405
 30
0.0
 10
99.9964434625
 20
97.7510490603
 30
0.0
 10
97.8870261134
 20
97.7510704437
 30
0.0
 10
95.8284815327
 20
97.4843665849
 30
0.0
 10
93.9210902483
 20
96.9642154307
 30
0.0
 10
92.7527893148
 20
96.4381885123
 30
0.0
 10
92.2242171341
 20
96.1330190432
 30
0.0
  0
SPLINE
  5
3BB
100
AcDbEntity
  8
1
100
AcDbSpline
 62
7
  6
BYLAYER
 70
0
 71
3
 72
14
 73
10
 74
0
 42
0.0000001
 43
0.0000001
 44
0.0000000001
 40
0.0
 40
0.0
 40
0.0
 40
0.0
 40
0.1501098674
 40
0.2856152692
 40
0.4128650998
 40
0.5407140657
 40
0.6778187167
 40
0.8300940199
 40
1.0
 40
1.0
 40
1.0
 40
1.0
 10
112.0142922596
 20
98.4460622886
 30
0.0
 10
112.5208875596
 20
97.9869668286
 30
0.0
 10
113.4033446679
 20
97.0124602901
 30
0.0
 10
114.2697816685
 20
95.3139232378
 30
0.0
 10
114.5422180857
 20
93.5212072825
 30
0.0
 10
114.1901995844
 20
91.7357647906
 30
0.0
 10
113.2509965098
 20
90.0539671773
 30
0.0
 10
111.7894962845
 20
88.5330723298
 30
0.0
 10
110.5721202799
 20
87.6970265264
 30
0.0
 10
109.9019602628
 20
87.3101117697
 30
0.0
  0
SPLINE
  5
3BC
100
AcDbEntity
  8
1
100
AcDbSpline
 62
7
  6
BYLAYER
 70
0
 71
3
 72
14
 73
10
 74
0
 42
0.0000001
 43
0.0000001
 44
0.0000000001
 40
0.0
 40
0.0
 40
0.0
 40
0.0
 40
0.1699059801
 40
0.3221812833
 40
0.4592859343
 40
0.5871349002
 40
0.7143847308
 40
0.8498901326
 40
1.0
 40
1.0
 40
1.0
 40
1.0
 10
107.7806310873
 20
87.9426733395
 30
0.0
 10
108.3210827141
 20
88.2547013691
 30
0.0
 10
109.3028375565
 20
88.9289318557
 30
0.0
 10
110.4814667704
 20
90.1554599585
 30
0.0
 10
111.2388886048
 20
91.5117483563
 30
0.0
 10
111.5227744929
 20
92.9516213337
 30
0.0
 10
111.3030677049
 20
94.3973600073
 30
0.0
 10
110.6043281882
 20
95.7671479527
 30
0.0
 10
109.89266923
 20
96.5530403225
 30
0.0
 10
109.4841246332
 20
96.9232785966
 30
0.0
  0
SPLINE
  5
3BD
100
AcDbEntity
  8
1
100
AcDbSpline
 62
7
  6
BYLAYER
 70
0
 71
3
 72
14
 73
10
 74
0
 42
0.0000001
 43
0.0000001
 44
0.0000000001
 40
0.0
 40
0.0
 40
0.0
 40
0.0
 40
0.1398238635
 40
0.2865329343
 40
0.436697734
 40
0.5866214844
 40
0.7326256382
 40
0.8713368784
 40
1.0
 40
1.0
 40
1.0
 40
1.0
 10
92.2255583109
 20
86.9591001628
 30
0.0
 10
92.9264172003
 20
86.7013214254
 30
0.0
 10
94.4012236909
 20
86.2742899573
 30
0.0
 10
96.7082063886
 20
85.9000394641
 30
0.0
 10
99.0966951831
 20
85.7851458211
 30
0.0
 10
101.4793776561
 20
85.9339292186
 30
0.0
 10
103.7702531039
 20
86.3410832631
 30
0.0
 10
105.8858530452
 20
86.9916394273
 30
0.0
 10
107.1855363483
 20
87.5990972826
 30
0.0
 10
107.7806310873
 20
87.9426733395
 30
0.0
  0
SPLINE
  5
3BE
100
AcDbEntity
  8
1
100
AcDbSpline
 62
7
  6
BYLAYER
 70
0
 71
3
 72
14
 73
10
 74
0
 42
0.0000001
 43
0.0000001
 44
0.0000000001
 40
0.0
 40
0.0
 40
0.0
 40
0.0
 40
0.1286631216
 40
0.2673743618
 40
0.4133785156
 40
0.563302266
 40
0.7134670657
 40
0.8601761365
 40
1.0
 40
1.0
 40
1.0
 40
1.0
 10
109.9019602628
 20
87.3101117697
 30
0.0
 10
109.1640427864
 20
86.8840774592
 30
0.0
 10
107.5524354905
 20
86.1308297186
 30
0.0
 10
104.9290915633
 20
85.3241400749
 30
0.0
 10
102.0884060081
 20
84.8192690599
 30
0.0
 10
99.1338797416
 20
84.634777647
 30
0.0
 10
96.1721536363
 20
84.7772457642
 30
0.0
 10
93.3114950912
 20
85.2413163758
 30
0.0
 10
91.4827350429
 20
85.7708353962
 30
0.0
 10
90.61367002
 20
86.0904810306
 30
0.0
  0
SPLINE
  5
3BF
100
AcDbEntity
  8
1
100
AcDbSpline
 62
7
  6
BYLAYER
 70
0
 71
3
 72
14
 73
10
 74
0
 42
0.0000001
 43
0.0000001
 44
0.0000000001
 40
0.0
 40
0.0
 40
0.0
 40
0.0
 40
0.1699059801
 40
0.3221812833
 40
0.4592859343
 40
0.5871349002
 40
0.7143847308
 40
0.8498901326
 40
1.0
 40
1.0
 40
1.0
 40
1.0
 10
90.1028879586
 20
98.1486922025
 30
0.0
 10
89.5624363319
 20
97.8366641729
 30
0.0
 10
88.5806814895
 20
97.1624336863
 30
0.0
 10
87.4020522756
 20
95.9359055834
 30
0.0
 10
86.6446304412
 20
94.5796171856
 30
0.0
 10
86.360744553
 20
93.1397442083
 30
0.0
 10
86.5804513411
 20
91.6940055346
 30
0.0
 10
87.2791908578
 20
90.3242175892
 30
0.0
 10
87.990849816
 20
89.5383252194
 30
0.0
 10
88.3993944128
 20
89.1680869453
 30
0.0
  0
SPLINE
  5
3C0
100
AcDbEntity
  8
1
100
AcDbSpline
 62
7
  6
BYLAYER
 70
0
 71
3
 72
14
 73
10
 74
0
 42
0.0000001
 43
0.0000001
 44
0.0000000001
 40
0.0
 40
0.0
 40
0.0
 40
0.0
 40
0.1398238635
 40
0.2865329343
 40
0.436697734
 40
0.5866214844
 40
0.7326256382
 40
0.8713368784
 40
1.0
 40
1.0
 40
1.0
 40
1.0
 10
105.6579607351
 20
99.1322653792
 30
0.0
 10
104.9571018456
 20
99.3900441166
 30
0.0
 10
103.4822953551
 20
99.8170755847
 30
0.0
 10
101.1753126574
 20
100.1913260779
 30
0.0
 10
98.7868238629
 20
100.3062197208
 30
0.0
 10
96.4041413898
 20
100.1574363233
 30
0.0
 10
94.1132659421
 20
99.7502822789
 30
0.0
 10
91.9976660008
 20
99.0997261146
 30
0.0
 10
90.6979826976
 20
98.4922682593
 30
0.0
 10
90.1028879586
 20
98.1486922025
 30
0.0
  0
SPLINE
  5
3C1
100
AcDbEntity
  8
1
100
AcDbSpline
 62
7
  6
BYLAYER
 70
0
 71
3
 72
14
 73
10
 74
0
 42
0.0000001
 43
0.0000001
 44
0.0000000001
 40
0.0
 40
0.0
 40
0.0
 40
0.0
 40
0.1286631216
 40
0.2673743618
 40
0.4133785156
 40
0.563302266
 40
0.7134670657
 40
0.8601761365
 40
1.0
 40
1.0
 40
1.0
 40
1.0
 10
87.9815587832
 20
99.9655751598
 30
0.0
 10
88.7194762595
 20
100.3916094703
 30
0.0
 10
90.3310835555
 20
101.1448572109
 30
0.0
 10
92.9544274827
 20
101.9515468546
 30
0.0
 10
95.7951130379
 20
102.4564178696
 30
0.0
 10
98.7496393044
 20
102.6409092825
 30
0.0
 10
101.7113654097
 20
102.4984411653
 30
0.0
 10
104.5720239548
 20
102.0343705537
 30
0.0
 10
106.4007840031
 20
101.5048515333
 30
0.0
 10
107.269849026
 20
101.1852058989
 30
0.0
  0
SPLINE
  5
3C2
100
AcDbEntity
  8
1
100
AcDbSpline
 62
7
  6
BYLAYER
 70
0
 71
3
 72
14
 73
10
 74
0
 42
0.0000001
 43
0.0000001
 44
0.0000000001
 40
0.0
 40
0.0
 40
0.0
 40
0.0
 40
0.1501098674
 40
0.2856152692
 40
0.4128650998
 40
0.5407140657
 40
0.6778187167
 40
0.8300940199
 40
1.0
 40
1.0
 40
1.0
 40
1.0
 10
85.8692267864
 20
88.8296246409
 30
0.0
 10
85.3626314863
 20
89.2887201009
 30
0.0
 10
84.4801743781
 20
90.2632266394
 30
0.0
 10
83.6137373775
 20
91.9617636917
 30
0.0
 10
83.3413009603
 20
93.754479647
 30
0.0
 10
83.6933194615
 20
95.5399221389
 30
0.0
 10
84.6325225362
 20
97.2217197522
 30
0.0
 10
86.0940227614
 20
98.7426145997
 30
0.0
 10
87.3113987661
 20
99.5786604031
 30
0.0
 10
87.9815587832
 20
99.9655751598
 30
0.0
  0
SPLINE
  5
3C3
100
AcDbEntity
  8
1
100
AcDbSpline
 62
7
  6
BYLAYER
 70
0
 71
3
 72
21
 73
17
 74
0
 42
0.0000001
 43
0.0000001
 44
0.0000000001
 40
0.0
 40
0.0
 40
0.0
 40
0.0
 40
0.0765728887
 40
0.1597670189
 40
0.2472503151
 40
0.3362143777
 40
0.4236977828
 40
0.5068921195
 40
0.5834652879
 40
0.6519439212
 40
0.7122055772
 40
0.7660516857
 40
0.817414377
 40
0.8712603084
 40
0.9315216795
 40
1.0
 40
1.0
 40
1.0
 40
1.0
 10
105.6593019119
 20
88.1314939821
 30
0.0
 10
105.1307297312
 20
87.826324513
 30
0.0
 10
103.9624287977
 20
87.3002975946
 30
0.0
 10
102.0550375133
 20
86.7801464404
 30
0.0
 10
99.9964929325
 20
86.5134425816
 30
0.0
 10
97.8870755835
 20
86.513463965
 30
0.0
 10
95.8286921299
 20
86.7800556203
 30
0.0
 10
93.9206833513
 20
87.3005291058
 30
0.0
 10
92.2536411309
 20
88.0509245605
 30
0.0
 10
90.9052061284
 20
88.9998162853
 30
0.0
 10
89.9399340328
 20
90.1138905543
 30
0.0
 10
89.4231984254
 20
91.3586777054
 30
0.0
 10
89.4231648811
 20
92.6608294624
 30
0.0
 10
89.9399843806
 20
93.9056680936
 30
0.0
 10
90.9048193621
 20
95.0195235758
 30
0.0
 10
91.7515206507
 20
95.6151585051
 30
0.0
 10
92.2242171341
 20
95.888068318
 30
0.0
  0
SPLINE
  5
3C4
100
AcDbEntity
  8
1
100
AcDbSpline
 62
7
  6
BYLAYER
 70
0
 71
3
 72
21
 73
17
 74
0
 42
0.0000001
 43
0.0000001
 44
0.0000000001
 40
0.0
 40
0.0
 40
0.0
 40
0.0
 40
0.0684783205
 40
0.1287396916
 40
0.182585623
 40
0.2339483143
 40
0.2877944228
 40
0.3480560788
 40
0.4165347121
 40
0.4931078805
 40
0.5763022172
 40
0.6637856223
 40
0.7527496849
 40
0.8402329811
 40
0.9234271113
 40
1.0
 40
1.0
 40
1.0
 40
1.0
 10
92.9313268592
 20
95.3565687325
 30
0.0
 10
92.5083879004
 20
95.1123862684
 30
0.0
 10
91.7508130632
 20
94.5794497527
 30
0.0
 10
90.8875396588
 20
93.582842216
 30
0.0
 10
90.4251222118
 20
92.4690392301
 30
0.0
 10
90.4251522252
 20
91.3039560791
 30
0.0
 10
90.8874946107
 20
90.1901991544
 30
0.0
 10
91.7511591173
 20
89.1933958611
 30
0.0
 10
92.9576535932
 20
88.3443874758
 30
0.0
 10
94.4492176851
 20
87.6729810164
 30
0.0
 10
96.1563834344
 20
87.2072942135
 30
0.0
 10
97.9980949455
 20
86.9687648377
 30
0.0
 10
99.8854683631
 20
86.9687457052
 30
0.0
 10
101.7273240406
 20
87.2073754736
 30
0.0
 10
103.4339372951
 20
87.6727738747
 30
0.0
 10
104.479259183
 20
88.1434295385
 30
0.0
 10
104.9521921867
 20
88.4164759057
 30
0.0
  0
SPLINE
  5
3C5
100
AcDbEntity
  8
1
100
AcDbSpline
 62
7
  6
BYLAYER
 70
0
 71
3
 72
21
 73
17
 74
0
 42
0.0000001
 43
0.0000001
 44
0.0000000001
 40
0.0
 40
0.0
 40
0.0
 40
0.0
 40
0.0684783205
 40
0.1287396916
 40
0.182585623
 40
0.2339483143
 40
0.2877944228
 40
0.3480560788
 40
0.4165347121
 40
0.4931078805
 40
0.5763022172
 40
0.6637856223
 40
0.7527496849
 40
0.8402329811
 40
0.9234271113
 40
1.0
 40
1.0
 40
1.0
 40
1.0
 10
104.9521921867
 20
88.4164759057
 30
0.0
 10
105.3751311456
 20
88.6606583699
 30
0.0
 10
106.1327059827
 20
89.1935948855
 30
0.0
 10
106.9959793872
 20
90.1902024223
 30
0.0
 10
107.4583968341
 20
91.3040054081
 30
0.0
 10
107.4583668208
 20
92.4690885591
 30
0.0
 10
106.9960244352
 20
93.5828454838
 30
0.0
 10
106.1323599287
 20
94.5796487771
 30
0.0
 10
104.9258654527
 20
95.4286571624
 30
0.0
 10
103.4343013608
 20
96.1000636218
 30
0.0
 10
101.7271356115
 20
96.5657504247
 30
0.0
 10
99.8854241004
 20
96.8042798005
 30
0.0
 10
97.9980506829
 20
96.804298933
 30
0.0
 10
96.1561950053
 20
96.5656691646
 30
0.0
 10
94.4495817509
 20
96.1002707635
 30
0.0
 10
93.404259863
 20
95.6296150997
 30
0.0
 10
92.9313268592
 20
95.3565687325
 30
0.0
  0
SPLINE
  5
3C6
100
AcDbEntity
  8
1
100
AcDbSpline
 62
7
  6
BYLAYER
 70
0
 71
3
 72
21
 73
17
 74
0
 42
0.0000001
 43
0.0000001
 44
0.0000000001
 40
0.0
 40
0.0
 40
0.0
 40
0.0
 40
0.0765728887
 40
0.1597670189
 40
0.2472503151
 40
0.3362143777
 40
0.4236977828
 40
0.5068921195
 40
0.5834652879
 40
0.6519439212
 40
0.7122055772
 40
0.7660516857
 40
0.817414377
 40
0.8712603084
 40
0.9315216795
 40
1.0
 40
1.0
 40
1.0
 40
1.0
 10
92.2242171341
 20
95.888068318
 30
0.0
 10
92.7527893148
 20
96.1932377872
 30
0.0
 10
93.9210902483
 20
96.7192647055
 30
0.0
 10
95.8284815327
 20
97.2394158597
 30
0.0
 10
97.8870261134
 20
97.5061197185
 30
0.0
 10
99.9964434625
 20
97.5060983351
 30
0.0
 10
102.0548269161
 20
97.2395066799
 30
0.0
 10
103.9628356947
 20
96.7190331943
 30
0.0
 10
105.6298779151
 20
95.9686377396
 30
0.0
 10
106.9783129176
 20
95.0197460149
 30
0.0
 10
107.9435850131
 20
93.9056717459
 30
0.0
 10
108.4603206206
 20
92.6608845948
 30
0.0
 10
108.4603541649
 20
91.3587328377
 30
0.0
 10
107.9435346653
 20
90.1138942065
 30
0.0
 10
106.9786996839
 20
89.0000387243
 30
0.0
 10
106.1319983953
 20
88.404403795
 30
0.0
 10
105.6593019119
 20
88.1314939821
 30
0.0
  0
SPLINE
  5
3C7
100
AcDbEntity
  8
1
100
AcDbSpline
 62
7
  6
BYLAYER
 70
0
 71
3
 72
34
 73
30
 74
0
 42
0.0000001
 43
0.0000001
 44
0.0000000001
 40
0.0
 40
0.0
 40
0.0
 40
0.0
 40
0.0387264798
 40
0.0794479411
 40
0.1219938192
 40
0.1659388684
 40
0.2110201443
 40
0.2567787262
 40
0.3028623103
 40
0.3488682564
 40
0.3943268849
 40
0.4389297334
 40
0.482191831
 40
0.5238827216
 40
0.5636403214
 40
0.6013251908
 40
0.6367486451
 40
0.6699403904
 40
0.7009767688
 40
0.7301620057
 40
0.7578590492
 40
0.7847326168
 40
0.8113694507
 40
0.8385808319
 40
0.8669218777
 40
0.8970344496
 40
0.9291118268
 40
0.9634329878
 40
1.0
 40
1.0
 40
1.0
 40
1.0
 10
104.9521921867
 20
88.6608040537
 30
0.0
 10
104.7126405839
 20
88.5224996968
 30
0.0
 10
104.2063209279
 20
88.2639907046
 30
0.0
 10
103.3969299078
 20
87.9386089679
 30
0.0
 10
102.5280620633
 20
87.6694804822
 30
0.0
 10
101.6110453887
 20
87.4601063826
 30
0.0
 10
100.6587726649
 20
87.3133706108
 30
0.0
 10
99.6834881327
 20
87.2311207496
 30
0.0
 10
98.6982918379
 20
87.214442758
 30
0.0
 10
97.716320031
 20
87.2635873443
 30
0.0
 10
96.7504165431
 20
87.3779316391
 30
0.0
 10
95.8140801325
 20
87.5559013436
 30
0.0
 10
94.9192769825
 20
87.7952388315
 30
0.0
 10
94.0785537542
 20
88.0925931998
 30
0.0
 10
93.3024583288
 20
88.4442985885
 30
0.0
 10
92.6017306392
 20
88.8456084604
 30
0.0
 10
91.9853095587
 20
89.291660981
 30
0.0
 10
91.4617213673
 20
89.7767386933
 30
0.0
 10
91.0379614286
 20
90.2952531736
 30
0.0
 10
90.7206837103
 20
90.8406197553
 30
0.0
 10
90.5152125701
 20
91.4061879775
 30
0.0
 10
90.4260279002
 20
91.9832778316
 30
0.0
 10
90.4551770818
 20
92.5630879053
 30
0.0
 10
90.6018629089
 20
93.1353743506
 30
0.0
 10
90.8630549494
 20
93.6922829125
 30
0.0
 10
91.2336265579
 20
94.2254998894
 30
0.0
 10
91.7079231615
 20
94.728780039
 30
0.0
 10
92.2785234615
 20
95.1955216354
 30
0.0
 10
92.7051331432
 20
95.4703046572
 30
0.0
 10
92.9313268592
 20
95.6008968805
 30
0.0
  0
SPLINE
  5
3C8
100
AcDbEntity
  8
1
100
AcDbSpline
 62
7
  6
BYLAYER
 70
0
 71
3
 72
34
 73
30
 74
0
 42
0.0000001
 43
0.0000001
 44
0.0000000001
 40
0.0
 40
0.0
 40
0.0
 40
0.0
 40
0.0387264803
 40
0.0794479412
 40
0.1219938193
 40
0.1659388684
 40
0.2110201444
 40
0.2567787262
 40
0.3028623103
 40
0.3488682564
 40
0.3943268849
 40
0.4389297334
 40
0.482191831
 40
0.5238827216
 40
0.5636403214
 40
0.6013251908
 40
0.6367486451
 40
0.6699403904
 40
0.7009767688
 40
0.7301620057
 40
0.7578590492
 40
0.7847326168
 40
0.8113694507
 40
0.8385808319
 40
0.8669218777
 40
0.8970344496
 40
0.9291118269
 40
0.9634329878
 40
1.0
 40
1.0
 40
1.0
 40
1.0
 10
92.9313268592
 20
95.6008968805
 30
0.0
 10
93.1708784654
 20
95.7392012392
 30
0.0
 10
93.6771981216
 20
95.9977102312
 30
0.0
 10
94.4865891419
 20
96.3230919675
 30
0.0
 10
95.3554569829
 20
96.592220452
 30
0.0
 10
96.2724736575
 20
96.8015945516
 30
0.0
 10
97.2247463814
 20
96.9483303234
 30
0.0
 10
98.2000309136
 20
97.0305801846
 30
0.0
 10
99.1852272083
 20
97.0472581762
 30
0.0
 10
100.1671990153
 20
96.9981135899
 30
0.0
 10
101.1331025031
 20
96.883769295
 30
0.0
 10
102.0694389138
 20
96.7057995906
 30
0.0
 10
102.9642420637
 20
96.4664621026
 30
0.0
 10
103.804965292
 20
96.1691077343
 30
0.0
 10
104.5810607174
 20
95.8174023456
 30
0.0
 10
105.2817884069
 20
95.4160924736
 30
0.0
 10
105.8982094875
 20
94.970039953
 30
0.0
 10
106.4217976788
 20
94.4849622407
 30
0.0
 10
106.8455576175
 20
93.9664477604
 30
0.0
 10
107.1628353358
 20
93.4210811788
 30
0.0
 10
107.368306476
 20
92.8555129565
 30
0.0
 10
107.4574911458
 20
92.2784231024
 30
0.0
 10
107.4283419641
 20
91.6986130287
 30
0.0
 10
107.281656137
 20
91.1263265834
 30
0.0
 10
107.0204640965
 20
90.5694180215
 30
0.0
 10
106.6498924879
 20
90.0362010446
 30
0.0
 10
106.1755958844
 20
89.532920895
 30
0.0
 10
105.6049955844
 20
89.0661792987
 30
0.0
 10
105.1783859028
 20
88.791396277
 30
0.0
 10
104.9521921867
 20
88.6608040537
 30
0.0
  0
SPLINE
  5
3C9
100
AcDbEntity
  8
1
100
AcDbSpline
 62
7
  6
BYLAYER
 70
0
 71
3
 72
10
 73
6
 74
0
 42
0.0000001
 43
0.0000001
 44
0.0000000001
 40
0.0
 40
0.0
 40
0.0
 40
0.0
 40
0.3279522602
 40
0.6612980663
 40
1.0
 40
1.0
 40
1.0
 40
1.0
 10
114.6751069793
 20
88.7848872088
 30
0.0
 10
114.5499836388
 20
88.6927308372
 30
0.0
 10
114.294883687
 20
88.5106668437
 30
0.0
 10
113.9014022816
 20
88.2465558413
 30
0.0
 10
113.6321240584
 20
88.0764750399
 30
0.0
 10
113.4952988671
 20
87.9925908556
 30
0.0
  0
SPLINE
  5
3CA
100
AcDbEntity
  8
1
100
AcDbSpline
 62
7
  6
BYLAYER
 70
0
 71
3
 72
22
 73
18
 74
0
 42
0.0000001
 43
0.0000001
 44
0.0000000001
 40
0.0
 40
0.0
 40
0.0
 40
0.0
 40
0.103279154
 40
0.193619959
 40
0.2765286832
 40
0.3568658937
 40
0.4370079018
 40
0.5157053192
 40
0.5831838772
 40
0.6312607389
 40
0.6566451389
 40
0.6615880088
 40
0.6907800795
 40
0.7421165668
 40
0.8118195424
 40
0.8978958572
 40
1.0
 40
1.0
 40
1.0
 40
1.0
 10
115.3864313831
 20
89.3424698532
 30
0.0
 10
115.3862605137
 20
89.2464697301
 30
0.0
 10
115.3729479306
 20
89.0661564573
 30
0.0
 10
115.3130449414
 20
88.8148741057
 30
0.0
 10
115.2146942463
 20
88.5989303491
 30
0.0
 10
115.0852509635
 20
88.4126449786
 30
0.0
 10
114.9313712655
 20
88.2492360664
 30
0.0
 10
114.7737845093
 20
88.1173200227
 30
0.0
 10
114.6282447519
 20
87.987357346
 30
0.0
 10
114.5364724909
 20
87.9439963373
 30
0.0
 10
114.4611636737
 20
87.8426755316
 30
0.0
 10
114.4396460881
 20
87.90240351
 30
0.0
 10
114.5094309416
 20
87.9659012259
 30
0.0
 10
114.5452800993
 20
88.0981501028
 30
0.0
 10
114.6161640911
 20
88.278928854
 30
0.0
 10
114.6614212861
 20
88.5150201841
 30
0.0
 10
114.6749453502
 20
88.6899792703
 30
0.0
 10
114.6751069793
 20
88.7848872088
 30
0.0
  0
SPLINE
  5
3CB
100
AcDbEntity
  8
1
100
AcDbSpline
 62
7
  6
BYLAYER
 70
0
 71
3
 72
10
 73
6
 74
0
 42
0.0000001
 43
0.0000001
 44
0.0000000001
 40
0.0
 40
0.0
 40
0.0
 40
0.0
 40
0.3091086923
 40
0.640680852
 40
1.0
 40
1.0
 40
1.0
 40
1.0
 10
118.6077405579
 20
93.8324701847
 30
0.0
 10
118.434010263
 20
93.283042979
 30
0.0
 10
117.9369112541
 20
92.184478287
 30
0.0
 10
116.8328409563
 20
90.6700042609
 30
0.0
 10
115.9005388085
 20
89.7718672451
 30
0.0
 10
115.3864313831
 20
89.3424698532
 30
0.0
  0
SPLINE
  5
3CC
100
AcDbEntity
  8
1
100
AcDbSpline
 62
7
  6
BYLAYER
 70
0
 71
3
 72
22
 73
18
 74
0
 42
0.0000001
 43
0.0000001
 44
0.0000000001
 40
0.0
 40
0.0
 40
0.0
 40
0.0
 40
0.0969598655
 40
0.1862244751
 40
0.2713242322
 40
0.3539834926
 40
0.4333150192
 40
0.5055487005
 40
0.5612989095
 40
0.595588691
 40
0.6131510289
 40
0.6391946412
 40
0.6838670893
 40
0.7448502232
 40
0.8189662481
 40
0.9042150585
 40
1.0
 40
1.0
 40
1.0
 40
1.0
 10
118.7876546205
 20
94.5171343389
 30
0.0
 10
118.7874432467
 20
94.4186753227
 30
0.0
 10
118.7698850908
 20
94.2292236975
 30
0.0
 10
118.6994857668
 20
93.9617050996
 30
0.0
 10
118.5954070012
 20
93.7215633083
 30
0.0
 10
118.4716893083
 20
93.502795399
 30
0.0
 10
118.3430456777
 20
93.3033768324
 30
0.0
 10
118.2234845669
 20
93.1278523619
 30
0.0
 10
118.1525073962
 20
92.9829674699
 30
0.0
 10
118.0990470977
 20
92.8795600733
 30
0.0
 10
118.1454562977
 20
92.7933069676
 30
0.0
 10
118.2461067781
 20
92.8496108806
 30
0.0
 10
118.3321486869
 20
92.9373520371
 30
0.0
 10
118.4364642997
 20
93.0943801404
 30
0.0
 10
118.5258362406
 20
93.2987313003
 30
0.0
 10
118.590907102
 20
93.5511718304
 30
0.0
 10
118.6075336228
 20
93.7352042547
 30
0.0
 10
118.6077405579
 20
93.8324701847
 30
0.0
  0
SPLINE
  5
3CD
100
AcDbEntity
  8
1
100
AcDbSpline
 62
7
  6
BYLAYER
 70
0
 71
3
 72
22
 73
18
 74
0
 42
0.0000001
 43
0.0000001
 44
0.0000000001
 40
0.0
 40
0.0
 40
0.0
 40
0.0
 40
0.0945406768
 40
0.1826880975
 40
0.267198897
 40
0.3489671004
 40
0.4264707049
 40
0.4957144318
 40
0.5481228411
 40
0.5806226505
 40
0.6025482798
 40
0.6352519551
 40
0.6841827573
 40
0.7474183283
 40
0.8221798069
 40
0.906599282
 40
1.0
 40
1.0
 40
1.0
 40
1.0
 10
118.9237590509
 20
96.2515195304
 30
0.0
 10
118.9235445817
 20
96.1522805692
 30
0.0
 10
118.9054552061
 20
95.960215073
 30
0.0
 10
118.8353633006
 20
95.6876483937
 30
0.0
 10
118.7344424872
 20
95.4398450287
 30
0.0
 10
118.6184231668
 20
95.2113340995
 30
0.0
 10
118.5024039991
 20
95.0023961576
 30
0.0
 10
118.4031314923
 20
94.8153219663
 30
0.0
 10
118.3502169656
 20
94.6681176769
 30
0.0
 10
118.3282585576
 20
94.54461809
 30
0.0
 10
118.4146233231
 20
94.4792452386
 30
0.0
 10
118.5240462501
 20
94.5364696432
 30
0.0
 10
118.6325127504
 20
94.6369176244
 30
0.0
 10
118.7439780716
 20
94.8027408119
 30
0.0
 10
118.8394830476
 20
95.0160766133
 30
0.0
 10
118.9062537683
 20
95.274088327
 30
0.0
 10
118.9235521456
 20
95.4609785255
 30
0.0
 10
118.9237640447
 20
95.5590208766
 30
0.0
  0
SPLINE
  5
3CE
100
AcDbEntity
  8
1
100
AcDbSpline
 62
7
  6
BYLAYER
 70
0
 71
3
 72
22
 73
18
 74
0
 42
0.0000001
 43
0.0000001
 44
0.0000000001
 40
0.0
 40
0.0
 40
0.0
 40
0.0
 40
0.0922147921
 40
0.1791366293
 40
0.2627628177
 40
0.3432782864
 40
0.4187063556
 40
0.4850605841
 40
0.5348237707
 40
0.5670897854
 40
0.5941197566
 40
0.6325749043
 40
0.6851385819
 40
0.7501990159
 40
0.8253562344
 40
0.9088807067
 40
1.0
 40
1.0
 40
1.0
 40
1.0
 10
118.6077106626
 20
97.978068703
 30
0.0
 10
118.6074980178
 20
97.8780739887
 30
0.0
 10
118.5893295834
 20
97.6835822132
 30
0.0
 10
118.5212099908
 20
97.4061180112
 30
0.0
 10
118.4256366082
 20
97.1508287175
 30
0.0
 10
118.3197982538
 20
96.913392135
 30
0.0
 10
118.2185075056
 20
96.6952064131
 30
0.0
 10
118.1420456619
 20
96.5001590251
 30
0.0
 10
118.10751401
 20
96.3456002255
 30
0.0
 10
118.125645527
 20
96.2148859379
 30
0.0
 10
118.2389883425
 20
96.1700801407
 30
0.0
 10
118.3613981027
 20
96.2294436057
 30
0.0
 10
118.486144016
 20
96.3433597584
 30
0.0
 10
118.6039744802
 20
96.5188008366
 30
0.0
 10
118.7027746942
 20
96.7413058119
 30
0.0
 10
118.7699236488
 20
97.0049802178
 30
0.0
 10
118.7874225434
 20
97.1945986267
 30
0.0
 10
118.7876346
 20
97.2934054137
 30
0.0
  0
SPLINE
  5
3CF
100
AcDbEntity
  8
1
100
AcDbSpline
 62
7
  6
BYLAYER
 70
0
 71
3
 72
10
 73
6
 74
0
 42
0.0000001
 43
0.0000001
 44
0.0000000001
 40
0.0
 40
0.0
 40
0.0
 40
0.0
 40
0.3593193154
 40
0.690891546
 40
1.0
 40
1.0
 40
1.0
 40
1.0
 10
115.3863367303
 20
102.4680535482
 30
0.0
 10
115.9004503875
 20
102.0386585954
 30
0.0
 10
116.8327652814
 20
101.14052625
 30
0.0
 10
117.9368571193
 20
99.6260581081
 30
0.0
 10
118.4339723037
 20
98.5274955161
 30
0.0
 10
118.6077106626
 20
97.978068703
 30
0.0
  0
SPLINE
  5
3D0
100
AcDbEntity
  8
1
100
AcDbSpline
 62
7
  6
BYLAYER
 70
0
 71
3
 72
22
 73
18
 74
0
 42
0.0000001
 43
0.0000001
 44
0.0000000001
 40
0.0
 40
0.0
 40
0.0
 40
0.0
 40
0.0860187559
 40
0.1690509895
 40
0.2490490249
 40
0.3247599525
 40
0.3937909541
 40
0.4533959315
 40
0.5001094391
 40
0.5381187743
 40
0.5793039876
 40
0.6304207111
 40
0.6905073925
 40
0.7588843389
 40
0.8341412947
 40
0.9148997128
 40
1.0
 40
1.0
 40
1.0
 40
1.0
 10
114.6750042847
 20
103.0256327729
 30
0.0
 10
114.6748306949
 20
102.9235437283
 30
0.0
 10
114.6595752328
 20
102.7228409477
 30
0.0
 10
114.607835967
 20
102.431599657
 30
0.0
 10
114.5426642782
 20
102.1557987346
 30
0.0
 10
114.4824608599
 20
101.8960123656
 30
0.0
 10
114.4431425208
 20
101.6560964866
 30
0.0
 10
114.4431734391
 20
101.4468813933
 30
0.0
 10
114.4970850454
 20
101.2778016393
 30
0.0
 10
114.6227938563
 20
101.1782030471
 30
0.0
 10
114.7871192901
 20
101.1830885117
 30
0.0
 10
114.9496167229
 20
101.2710628885
 30
0.0
 10
115.0978965169
 20
101.4278124641
 30
0.0
 10
115.2201194798
 20
101.6381842259
 30
0.0
 10
115.3128656901
 20
101.889034367
 30
0.0
 10
115.3710786775
 20
102.1700597178
 30
0.0
 10
115.3861572196
 20
102.3670545769
 30
0.0
 10
115.3863367303
 20
102.4680535482
 30
0.0
  0
SPLINE
  5
3D1
100
AcDbEntity
  8
1
100
AcDbSpline
 62
7
  6
BYLAYER
 70
0
 71
3
 72
22
 73
18
 74
0
 42
0.0000001
 43
0.0000001
 44
0.0000000001
 40
0.0
 40
0.0
 40
0.0
 40
0.0
 40
0.0845728639
 40
0.1665631038
 40
0.2454571699
 40
0.3197903465
 40
0.3872898081
 40
0.4458065387
 40
0.4929281675
 40
0.5332777004
 40
0.5775623333
 40
0.6310182565
 40
0.6923488147
 40
0.7611561508
 40
0.836242982
 40
0.9162864086
 40
1.0
 40
1.0
 40
1.0
 40
1.0
 10
112.6470349146
 20
104.3075919097
 30
0.0
 10
112.6468829742
 20
104.2049987168
 30
0.0
 10
112.6334403875
 20
104.002913245
 30
0.0
 10
112.5894128316
 20
103.7083165939
 30
0.0
 10
112.5369638114
 20
103.4278359164
 30
0.0
 10
112.4940975329
 20
103.1634778415
 30
0.0
 10
112.4767772666
 20
102.9202934072
 30
0.0
 10
112.5023209271
 20
102.7098868505
 30
0.0
 10
112.5857845133
 20
102.5458114563
 30
0.0
 10
112.7336465451
 20
102.4619212345
 30
0.0
 10
112.9085768034
 20
102.4806669706
 30
0.0
 10
113.07751144
 20
102.5820080381
 30
0.0
 10
113.2255090944
 20
102.7520517418
 30
0.0
 10
113.343058822
 20
102.9731947237
 30
0.0
 10
113.4291664961
 20
103.2319466183
 30
0.0
 10
113.4815918
 20
103.5176078696
 30
0.0
 10
113.4950250342
 20
103.7163726374
 30
0.0
 10
113.4951847455
 20
103.8179234543
 30
0.0
  0
SPLINE
  5
3D2
100
AcDbEntity
  8
1
100
AcDbSpline
 62
7
  6
BYLAYER
 70
0
 71
3
 72
22
 73
18
 74
0
 42
0.0000001
 43
0.0000001
 44
0.0000000001
 40
0.0
 40
0.0
 40
0.0
 40
0.0
 40
0.0833710536
 40
0.1644486941
 40
0.2423409309
 40
0.3154607218
 40
0.3817282756
 40
0.4395965841
 40
0.4874569399
 40
0.529940929
 40
0.5766660463
 40
0.6318345743
 40
0.6940227731
 40
0.7630886533
 40
0.8379901907
 40
0.9174290251
 40
1.0
 40
1.0
 40
1.0
 40
1.0
 10
110.3089424815
 20
105.3994221681
 30
0.0
 10
110.3088159613
 20
105.2964095231
 30
0.0
 10
110.2975412807
 20
105.0932118027
 30
0.0
 10
110.2621701784
 20
104.7958438145
 30
0.0
 10
110.2235402533
 20
104.5116913311
 30
0.0
 10
110.1989817995
 20
104.2441550013
 30
0.0
 10
110.2041559927
 20
103.9994885491
 30
0.0
 10
110.2555237629
 20
103.7904499852
 30
0.0
 10
110.3659614132
 20
103.6352758467
 30
0.0
 10
110.5314733497
 20
103.5676098373
 30
0.0
 10
110.7144455091
 20
103.6007635962
 30
0.0
 10
110.8860288133
 20
103.7163739085
 30
0.0
 10
111.0302262235
 20
103.8994705596
 30
0.0
 10
111.1402836026
 20
104.1307873304
 30
0.0
 10
111.2177388203
 20
104.396712948
 30
0.0
 10
111.2631583077
 20
104.6864586103
 30
0.0
 10
111.2745818007
 20
104.8867206429
 30
0.0
 10
111.2747177577
 20
104.9887447031
 30
0.0
  0
SPLINE
  5
3D3
100
AcDbEntity
  8
1
100
AcDbSpline
 62
7
  6
BYLAYER
 70
0
 71
3
 72
10
 73
6
 74
0
 42
0.0000001
 43
0.0000001
 44
0.0000000001
 40
0.0
 40
0.0
 40
0.0
 40
0.0
 40
0.3449470092
 40
0.679591834
 40
1.0
 40
1.0
 40
1.0
 40
1.0
 10
102.5319226022
 20
107.2592192995
 30
0.0
 10
103.4488102717
 20
107.1625813165
 30
0.0
 10
105.2484458159
 20
106.897715894
 30
0.0
 10
107.8520637126
 20
106.2796683968
 30
0.0
 10
109.5135622353
 20
105.7168431297
 30
0.0
 10
110.3089424815
 20
105.3994221681
 30
0.0
  0
SPLINE
  5
3D4
100
AcDbEntity
  8
1
100
AcDbSpline
 62
7
  6
BYLAYER
 70
0
 71
3
 72
22
 73
18
 74
0
 42
0.0000001
 43
0.0000001
 44
0.0000000001
 40
0.0
 40
0.0
 40
0.0
 40
0.0
 40
0.0811890148
 40
0.1604027086
 40
0.2360834916
 40
0.3066610408
 40
0.3708253385
 40
0.4284544158
 40
0.4788178713
 40
0.525454073
 40
0.5759474418
 40
0.6334094548
 40
0.6967659686
 40
0.7662868551
 40
0.8409763188
 40
0.9194267392
 40
1.0
 40
1.0
 40
1.0
 40
1.0
 10
101.3460325476
 20
107.363091247
 30
0.0
 10
101.3460056066
 20
107.2593631011
 30
0.0
 10
101.3433598112
 20
107.0544417641
 30
0.0
 10
101.3398371706
 20
106.7528338108
 30
0.0
 10
101.3496213684
 20
106.4647093064
 30
0.0
 10
101.3858543093
 20
106.1975719355
 30
0.0
 10
101.4613951816
 20
105.9615705701
 30
0.0
 10
101.5867608021
 20
105.7756647429
 30
0.0
 10
101.7585237576
 20
105.6642654847
 30
0.0
 10
101.9544979662
 20
105.6502697806
 30
0.0
 10
102.1409584528
 20
105.7335137925
 30
0.0
 10
102.294370599
 20
105.8956201684
 30
0.0
 10
102.403776666
 20
106.1154809926
 30
0.0
 10
102.4732539471
 20
106.3725046591
 30
0.0
 10
102.5119628503
 20
106.6548170739
 30
0.0
 10
102.528720747
 20
106.9530954923
 30
0.0
 10
102.5318826792
 20
107.1562778531
 30
0.0
 10
102.5319226022
 20
107.2592192995
 30
0.0
  0
SPLINE
  5
3D5
100
AcDbEntity
  8
1
100
AcDbSpline
 62
7
  6
BYLAYER
 70
0
 71
3
 72
22
 73
18
 74
0
 42
0.0000001
 43
0.0000001
 44
0.0000000001
 40
0.0
 40
0.0
 40
0.0
 40
0.0
 40
0.0810368296
 40
0.1600362162
 40
0.2353803142
 40
0.3055677936
 40
0.369477206
 40
0.4271780906
 40
0.4778448817
 40
0.5247388027
 40
0.5753253291
 40
0.6328526627
 40
0.6964020888
 40
0.766171464
 40
0.8410375526
 40
0.9195242931
 40
1.0
 40
1.0
 40
1.0
 40
1.0
 10
98.34194633
 20
107.4416700532
 30
0.0
 10
98.3419530512
 20
107.3379267663
 30
0.0
 10
98.3422385995
 20
107.1330506647
 30
0.0
 10
98.3490739776
 20
106.8317261173
 30
0.0
 10
98.3739690072
 20
106.545007562
 30
0.0
 10
98.4281446654
 20
106.2814612944
 30
0.0
 10
98.5229253325
 20
106.0524649351
 30
0.0
 10
98.6655520033
 20
105.878469542
 30
0.0
 10
98.8478572512
 20
105.7829127382
 30
0.0
 10
99.0454437948
 20
105.785891351
 30
0.0
 10
99.2250374349
 20
105.8850876824
 30
0.0
 10
99.3646711874
 20
106.0602589257
 30
0.0
 10
99.4571797025
 20
106.2887467994
 30
0.0
 10
99.51009724
 20
106.5508646701
 30
0.0
 10
99.5344217029
 20
106.8358087225
 30
0.0
 10
99.541114897
 20
107.1351463268
 30
0.0
 10
99.5413996572
 20
107.3386479983
 30
0.0
 10
99.54140633
 20
107.4416729363
 30
0.0
  0
SPLINE
  5
3D6
100
AcDbEntity
  8
1
100
AcDbSpline
 62
7
  6
BYLAYER
 70
0
 71
3
 72
14
 73
10
 74
0
 42
0.0000001
 43
0.0000001
 44
0.0000000001
 40
0.0
 40
0.0
 40
0.0
 40
0.0
 40
0.1153347816
 40
0.2546957674
 40
0.3945848076
 40
0.5316176084
 40
0.671137279
 40
0.823737085
 40
1.0
 40
1.0
 40
1.0
 40
1.0
 10
112.6596085413
 20
86.6669177497
 30
0.0
 10
112.7149549337
 20
86.6988696244
 30
0.0
 10
112.8339154608
 20
86.7750025783
 30
0.0
 10
113.0129146889
 20
86.9006782598
 30
0.0
 10
113.1865366052
 20
87.054216055
 30
0.0
 10
113.3255553804
 20
87.2405180288
 30
0.0
 10
113.4268325167
 20
87.4576191114
 30
0.0
 10
113.4842030825
 20
87.7123681582
 30
0.0
 10
113.4951449985
 20
87.8949232116
 30
0.0
 10
113.4952988671
 20
87.9925908556
 30
0.0
  0
SPLINE
  5
3D7
100
AcDbEntity
  8
1
100
AcDbSpline
 62
7
  6
BYLAYER
 70
0
 71
3
 72
14
 73
10
 74
0
 42
0.0000001
 43
0.0000001
 44
0.0000000001
 40
0.0
 40
0.0
 40
0.0
 40
0.0
 40
0.2645706149
 40
0.4846145157
 40
0.6580270831
 40
0.7781133312
 40
0.8320642196
 40
0.8827295248
 40
1.0
 40
1.0
 40
1.0
 40
1.0
 10
112.6471560985
 20
87.5029183228
 30
0.0
 10
112.6470117051
 20
87.405598953
 30
0.0
 10
112.6361169794
 20
87.2260915024
 30
0.0
 10
112.5925526868
 20
86.9911844226
 30
0.0
 10
112.5364272942
 20
86.8008267066
 30
0.0
 10
112.5012199455
 20
86.6986310949
 30
0.0
 10
112.4715995428
 20
86.5869981333
 30
0.0
 10
112.5805311346
 20
86.6170169792
 30
0.0
 10
112.6222503743
 20
86.6453506078
 30
0.0
 10
112.6596085413
 20
86.6669177497
 30
0.0
  0
SPLINE
  5
3D8
100
AcDbEntity
  8
1
100
AcDbSpline
 62
7
  6
BYLAYER
 70
0
 71
3
 72
11
 73
7
 74
0
 42
0.0000001
 43
0.0000001
 44
0.0000000001
 40
0.0
 40
0.0
 40
0.0
 40
0.0
 40
0.252127451
 40
0.5166903348
 40
0.7723321872
 40
1.0
 40
1.0
 40
1.0
 40
1.0
 10
110.4468113338
 20
87.6808156604
 30
0.0
 10
110.5133029258
 20
87.7090904312
 30
0.0
 10
110.6585370373
 20
87.7465216484
 30
0.0
 10
110.8813358672
 20
87.753311672
 30
0.0
 10
111.0936007249
 20
87.7141155264
 30
0.0
 10
111.2217085312
 20
87.654627856
 30
0.0
 10
111.2742982962
 20
87.6160129127
 30
0.0
  0
SPLINE
  5
3D9
100
AcDbEntity
  8
1
100
AcDbSpline
 62
7
  6
BYLAYER
 70
0
 71
3
 72
10
 73
6
 74
0
 42
0.0000001
 43
0.0000001
 44
0.0000000001
 40
0.0
 40
0.0
 40
0.0
 40
0.0
 40
0.3255972814
 40
0.6590303596
 40
1.0
 40
1.0
 40
1.0
 40
1.0
 10
112.6596881908
 20
88.7792007054
 30
0.0
 10
112.4273561316
 20
88.6450645291
 30
0.0
 10
111.9510750528
 20
88.3838717584
 30
0.0
 10
111.2126959493
 20
88.0177987449
 30
0.0
 10
110.7053464587
 20
87.7907546947
 30
0.0
 10
110.4468113338
 20
87.6808156604
 30
0.0
  0
SPLINE
  5
3DA
100
AcDbEntity
  8
1
100
AcDbSpline
 62
7
  6
BYLAYER
 70
0
 71
3
 72
11
 73
7
 74
0
 42
0.0000001
 43
0.0000001
 44
0.0000000001
 40
0.0
 40
0.0
 40
0.0
 40
0.0
 40
0.2740707263
 40
0.4962828534
 40
0.7209380699
 40
1.0
 40
1.0
 40
1.0
 40
1.0
 10
112.6465454346
 20
88.2971424252
 30
0.0
 10
112.5991304801
 20
88.3262973613
 30
0.0
 10
112.5183266298
 20
88.3923557125
 30
0.0
 10
112.4668307557
 20
88.5407383867
 30
0.0
 10
112.5268916461
 20
88.6866830645
 30
0.0
 10
112.6106060925
 20
88.7508633118
 30
0.0
 10
112.6596881908
 20
88.7792007054
 30
0.0
  0
SPLINE
  5
3DB
100
AcDbEntity
  8
1
100
AcDbSpline
 62
7
  6
BYLAYER
 70
0
 71
3
 72
15
 73
11
 74
0
 42
0.0000001
 43
0.0000001
 44
0.0000000001
 40
0.0
 40
0.0
 40
0.0
 40
0.0
 40
0.1141539011
 40
0.237325134
 40
0.3669749544
 40
0.4999994786
 40
0.6330240754
 40
0.7626741076
 40
0.8858456742
 40
1.0
 40
1.0
 40
1.0
 40
1.0
 10
111.6914666131
 20
90.5582841163
 30
0.0
 10
110.8186579071
 20
90.0543707829
 30
0.0
 10
108.9101035614
 20
89.1656231474
 30
0.0
 10
105.802123021
 20
88.220974045
 30
0.0
 10
102.4372344139
 20
87.6395009159
 30
0.0
 10
98.9418341068
 20
87.443313644
 30
0.0
 10
95.4464310058
 20
87.6394843261
 30
0.0
 10
92.0815341428
 20
88.220941478
 30
0.0
 10
88.9735402228
 20
89.1655758064
 30
0.0
 10
87.0649741838
 20
90.0543139092
 30
0.0
 10
86.1921585967
 20
90.5582228235
 30
0.0
  0
SPLINE
  5
3DC
100
AcDbEntity
  8
1
100
AcDbSpline
 62
7
  6
BYLAYER
 70
0
 71
3
 72
15
 73
11
 74
0
 42
0.0000001
 43
0.0000001
 44
0.0000000001
 40
0.0
 40
0.0
 40
0.0
 40
0.0
 40
0.1449005941
 40
0.2745257867
 40
0.3911153034
 40
0.5000009561
 40
0.6088864352
 40
0.7254754903
 40
0.8551000616
 40
1.0
 40
1.0
 40
1.0
 40
1.0
 10
111.6913604493
 20
105.2801059994
 30
0.0
 10
112.4828100973
 20
104.8231726693
 30
0.0
 10
113.918451037
 20
103.8348252788
 30
0.0
 10
115.6333983589
 20
102.0319449283
 30
0.0
 10
116.7190009353
 20
100.0362784868
 30
0.0
 10
117.0949011353
 20
97.9192097969
 30
0.0
 10
116.7190324647
 20
95.8021382199
 30
0.0
 10
115.6334583009
 20
93.8064648056
 30
0.0
 10
113.918536072
 20
92.0035752463
 30
0.0
 10
112.4829093849
 20
91.0152210861
 30
0.0
 10
111.6914666131
 20
90.5582841163
 30
0.0
  0
SPLINE
  5
3DD
100
AcDbEntity
  8
1
100
AcDbSpline
 62
7
  6
BYLAYER
 70
0
 71
3
 72
15
 73
11
 74
0
 42
0.0000001
 43
0.0000001
 44
0.0000000001
 40
0.0
 40
0.0
 40
0.0
 40
0.0
 40
0.1141539011
 40
0.237325134
 40
0.3669749544
 40
0.4999994786
 40
0.6330240754
 40
0.7626741076
 40
0.8858456742
 40
1.0
 40
1.0
 40
1.0
 40
1.0
 10
86.1920524329
 20
105.2800447066
 30
0.0
 10
87.0648611389
 20
105.78395804
 30
0.0
 10
88.9734154845
 20
106.6727056755
 30
0.0
 10
92.081396025
 20
107.6173547779
 30
0.0
 10
95.446284632
 20
108.198827907
 30
0.0
 10
98.9416849392
 20
108.3950151788
 30
0.0
 10
102.4370880402
 20
108.1988444968
 30
0.0
 10
105.8019849032
 20
107.6173873449
 30
0.0
 10
108.9099788232
 20
106.6727530165
 30
0.0
 10
110.8185448622
 20
105.7840149136
 30
0.0
 10
111.6913604493
 20
105.2801059994
 30
0.0
  0
SPLINE
  5
3DE
100
AcDbEntity
  8
1
100
AcDbSpline
 62
7
  6
BYLAYER
 70
0
 71
3
 72
15
 73
11
 74
0
 42
0.0000001
 43
0.0000001
 44
0.0000000001
 40
0.0
 40
0.0
 40
0.0
 40
0.0
 40
0.1449005941
 40
0.2745257867
 40
0.3911153034
 40
0.5000009561
 40
0.6088864352
 40
0.7254754903
 40
0.8551000616
 40
1.0
 40
1.0
 40
1.0
 40
1.0
 10
86.1921585967
 20
90.5582228235
 30
0.0
 10
85.4007089486
 20
91.0151561536
 30
0.0
 10
83.965068009
 20
92.0035035441
 30
0.0
 10
82.2501206871
 20
93.8063838945
 30
0.0
 10
81.1645181107
 20
95.8020503361
 30
0.0
 10
80.7886179107
 20
97.919119026
 30
0.0
 10
81.1644865812
 20
100.036190603
 30
0.0
 10
82.2500607451
 20
102.0318640172
 30
0.0
 10
83.9649829739
 20
103.8347535766
 30
0.0
 10
85.4006096611
 20
104.8231077368
 30
0.0
 10
86.1920524329
 20
105.2800447066
 30
0.0
  0
SPLINE
  5
3DF
100
AcDbEntity
  8
1
100
AcDbSpline
 62
7
  6
BYLAYER
 70
0
 71
3
 72
10
 73
6
 74
0
 42
0.0000001
 43
0.0000001
 44
0.0000000001
 40
0.0
 40
0.0
 40
0.0
 40
0.0
 40
0.3422436114
 40
0.675612933
 40
1.0
 40
1.0
 40
1.0
 40
1.0
 10
85.223945081
 20
88.7791347579
 30
0.0
 10
84.9973678267
 20
88.9099462374
 30
0.0
 10
84.555551335
 20
89.1778113917
 30
0.0
 10
83.9204441551
 20
89.6037274373
 30
0.0
 10
83.5166244983
 20
89.903740854
 30
0.0
 10
83.3214591792
 20
90.0567215426
 30
0.0
  0
SPLINE
  5
3E0
100
AcDbEntity
  8
1
100
AcDbSpline
 62
7
  6
BYLAYER
 70
0
 71
3
 72
11
 73
7
 74
0
 42
0.0000001
 43
0.0000001
 44
0.0000000001
 40
0.0
 40
0.0
 40
0.0
 40
0.0
 40
0.2411391196
 40
0.5019527101
 40
0.7617237352
 40
1.0
 40
1.0
 40
1.0
 40
1.0
 10
84.388983711
 20
88.7867226234
 30
0.0
 10
84.4500465629
 20
88.8198240457
 30
0.0
 10
84.5889853888
 20
88.8671828875
 30
0.0
 10
84.8088951824
 20
88.8884924081
 30
0.0
 10
85.0275695154
 20
88.8633895739
 30
0.0
 10
85.1645067267
 20
88.8134507315
 30
0.0
 10
85.223945081
 20
88.7791347579
 30
0.0
  0
SPLINE
  5
3E1
100
AcDbEntity
  8
1
100
AcDbSpline
 62
7
  6
BYLAYER
 70
0
 71
3
 72
10
 73
6
 74
0
 42
0.0000001
 43
0.0000001
 44
0.0000000001
 40
0.0
 40
0.0
 40
0.0
 40
0.0
 40
0.327952
 40
0.661298398
 40
1.0
 40
1.0
 40
1.0
 40
1.0
 10
83.2092159231
 20
89.5789785519
 30
0.0
 10
83.3343349866
 20
89.4868269104
 30
0.0
 10
83.5894264717
 20
89.3047720511
 30
0.0
 10
83.9828944243
 20
89.0406745265
 30
0.0
 10
84.2521634234
 20
88.8706024016
 30
0.0
 10
84.388983711
 20
88.7867226234
 30
0.0
  0
SPLINE
  5
3E2
100
AcDbEntity
  8
1
100
AcDbSpline
 62
7
  6
BYLAYER
 70
0
 71
3
 72
11
 73
7
 74
0
 42
0.0000001
 43
0.0000001
 44
0.0000000001
 40
0.0
 40
0.0
 40
0.0
 40
0.0
 40
0.2540863306
 40
0.4689471912
 40
0.7040464952
 40
1.0
 40
1.0
 40
1.0
 40
1.0
 10
83.3214591792
 20
90.0567215426
 30
0.0
 10
83.3623693684
 20
90.0246540168
 30
0.0
 10
83.4313442722
 20
89.950597007
 30
0.0
 10
83.4481067075
 20
89.7963223811
 30
0.0
 10
83.3588163815
 20
89.6617407312
 30
0.0
 10
83.2643468581
 20
89.6040054782
 30
0.0
 10
83.2092159231
 20
89.5789785519
 30
0.0
  0
SPLINE
  5
3E3
100
AcDbEntity
  8
1
100
AcDbSpline
 62
7
  6
BYLAYER
 70
0
 71
3
 72
10
 73
6
 74
0
 42
0.0000001
 43
0.0000001
 44
0.0000000001
 40
0.0
 40
0.0
 40
0.0
 40
0.0
 40
0.3409695609
 40
0.6744026418
 40
1.0
 40
1.0
 40
1.0
 40
1.0
 10
87.4368377796
 20
87.6807603512
 30
0.0
 10
87.1783010368
 20
87.7906981564
 30
0.0
 10
86.6709482129
 20
88.0177397967
 30
0.0
 10
85.9325638384
 20
88.3838092606
 30
0.0
 10
85.45627905
 20
88.6449997129
 30
0.0
 10
85.223945081
 20
88.7791347579
 30
0.0
  0
SPLINE
  5
3E4
100
AcDbEntity
  8
1
100
AcDbSpline
 62
7
  6
BYLAYER
 70
0
 71
3
 72
11
 73
7
 74
0
 42
0.0000001
 43
0.0000001
 44
0.0000000001
 40
0.0
 40
0.0
 40
0.0
 40
0.0
 40
0.2276670855
 40
0.483308639
 40
0.7478717736
 40
1.0
 40
1.0
 40
1.0
 40
1.0
 10
86.6093517518
 20
87.6159536255
 30
0.0
 10
86.6619409996
 20
87.6545688508
 30
0.0
 10
86.7900481196
 20
87.7140571761
 30
0.0
 10
87.0023124352
 20
87.7532542904
 30
0.0
 10
87.2251113674
 20
87.7464652887
 30
0.0
 10
87.3703458479
 20
87.7090347734
 30
0.0
 10
87.4368377796
 20
87.6807603512
 30
0.0
  0
SPLINE
  5
3E5
100
AcDbEntity
  8
1
100
AcDbSpline
 62
7
  6
BYLAYER
 70
0
 71
3
 72
11
 73
7
 74
0
 42
0.0000001
 43
0.0000001
 44
0.0000000001
 40
0.0
 40
0.0
 40
0.0
 40
0.0
 40
0.2790632265
 40
0.5037191118
 40
0.7259306163
 40
1.0
 40
1.0
 40
1.0
 40
1.0
 10
85.223945081
 20
88.7791347579
 30
0.0
 10
85.273027617
 20
88.7507975837
 30
0.0
 10
85.3567428266
 20
88.6866178212
 30
0.0
 10
85.4168059399
 20
88.5406738281
 30
0.0
 10
85.3653123728
 20
88.3922905508
 30
0.0
 10
85.2845093001
 20
88.3262316904
 30
0.0
 10
85.2370947899
 20
88.297076541
 30
0.0
  0
SPLINE
  5
3E6
100
AcDbEntity
  8
1
100
AcDbSpline
 62
7
  6
BYLAYER
 70
0
 71
3
 72
10
 73
6
 74
0
 42
0.0000001
 43
0.0000001
 44
0.0000000001
 40
0.0
 40
0.0
 40
0.0
 40
0.0
 40
0.3464598846
 40
0.6815183844
 40
1.0
 40
1.0
 40
1.0
 40
1.0
 10
96.0318393791
 20
85.6253510084
 30
0.0
 10
95.0114771946
 20
85.7147243925
 30
0.0
 10
93.0109794214
 20
85.9842716534
 30
0.0
 10
90.1297475626
 20
86.6666898375
 30
0.0
 10
88.303307259
 20
87.312310777
 30
0.0
 10
87.4368377796
 20
87.6807603512
 30
0.0
  0
SPLINE
  5
3E7
100
AcDbEntity
  8
1
100
AcDbSpline
 62
7
  6
BYLAYER
 70
0
 71
3
 72
11
 73
7
 74
0
 42
0.0000001
 43
0.0000001
 44
0.0000000001
 40
0.0
 40
0.0
 40
0.0
 40
0.0
 40
0.1930319185
 40
0.4286216673
 40
0.7034668001
 40
1.0
 40
1.0
 40
1.0
 40
1.0
 10
95.3517571829
 20
85.3455804394
 30
0.0
 10
95.3669913166
 20
85.3933578549
 30
0.0
 10
95.4381689554
 20
85.4868910002
 30
0.0
 10
95.6000892073
 20
85.5769645385
 30
0.0
 10
95.8052643418
 20
85.6286054976
 30
0.0
 10
95.9550974168
 20
85.6320728264
 30
0.0
 10
96.0318393791
 20
85.6253510084
 30
0.0
  0
SPLINE
  5
3E8
100
AcDbEntity
  8
1
100
AcDbSpline
 62
7
  6
BYLAYER
 70
0
 71
3
 72
10
 73
6
 74
0
 42
0.0000001
 43
0.0000001
 44
0.0000000001
 40
0.0
 40
0.0
 40
0.0
 40
0.0
 40
0.3204019711
 40
0.6550597259
 40
1.0
 40
1.0
 40
1.0
 40
1.0
 10
87.5750829016
 20
87.2052949244
 30
0.0
 10
88.3704123706
 20
86.8878942258
 30
0.0
 10
90.0318547295
 20
86.3250905782
 30
0.0
 10
92.635356792
 20
85.7070705936
 30
0.0
 10
94.4349282221
 20
85.4422122336
 30
0.0
 10
95.3517571829
 20
85.3455804394
 30
0.0
  0
SPLINE
  5
3E9
100
AcDbEntity
  8
1
100
AcDbSpline
 62
7
  6
BYLAYER
 70
0
 71
3
 72
11
 73
7
 74
0
 42
0.0000001
 43
0.0000001
 44
0.0000000001
 40
0.0
 40
0.0
 40
0.0
 40
0.0
 40
0.2997682202
 40
0.5378054606
 40
0.7513092074
 40
1.0
 40
1.0
 40
1.0
 40
1.0
 10
87.4368377796
 20
87.6807603512
 30
0.0
 10
87.4934886819
 20
87.6566706385
 30
0.0
 10
87.5907934294
 20
87.6005394335
 30
0.0
 10
87.6869326603
 20
87.469296216
 30
0.0
 10
87.6797330635
 20
87.3144946267
 30
0.0
 10
87.6142289074
 20
87.2380946405
 30
0.0
 10
87.5750829016
 20
87.2052949244
 30
0.0
  0
SPLINE
  5
3EA
100
AcDbEntity
  8
1
100
AcDbSpline
 62
7
  6
BYLAYER
 70
0
 71
3
 72
11
 73
7
 74
0
 42
0.0000001
 43
0.0000001
 44
0.0000000001
 40
0.0
 40
0.0
 40
0.0
 40
0.0
 40
0.1888846168
 40
0.4171362759
 40
0.6919415756
 40
1.0
 40
1.0
 40
1.0
 40
1.0
 10
98.342140114
 20
85.1631349954
 30
0.0
 10
98.3446823708
 20
85.2097405214
 30
0.0
 10
98.3900740963
 20
85.310549756
 30
0.0
 10
98.5304352619
 20
85.4149308093
 30
0.0
 10
98.7210134988
 20
85.4831564767
 30
0.0
 10
98.8657167342
 20
85.4986360601
 30
0.0
 10
98.9418402929
 20
85.4986362431
 30
0.0
  0
SPLINE
  5
3EB
100
AcDbEntity
  8
1
100
AcDbSpline
 62
7
  6
BYLAYER
 70
0
 71
3
 72
11
 73
7
 74
0
 42
0.0000001
 43
0.0000001
 44
0.0000000001
 40
0.0
 40
0.0
 40
0.0
 40
0.0
 40
0.3148926028
 40
0.5858316163
 40
0.8061995972
 40
1.0
 40
1.0
 40
1.0
 40
1.0
 10
96.0318393791
 20
85.6253510084
 30
0.0
 10
96.105335911
 20
85.6189134573
 30
0.0
 10
96.2415522144
 20
85.592253041
 30
0.0
 10
96.413878267
 20
85.5094454526
 30
0.0
 10
96.5297456028
 20
85.3902682622
 30
0.0
 10
96.5476227979
 20
85.2861252734
 30
0.0
 10
96.5384089042
 20
85.2416633755
 30
0.0
  0
LINE
  5
3EC
100
AcDbEntity
  8
1
100
AcDbLine
 62
7
  6
BYLAYER
 10
99.541572716
 20
85.1204055512
 11
99.5415453105
 21
85.1631378784
  0
LINE
  5
3ED
100
AcDbEntity
  8
1
100
AcDbLine
 62
7
  6
BYLAYER
 10
98.342140114
 20
85.1631349954
 11
98.342112716
 21
85.1204026681
  0
SPLINE
  5
3EE
100
AcDbEntity
  8
1
100
AcDbSpline
 62
7
  6
BYLAYER
 70
0
 71
3
 72
11
 73
7
 74
0
 42
0.0000001
 43
0.0000001
 44
0.0000000001
 40
0.0
 40
0.0
 40
0.0
 40
0.0
 40
0.1910399003
 40
0.4118660744
 40
0.6837008445
 40
1.0
 40
1.0
 40
1.0
 40
1.0
 10
101.3460912372
 20
85.241724796
 30
0.0
 10
101.3370095046
 20
85.2855458535
 30
0.0
 10
101.3529901046
 20
85.3891526863
 30
0.0
 10
101.468670138
 20
85.5086950911
 30
0.0
 10
101.6412444958
 20
85.5920723683
 30
0.0
 10
101.7780270437
 20
85.6188994226
 30
0.0
 10
101.8518393791
 20
85.625364998
 30
0.0
  0
SPLINE
  5
3EF
100
AcDbEntity
  8
1
100
AcDbSpline
 62
7
  6
BYLAYER
 70
0
 71
3
 72
11
 73
7
 74
0
 42
0.0000001
 43
0.0000001
 44
0.0000000001
 40
0.0
 40
0.0
 40
0.0
 40
0.0
 40
0.3080578612
 40
0.5828632352
 40
0.8111153088
 40
1.0
 40
1.0
 40
1.0
 40
1.0
 10
98.9418402929
 20
85.4986362431
 30
0.0
 10
99.0179639336
 20
85.4986364261
 30
0.0
 10
99.1626675315
 20
85.48315749
 30
0.0
 10
99.3532466793
 20
85.4149327019
 30
0.0
 10
99.4936091077
 20
85.3105524538
 30
0.0
 10
99.5390023746
 20
85.2097435216
 30
0.0
 10
99.5415453105
 20
85.1631378784
 30
0.0
  0
SPLINE
  5
3F0
100
AcDbEntity
  8
1
100
AcDbSpline
 62
7
  6
BYLAYER
 70
0
 71
3
 72
10
 73
6
 74
0
 42
0.0000001
 43
0.0000001
 44
0.0000000001
 40
0.0
 40
0.0
 40
0.0
 40
0.0
 40
0.3449405351
 40
0.6795982818
 40
1.0
 40
1.0
 40
1.0
 40
1.0
 10
102.5319256103
 20
85.3455976984
 30
0.0
 10
103.4487528178
 20
85.4422338623
 30
0.0
 10
105.2483197426
 20
85.7071007116
 30
0.0
 10
107.8518129644
 20
86.3251331331
 30
0.0
 10
109.5132478841
 20
86.8879449296
 30
0.0
 10
110.3085730692
 20
87.205349569
 30
0.0
  0
SPLINE
  5
3F1
100
AcDbEntity
  8
1
100
AcDbSpline
 62
7
  6
BYLAYER
 70
0
 71
3
 72
11
 73
7
 74
0
 42
0.0000001
 43
0.0000001
 44
0.0000000001
 40
0.0
 40
0.0
 40
0.0
 40
0.0
 40
0.2965325028
 40
0.5713775744
 40
0.806967717
 40
1.0
 40
1.0
 40
1.0
 40
1.0
 10
101.851839379
 20
85.625364998
 30
0.0
 10
101.928581327
 20
85.6320871921
 30
0.0
 10
102.0784146048
 20
85.6286205433
 30
0.0
 10
102.2835904364
 20
85.5769805351
 30
0.0
 10
102.4455118156
 20
85.4869077865
 30
0.0
 10
102.5166907616
 20
85.3933751218
 30
0.0
 10
102.5319256103
 20
85.3455976984
 30
0.0
  0
SPLINE
  5
3F2
100
AcDbEntity
  8
1
100
AcDbSpline
 62
7
  6
BYLAYER
 70
0
 71
3
 72
10
 73
6
 74
0
 42
0.0000001
 43
0.0000001
 44
0.0000000001
 40
0.0
 40
0.0
 40
0.0
 40
0.0
 40
0.3184813281
 40
0.6535398174
 40
1.0
 40
1.0
 40
1.0
 40
1.0
 10
110.4468113339
 20
87.6808156604
 30
0.0
 10
109.5803468077
 20
87.3123617674
 30
0.0
 10
107.7539149557
 20
86.6667318421
 30
0.0
 10
104.8726928345
 20
85.9842999211
 30
0.0
 10
102.8721998177
 20
85.7147432473
 30
0.0
 10
101.851839379
 20
85.625364998
 30
0.0
  0
SPLINE
  5
3F3
100
AcDbEntity
  8
1
100
AcDbSpline
 62
7
  6
BYLAYER
 70
0
 71
3
 72
11
 73
7
 74
0
 42
0.0000001
 43
0.0000001
 44
0.0000000001
 40
0.0
 40
0.0
 40
0.0
 40
0.0
 40
0.2486922165
 40
0.4621962869
 40
0.7002327475
 40
1.0
 40
1.0
 40
1.0
 40
1.0
 10
110.3085730692
 20
87.205349569
 30
0.0
 10
110.269426595
 20
87.2381490931
 30
0.0
 10
110.2039214965
 20
87.3145484494
 30
0.0
 10
110.1967193633
 20
87.4693499607
 30
0.0
 10
110.2928568312
 20
87.6005940692
 30
0.0
 10
110.3901608284
 20
87.6567256964
 30
0.0
 10
110.4468113339
 20
87.6808156604
 30
0.0
  0
SPLINE
  5
3F4
100
AcDbEntity
  8
1
100
AcDbSpline
 62
7
  6
BYLAYER
 70
0
 71
3
 72
10
 73
6
 74
0
 42
0.0000001
 43
0.0000001
 44
0.0000000001
 40
0.0
 40
0.0
 40
0.0
 40
0.0
 40
0.3449472702
 40
0.679592087
 40
1.0
 40
1.0
 40
1.0
 40
1.0
 10
102.5320863567
 20
85.3028735653
 30
0.0
 10
103.4489722729
 20
85.3995159177
 30
0.0
 10
105.2486033115
 20
85.6643898305
 30
0.0
 10
107.8522123672
 20
86.2824497653
 30
0.0
 10
109.5137034506
 20
86.8452831807
 30
0.0
 10
110.3090794125
 20
87.1627080839
 30
0.0
  0
SPLINE
  5
3F5
100
AcDbEntity
  8
1
100
AcDbSpline
 62
7
  6
BYLAYER
 70
0
 71
3
 72
10
 73
6
 74
0
 42
0.0000001
 43
0.0000001
 44
0.0000000001
 40
0.0
 40
0.0
 40
0.0
 40
0.0
 40
0.320408166
 40
0.6550529908
 40
1.0
 40
1.0
 40
1.0
 40
1.0
 10
87.5745765645
 20
87.1626534369
 30
0.0
 10
88.3699568105
 20
86.8452324747
 30
0.0
 10
90.0314553335
 20
86.2824072084
 30
0.0
 10
92.6350732301
 20
85.6643597111
 30
0.0
 10
94.4347087742
 20
85.3994942879
 30
0.0
 10
95.3515964437
 20
85.3028563055
 30
0.0
  0
SPLINE
  5
3F6
100
AcDbEntity
  8
1
100
AcDbSpline
 62
7
  6
BYLAYER
 70
0
 71
3
 72
10
 73
6
 74
0
 42
0.0000001
 43
0.0000001
 44
0.0000000001
 40
0.0
 40
0.0
 40
0.0
 40
0.0
 40
0.3279522936
 40
0.6612981013
 40
1.0
 40
1.0
 40
1.0
 40
1.0
 10
83.2085147612
 20
89.536442832
 30
0.0
 10
83.3336394253
 20
89.4442870658
 30
0.0
 10
83.5887419897
 20
89.2622243078
 30
0.0
 10
83.9822272015
 20
88.9981151982
 30
0.0
 10
84.2515078913
 20
88.8280356819
 30
0.0
 10
84.3883343004
 20
88.7441521506
 30
0.0
  0
SPLINE
  5
3F7
100
AcDbEntity
  8
1
100
AcDbSpline
 62
7
  6
BYLAYER
 70
0
 71
3
 72
10
 73
6
 74
0
 42
0.0000001
 43
0.0000001
 44
0.0000000001
 40
0.0
 40
0.0
 40
0.0
 40
0.0
 40
0.309108454
 40
0.6406806846
 40
1.0
 40
1.0
 40
1.0
 40
1.0
 10
79.2758083833
 20
94.5840069019
 30
0.0
 10
79.4495467415
 20
94.0345800886
 30
0.0
 10
79.9466619271
 20
92.936017497
 30
0.0
 10
81.0507537646
 20
91.4215493551
 30
0.0
 10
81.983068658
 20
90.5234170091
 30
0.0
 10
82.4971823156
 20
90.0940220568
 30
0.0
  0
SPLINE
  5
3F8
100
AcDbEntity
  8
1
100
AcDbSpline
 62
7
  6
BYLAYER
 70
0
 71
3
 72
10
 73
6
 74
0
 42
0.0000001
 43
0.0000001
 44
0.0000000001
 40
0.0
 40
0.0
 40
0.0
 40
0.0
 40
0.3628966434
 40
0.6939543837
 40
1.0
 40
1.0
 40
1.0
 40
1.0
 10
83.3214591792
 20
90.0567215425
 30
0.0
 10
82.7308809034
 20
90.5196473928
 30
0.0
 10
81.666865948
 20
91.4958789911
 30
0.0
 10
80.4361821223
 20
93.1755121211
 30
0.0
 10
79.9221056459
 20
94.4069077426
 30
0.0
 10
79.7612633033
 20
95.0189599738
 30
0.0
  0
SPLINE
  5
3F9
100
AcDbEntity
  8
1
100
AcDbSpline
 62
7
  6
BYLAYER
 70
0
 71
3
 72
11
 73
7
 74
0
 42
0.0000001
 43
0.0000001
 44
0.0000000001
 40
0.0
 40
0.0
 40
0.0
 40
0.0
 40
0.2550645903
 40
0.5205637162
 40
0.775064879
 40
1.0
 40
1.0
 40
1.0
 40
1.0
 10
82.4979159784
 20
90.1365323008
 30
0.0
 10
82.5656519824
 20
90.1634793374
 30
0.0
 10
82.7122099871
 20
90.1982503654
 30
0.0
 10
82.9352954068
 20
90.2011721983
 30
0.0
 10
83.1454188613
 20
90.1583322633
 30
0.0
 10
83.2708625313
 20
90.0963818166
 30
0.0
 10
83.3214591792
 20
90.0567215425
 30
0.0
  0
SPLINE
  5
3FA
100
AcDbEntity
  8
1
100
AcDbSpline
 62
7
  6
BYLAYER
 70
0
 71
3
 72
10
 73
6
 74
0
 42
0.0000001
 43
0.0000001
 44
0.0000000001
 40
0.0
 40
0.0
 40
0.0
 40
0.0
 40
0.3091025562
 40
0.6406876731
 40
1.0
 40
1.0
 40
1.0
 40
1.0
 10
79.2766851987
 20
94.6263176184
 30
0.0
 10
79.4504124695
 20
94.0769258648
 30
0.0
 10
79.9475140334
 20
92.9784022095
 30
0.0
 10
81.0515566378
 20
91.4640017563
 30
0.0
 10
81.9838353166
 20
90.5658996937
 30
0.0
 10
82.4979159784
 20
90.1365323008
 30
0.0
  0
SPLINE
  5
3FB
100
AcDbEntity
  8
1
100
AcDbSpline
 62
7
  6
BYLAYER
 70
0
 71
3
 72
11
 73
7
 74
0
 42
0.0000001
 43
0.0000001
 44
0.0000000001
 40
0.0
 40
0.0
 40
0.0
 40
0.0
 40
0.1924647774
 40
0.4118118854
 40
0.6825705618
 40
1.0
 40
1.0
 40
1.0
 40
1.0
 10
79.7612633033
 20
95.0189599738
 30
0.0
 10
79.7725957734
 20
94.9758366054
 30
0.0
 10
79.762993631
 20
94.8724278545
 30
0.0
 10
79.6530853502
 20
94.7495618809
 30
0.0
 10
79.4846019683
 20
94.6631883674
 30
0.0
 10
79.3498109269
 20
94.6340899613
 30
0.0
 10
79.2766851987
 20
94.6263176184
 30
0.0
  0
SPLINE
  5
3FC
100
AcDbEntity
  8
1
100
AcDbSpline
 62
7
  6
BYLAYER
 70
0
 71
3
 72
10
 73
6
 74
0
 42
0.0000001
 43
0.0000001
 44
0.0000000001
 40
0.0
 40
0.0
 40
0.0
 40
0.0
 40
0.3360695635
 40
0.6688653545
 40
1.0
 40
1.0
 40
1.0
 40
1.0
 10
79.7612633034
 20
95.0189599738
 30
0.0
 10
79.7129031035
 20
95.2029847011
 30
0.0
 10
79.6317659178
 20
95.5734332225
 30
0.0
 10
79.5581541257
 20
96.1354371758
 30
0.0
 10
79.5417608751
 20
96.5115457348
 30
0.0
 10
79.5417595232
 20
96.6990247112
 30
0.0
  0
SPLINE
  5
3FD
100
AcDbEntity
  8
1
100
AcDbSpline
 62
7
  6
BYLAYER
 70
0
 71
3
 72
11
 73
7
 74
0
 42
0.0000001
 43
0.0000001
 44
0.0000000001
 40
0.0
 40
0.0
 40
0.0
 40
0.0
 40
0.3030805452
 40
0.5765129417
 40
0.8092283865
 40
1.0
 40
1.0
 40
1.0
 40
1.0
 10
79.0966831101
 20
95.3114206495
 30
0.0
 10
79.1744667668
 20
95.3167939427
 30
0.0
 10
79.3241117419
 20
95.3098804447
 30
0.0
 10
79.5266816246
 20
95.2542766227
 30
0.0
 10
79.6831862724
 20
95.1612769788
 30
0.0
 10
79.7487897906
 20
95.0664253437
 30
0.0
 10
79.7612633034
 20
95.0189599738
 30
0.0
  0
SPLINE
  5
3FE
100
AcDbEntity
  8
1
100
AcDbSpline
 62
7
  6
BYLAYER
 70
0
 71
3
 72
11
 73
7
 74
0
 42
0.0000001
 43
0.0000001
 44
0.0000000001
 40
0.0
 40
0.0
 40
0.0
 40
0.0
 40
0.1887448325
 40
0.4154271645
 40
0.6898856513
 40
1.0
 40
1.0
 40
1.0
 40
1.0
 10
79.5417595232
 20
96.6990247112
 30
0.0
 10
79.5417598558
 20
96.6528971101
 30
0.0
 10
79.5022780455
 20
96.5510468099
 30
0.0
 10
79.3667592925
 20
96.4435986316
 30
0.0
 10
79.17969909
 20
96.3720807206
 30
0.0
 10
79.0364277296
 20
96.3541679659
 30
0.0
 10
78.9606510021
 20
96.3527898076
 30
0.0
  0
SPLINE
  5
3FF
100
AcDbEntity
  8
1
100
AcDbSpline
 62
7
  6
BYLAYER
 70
0
 71
3
 72
10
 73
6
 74
0
 42
0.0000001
 43
0.0000001
 44
0.0000000001
 40
0.0
 40
0.0
 40
0.0
 40
0.0
 40
0.3311349123
 40
0.6639306993
 40
1.0
 40
1.0
 40
1.0
 40
1.0
 10
79.5417595232
 20
96.6990247112
 30
0.0
 10
79.5417581712
 20
96.8865036093
 30
0.0
 10
79.558145977
 20
97.2626120948
 30
0.0
 10
79.6317496456
 20
97.8246164163
 30
0.0
 10
79.7128815093
 20
98.195065478
 30
0.0
 10
79.7612390724
 20
98.3790905038
 30
0.0
  0
SPLINE
  5
400
100
AcDbEntity
  8
1
100
AcDbSpline
 62
7
  6
BYLAYER
 70
0
 71
3
 72
11
 73
7
 74
0
 42
0.0000001
 43
0.0000001
 44
0.0000000001
 40
0.0
 40
0.0
 40
0.0
 40
0.0
 40
0.3101138253
 40
0.5845724216
 40
0.8112551688
 40
1.0
 40
1.0
 40
1.0
 40
1.0
 10
78.9606460085
 20
97.0452568211
 30
0.0
 10
79.0364228374
 20
97.0438790257
 30
0.0
 10
79.1796945925
 20
97.0259669105
 30
0.0
 10
79.3667557444
 20
96.9544498613
 30
0.0
 10
79.5022757965
 20
96.8470025005
 30
0.0
 10
79.5417591905
 20
96.7451524475
 30
0.0
 10
79.5417595232
 20
96.6990247112
 30
0.0
  0
SPLINE
  5
401
100
AcDbEntity
  8
1
100
AcDbSpline
 62
7
  6
BYLAYER
 70
0
 71
3
 72
11
 73
7
 74
0
 42
0.0000001
 43
0.0000001
 44
0.0000000001
 40
0.0
 40
0.0
 40
0.0
 40
0.0
 40
0.1917483837
 40
0.4258380333
 40
0.7008695895
 40
1.0
 40
1.0
 40
1.0
 40
1.0
 10
79.7612390724
 20
98.3790905038
 30
0.0
 10
79.7487044091
 20
98.3313897597
 30
0.0
 10
79.6825638032
 20
98.2360890582
 30
0.0
 10
79.5249564047
 20
98.143035371
 30
0.0
 10
79.3225077444
 20
98.0878226048
 30
0.0
 10
79.1735067746
 20
98.0817956387
 30
0.0
 10
79.0967494624
 20
98.0870976578
 30
0.0
  0
SPLINE
  5
402
100
AcDbEntity
  8
1
100
AcDbSpline
 62
7
  6
BYLAYER
 70
0
 71
3
 72
10
 73
6
 74
0
 42
0.0000001
 43
0.0000001
 44
0.0000000001
 40
0.0
 40
0.0
 40
0.0
 40
0.0
 40
0.359319148
 40
0.6908913077
 40
1.0
 40
1.0
 40
1.0
 40
1.0
 10
82.4970876629
 20
103.2196057517
 30
0.0
 10
81.9829802371
 20
102.7902083603
 30
0.0
 10
81.0506780898
 20
101.8920713439
 30
0.0
 10
79.9466077923
 20
100.3775973179
 30
0.0
 10
79.4495087822
 20
99.2790326262
 30
0.0
 10
79.2757784881
 20
98.7296054203
 30
0.0
  0
SPLINE
  5
403
100
AcDbEntity
  8
1
100
AcDbSpline
 62
7
  6
BYLAYER
 70
0
 71
3
 72
10
 73
6
 74
0
 42
0.0000001
 43
0.0000001
 44
0.0000000001
 40
0.0
 40
0.0
 40
0.0
 40
0.0
 40
0.3060458963
 40
0.6371035448
 40
1.0
 40
1.0
 40
1.0
 40
1.0
 10
79.7612390724
 20
98.3790905038
 30
0.0
 10
79.9220724268
 20
98.9911428967
 30
0.0
 10
80.4361306761
 20
100.2225406184
 30
0.0
 10
81.6667907206
 20
101.9021805009
 30
0.0
 10
82.7307918558
 20
102.8784174199
 30
0.0
 10
83.3213633796
 20
103.3413460502
 30
0.0
  0
SPLINE
  5
404
100
AcDbEntity
  8
1
100
AcDbSpline
 62
7
  6
BYLAYER
 70
0
 71
3
 72
11
 73
7
 74
0
 42
0.0000001
 43
0.0000001
 44
0.0000000001
 40
0.0
 40
0.0
 40
0.0
 40
0.0
 40
0.3174291711
 40
0.5881881546
 40
0.8075356472
 40
1.0
 40
1.0
 40
1.0
 40
1.0
 10
79.2766553048
 20
98.7717305296
 30
0.0
 10
79.3497812236
 20
98.7639585299
 30
0.0
 10
79.4845728065
 20
98.7348607191
 30
0.0
 10
79.6530572824
 20
98.6484879919
 30
0.0
 10
79.7629671249
 20
98.525622902
 30
0.0
 10
79.7725709554
 20
98.4222140595
 30
0.0
 10
79.7612390724
 20
98.3790905038
 30
0.0
  0
SPLINE
  5
405
100
AcDbEntity
  8
1
100
AcDbSpline
 62
7
  6
BYLAYER
 70
0
 71
3
 72
10
 73
6
 74
0
 42
0.0000001
 43
0.0000001
 44
0.0000000001
 40
0.0
 40
0.0
 40
0.0
 40
0.0
 40
0.3593121596
 40
0.6908972055
 40
1.0
 40
1.0
 40
1.0
 40
1.0
 10
82.4978213298
 20
103.2615313328
 30
0.0
 10
81.9837468995
 20
102.8321615009
 30
0.0
 10
81.0514809664
 20
101.9340547681
 30
0.0
 10
79.947459901
 20
100.4196484311
 30
0.0
 10
79.450374512
 20
99.3211226758
 30
0.0
 10
79.2766553048
 20
98.7717305296
 30
0.0
  0
SPLINE
  5
406
100
AcDbEntity
  8
1
100
AcDbSpline
 62
7
  6
BYLAYER
 70
0
 71
3
 72
11
 73
7
 74
0
 42
0.0000001
 43
0.0000001
 44
0.0000000001
 40
0.0
 40
0.0
 40
0.0
 40
0.0
 40
0.224934403
 40
0.4794352615
 40
0.7449346317
 40
1.0
 40
1.0
 40
1.0
 40
1.0
 10
83.3213633796
 20
103.3413460502
 30
0.0
 10
83.2707672686
 20
103.3016855054
 30
0.0
 10
83.1453243213
 20
103.239734411
 30
0.0
 10
82.9352014571
 20
103.1968935177
 30
0.0
 10
82.7121159881
 20
103.1998143268
 30
0.0
 10
82.5655576523
 20
103.2345846497
 30
0.0
 10
82.4978213298
 20
103.2615313328
 30
0.0
  0
SPLINE
  5
407
100
AcDbEntity
  8
1
100
AcDbSpline
 62
7
  6
BYLAYER
 70
0
 71
3
 72
10
 73
6
 74
0
 42
0.0000001
 43
0.0000001
 44
0.0000000001
 40
0.0
 40
0.0
 40
0.0
 40
0.0
 40
0.3243870125
 40
0.6577563298
 40
1.0
 40
1.0
 40
1.0
 40
1.0
 10
83.3213633795
 20
103.3413460502
 30
0.0
 10
83.5165265047
 20
103.4943276867
 30
0.0
 10
83.92034187
 20
103.794343069
 30
0.0
 10
84.5554429195
 20
104.2202621724
 30
0.0
 10
84.9972555105
 20
104.4881294254
 30
0.0
 10
85.2238308551
 20
104.6189419807
 30
0.0
  0
SPLINE
  5
408
100
AcDbEntity
  8
1
100
AcDbSpline
 62
7
  6
BYLAYER
 70
0
 71
3
 72
11
 73
7
 74
0
 42
0.0000001
 43
0.0000001
 44
0.0000000001
 40
0.0
 40
0.0
 40
0.0
 40
0.0
 40
0.2959545533
 40
0.5310546296
 40
0.7459150966
 40
1.0
 40
1.0
 40
1.0
 40
1.0
 10
83.2091132331
 20
103.8190885012
 30
0.0
 10
83.2642445748
 20
103.7940618192
 30
0.0
 10
83.3587148471
 20
103.7363269929
 30
0.0
 10
83.4480070322
 20
103.6017462154
 30
0.0
 10
83.4312471143
 20
103.4474713893
 30
0.0
 10
83.3622731044
 20
103.3734137713
 30
0.0
 10
83.3213633795
 20
103.3413460502
 30
0.0
  0
SPLINE
  5
409
100
AcDbEntity
  8
1
100
AcDbSpline
 62
7
  6
BYLAYER
 70
0
 71
3
 72
11
 73
7
 74
0
 42
0.0000001
 43
0.0000001
 44
0.0000000001
 40
0.0
 40
0.0
 40
0.0
 40
0.0
 40
0.2382755103
 40
0.4980462568
 40
0.7588601204
 40
1.0
 40
1.0
 40
1.0
 40
1.0
 10
85.2238308551
 20
104.6189419807
 30
0.0
 10
85.1643929409
 20
104.5846256898
 30
0.0
 10
85.0274562776
 20
104.5346861678
 30
0.0
 10
84.8087822972
 20
104.5095823334
 30
0.0
 10
84.5888722026
 20
104.5308908475
 30
0.0
 10
84.4499328658
 20
104.578249004
 30
0.0
 10
84.3888695946
 20
104.6113501013
 30
0.0
  0
SPLINE
  5
40A
100
AcDbEntity
  8
1
100
AcDbSpline
 62
7
  6
BYLAYER
 70
0
 71
3
 72
14
 73
10
 74
0
 42
0.0000001
 43
0.0000001
 44
0.0000000001
 40
0.0
 40
0.0
 40
0.0
 40
0.0
 40
0.0932563225
 40
0.2066022365
 40
0.3392327154
 40
0.4890608603
 40
0.6516083149
 40
0.8229532507
 40
1.0
 40
1.0
 40
1.0
 40
1.0
 10
85.2239105047
 20
102.5067510132
 30
0.0
 10
85.1761665782
 20
102.479163615
 30
0.0
 10
85.0459411303
 20
102.4587693702
 30
0.0
 10
84.855671362
 20
102.5415844479
 30
0.0
 10
84.6859533498
 20
102.7080610262
 30
0.0
 10
84.554779108
 20
102.9387796116
 30
0.0
 10
84.4586932891
 20
103.2093361313
 30
0.0
 10
84.4017280503
 20
103.5070043866
 30
0.0
 10
84.388384821
 20
103.7131683591
 30
0.0
 10
84.3882201789
 20
103.8178534898
 30
0.0
  0
SPLINE
  5
40B
100
AcDbEntity
  8
1
100
AcDbSpline
 62
7
  6
BYLAYER
 70
0
 71
3
 72
14
 73
10
 74
0
 42
0.0000001
 43
0.0000001
 44
0.0000000001
 40
0.0
 40
0.0
 40
0.0
 40
0.0
 40
0.1693154015
 40
0.3356902003
 40
0.497699316
 40
0.651344167
 40
0.7895630263
 40
0.907077711
 40
1.0
 40
1.0
 40
1.0
 40
1.0
 10
85.2363629475
 20
104.3075260226
 30
0.0
 10
85.23651869
 20
104.2023665521
 30
0.0
 10
85.2498754397
 20
103.9937872992
 30
0.0
 10
85.2972210874
 20
103.6881668251
 30
0.0
 10
85.3529084459
 20
103.3940367051
 30
0.0
 10
85.3956789536
 20
103.1152250411
 30
0.0
 10
85.405884547
 20
102.8601513409
 30
0.0
 10
85.3614889519
 20
102.6441893923
 30
0.0
 10
85.2738811056
 20
102.5356250279
 30
0.0
 10
85.2239105047
 20
102.5067510132
 30
0.0
  0
SPLINE
  5
40C
100
AcDbEntity
  8
1
100
AcDbSpline
 62
7
  6
BYLAYER
 70
0
 71
3
 72
10
 73
6
 74
0
 42
0.0000001
 43
0.0000001
 44
0.0000000001
 40
0.0
 40
0.0
 40
0.0
 40
0.0
 40
0.3255972814
 40
0.6590303596
 40
1.0
 40
1.0
 40
1.0
 40
1.0
 10
85.2238308551
 20
104.6189419807
 30
0.0
 10
85.4561629144
 20
104.753078157
 30
0.0
 10
85.9324439932
 20
105.0142709278
 30
0.0
 10
86.6708230966
 20
105.3803439412
 30
0.0
 10
87.1781725873
 20
105.6073879914
 30
0.0
 10
87.4367077122
 20
105.7173270257
 30
0.0
  0
SPLINE
  5
40D
100
AcDbEntity
  8
1
100
AcDbSpline
 62
7
  6
BYLAYER
 70
0
 71
3
 72
11
 73
7
 74
0
 42
0.0000001
 43
0.0000001
 44
0.0000000001
 40
0.0
 40
0.0
 40
0.0
 40
0.0
 40
0.2740707263
 40
0.4962828534
 40
0.7209380699
 40
1.0
 40
1.0
 40
1.0
 40
1.0
 10
85.2369736114
 20
105.1010002609
 30
0.0
 10
85.2843885659
 20
105.0718453248
 30
0.0
 10
85.3651924162
 20
105.0057869736
 30
0.0
 10
85.4166882903
 20
104.8574042994
 30
0.0
 10
85.3566273999
 20
104.7114596216
 30
0.0
 10
85.2729129535
 20
104.6472793743
 30
0.0
 10
85.2238308551
 20
104.6189419807
 30
0.0
  0
SPLINE
  5
40E
100
AcDbEntity
  8
1
100
AcDbSpline
 62
7
  6
BYLAYER
 70
0
 71
3
 72
10
 73
6
 74
0
 42
0.0000001
 43
0.0000001
 44
0.0000000001
 40
0.0
 40
0.0
 40
0.0
 40
0.0
 40
0.3402978447
 40
0.6736577652
 40
1.0
 40
1.0
 40
1.0
 40
1.0
 10
86.6566190651
 20
105.7512956576
 30
0.0
 10
86.6510618255
 20
105.7545040588
 30
0.0
 10
86.6401675683
 20
105.7610432072
 30
0.0
 10
86.6243539954
 20
105.7713218229
 30
0.0
 10
86.6141809576
 20
105.7784876551
 30
0.0
 10
86.6092207498
 20
105.7821297734
 30
0.0
  0
SPLINE
  5
40F
100
AcDbEntity
  8
1
100
AcDbSpline
 62
7
  6
BYLAYER
 70
0
 71
3
 72
11
 73
7
 74
0
 42
0.0000001
 43
0.0000001
 44
0.0000000001
 40
0.0
 40
0.0
 40
0.0
 40
0.0
 40
0.2476502075
 40
0.5086657856
 40
0.7651031303
 40
1.0
 40
1.0
 40
1.0
 40
1.0
 10
87.4367077122
 20
105.7173270257
 30
0.0
 10
87.375648856
 20
105.6913624622
 30
0.0
 10
87.2426109016
 20
105.6554370825
 30
0.0
 10
87.0366949578
 20
105.6439242728
 30
0.0
 10
86.8358907508
 20
105.6724181678
 30
0.0
 10
86.7111212024
 20
105.7198295458
 30
0.0
 10
86.6566190651
 20
105.7512956576
 30
0.0
  0
SPLINE
  5
410
100
AcDbEntity
  8
1
100
AcDbSpline
 62
7
  6
BYLAYER
 70
0
 71
3
 72
10
 73
6
 74
0
 42
0.0000001
 43
0.0000001
 44
0.0000000001
 40
0.0
 40
0.0
 40
0.0
 40
0.0
 40
0.3449472702
 40
0.679592087
 40
1.0
 40
1.0
 40
1.0
 40
1.0
 10
95.3514326893
 20
108.0108332993
 30
0.0
 10
94.4345467731
 20
107.9141909468
 30
0.0
 10
92.6349157344
 20
107.649317034
 30
0.0
 10
90.0313066788
 20
107.0312570993
 30
0.0
 10
88.3698155953
 20
106.4684236838
 30
0.0
 10
87.5744396334
 20
106.1509987806
 30
0.0
  0
SPLINE
  5
411
100
AcDbEntity
  8
1
100
AcDbSpline
 62
7
  6
BYLAYER
 70
0
 71
3
 72
10
 73
6
 74
0
 42
0.0000001
 43
0.0000001
 44
0.0000000001
 40
0.0
 40
0.0
 40
0.0
 40
0.0
 40
0.3184813281
 40
0.6535398174
 40
1.0
 40
1.0
 40
1.0
 40
1.0
 10
87.4367077121
 20
105.7173270257
 30
0.0
 10
88.3031722383
 20
106.0857809188
 30
0.0
 10
90.1296040903
 20
106.731410844
 30
0.0
 10
93.0108262115
 20
107.413842765
 30
0.0
 10
95.0113192283
 20
107.6833994388
 30
0.0
 10
96.031679667
 20
107.7727776881
 30
0.0
  0
SPLINE
  5
412
100
AcDbEntity
  8
1
100
AcDbSpline
 62
7
  6
BYLAYER
 70
0
 71
3
 72
11
 73
7
 74
0
 42
0.0000001
 43
0.0000001
 44
0.0000000001
 40
0.0
 40
0.0
 40
0.0
 40
0.0
 40
0.2486922165
 40
0.4621962869
 40
0.7002327475
 40
1.0
 40
1.0
 40
1.0
 40
1.0
 10
87.5749459767
 20
106.1927931171
 30
0.0
 10
87.614092451
 20
106.159993593
 30
0.0
 10
87.6795975495
 20
106.0835942367
 30
0.0
 10
87.6867996826
 20
105.9287927254
 30
0.0
 10
87.5906622147
 20
105.797548617
 30
0.0
 10
87.4933582176
 20
105.7414169897
 30
0.0
 10
87.4367077121
 20
105.7173270257
 30
0.0
  0
SPLINE
  5
413
100
AcDbEntity
  8
1
100
AcDbSpline
 62
7
  6
BYLAYER
 70
0
 71
3
 72
10
 73
6
 74
0
 42
0.0000001
 43
0.0000001
 44
0.0000000001
 40
0.0
 40
0.0
 40
0.0
 40
0.0
 40
0.3449405351
 40
0.6795982818
 40
1.0
 40
1.0
 40
1.0
 40
1.0
 10
95.3515934357
 20
108.0525449877
 30
0.0
 10
94.4347662282
 20
107.9559088238
 30
0.0
 10
92.6351993034
 20
107.6910419745
 30
0.0
 10
90.0317060815
 20
107.073009553
 30
0.0
 10
88.3702711619
 20
106.5101977565
 30
0.0
 10
87.5749459767
 20
106.1927931171
 30
0.0
  0
SPLINE
  5
414
100
AcDbEntity
  8
1
100
AcDbSpline
 62
7
  6
BYLAYER
 70
0
 71
3
 72
10
 73
6
 74
0
 42
0.0000001
 43
0.0000001
 44
0.0000000001
 40
0.0
 40
0.0
 40
0.0
 40
0.0
 40
0.3712865828
 40
0.7025372485
 40
1.0
 40
1.0
 40
1.0
 40
1.0
 10
95.5174148948
 20
107.8703169591
 30
0.0
 10
95.4904772386
 20
107.8858690703
 30
0.0
 10
95.441716457
 20
107.9195809116
 30
0.0
 10
95.3839271736
 20
107.9812258901
 30
0.0
 10
95.3591641692
 20
108.0288027014
 30
0.0
 10
95.3515934357
 20
108.0525449877
 30
0.0
  0
SPLINE
  5
415
100
AcDbEntity
  8
1
100
AcDbSpline
 62
7
  6
BYLAYER
 70
0
 71
3
 72
10
 73
6
 74
0
 42
0.0000001
 43
0.0000001
 44
0.0000000001
 40
0.0
 40
0.0
 40
0.0
 40
0.0
 40
0.3515939062
 40
0.6916778048
 40
1.0
 40
1.0
 40
1.0
 40
1.0
 10
96.031679667
 20
107.7727776881
 30
0.0
 10
95.9697783228
 20
107.7673554534
 30
0.0
 10
95.8467398102
 20
107.7677354977
 30
0.0
 10
95.6720623689
 20
107.7997294905
 30
0.0
 10
95.5646055922
 20
107.8430720136
 30
0.0
 10
95.5174148948
 20
107.8703169591
 30
0.0
  0
SPLINE
  5
416
100
AcDbEntity
  8
1
100
AcDbSpline
 62
7
  6
BYLAYER
 70
0
 71
3
 72
11
 73
7
 74
0
 42
0.0000001
 43
0.0000001
 44
0.0000000001
 40
0.0
 40
0.0
 40
0.0
 40
0.0
 40
0.1910399003
 40
0.4118660744
 40
0.6837008445
 40
1.0
 40
1.0
 40
1.0
 40
1.0
 10
96.5374278088
 20
108.1564178901
 30
0.0
 10
96.5465095414
 20
108.1125968327
 30
0.0
 10
96.5305289414
 20
108.0089899998
 30
0.0
 10
96.414848908
 20
107.889447595
 30
0.0
 10
96.2422745501
 20
107.8060703178
 30
0.0
 10
96.1054920022
 20
107.7792432635
 30
0.0
 10
96.0316796669
 20
107.7727776881
 30
0.0
  0
SPLINE
  5
417
100
AcDbEntity
  8
1
100
AcDbSpline
 62
7
  6
BYLAYER
 70
0
 71
3
 72
10
 73
6
 74
0
 42
0.0000001
 43
0.0000001
 44
0.0000000001
 40
0.0
 40
0.0
 40
0.0
 40
0.0
 40
0.3786786826
 40
0.7069330425
 40
1.0
 40
1.0
 40
1.0
 40
1.0
 10
98.5174139527
 20
108.0009651599
 30
0.0
 10
98.4842463851
 20
108.0201140308
 30
0.0
 10
98.4255107676
 20
108.0622877161
 30
0.0
 10
98.3617718584
 20
108.1429891999
 30
0.0
 10
98.3435885697
 20
108.2054089436
 30
0.0
 10
98.3419737354
 20
108.2350048077
 30
0.0
  0
SPLINE
  5
418
100
AcDbEntity
  8
1
100
AcDbSpline
 62
7
  6
BYLAYER
 70
0
 71
3
 72
10
 73
6
 74
0
 42
0.0000001
 43
0.0000001
 44
0.0000000001
 40
0.0
 40
0.0
 40
0.0
 40
0.0
 40
0.3535752261
 40
0.6914379042
 40
1.0
 40
1.0
 40
1.0
 40
1.0
 10
98.9416787531
 20
107.899506443
 30
0.0
 10
98.8897691418
 20
107.8995063182
 30
0.0
 10
98.7880628519
 20
107.9070636775
 30
0.0
 10
98.644542873
 20
107.9405236257
 30
0.0
 10
98.5566460579
 20
107.9783150059
 30
0.0
 10
98.5174139527
 20
108.0009651599
 30
0.0
  0
LINE
  5
419
100
AcDbEntity
  8
1
100
AcDbLine
 62
7
  6
BYLAYER
 10
98.34194633
 20
108.1933013122
 11
98.3419737354
 21
108.2350048077
  0
LINE
  5
41A
100
AcDbEntity
  8
1
100
AcDbLine
 62
7
  6
BYLAYER
 10
99.5413789319
 20
108.2350076908
 11
99.54140633
 21
108.1933041953
  0
SPLINE
  5
41B
100
AcDbEntity
  8
1
100
AcDbSpline
 62
7
  6
BYLAYER
 70
0
 71
3
 72
11
 73
7
 74
0
 42
0.0000001
 43
0.0000001
 44
0.0000000001
 40
0.0
 40
0.0
 40
0.0
 40
0.0
 40
0.1888846168
 40
0.4171362759
 40
0.6919415756
 40
1.0
 40
1.0
 40
1.0
 40
1.0
 10
99.5413789319
 20
108.2350076908
 30
0.0
 10
99.5388366752
 20
108.1884021647
 30
0.0
 10
99.4934449497
 20
108.0875929301
 30
0.0
 10
99.3530837841
 20
107.9832118768
 30
0.0
 10
99.1625055471
 20
107.9149862094
 30
0.0
 10
99.0178023118
 20
107.899506626
 30
0.0
 10
98.9416787531
 20
107.899506443
 30
0.0
  0
SPLINE
  5
41C
100
AcDbEntity
  8
1
100
AcDbSpline
 62
7
  6
BYLAYER
 70
0
 71
3
 72
10
 73
6
 74
0
 42
0.0000001
 43
0.0000001
 44
0.0000000001
 40
0.0
 40
0.0
 40
0.0
 40
0.0
 40
0.3802063703
 40
0.7016389263
 40
1.0
 40
1.0
 40
1.0
 40
1.0
 10
101.5174148948
 20
107.8703313813
 30
0.0
 10
101.47849296
 20
107.8928024624
 30
0.0
 10
101.4106739007
 20
107.9429633317
 30
0.0
 10
101.3442358404
 20
108.0447415943
 30
0.0
 10
101.3381369581
 20
108.1219335771
 30
0.0
 10
101.3452935895
 20
108.1564680989
 30
0.0
  0
SPLINE
  5
41D
100
AcDbEntity
  8
1
100
AcDbSpline
 62
7
  6
BYLAYER
 70
0
 71
3
 72
10
 73
6
 74
0
 42
0.0000001
 43
0.0000001
 44
0.0000000001
 40
0.0
 40
0.0
 40
0.0
 40
0.0
 40
0.3536411259
 40
0.6897475313
 40
1.0
 40
1.0
 40
1.0
 40
1.0
 10
101.8516796669
 20
107.7727916777
 30
0.0
 10
101.8105113484
 20
107.7763976051
 30
0.0
 10
101.7305300945
 20
107.7883163238
 30
0.0
 10
101.6178872092
 20
107.820621656
 30
0.0
 10
101.5488133506
 20
107.8522038844
 30
0.0
 10
101.5174148948
 20
107.8703313813
 30
0.0
  0
SPLINE
  5
41E
100
AcDbEntity
  8
1
100
AcDbSpline
 62
7
  6
BYLAYER
 70
0
 71
3
 72
10
 73
6
 74
0
 42
0.0000001
 43
0.0000001
 44
0.0000000001
 40
0.0
 40
0.0
 40
0.0
 40
0.0
 40
0.320408166
 40
0.6550529908
 40
1.0
 40
1.0
 40
1.0
 40
1.0
 10
110.3089424815
 20
106.1510534277
 30
0.0
 10
109.5135622355
 20
106.4684743898
 30
0.0
 10
107.8520637125
 20
107.0312996562
 30
0.0
 10
105.2484458159
 20
107.6493471535
 30
0.0
 10
103.4488102718
 20
107.9142125766
 30
0.0
 10
102.5319226022
 20
108.010850559
 30
0.0
  0
SPLINE
  5
41F
100
AcDbEntity
  8
1
100
AcDbSpline
 62
7
  6
BYLAYER
 70
0
 71
3
 72
10
 73
6
 74
0
 42
0.0000001
 43
0.0000001
 44
0.0000000001
 40
0.0
 40
0.0
 40
0.0
 40
0.0
 40
0.3459494788
 40
0.6806732831
 40
1.0
 40
1.0
 40
1.0
 40
1.0
 10
101.8516796669
 20
107.7727916777
 30
0.0
 10
102.8625320618
 20
107.6842512548
 30
0.0
 10
104.845007226
 20
107.4183515193
 30
0.0
 10
107.7039648647
 20
106.74392563
 30
0.0
 10
109.5200928447
 20
106.1106860733
 30
0.0
 10
110.3833085538
 20
105.747172853
 30
0.0
  0
SPLINE
  5
420
100
AcDbEntity
  8
1
100
AcDbSpline
 62
7
  6
BYLAYER
 70
0
 71
3
 72
11
 73
7
 74
0
 42
0.0000001
 43
0.0000001
 44
0.0000000001
 40
0.0
 40
0.0
 40
0.0
 40
0.0
 40
0.1930319185
 40
0.4286216673
 40
0.7034668001
 40
1.0
 40
1.0
 40
1.0
 40
1.0
 10
102.5317618631
 20
108.0525622467
 30
0.0
 10
102.5165277294
 20
108.0047848312
 30
0.0
 10
102.4453500906
 20
107.9112516859
 30
0.0
 10
102.2834298387
 20
107.8211781476
 30
0.0
 10
102.0782547041
 20
107.7695371885
 30
0.0
 10
101.9284216292
 20
107.7660698597
 30
0.0
 10
101.8516796669
 20
107.7727916777
 30
0.0
  0
SPLINE
  5
421
100
AcDbEntity
  8
1
100
AcDbSpline
 62
7
  6
BYLAYER
 70
0
 71
3
 72
10
 73
6
 74
0
 42
0.0000001
 43
0.0000001
 44
0.0000000001
 40
0.0
 40
0.0
 40
0.0
 40
0.0
 40
0.3204019711
 40
0.6550597259
 40
1.0
 40
1.0
 40
1.0
 40
1.0
 10
110.3084361443
 20
106.1928477617
 30
0.0
 10
109.5131066753
 20
106.5102484603
 30
0.0
 10
107.8516643164
 20
107.073052108
 30
0.0
 10
105.248162254
 20
107.6910720926
 30
0.0
 10
103.4485908239
 20
107.9559304525
 30
0.0
 10
102.5317618631
 20
108.0525622467
 30
0.0
  0
SPLINE
  5
422
100
AcDbEntity
  8
1
100
AcDbSpline
 62
7
  6
BYLAYER
 70
0
 71
3
 72
11
 73
7
 74
0
 42
0.0000001
 43
0.0000001
 44
0.0000000001
 40
0.0
 40
0.0
 40
0.0
 40
0.0
 40
0.2950784142
 40
0.526433112
 40
0.7449599896
 40
1.0
 40
1.0
 40
1.0
 40
1.0
 10
110.3833085538
 20
105.747172853
 30
0.0
 10
110.3366439176
 20
105.7740895157
 30
0.0
 10
110.2581790765
 20
105.8333088399
 30
0.0
 10
110.1919813853
 20
105.9600508519
 30
0.0
 10
110.2132047972
 20
106.0952434771
 30
0.0
 10
110.2727465914
 20
106.1629441437
 30
0.0
 10
110.3084361443
 20
106.1928477617
 30
0.0
  0
SPLINE
  5
423
100
AcDbEntity
  8
1
100
AcDbSpline
 62
7
  6
BYLAYER
 70
0
 71
3
 72
9
 73
5
 74
0
 42
0.0000001
 43
0.0000001
 44
0.0000000001
 40
0.0
 40
0.0
 40
0.0
 40
0.0
 40
0.4928521146
 40
1.0
 40
1.0
 40
1.0
 40
1.0
 10
110.3784348654
 20
105.7512409678
 30
0.0
 10
110.3892813462
 20
105.7449846013
 30
0.0
 10
110.4117140199
 20
105.7330168594
 30
0.0
 10
110.4348240516
 20
105.7224243887
 30
0.0
 10
110.4466812664
 20
105.7173823349
 30
0.0
  0
SPLINE
  5
424
100
AcDbEntity
  8
1
100
AcDbSpline
 62
7
  6
BYLAYER
 70
0
 71
3
 72
10
 73
6
 74
0
 42
0.0000001
 43
0.0000001
 44
0.0000000001
 40
0.0
 40
0.0
 40
0.0
 40
0.0
 40
0.3279522936
 40
0.6612981013
 40
1.0
 40
1.0
 40
1.0
 40
1.0
 10
114.6750042847
 20
103.7772640325
 30
0.0
 10
114.5498796207
 20
103.8694197987
 30
0.0
 10
114.2947770563
 20
104.0514825567
 30
0.0
 10
113.9012918445
 20
104.3155916663
 30
0.0
 10
113.6320111547
 20
104.4856711826
 30
0.0
 10
113.4951847455
 20
104.5695547139
 30
0.0
  0
SPLINE
  5
425
100
AcDbEntity
  8
1
100
AcDbSpline
 62
7
  6
BYLAYER
 70
0
 71
3
 72
10
 73
6
 74
0
 42
0.0000001
 43
0.0000001
 44
0.0000000001
 40
0.0
 40
0.0
 40
0.0
 40
0.0
 40
0.309108454
 40
0.6406806846
 40
1.0
 40
1.0
 40
1.0
 40
1.0
 10
118.6077106626
 20
98.7296999626
 30
0.0
 10
118.4339723044
 20
99.2791267759
 30
0.0
 10
117.9368571189
 20
100.3776893676
 30
0.0
 10
116.8327652814
 20
101.8921575094
 30
0.0
 10
115.9004503879
 20
102.7902898554
 30
0.0
 10
115.3863367303
 20
103.2196848077
 30
0.0
  0
SPLINE
  5
426
100
AcDbEntity
  8
1
100
AcDbSpline
 62
7
  6
BYLAYER
 70
0
 71
3
 72
10
 73
6
 74
0
 42
0.0000001
 43
0.0000001
 44
0.0000000001
 40
0.0
 40
0.0
 40
0.0
 40
0.0
 40
0.359319148
 40
0.6908913077
 40
1.0
 40
1.0
 40
1.0
 40
1.0
 10
115.3864313831
 20
90.0941011128
 30
0.0
 10
115.9005388089
 20
90.5234985042
 30
0.0
 10
116.8328409562
 20
91.4216355206
 30
0.0
 10
117.9369112537
 20
92.9361095466
 30
0.0
 10
118.4340102638
 20
94.0346742383
 30
0.0
 10
118.6077405579
 20
94.5841014442
 30
0.0
  0
SPLINE
  5
427
100
AcDbEntity
  8
1
100
AcDbSpline
 62
7
  6
BYLAYER
 70
0
 71
3
 72
11
 73
7
 74
0
 42
0.0000001
 43
0.0000001
 44
0.0000000001
 40
0.0
 40
0.0
 40
0.0
 40
0.0
 40
0.2382755103
 40
0.4980462568
 40
0.7588601204
 40
1.0
 40
1.0
 40
1.0
 40
1.0
 10
112.6596881908
 20
88.7792007054
 30
0.0
 10
112.719126105
 20
88.8135169963
 30
0.0
 10
112.8560627684
 20
88.8634565183
 30
0.0
 10
113.0747367488
 20
88.8885603527
 30
0.0
 10
113.2946468433
 20
88.8672518386
 30
0.0
 10
113.4335861802
 20
88.8198936821
 30
0.0
 10
113.4946494514
 20
88.7867925848
 30
0.0
  0
SPLINE
  5
428
100
AcDbEntity
  8
1
100
AcDbSpline
 62
7
  6
BYLAYER
 70
0
 71
3
 72
10
 73
6
 74
0
 42
0.0000001
 43
0.0000001
 44
0.0000000001
 40
0.0
 40
0.0
 40
0.0
 40
0.0
 40
0.3243870125
 40
0.6577563298
 40
1.0
 40
1.0
 40
1.0
 40
1.0
 10
114.5621556664
 20
90.056796636
 30
0.0
 10
114.3669925413
 20
89.9038149994
 30
0.0
 10
113.9631771759
 20
89.6037996171
 30
0.0
 10
113.3280761265
 20
89.1778805137
 30
0.0
 10
112.8862635355
 20
88.9100132607
 30
0.0
 10
112.6596881908
 20
88.7792007054
 30
0.0
  0
SPLINE
  5
429
100
AcDbEntity
  8
1
100
AcDbSpline
 62
7
  6
BYLAYER
 70
0
 71
3
 72
11
 73
7
 74
0
 42
0.0000001
 43
0.0000001
 44
0.0000000001
 40
0.0
 40
0.0
 40
0.0
 40
0.0
 40
0.2850995313
 40
0.5172930818
 40
0.7385243479
 40
1.0
 40
1.0
 40
1.0
 40
1.0
 10
114.6209983995
 20
89.6064189671
 30
0.0
 10
114.5753276796
 20
89.632786373
 30
0.0
 10
114.4973353282
 20
89.6920783992
 30
0.0
 10
114.4330798192
 20
89.8211879464
 30
0.0
 10
114.4601225109
 20
89.9594299345
 30
0.0
 10
114.524090487
 20
90.0269586558
 30
0.0
 10
114.5621556664
 20
90.056796636
 30
0.0
  0
SPLINE
  5
42A
100
AcDbEntity
  8
1
100
AcDbSpline
 62
7
  6
BYLAYER
 70
0
 71
3
 72
10
 73
6
 74
0
 42
0.0000001
 43
0.0000001
 44
0.0000000001
 40
0.0
 40
0.0
 40
0.0
 40
0.0
 40
0.3395010755
 40
0.6728924361
 40
1.0
 40
1.0
 40
1.0
 40
1.0
 10
114.6744058128
 20
89.5790541849
 30
0.0
 10
114.6682198227
 20
89.5818622938
 30
0.0
 10
114.6560429808
 20
89.587615196
 30
0.0
 10
114.6382286991
 20
89.5967360545
 30
0.0
 10
114.6266670221
 20
89.6031462603
 30
0.0
 10
114.6209983995
 20
89.6064189671
 30
0.0
  0
SPLINE
  5
42B
100
AcDbEntity
  8
1
100
AcDbSpline
 62
7
  6
BYLAYER
 70
0
 71
3
 72
10
 73
6
 74
0
 42
0.0000001
 43
0.0000001
 44
0.0000000001
 40
0.0
 40
0.0
 40
0.0
 40
0.0
 40
0.3593121596
 40
0.6908972055
 40
1.0
 40
1.0
 40
1.0
 40
1.0
 10
115.3856977161
 20
90.1366113533
 30
0.0
 10
115.8997721465
 20
90.5659811852
 30
0.0
 10
116.8320380796
 20
91.464087918
 30
0.0
 10
117.936059145
 20
92.978494255
 30
0.0
 10
118.433144534
 20
94.0770200103
 30
0.0
 10
118.6068637412
 20
94.6264121565
 30
0.0
  0
SPLINE
  5
42C
100
AcDbEntity
  8
1
100
AcDbSpline
 62
7
  6
BYLAYER
 70
0
 71
3
 72
11
 73
7
 74
0
 42
0.0000001
 43
0.0000001
 44
0.0000000001
 40
0.0
 40
0.0
 40
0.0
 40
0.0
 40
0.224934403
 40
0.4794352615
 40
0.7449346317
 40
1.0
 40
1.0
 40
1.0
 40
1.0
 10
114.5621556664
 20
90.0567966359
 30
0.0
 10
114.6127517774
 20
90.0964571807
 30
0.0
 10
114.7381947247
 20
90.1584082751
 30
0.0
 10
114.9483175889
 20
90.2012491684
 30
0.0
 10
115.1714030579
 20
90.1983283593
 30
0.0
 10
115.3179613936
 20
90.1635580364
 30
0.0
 10
115.3856977161
 20
90.1366113533
 30
0.0
  0
SPLINE
  5
42D
100
AcDbEntity
  8
1
100
AcDbSpline
 62
7
  6
BYLAYER
 70
0
 71
3
 72
10
 73
6
 74
0
 42
0.0000001
 43
0.0000001
 44
0.0000000001
 40
0.0
 40
0.0
 40
0.0
 40
0.0
 40
0.3060458963
 40
0.6371035448
 40
1.0
 40
1.0
 40
1.0
 40
1.0
 10
118.1222799736
 20
95.0190521823
 30
0.0
 10
117.9614466192
 20
94.4069997894
 30
0.0
 10
117.4473883699
 20
93.1756020678
 30
0.0
 10
116.2167283254
 20
91.4959621852
 30
0.0
 10
115.1527271902
 20
90.5197252662
 30
0.0
 10
114.5621556664
 20
90.0567966359
 30
0.0
  0
SPLINE
  5
42E
100
AcDbEntity
  8
1
100
AcDbSpline
 62
7
  6
BYLAYER
 70
0
 71
3
 72
10
 73
6
 74
0
 42
0.0000001
 43
0.0000001
 44
0.0000000001
 40
0.0
 40
0.0
 40
0.0
 40
0.0
 40
0.3833091395
 40
0.7054062555
 40
1.0
 40
1.0
 40
1.0
 40
1.0
 10
118.291229644
 20
94.7221463345
 30
0.0
 10
118.2508028919
 20
94.7454862027
 30
0.0
 10
118.1807402741
 20
94.7977543723
 30
0.0
 10
118.1142206647
 20
94.9047825476
 30
0.0
 10
118.1131620016
 20
94.9843536798
 30
0.0
 10
118.1222799736
 20
95.0190521823
 30
0.0
  0
SPLINE
  5
42F
100
AcDbEntity
  8
1
100
AcDbSpline
 62
7
  6
BYLAYER
 70
0
 71
3
 72
10
 73
6
 74
0
 42
0.0000001
 43
0.0000001
 44
0.0000000001
 40
0.0
 40
0.0
 40
0.0
 40
0.0
 40
0.3534116456
 40
0.689209384
 40
1.0
 40
1.0
 40
1.0
 40
1.0
 10
118.6068637412
 20
94.6264121565
 30
0.0
 10
118.5679838965
 20
94.6305444005
 30
0.0
 10
118.492531068
 20
94.6430164892
 30
0.0
 10
118.3862485082
 20
94.6747476339
 30
0.0
 10
118.3210068389
 20
94.7049548519
 30
0.0
 10
118.291229644
 20
94.7221463345
 30
0.0
  0
SPLINE
  5
430
100
AcDbEntity
  8
1
100
AcDbSpline
 62
7
  6
BYLAYER
 70
0
 71
3
 72
11
 73
7
 74
0
 42
0.0000001
 43
0.0000001
 44
0.0000000001
 40
0.0
 40
0.0
 40
0.0
 40
0.0
 40
0.1917483837
 40
0.4258380333
 40
0.7008695895
 40
1.0
 40
1.0
 40
1.0
 40
1.0
 10
118.1222799736
 20
95.0190521823
 30
0.0
 10
118.1348146369
 20
95.0667529264
 30
0.0
 10
118.2009552428
 20
95.162053628
 30
0.0
 10
118.3585626413
 20
95.2551073151
 30
0.0
 10
118.5610113016
 20
95.3103200813
 30
0.0
 10
118.7100122714
 20
95.3163470474
 30
0.0
 10
118.7867695836
 20
95.3110450283
 30
0.0
  0
SPLINE
  5
431
100
AcDbEntity
  8
1
100
AcDbSpline
 62
7
  6
BYLAYER
 70
0
 71
3
 72
10
 73
6
 74
0
 42
0.0000001
 43
0.0000001
 44
0.0000000001
 40
0.0
 40
0.0
 40
0.0
 40
0.0
 40
0.3311349123
 40
0.6639306993
 40
1.0
 40
1.0
 40
1.0
 40
1.0
 10
118.3417595228
 20
96.6991179749
 30
0.0
 10
118.3417608748
 20
96.5116390768
 30
0.0
 10
118.325373069
 20
96.1355305913
 30
0.0
 10
118.2517694004
 20
95.5735262699
 30
0.0
 10
118.1706375367
 20
95.2030772081
 30
0.0
 10
118.1222799736
 20
95.0190521823
 30
0.0
  0
SPLINE
  5
432
100
AcDbEntity
  8
1
100
AcDbSpline
 62
7
  6
BYLAYER
 70
0
 71
3
 72
10
 73
6
 74
0
 42
0.0000001
 43
0.0000001
 44
0.0000000001
 40
0.0
 40
0.0
 40
0.0
 40
0.0
 40
0.379865276
 40
0.7072613129
 40
1.0
 40
1.0
 40
1.0
 40
1.0
 10
118.5174972205
 20
96.4541729248
 30
0.0
 10
118.483052646
 20
96.4740590593
 30
0.0
 10
118.4223132991
 20
96.5179931482
 30
0.0
 10
118.3577304167
 20
96.6029443224
 30
0.0
 10
118.3417597438
 20
96.6684674257
 30
0.0
 10
118.3417595228
 20
96.6991179749
 30
0.0
  0
SPLINE
  5
433
100
AcDbEntity
  8
1
100
AcDbSpline
 62
7
  6
BYLAYER
 70
0
 71
3
 72
10
 73
6
 74
0
 42
0.0000001
 43
0.0000001
 44
0.0000000001
 40
0.0
 40
0.0
 40
0.0
 40
0.0
 40
0.3537479251
 40
0.6912048304
 40
1.0
 40
1.0
 40
1.0
 40
1.0
 10
118.9228730375
 20
96.352885865
 30
0.0
 10
118.8731666461
 20
96.3537896405
 30
0.0
 10
118.7759938609
 20
96.3624933435
 30
0.0
 10
118.6389759853
 20
96.3959296897
 30
0.0
 10
118.5550804154
 20
96.432474748
 30
0.0
 10
118.5174972205
 20
96.4541729248
 30
0.0
  0
SPLINE
  5
434
100
AcDbEntity
  8
1
100
AcDbSpline
 62
7
  6
BYLAYER
 70
0
 71
3
 72
11
 73
7
 74
0
 42
0.0000001
 43
0.0000001
 44
0.0000000001
 40
0.0
 40
0.0
 40
0.0
 40
0.0
 40
0.1887448325
 40
0.4154271645
 40
0.6898856513
 40
1.0
 40
1.0
 40
1.0
 40
1.0
 10
118.3417595228
 20
96.6991179749
 30
0.0
 10
118.3417591902
 20
96.745245576
 30
0.0
 10
118.3812410005
 20
96.8470958762
 30
0.0
 10
118.5167597535
 20
96.9545440545
 30
0.0
 10
118.703819956
 20
97.0260619655
 30
0.0
 10
118.8470913164
 20
97.0439747202
 30
0.0
 10
118.9228680439
 20
97.0453528785
 30
0.0
  0
SPLINE
  5
435
100
AcDbEntity
  8
1
100
AcDbSpline
 62
7
  6
BYLAYER
 70
0
 71
3
 72
10
 73
6
 74
0
 42
0.0000001
 43
0.0000001
 44
0.0000000001
 40
0.0
 40
0.0
 40
0.0
 40
0.0
 40
0.3360695635
 40
0.6688653545
 40
1.0
 40
1.0
 40
1.0
 40
1.0
 10
118.1222557426
 20
98.3791827123
 30
0.0
 10
118.1706159425
 20
98.195157985
 30
0.0
 10
118.2517531281
 20
97.8247094637
 30
0.0
 10
118.3253649203
 20
97.2627055103
 30
0.0
 10
118.3417581708
 20
96.8865969513
 30
0.0
 10
118.3417595228
 20
96.6991179749
 30
0.0
  0
SPLINE
  5
436
100
AcDbEntity
  8
1
100
AcDbSpline
 62
7
  6
BYLAYER
 70
0
 71
3
 72
10
 73
6
 74
0
 42
0.0000001
 43
0.0000001
 44
0.0000000001
 40
0.0
 40
0.0
 40
0.0
 40
0.0
 40
0.3730315726
 40
0.7037963103
 40
1.0
 40
1.0
 40
1.0
 40
1.0
 10
118.2912046636
 20
98.1861984273
 30
0.0
 10
118.2629474196
 20
98.2025123856
 30
0.0
 10
118.2120415068
 20
98.2379975312
 30
0.0
 10
118.1527458496
 20
98.3034783655
 30
0.0
 10
118.1288406935
 20
98.3541250452
 30
0.0
 10
118.1222557426
 20
98.3791827123
 30
0.0
  0
SPLINE
  5
437
100
AcDbEntity
  8
1
100
AcDbSpline
 62
7
  6
BYLAYER
 70
0
 71
3
 72
10
 73
6
 74
0
 42
0.0000001
 43
0.0000001
 44
0.0000000001
 40
0.0
 40
0.0
 40
0.0
 40
0.0
 40
0.3575584791
 40
0.6942657919
 40
1.0
 40
1.0
 40
1.0
 40
1.0
 10
118.7868165148
 20
98.0868279486
 30
0.0
 10
118.7259878803
 20
98.0826259079
 30
0.0
 10
118.6068820195
 20
98.0854173599
 30
0.0
 10
118.4387656852
 20
98.1180960999
 30
0.0
 10
118.336356132
 20
98.1601308046
 30
0.0
 10
118.2912046636
 20
98.1861984273
 30
0.0
  0
SPLINE
  5
438
100
AcDbEntity
  8
1
100
AcDbSpline
 62
7
  6
BYLAYER
 70
0
 71
3
 72
10
 73
6
 74
0
 42
0.0000001
 43
0.0000001
 44
0.0000000001
 40
0.0
 40
0.0
 40
0.0
 40
0.0
 40
0.3091025562
 40
0.6406876731
 40
1.0
 40
1.0
 40
1.0
 40
1.0
 10
118.6068338473
 20
98.7718250677
 30
0.0
 10
118.4331065765
 20
99.3212168213
 30
0.0
 10
117.9360050126
 20
100.4197404766
 30
0.0
 10
116.8319624081
 20
101.9341409298
 30
0.0
 10
115.8996837293
 20
102.8322429924
 30
0.0
 10
115.3856030676
 20
103.2616103853
 30
0.0
  0
SPLINE
  5
439
100
AcDbEntity
  8
1
100
AcDbSpline
 62
7
  6
BYLAYER
 70
0
 71
3
 72
11
 73
7
 74
0
 42
0.0000001
 43
0.0000001
 44
0.0000000001
 40
0.0
 40
0.0
 40
0.0
 40
0.0
 40
0.1924647774
 40
0.4118118854
 40
0.6825705618
 40
1.0
 40
1.0
 40
1.0
 40
1.0
 10
118.1222557426
 20
98.3791827123
 30
0.0
 10
118.1109232726
 20
98.4223060807
 30
0.0
 10
118.120525415
 20
98.5257148316
 30
0.0
 10
118.2304336958
 20
98.6485808052
 30
0.0
 10
118.3989170776
 20
98.7349543187
 30
0.0
 10
118.533708119
 20
98.7640527249
 30
0.0
 10
118.6068338473
 20
98.7718250677
 30
0.0
  0
SPLINE
  5
43A
100
AcDbEntity
  8
1
100
AcDbSpline
 62
7
  6
BYLAYER
 70
0
 71
3
 72
10
 73
6
 74
0
 42
0.0000001
 43
0.0000001
 44
0.0000000001
 40
0.0
 40
0.0
 40
0.0
 40
0.0
 40
0.3628966434
 40
0.6939543837
 40
1.0
 40
1.0
 40
1.0
 40
1.0
 10
114.5620598667
 20
103.3414211436
 30
0.0
 10
115.1526381425
 20
102.8784952933
 30
0.0
 10
116.2166530979
 20
101.902263695
 30
0.0
 10
117.4473369237
 20
100.222630565
 30
0.0
 10
117.9614134001
 20
98.9912349435
 30
0.0
 10
118.1222557426
 20
98.3791827123
 30
0.0
  0
SPLINE
  5
43B
100
AcDbEntity
  8
1
100
AcDbSpline
 62
7
  6
BYLAYER
 70
0
 71
3
 72
10
 73
6
 74
0
 42
0.0000001
 43
0.0000001
 44
0.0000000001
 40
0.0
 40
0.0
 40
0.0
 40
0.0
 40
0.3422444518
 40
0.675612142
 40
1.0
 40
1.0
 40
1.0
 40
1.0
 10
114.6208996369
 20
103.3019081502
 30
0.0
 10
114.6138920757
 20
103.305953876
 30
0.0
 10
114.6002276634
 20
103.3142383545
 30
0.0
 10
114.5805851732
 20
103.3274110157
 30
0.0
 10
114.5680959223
 20
103.3366897705
 30
0.0
 10
114.5620598667
 20
103.3414211436
 30
0.0
  0
SPLINE
  5
43C
100
AcDbEntity
  8
1
100
AcDbSpline
 62
7
  6
BYLAYER
 70
0
 71
3
 72
11
 73
7
 74
0
 42
0.0000001
 43
0.0000001
 44
0.0000000001
 40
0.0
 40
0.0
 40
0.0
 40
0.0
 40
0.2492304763
 40
0.5102586112
 40
0.765880743
 40
1.0
 40
1.0
 40
1.0
 40
1.0
 10
115.3856030676
 20
103.2616103853
 30
0.0
 10
115.3248336455
 20
103.2374348251
 30
0.0
 10
115.193662064
 20
103.2043490381
 30
0.0
 10
114.9917073767
 20
103.1952476939
 30
0.0
 10
114.7956851071
 20
103.2244940756
 30
0.0
 10
114.6741053189
 20
103.2711905304
 30
0.0
 10
114.6208996369
 20
103.3019081502
 30
0.0
  0
SPLINE
  5
43D
100
AcDbEntity
  8
1
100
AcDbSpline
 62
7
  6
BYLAYER
 70
0
 71
3
 72
10
 73
6
 74
0
 42
0.0000001
 43
0.0000001
 44
0.0000000001
 40
0.0
 40
0.0
 40
0.0
 40
0.0
 40
0.327952
 40
0.661298398
 40
1.0
 40
1.0
 40
1.0
 40
1.0
 10
114.6743031228
 20
103.8191641342
 30
0.0
 10
114.5491840594
 20
103.9113157757
 30
0.0
 10
114.2940925743
 20
104.093370635
 30
0.0
 10
113.9006246217
 20
104.3574681596
 30
0.0
 10
113.6313556226
 20
104.5275402845
 30
0.0
 10
113.4945353349
 20
104.6114200628
 30
0.0
  0
SPLINE
  5
43E
100
AcDbEntity
  8
1
100
AcDbSpline
 62
7
  6
BYLAYER
 70
0
 71
3
 72
11
 73
7
 74
0
 42
0.0000001
 43
0.0000001
 44
0.0000000001
 40
0.0
 40
0.0
 40
0.0
 40
0.0
 40
0.2540863306
 40
0.4689471912
 40
0.7040464952
 40
1.0
 40
1.0
 40
1.0
 40
1.0
 10
114.5620598668
 20
103.3414211436
 30
0.0
 10
114.5211496776
 20
103.3734886694
 30
0.0
 10
114.4521747738
 20
103.4475456791
 30
0.0
 10
114.4354123385
 20
103.6018203051
 30
0.0
 10
114.5247026645
 20
103.7364019549
 30
0.0
 10
114.6191721879
 20
103.7941372079
 30
0.0
 10
114.6743031228
 20
103.8191641342
 30
0.0
  0
SPLINE
  5
43F
100
AcDbEntity
  8
1
100
AcDbSpline
 62
7
  6
BYLAYER
 70
0
 71
3
 72
10
 73
6
 74
0
 42
0.0000001
 43
0.0000001
 44
0.0000000001
 40
0.0
 40
0.0
 40
0.0
 40
0.0
 40
0.3422436114
 40
0.675612933
 40
1.0
 40
1.0
 40
1.0
 40
1.0
 10
112.6595739649
 20
104.6190079282
 30
0.0
 10
112.8861512193
 20
104.4881964487
 30
0.0
 10
113.3279677109
 20
104.2203312944
 30
0.0
 10
113.9630748909
 20
103.7944152488
 30
0.0
 10
114.3668945477
 20
103.4944018321
 30
0.0
 10
114.5620598668
 20
103.3414211436
 30
0.0
  0
SPLINE
  5
440
100
AcDbEntity
  8
1
100
AcDbSpline
 62
7
  6
BYLAYER
 70
0
 71
3
 72
11
 73
7
 74
0
 42
0.0000001
 43
0.0000001
 44
0.0000000001
 40
0.0
 40
0.0
 40
0.0
 40
0.0
 40
0.2411391196
 40
0.5019527101
 40
0.7617237352
 40
1.0
 40
1.0
 40
1.0
 40
1.0
 10
113.4945353349
 20
104.6114200628
 30
0.0
 10
113.4334724831
 20
104.5783186404
 30
0.0
 10
113.2945336571
 20
104.5309597986
 30
0.0
 10
113.0746238636
 20
104.5096502781
 30
0.0
 10
112.8559495306
 20
104.5347531122
 30
0.0
 10
112.7190123192
 20
104.5846919546
 30
0.0
 10
112.6595739649
 20
104.6190079282
 30
0.0
  0
SPLINE
  5
441
100
AcDbEntity
  8
1
100
AcDbSpline
 62
7
  6
BYLAYER
 70
0
 71
3
 72
11
 73
7
 74
0
 42
0.0000001
 43
0.0000001
 44
0.0000000001
 40
0.0
 40
0.0
 40
0.0
 40
0.0
 40
0.2790632265
 40
0.5037191118
 40
0.7259306163
 40
1.0
 40
1.0
 40
1.0
 40
1.0
 10
112.6595739649
 20
104.6190079282
 30
0.0
 10
112.610491429
 20
104.6473451024
 30
0.0
 10
112.5267762193
 20
104.7115248649
 30
0.0
 10
112.4667131061
 20
104.8574688581
 30
0.0
 10
112.5182066732
 20
105.0058521353
 30
0.0
 10
112.5990097459
 20
105.0719109957
 30
0.0
 10
112.6464242561
 20
105.1010661452
 30
0.0
  0
SPLINE
  5
442
100
AcDbEntity
  8
1
100
AcDbSpline
 62
7
  6
BYLAYER
 70
0
 71
3
 72
10
 73
6
 74
0
 42
0.0000001
 43
0.0000001
 44
0.0000000001
 40
0.0
 40
0.0
 40
0.0
 40
0.0
 40
0.3409695609
 40
0.6744026418
 40
1.0
 40
1.0
 40
1.0
 40
1.0
 10
110.4466812664
 20
105.7173823349
 30
0.0
 10
110.7052180092
 20
105.6074445297
 30
0.0
 10
111.2125708331
 20
105.3804028894
 30
0.0
 10
111.9509552076
 20
105.0143334255
 30
0.0
 10
112.4272399959
 20
104.7531429732
 30
0.0
 10
112.6595739649
 20
104.6190079282
 30
0.0
  0
SPLINE
  5
443
100
AcDbEntity
  8
1
100
AcDbSpline
 62
7
  6
BYLAYER
 70
0
 71
3
 72
11
 73
7
 74
0
 42
0.0000001
 43
0.0000001
 44
0.0000000001
 40
0.0
 40
0.0
 40
0.0
 40
0.0
 40
0.2276670855
 40
0.483308639
 40
0.7478717736
 40
1.0
 40
1.0
 40
1.0
 40
1.0
 10
111.2741672941
 20
105.7821890606
 30
0.0
 10
111.2215780463
 20
105.7435738353
 30
0.0
 10
111.0934709264
 20
105.6840855101
 30
0.0
 10
110.8812066108
 20
105.6448883957
 30
0.0
 10
110.6584076786
 20
105.6516773974
 30
0.0
 10
110.513173198
 20
105.6891079127
 30
0.0
 10
110.4466812664
 20
105.7173823349
 30
0.0
  0
SPLINE
  5
444
100
AcDbEntity
  8
1
100
AcDbSpline
 62
7
  6
BYLAYER
 70
0
 71
3
 72
23
 73
19
 74
0
 42
0.0000001
 43
0.0000001
 44
0.0000000001
 40
0.0
 40
0.0
 40
0.0
 40
0.0
 40
0.0665865148
 40
0.1384328823
 40
0.2140582407
 40
0.29165208
 40
0.3692459616
 40
0.4448714436
 40
0.5167180057
 40
0.5833047683
 40
0.6436841549
 40
0.6976983546
 40
0.7462806503
 40
0.7916527825
 40
0.8370248425
 40
0.8856069458
 40
0.9396208866
 40
1.0
 40
1.0
 40
1.0
 40
1.0
 10
88.3351136458
 20
104.2592752916
 30
0.0
 10
89.0612144728
 20
104.6784872972
 30
0.0
 10
90.6489656484
 20
105.4178478255
 30
0.0
 10
93.2345338761
 20
106.2037140935
 30
0.0
 10
96.0338316728
 20
106.6874471676
 30
0.0
 10
98.941686653
 20
106.8506653246
 30
0.0
 10
101.8496083449
 20
106.6874407651
 30
0.0
 10
104.6487278425
 20
106.203817987
 30
0.0
 10
107.2349343789
 20
105.4176233728
 30
0.0
 10
109.51313235
 20
104.3569280731
 30
0.0
 10
111.4006986526
 20
103.05717677
 30
0.0
 10
112.8278319797
 20
101.5570941286
 30
0.0
 10
113.730856493
 20
99.8969291702
 30
0.0
 10
114.0435974019
 20
98.1356989606
 30
0.0
 10
113.7309008529
 20
96.3744833608
 30
0.0
 10
112.8277996159
 20
94.7142558451
 30
0.0
 10
111.4011330729
 20
93.2144090835
 30
0.0
 10
110.2068168565
 20
92.3921844185
 30
0.0
 10
109.5484054002
 20
92.012052656
 30
0.0
  0
SPLINE
  5
445
100
AcDbEntity
  8
1
100
AcDbSpline
 62
7
  6
BYLAYER
 70
0
 71
3
 72
23
 73
19
 74
0
 42
0.0000001
 43
0.0000001
 44
0.0000000001
 40
0.0
 40
0.0
 40
0.0
 40
0.0
 40
0.0665865148
 40
0.1384328823
 40
0.2140582407
 40
0.29165208
 40
0.3692459616
 40
0.4448714436
 40
0.5167180057
 40
0.5833047683
 40
0.6436841549
 40
0.6976983546
 40
0.7462806503
 40
0.7916527825
 40
0.8370248425
 40
0.8856069458
 40
0.9396208866
 40
1.0
 40
1.0
 40
1.0
 40
1.0
 10
109.5484054002
 20
92.012052656
 30
0.0
 10
108.8223045731
 20
91.5928406504
 30
0.0
 10
107.2345533975
 20
90.8534801221
 30
0.0
 10
104.6489851698
 20
90.0676138542
 30
0.0
 10
101.8496873731
 20
89.58388078
 30
0.0
 10
98.941832393
 20
89.4206626231
 30
0.0
 10
96.0339107011
 20
89.5838871826
 30
0.0
 10
93.2347912034
 20
90.0675099607
 30
0.0
 10
90.6485846671
 20
90.8537045748
 30
0.0
 10
88.3703866959
 20
91.9143998746
 30
0.0
 10
86.4828203933
 20
93.2141511776
 30
0.0
 10
85.0556870662
 20
94.714233819
 30
0.0
 10
84.1526625529
 20
96.3743987775
 30
0.0
 10
83.8399216441
 20
98.135628987
 30
0.0
 10
84.152618193
 20
99.8968445869
 30
0.0
 10
85.0557194301
 20
101.5570721025
 30
0.0
 10
86.482385973
 20
103.0569188642
 30
0.0
 10
87.6767021895
 20
103.8791435292
 30
0.0
 10
88.3351136458
 20
104.2592752916
 30
0.0
  0
SPLINE
  5
446
100
AcDbEntity
  8
1
100
AcDbSpline
 62
7
  6
BYLAYER
 70
0
 71
3
 72
23
 73
19
 74
0
 42
0.0000001
 43
0.0000001
 44
0.0000000001
 40
0.0
 40
0.0
 40
0.0
 40
0.0
 40
0.0603791134
 40
0.1143930542
 40
0.1629751575
 40
0.2083472175
 40
0.2537193497
 40
0.3023016454
 40
0.3563158451
 40
0.4166952317
 40
0.4832819943
 40
0.5551285564
 40
0.6307540384
 40
0.70834792
 40
0.7859417593
 40
0.8615671177
 40
0.9334134852
 40
1.0
 40
1.0
 40
1.0
 40
1.0
 10
109.5484054002
 20
99.4214264702
 30
0.0
 10
110.2068168565
 20
99.8015582326
 30
0.0
 10
111.4011330729
 20
100.6237828976
 30
0.0
 10
112.8277996159
 20
102.1236296593
 30
0.0
 10
113.7309008529
 20
103.783857175
 30
0.0
 10
114.0435974019
 20
105.5450727748
 30
0.0
 10
113.730856493
 20
107.3063029843
 30
0.0
 10
112.8278319797
 20
108.9664679428
 30
0.0
 10
111.4006986526
 20
110.4665505842
 30
0.0
 10
109.51313235
 20
111.7663018872
 30
0.0
 10
107.2349343789
 20
112.826997187
 30
0.0
 10
104.6487278425
 20
113.6131918011
 30
0.0
 10
101.8496083449
 20
114.0968145792
 30
0.0
 10
98.941686653
 20
114.2600391387
 30
0.0
 10
96.0338316728
 20
114.0968209818
 30
0.0
 10
93.2345338761
 20
113.6130879076
 30
0.0
 10
90.6489656484
 20
112.8272216397
 30
0.0
 10
89.0612144728
 20
112.0878611114
 30
0.0
 10
88.3351136458
 20
111.6686491058
 30
0.0
  0
SPLINE
  5
447
100
AcDbEntity
  8
1
100
AcDbSpline
 62
7
  6
BYLAYER
 70
0
 71
3
 72
23
 73
19
 74
0
 42
0.0000001
 43
0.0000001
 44
0.0000000001
 40
0.0
 40
0.0
 40
0.0
 40
0.0
 40
0.0603791134
 40
0.1143930542
 40
0.1629751575
 40
0.2083472175
 40
0.2537193497
 40
0.3023016454
 40
0.3563158451
 40
0.4166952317
 40
0.4832819943
 40
0.5551285564
 40
0.6307540384
 40
0.70834792
 40
0.7859417593
 40
0.8615671177
 40
0.9334134852
 40
1.0
 40
1.0
 40
1.0
 40
1.0
 10
88.3351136458
 20
111.6686491058
 30
0.0
 10
87.6767021895
 20
111.2885173433
 30
0.0
 10
86.482385973
 20
110.4662926784
 30
0.0
 10
85.0557194301
 20
108.9664459167
 30
0.0
 10
84.152618193
 20
107.306218401
 30
0.0
 10
83.8399216441
 20
105.5450028012
 30
0.0
 10
84.1526625529
 20
103.7837725916
 30
0.0
 10
85.0556870662
 20
102.1236076332
 30
0.0
 10
86.4828203933
 20
100.6235249918
 30
0.0
 10
88.3703866959
 20
99.3237736887
 30
0.0
 10
90.6485846671
 20
98.263078389
 30
0.0
 10
93.2347912034
 20
97.4768837749
 30
0.0
 10
96.0339107011
 20
96.9932609968
 30
0.0
 10
98.941832393
 20
96.8300364373
 30
0.0
 10
101.8496873731
 20
96.9932545942
 30
0.0
 10
104.6489851698
 20
97.4769876683
 30
0.0
 10
107.2345533975
 20
98.2628539363
 30
0.0
 10
108.8223045731
 20
99.0022144646
 30
0.0
 10
109.5484054002
 20
99.4214264702
 30
0.0
  0
SPLINE
  5
448
100
AcDbEntity
  8
1
100
AcDbSpline
 62
7
  6
BYLAYER
 70
0
 71
3
 72
23
 73
19
 74
0
 42
0.0000001
 43
0.0000001
 44
0.0000000001
 40
0.0
 40
0.0
 40
0.0
 40
0.0
 40
0.060422087
 40
0.114507529
 40
0.1631180454
 40
0.2082175581
 40
0.2535984483
 40
0.302275309
 40
0.3563005682
 40
0.4165277601
 40
0.4828490758
 40
0.5544253792
 40
0.6298768996
 40
0.707344961
 40
0.784612409
 40
0.8606421961
 40
0.9330122882
 40
1.0
 40
1.0
 40
1.0
 40
1.0
 10
88.6886685084
 20
112.171640564
 30
0.0
 10
88.0517512787
 20
111.803918425
 30
0.0
 10
86.8961280952
 20
111.0082319695
 30
0.0
 10
85.5162012606
 20
109.556650837
 30
0.0
 10
84.6454406736
 20
107.9528409583
 30
0.0
 10
84.3439267809
 20
106.2536161057
 30
0.0
 10
84.6442229073
 20
104.5528173122
 30
0.0
 10
85.5172481364
 20
102.9462788716
 30
0.0
 10
86.8962921598
 20
101.4965007303
 30
0.0
 10
88.7163918475
 20
100.2423485074
 30
0.0
 10
90.9102403656
 20
99.2189880644
 30
0.0
 10
93.4011156983
 20
98.4588870059
 30
0.0
 10
96.0994787162
 20
97.9891990822
 30
0.0
 10
98.9026177477
 20
97.827995634
 30
0.0
 10
101.7131528526
 20
97.9809760797
 30
0.0
 10
104.4272618826
 20
98.4449991016
 30
0.0
 10
106.9431938681
 20
99.2062518944
 30
0.0
 10
108.4887241873
 20
99.924978878
 30
0.0
 10
109.1948505376
 20
100.3326586829
 30
0.0
  0
SPLINE
  5
449
100
AcDbEntity
  8
1
100
AcDbSpline
 62
7
  6
BYLAYER
 70
0
 71
3
 72
23
 73
19
 74
0
 42
0.0000001
 43
0.0000001
 44
0.0000000001
 40
0.0
 40
0.0
 40
0.0
 40
0.0
 40
0.060422087
 40
0.114507529
 40
0.1631180454
 40
0.2082175581
 40
0.2535984483
 40
0.302275309
 40
0.3563005682
 40
0.4165277601
 40
0.4828490758
 40
0.5544253792
 40
0.6298768996
 40
0.707344961
 40
0.784612409
 40
0.8606421961
 40
0.9330122882
 40
1.0
 40
1.0
 40
1.0
 40
1.0
 10
109.1948505376
 20
100.3326586829
 30
0.0
 10
109.8317677673
 20
100.7003808219
 30
0.0
 10
110.9873909508
 20
101.4960672774
 30
0.0
 10
112.3673177854
 20
102.9476484099
 30
0.0
 10
113.2380783723
 20
104.5514582887
 30
0.0
 10
113.5395922651
 20
106.2506831413
 30
0.0
 10
113.2392961386
 20
107.9514819348
 30
0.0
 10
112.3662709096
 20
109.5580203753
 30
0.0
 10
110.9872268862
 20
111.0077985166
 30
0.0
 10
109.1671271985
 20
112.2619507395
 30
0.0
 10
106.9732786804
 20
113.2853111825
 30
0.0
 10
104.4824033477
 20
114.0454122411
 30
0.0
 10
101.7840403298
 20
114.5151001647
 30
0.0
 10
98.9809012983
 20
114.676303613
 30
0.0
 10
96.1703661934
 20
114.5233231672
 30
0.0
 10
93.4562571634
 20
114.0593001453
 30
0.0
 10
90.9403251778
 20
113.2980473526
 30
0.0
 10
89.3947948587
 20
112.5793203689
 30
0.0
 10
88.6886685084
 20
112.171640564
 30
0.0
  0
SPLINE
  5
44A
100
AcDbEntity
  8
1
100
AcDbSpline
 62
7
  6
BYLAYER
 70
0
 71
3
 72
22
 73
18
 74
0
 42
0.0000001
 43
0.0000001
 44
0.0000000001
 40
0.0
 40
0.0
 40
0.0
 40
0.0
 40
0.071262133
 40
0.1485352731
 40
0.2297323477
 40
0.3122473465
 40
0.3947159207
 40
0.4741987751
 40
0.5484535606
 40
0.6160131054
 40
0.6763311746
 40
0.729995481
 40
0.7790984342
 40
0.8269695965
 40
0.8781793178
 40
0.935503938
 40
1.0
 40
1.0
 40
1.0
 40
1.0
 10
108.4877408125
 20
100.7408994374
 30
0.0
 10
107.7885188261
 20
100.3372058451
 30
0.0
 10
106.2504330678
 20
99.6321453131
 30
0.0
 10
103.7426805904
 20
98.9074923595
 30
0.0
 10
101.0361253339
 20
98.4959067214
 30
0.0
 10
98.2416344219
 20
98.4126015403
 30
0.0
 10
95.4761382761
 20
98.6610957848
 30
0.0
 10
92.8539436729
 20
99.2327724134
 30
0.0
 10
90.4924057744
 20
100.1018926327
 30
0.0
 10
88.4873010664
 20
101.2328160263
 30
0.0
 10
86.91647847
 20
102.586482229
 30
0.0
 10
85.8482797661
 20
104.1249873888
 30
0.0
 10
85.3601524058
 20
105.7977086685
 30
0.0
 10
85.5127103008
 20
107.5084524364
 30
0.0
 10
86.2902251009
 20
109.1361297268
 30
0.0
 10
87.6214195465
 20
110.6034159236
 30
0.0
 10
88.76294474
 20
111.3980354026
 30
0.0
 10
89.3957782335
 20
111.7633998095
 30
0.0
  0
SPLINE
  5
44B
100
AcDbEntity
  8
1
100
AcDbSpline
 62
7
  6
BYLAYER
 70
0
 71
3
 72
22
 73
18
 74
0
 42
0.0000001
 43
0.0000001
 44
0.0000000001
 40
0.0
 40
0.0
 40
0.0
 40
0.0
 40
0.071262133
 40
0.1485352731
 40
0.2297323477
 40
0.3122473465
 40
0.3947159207
 40
0.4741987751
 40
0.5484535606
 40
0.6160131054
 40
0.6763311746
 40
0.729995481
 40
0.7790984342
 40
0.8269695965
 40
0.8781793178
 40
0.935503938
 40
1.0
 40
1.0
 40
1.0
 40
1.0
 10
89.3957782335
 20
111.7633998095
 30
0.0
 10
90.0950002199
 20
112.1670934018
 30
0.0
 10
91.6330859782
 20
112.8721539338
 30
0.0
 10
94.1408384555
 20
113.5968068874
 30
0.0
 10
96.8473937121
 20
114.0083925255
 30
0.0
 10
99.6418846241
 20
114.0916977066
 30
0.0
 10
102.4073807699
 20
113.8432034621
 30
0.0
 10
105.029575373
 20
113.2715268336
 30
0.0
 10
107.3911132716
 20
112.4024066143
 30
0.0
 10
109.3962179796
 20
111.2714832207
 30
0.0
 10
110.9670405759
 20
109.9178170179
 30
0.0
 10
112.0352392799
 20
108.3793118581
 30
0.0
 10
112.5233666402
 20
106.7065905784
 30
0.0
 10
112.3708087452
 20
104.9958468106
 30
0.0
 10
111.5932939451
 20
103.3681695201
 30
0.0
 10
110.2620994995
 20
101.9008833233
 30
0.0
 10
109.120574306
 20
101.1062638444
 30
0.0
 10
108.4877408125
 20
100.7408994374
 30
0.0
  0
SPLINE
  5
44C
100
AcDbEntity
  8
1
100
AcDbSpline
 62
7
  6
BYLAYER
 70
0
 71
3
 72
22
 73
18
 74
0
 42
0.0000001
 43
0.0000001
 44
0.0000000001
 40
0.0
 40
0.0
 40
0.0
 40
0.0
 40
0.0641752221
 40
0.1211439605
 40
0.1721928752
 40
0.2202624986
 40
0.2693602452
 40
0.3231042509
 40
0.3836150428
 40
0.4514112044
 40
0.5257824342
 40
0.6051814786
 40
0.6875345228
 40
0.7704917895
 40
0.8516495985
 40
0.9287672532
 40
1.0
 40
1.0
 40
1.0
 40
1.0
 10
108.4877408125
 20
105.8032144236
 30
0.0
 10
109.1174272676
 20
106.166761898
 30
0.0
 10
110.2528515401
 20
106.9564501268
 30
0.0
 10
111.5802968793
 20
108.4136285379
 30
0.0
 10
112.3637316687
 20
110.033790606
 30
0.0
 10
112.5263079897
 20
111.744266036
 30
0.0
 10
112.0450233803
 20
113.4224377724
 30
0.0
 10
110.9797975672
 20
114.9671084324
 30
0.0
 10
109.4066390443
 20
116.3272870593
 30
0.0
 10
107.3967183073
 20
117.4625490919
 30
0.0
 10
105.0323992255
 20
118.3330681318
 30
0.0
 10
102.4111954309
 20
118.9048166166
 30
0.0
 10
99.6430330675
 20
119.1542135712
 30
0.0
 10
96.8451875761
 20
119.0708044603
 30
0.0
 10
94.1359863263
 20
118.6579392159
 30
0.0
 10
91.6308553297
 20
117.933484125
 30
0.0
 10
90.0947130299
 20
117.2292425798
 30
0.0
 10
89.3957782335
 20
116.8257147957
 30
0.0
  0
SPLINE
  5
44D
100
AcDbEntity
  8
1
100
AcDbSpline
 62
7
  6
BYLAYER
 70
0
 71
3
 72
23
 73
19
 74
0
 42
0.0000001
 43
0.0000001
 44
0.0000000001
 40
0.0
 40
0.0
 40
0.0
 40
0.0
 40
0.0665865148
 40
0.1384328823
 40
0.2140582407
 40
0.29165208
 40
0.3692459616
 40
0.4448714436
 40
0.5167180057
 40
0.5833047683
 40
0.6436841549
 40
0.6976983546
 40
0.7462806503
 40
0.7916527825
 40
0.8370248425
 40
0.8856069458
 40
0.9396208866
 40
1.0
 40
1.0
 40
1.0
 40
1.0
 10
88.8654459396
 20
117.7442721744
 30
0.0
 10
89.5552417253
 20
118.1425235798
 30
0.0
 10
91.0636053422
 20
118.8449160817
 30
0.0
 10
93.5198951585
 20
119.5914890362
 30
0.0
 10
96.1792280653
 20
120.0510354566
 30
0.0
 10
98.9416902965
 20
120.2060927057
 30
0.0
 10
101.7042159038
 20
120.0510293742
 30
0.0
 10
104.3633794265
 20
119.591587735
 30
0.0
 10
106.8202756361
 20
118.8447028516
 30
0.0
 10
108.9845637087
 20
117.8370423168
 30
0.0
 10
110.7777516961
 20
116.6022785789
 30
0.0
 10
112.1335283569
 20
115.1772000696
 30
0.0
 10
112.9914016445
 20
113.6000433591
 30
0.0
 10
113.2885055079
 20
111.92687466
 30
0.0
 10
112.9914437864
 20
110.2537198401
 30
0.0
 10
112.1334976113
 20
108.6765037002
 30
0.0
 10
110.7781643954
 20
107.2516492767
 30
0.0
 10
109.6435639898
 20
106.4705358449
 30
0.0
 10
109.0180731063
 20
106.1094106706
 30
0.0
  0
SPLINE
  5
44E
100
AcDbEntity
  8
1
100
AcDbSpline
 62
7
  6
BYLAYER
 70
0
 71
3
 72
23
 73
19
 74
0
 42
0.0000001
 43
0.0000001
 44
0.0000000001
 40
0.0
 40
0.0
 40
0.0
 40
0.0
 40
0.0665865148
 40
0.1384328823
 40
0.2140582407
 40
0.29165208
 40
0.3692459616
 40
0.4448714436
 40
0.5167180057
 40
0.5833047683
 40
0.6436841549
 40
0.6976983546
 40
0.7462806503
 40
0.7916527825
 40
0.8370248425
 40
0.8856069458
 40
0.9396208866
 40
1.0
 40
1.0
 40
1.0
 40
1.0
 10
109.0180731063
 20
106.1094106706
 30
0.0
 10
108.3282773206
 20
105.7111592653
 30
0.0
 10
106.8199137038
 20
105.0087667634
 30
0.0
 10
104.3636238875
 20
104.2621938089
 30
0.0
 10
101.7042909806
 20
103.8026473884
 30
0.0
 10
98.9418287495
 20
103.6475901393
 30
0.0
 10
96.1793031422
 20
103.8026534708
 30
0.0
 10
93.5201396194
 20
104.26209511
 30
0.0
 10
91.0632434099
 20
105.0089799934
 30
0.0
 10
88.8989553373
 20
106.0166405282
 30
0.0
 10
87.1057673498
 20
107.2514042661
 30
0.0
 10
85.7499906891
 20
108.6764827755
 30
0.0
 10
84.8921174014
 20
110.253639486
 30
0.0
 10
84.595013538
 20
111.9268081851
 30
0.0
 10
84.8920752595
 20
113.5999630049
 30
0.0
 10
85.7500214347
 20
115.1771791448
 30
0.0
 10
87.1053546505
 20
116.6020335684
 30
0.0
 10
88.2399550562
 20
117.3831470001
 30
0.0
 10
88.8654459396
 20
117.7442721744
 30
0.0
  0
SPLINE
  5
44F
100
AcDbEntity
  8
1
100
AcDbSpline
 62
7
  6
BYLAYER
 70
0
 71
3
 72
22
 73
18
 74
0
 42
0.0000001
 43
0.0000001
 44
0.0000000001
 40
0.0
 40
0.0
 40
0.0
 40
0.0
 40
0.0641752221
 40
0.1211439605
 40
0.1721928752
 40
0.2202624986
 40
0.2693602452
 40
0.3231042509
 40
0.3836150428
 40
0.4514112044
 40
0.5257824342
 40
0.6051814786
 40
0.6875345228
 40
0.7704917895
 40
0.8516495985
 40
0.9287672532
 40
1.0
 40
1.0
 40
1.0
 40
1.0
 10
89.3957782335
 20
116.8257147957
 30
0.0
 10
88.7660917783
 20
116.4621673214
 30
0.0
 10
87.6306675059
 20
115.6724790925
 30
0.0
 10
86.3032221667
 20
114.2153006815
 30
0.0
 10
85.5197873772
 20
112.5951386134
 30
0.0
 10
85.3572110562
 20
110.8846631834
 30
0.0
 10
85.8384956657
 20
109.2064914469
 30
0.0
 10
86.9037214788
 20
107.6618207869
 30
0.0
 10
88.4768800017
 20
106.3016421601
 30
0.0
 10
90.4868007387
 20
105.1663801275
 30
0.0
 10
92.8511198204
 20
104.2958610875
 30
0.0
 10
95.472323615
 20
103.7241126028
 30
0.0
 10
98.2404859784
 20
103.4747156482
 30
0.0
 10
101.0383314699
 20
103.5581247591
 30
0.0
 10
103.7475327197
 20
103.9709900035
 30
0.0
 10
106.2526637163
 20
104.6954450944
 30
0.0
 10
107.7888060161
 20
105.3996866396
 30
0.0
 10
108.4877408125
 20
105.8032144236
 30
0.0
  0
SPLINE
  5
450
100
AcDbEntity
  8
1
100
AcDbSpline
 62
7
  6
BYLAYER
 70
0
 71
3
 72
23
 73
19
 74
0
 42
0.0000001
 43
0.0000001
 44
0.0000000001
 40
0.0
 40
0.0
 40
0.0
 40
0.0
 40
0.0666388612
 40
0.1385996073
 40
0.2142959881
 40
0.2914241069
 40
0.3690438202
 40
0.4448322494
 40
0.5166986212
 40
0.5831364415
 40
0.643327244
 40
0.697213521
 40
0.7457512827
 40
0.7910779899
 40
0.8362253136
 40
0.8849715983
 40
0.9392912762
 40
1.0
 40
1.0
 40
1.0
 40
1.0
 10
109.1948505376
 20
110.9063649848
 30
0.0
 10
108.4924017807
 20
110.5008084267
 30
0.0
 10
106.9556697455
 20
109.7853330374
 30
0.0
 10
104.4533355157
 20
109.0253409781
 30
0.0
 10
101.7505549438
 20
108.5591793006
 30
0.0
 10
98.9442086966
 20
108.4016617769
 30
0.0
 10
96.1365338429
 20
108.5583816702
 30
0.0
 10
93.4280953016
 20
109.025790909
 30
0.0
 10
90.9276540703
 20
109.7857628741
 30
0.0
 10
88.7287620224
 20
110.8090227692
 30
0.0
 10
86.9079585732
 20
112.060788724
 30
0.0
 10
85.5290652778
 20
113.505119798
 30
0.0
 10
84.6526958907
 20
115.1047501341
 30
0.0
 10
84.3440039969
 20
116.8019933286
 30
0.0
 10
84.6370075255
 20
118.5045373578
 30
0.0
 10
85.5047901249
 20
120.1162318773
 30
0.0
 10
86.8880603168
 20
121.5760984474
 30
0.0
 10
88.0487300872
 20
122.3758804515
 30
0.0
 10
88.6886685084
 20
122.7453468658
 30
0.0
  0
SPLINE
  5
451
100
AcDbEntity
  8
1
100
AcDbSpline
 62
7
  6
BYLAYER
 70
0
 71
3
 72
23
 73
19
 74
0
 42
0.0000001
 43
0.0000001
 44
0.0000000001
 40
0.0
 40
0.0
 40
0.0
 40
0.0
 40
0.0666388612
 40
0.1385996073
 40
0.2142959881
 40
0.2914241069
 40
0.3690438202
 40
0.4448322494
 40
0.5166986212
 40
0.5831364415
 40
0.643327244
 40
0.697213521
 40
0.7457512827
 40
0.7910779899
 40
0.8362253136
 40
0.8849715983
 40
0.9392912762
 40
1.0
 40
1.0
 40
1.0
 40
1.0
 10
88.6886685084
 20
122.7453468658
 30
0.0
 10
89.3911172653
 20
123.1509034239
 30
0.0
 10
90.9278493005
 20
123.8663788132
 30
0.0
 10
93.4301835303
 20
124.6263708725
 30
0.0
 10
96.1329641022
 20
125.09253255
 30
0.0
 10
98.9393103494
 20
125.2500500737
 30
0.0
 10
101.746985203
 20
125.0933301804
 30
0.0
 10
104.4554237444
 20
124.6259209416
 30
0.0
 10
106.9558649756
 20
123.8659489765
 30
0.0
 10
109.1547570236
 20
122.8426890814
 30
0.0
 10
110.9755604728
 20
121.5909231266
 30
0.0
 10
112.3544537681
 20
120.1465920526
 30
0.0
 10
113.2308231553
 20
118.5469617164
 30
0.0
 10
113.5395150491
 20
116.8497185219
 30
0.0
 10
113.2465115205
 20
115.1471744928
 30
0.0
 10
112.3787289211
 20
113.5354799733
 30
0.0
 10
110.9954587292
 20
112.0756134032
 30
0.0
 10
109.8347889588
 20
111.2758313991
 30
0.0
 10
109.1948505376
 20
110.9063649848
 30
0.0
  0
SPLINE
  5
452
100
AcDbEntity
  8
1
100
AcDbSpline
 62
7
  6
BYLAYER
 70
0
 71
3
 72
23
 73
19
 74
0
 42
0.0000001
 43
0.0000001
 44
0.0000000001
 40
0.0
 40
0.0
 40
0.0
 40
0.0
 40
0.0604386578
 40
0.114524303
 40
0.163133427
 40
0.2082227548
 40
0.2535879086
 40
0.3022578186
 40
0.35628078
 40
0.4165094283
 40
0.4828336515
 40
0.5544109331
 40
0.6298588814
 40
0.7073107849
 40
0.7845739351
 40
0.8606144846
 40
0.9329936453
 40
1.0
 40
1.0
 40
1.0
 40
1.0
 10
88.8654459396
 20
122.6432866772
 30
0.0
 10
88.2393382796
 20
122.2818054089
 30
0.0
 10
87.1034838601
 20
121.499695233
 30
0.0
 10
85.7473196861
 20
120.0729080222
 30
0.0
 10
84.8917899999
 20
118.4967826739
 30
0.0
 10
84.5956708102
 20
116.8271716984
 30
0.0
 10
84.8906749459
 20
115.1561080334
 30
0.0
 10
85.7483620331
 20
113.5774597379
 30
0.0
 10
87.1034522482
 20
112.1526339631
 30
0.0
 10
88.8921227906
 20
110.919985265
 30
0.0
 10
91.0481681584
 20
109.9141583824
 30
0.0
 10
93.4960815677
 20
109.1670941441
 30
0.0
 10
96.1476879099
 20
108.7054743614
 30
0.0
 10
98.9022012251
 20
108.5469613314
 30
0.0
 10
101.6641702429
 20
108.6971518509
 30
0.0
 10
104.3316937226
 20
109.1530665254
 30
0.0
 10
106.8047218778
 20
109.9012217312
 30
0.0
 10
108.3239281093
 20
110.6076627647
 30
0.0
 10
109.0180731063
 20
111.0084251734
 30
0.0
  0
SPLINE
  5
453
100
AcDbEntity
  8
1
100
AcDbSpline
 62
7
  6
BYLAYER
 70
0
 71
3
 72
23
 73
19
 74
0
 42
0.0000001
 43
0.0000001
 44
0.0000000001
 40
0.0
 40
0.0
 40
0.0
 40
0.0
 40
0.0604386578
 40
0.114524303
 40
0.163133427
 40
0.2082227548
 40
0.2535879086
 40
0.3022578186
 40
0.35628078
 40
0.4165094283
 40
0.4828336515
 40
0.5544109331
 40
0.6298588814
 40
0.7073107849
 40
0.7845739351
 40
0.8606144846
 40
0.9329936453
 40
1.0
 40
1.0
 40
1.0
 40
1.0
 10
109.0180731063
 20
111.0084251734
 30
0.0
 10
109.6441807664
 20
111.3699064417
 30
0.0
 10
110.7800351859
 20
112.1520166176
 30
0.0
 10
112.1361993599
 20
113.5788038283
 30
0.0
 10
112.9917290461
 20
115.1549291767
 30
0.0
 10
113.2878482358
 20
116.8245401522
 30
0.0
 10
112.9928441
 20
118.4956038172
 30
0.0
 10
112.1351570129
 20
120.0742521127
 30
0.0
 10
110.7800667978
 20
121.4990778875
 30
0.0
 10
108.9913962553
 20
122.7317265856
 30
0.0
 10
106.8353508876
 20
123.7375534682
 30
0.0
 10
104.3874374782
 20
124.4846177065
 30
0.0
 10
101.735831136
 20
124.9462374892
 30
0.0
 10
98.9813178209
 20
125.1047505191
 30
0.0
 10
96.2193488031
 20
124.9545599997
 30
0.0
 10
93.5518253234
 20
124.4986453252
 30
0.0
 10
91.0787971681
 20
123.7504901194
 30
0.0
 10
89.5595909367
 20
123.0440490859
 30
0.0
 10
88.8654459396
 20
122.6432866772
 30
0.0
  0
SPLINE
  5
454
100
AcDbEntity
  8
1
100
AcDbSpline
 62
7
  6
BYLAYER
 70
0
 71
3
 72
24
 73
20
 74
0
 42
0.0000001
 43
0.0000001
 44
0.0000000001
 40
0.0
 40
0.0
 40
0.0
 40
0.0
 40
0.0624371612
 40
0.1297136779
 40
0.2004477938
 40
0.2728606272
 40
0.3463466561
 40
0.4186004415
 40
0.4879198993
 40
0.5529146292
 40
0.6126296994
 40
0.6666410677
 40
0.71523729
 40
0.759638188
 40
0.8020191128
 40
0.8448268172
 40
0.8912131438
 40
0.9427513797
 40
1.0
 40
1.0
 40
1.0
 40
1.0
 10
114.3213960449
 20
129.6247586893
 30
0.0
 10
113.3339761267
 20
129.0546749366
 30
0.0
 10
111.1828432472
 20
128.0389621511
 30
0.0
 10
107.6855701566
 20
126.9291823343
 30
0.0
 10
103.9031107501
 20
126.2057680361
 30
0.0
 10
99.9523518135
 20
125.8898097162
 30
0.0
 10
95.9624405629
 20
125.9933826966
 30
0.0
 10
92.062253858
 20
126.5166566787
 30
0.0
 10
88.3959001957
 20
127.4407603681
 30
0.0
 10
85.0855665242
 20
128.7333723405
 30
0.0
 10
82.2364956865
 20
130.3526694924
 30
0.0
 10
79.9370807429
 20
132.2518966235
 30
0.0
 10
78.263121596
 20
134.3831553444
 30
0.0
 10
77.288734694
 20
136.6936608842
 30
0.0
 10
77.0866725924
 20
139.0939249643
 30
0.0
 10
77.6738249431
 20
141.4642935727
 30
0.0
 10
79.0029176874
 20
143.699890927
 30
0.0
 10
81.006328537
 20
145.7338894339
 30
0.0
 10
82.6567578805
 20
146.860521835
 30
0.0
 10
83.562123001
 20
147.3832315109
 30
0.0
  0
SPLINE
  5
455
100
AcDbEntity
  8
1
100
AcDbSpline
 62
7
  6
BYLAYER
 70
0
 71
3
 72
24
 73
20
 74
0
 42
0.0000001
 43
0.0000001
 44
0.0000000001
 40
0.0
 40
0.0
 40
0.0
 40
0.0
 40
0.0624371612
 40
0.1297136779
 40
0.2004477938
 40
0.2728606272
 40
0.3463466561
 40
0.4186004415
 40
0.4879198993
 40
0.5529146292
 40
0.6126296994
 40
0.6666410677
 40
0.71523729
 40
0.759638188
 40
0.8020191128
 40
0.8448268172
 40
0.8912131438
 40
0.9427513797
 40
1.0
 40
1.0
 40
1.0
 40
1.0
 10
83.562123001
 20
147.3832315109
 30
0.0
 10
84.5495429193
 20
147.9533152636
 30
0.0
 10
86.7006757988
 20
148.9690280491
 30
0.0
 10
90.1979488894
 20
150.0788078659
 30
0.0
 10
93.9804082958
 20
150.8022221641
 30
0.0
 10
97.9311672325
 20
151.118180484
 30
0.0
 10
101.9210784831
 20
151.0146075036
 30
0.0
 10
105.8212651879
 20
150.4913335215
 30
0.0
 10
109.4876188503
 20
149.5672298321
 30
0.0
 10
112.7979525218
 20
148.2746178597
 30
0.0
 10
115.6470233595
 20
146.6553207077
 30
0.0
 10
117.9464383031
 20
144.7560935767
 30
0.0
 10
119.62039745
 20
142.6248348558
 30
0.0
 10
120.5947843519
 20
140.314329316
 30
0.0
 10
120.7968464536
 20
137.9140652359
 30
0.0
 10
120.2096941029
 20
135.5436966275
 30
0.0
 10
118.8806013586
 20
133.3080992732
 30
0.0
 10
116.8771905089
 20
131.2741007663
 30
0.0
 10
115.2267611654
 20
130.1474683652
 30
0.0
 10
114.3213960449
 20
129.6247586893
 30
0.0
  0
SPLINE
  5
456
100
AcDbEntity
  8
1
100
AcDbSpline
 62
7
  6
BYLAYER
 70
0
 71
3
 72
17
 73
13
 74
0
 42
0.0000001
 43
0.0000001
 44
0.0000000001
 40
0.0
 40
0.0
 40
0.0
 40
0.0
 40
0.094267562
 40
0.1727264464
 40
0.2438068991
 40
0.3214674895
 40
0.414612115
 40
0.5234241006
 40
0.6429380538
 40
0.7671284181
 40
0.8891634927
 40
1.0
 40
1.0
 40
1.0
 40
1.0
 10
83.7389004323
 20
147.2811713223
 30
0.0
 10
83.5543303638
 20
147.1746103796
 30
0.0
 10
83.2360154944
 20
146.9366807206
 30
0.0
 10
82.9385090795
 20
146.4480629798
 30
0.0
 10
82.9399137026
 20
145.9070862525
 30
0.0
 10
83.2356894206
 20
145.423032428
 30
0.0
 10
83.7480810066
 20
145.0369516755
 30
0.0
 10
84.4272655361
 20
144.7611060334
 30
0.0
 10
85.2154991617
 20
144.6154235599
 30
0.0
 10
86.0468238934
 20
144.6120416313
 30
0.0
 10
86.8458773798
 20
144.7535940398
 30
0.0
 10
87.3402819073
 20
144.9513806129
 30
0.0
 10
87.5572929481
 20
145.0766712479
 30
0.0
  0
SPLINE
  5
457
100
AcDbEntity
  8
1
100
AcDbSpline
 62
7
  6
BYLAYER
 70
0
 71
3
 72
17
 73
13
 74
0
 42
0.0000001
 43
0.0000001
 44
0.0000000001
 40
0.0
 40
0.0
 40
0.0
 40
0.0
 40
0.094267562
 40
0.1727264464
 40
0.2438068991
 40
0.3214674895
 40
0.414612115
 40
0.5234241006
 40
0.6429380538
 40
0.7671284181
 40
0.8891634927
 40
1.0
 40
1.0
 40
1.0
 40
1.0
 10
87.5572929481
 20
145.0766712479
 30
0.0
 10
87.7418630166
 20
145.1832321905
 30
0.0
 10
88.060177886
 20
145.4211618495
 30
0.0
 10
88.357684301
 20
145.9097795904
 30
0.0
 10
88.3562796778
 20
146.4507563176
 30
0.0
 10
88.0605039598
 20
146.9348101421
 30
0.0
 10
87.5481123739
 20
147.3208908946
 30
0.0
 10
86.8689278444
 20
147.5967365367
 30
0.0
 10
86.0806942188
 20
147.7424190103
 30
0.0
 10
85.2493694871
 20
147.7458009388
 30
0.0
 10
84.4503160006
 20
147.6042485304
 30
0.0
 10
83.9559114732
 20
147.4064619573
 30
0.0
 10
83.7389004323
 20
147.2811713223
 30
0.0
  0
SPLINE
  5
458
100
AcDbEntity
  8
1
100
AcDbSpline
 62
7
  6
BYLAYER
 70
0
 71
3
 72
17
 73
13
 74
0
 42
0.0000001
 43
0.0000001
 44
0.0000000001
 40
0.0
 40
0.0
 40
0.0
 40
0.0
 40
0.094267562
 40
0.1727264464
 40
0.2438068991
 40
0.3214674895
 40
0.414612115
 40
0.5234241006
 40
0.6429380538
 40
0.7671284181
 40
0.8891634927
 40
1.0
 40
1.0
 40
1.0
 40
1.0
 10
110.3262260979
 20
131.9313189523
 30
0.0
 10
110.1416560293
 20
131.8247580096
 30
0.0
 10
109.8233411599
 20
131.5868283507
 30
0.0
 10
109.525834745
 20
131.0982106098
 30
0.0
 10
109.5272393682
 20
130.5572338825
 30
0.0
 10
109.8230150861
 20
130.073180058
 30
0.0
 10
110.3354066721
 20
129.6870993056
 30
0.0
 10
111.0145912016
 20
129.4112536634
 30
0.0
 10
111.8028248272
 20
129.2655711899
 30
0.0
 10
112.6341495589
 20
129.2621892614
 30
0.0
 10
113.4332030453
 20
129.4037416698
 30
0.0
 10
113.9276075728
 20
129.6015282429
 30
0.0
 10
114.1446186136
 20
129.7268188779
 30
0.0
  0
SPLINE
  5
459
100
AcDbEntity
  8
1
100
AcDbSpline
 62
7
  6
BYLAYER
 70
0
 71
3
 72
17
 73
13
 74
0
 42
0.0000001
 43
0.0000001
 44
0.0000000001
 40
0.0
 40
0.0
 40
0.0
 40
0.0
 40
0.094267562
 40
0.1727264464
 40
0.2438068991
 40
0.3214674895
 40
0.414612115
 40
0.5234241006
 40
0.6429380538
 40
0.7671284181
 40
0.8891634927
 40
1.0
 40
1.0
 40
1.0
 40
1.0
 10
114.1446186136
 20
129.7268188779
 30
0.0
 10
114.3291886822
 20
129.8333798206
 30
0.0
 10
114.6475035516
 20
130.0713094795
 30
0.0
 10
114.9450099665
 20
130.5599272204
 30
0.0
 10
114.9436053433
 20
131.1009039477
 30
0.0
 10
114.6478296254
 20
131.5849577722
 30
0.0
 10
114.1354380394
 20
131.9710385247
 30
0.0
 10
113.4562535099
 20
132.2468841668
 30
0.0
 10
112.6680198843
 20
132.3925666403
 30
0.0
 10
111.8366951526
 20
132.3959485688
 30
0.0
 10
111.0376416662
 20
132.2543961604
 30
0.0
 10
110.5432371387
 20
132.0566095873
 30
0.0
 10
110.3262260979
 20
131.9313189523
 30
0.0
  0
SPLINE
  5
45A
100
AcDbEntity
  8
1
100
AcDbSpline
 62
7
  6
BYLAYER
 70
0
 71
3
 72
23
 73
19
 74
0
 42
0.0000001
 43
0.0000001
 44
0.0000000001
 40
0.0
 40
0.0
 40
0.0
 40
0.0
 40
0.0603691537
 40
0.1144559884
 40
0.1630636605
 40
0.208198581
 40
0.2536449802
 40
0.3023449896
 40
0.3563821043
 40
0.4166184448
 40
0.4829454942
 40
0.5545223965
 40
0.6299778149
 40
0.7075059716
 40
0.7847697245
 40
0.8607353302
 40
0.9330697612
 40
1.0
 40
1.0
 40
1.0
 40
1.0
 10
87.7398958529
 20
144.9712477966
 30
0.0
 10
87.0446513592
 20
144.5698505971
 30
0.0
 10
85.7826234556
 20
143.7010261867
 30
0.0
 10
84.2751609955
 20
142.1159934563
 30
0.0
 10
83.3230597143
 20
140.3637035793
 30
0.0
 10
82.9928640878
 20
138.5059776561
 30
0.0
 10
83.3214843731
 20
136.6460695305
 30
0.0
 10
84.2765858015
 20
134.8900297177
 30
0.0
 10
85.7841578242
 20
133.3061700141
 30
0.0
 10
87.7733314616
 20
131.936295533
 30
0.0
 10
90.1706088608
 20
130.8186688465
 30
0.0
 10
92.8922502166
 20
129.9886755921
 30
0.0
 10
95.8412313084
 20
129.4758386646
 30
0.0
 10
98.9046044724
 20
129.3002596606
 30
0.0
 10
101.9750695502
 20
129.4681024148
 30
0.0
 10
104.938854995
 20
129.975419703
 30
0.0
 10
107.6854716642
 20
130.8068921381
 30
0.0
 10
109.3728176212
 20
131.5917202555
 30
0.0
 10
110.1436231931
 20
132.0367424035
 30
0.0
  0
SPLINE
  5
45B
100
AcDbEntity
  8
1
100
AcDbSpline
 62
7
  6
BYLAYER
 70
0
 71
3
 72
23
 73
19
 74
0
 42
0.0000001
 43
0.0000001
 44
0.0000000001
 40
0.0
 40
0.0
 40
0.0
 40
0.0
 40
0.0603691537
 40
0.1144559884
 40
0.1630636605
 40
0.208198581
 40
0.2536449802
 40
0.3023449896
 40
0.3563821043
 40
0.4166184448
 40
0.4829454942
 40
0.5545223965
 40
0.6299778149
 40
0.7075059716
 40
0.7847697245
 40
0.8607353302
 40
0.9330697612
 40
1.0
 40
1.0
 40
1.0
 40
1.0
 10
110.1436231931
 20
132.0367424035
 30
0.0
 10
110.8388676868
 20
132.4381396031
 30
0.0
 10
112.1008955904
 20
133.3069640135
 30
0.0
 10
113.6083580504
 20
134.8919967439
 30
0.0
 10
114.5604593316
 20
136.6442866209
 30
0.0
 10
114.8906549582
 20
138.502012544
 30
0.0
 10
114.5620346728
 20
140.3619206697
 30
0.0
 10
113.6069332445
 20
142.1179604825
 30
0.0
 10
112.0993612218
 20
143.7018201861
 30
0.0
 10
110.1101875843
 20
145.0716946672
 30
0.0
 10
107.7129101851
 20
146.1893213537
 30
0.0
 10
104.9912688293
 20
147.019314608
 30
0.0
 10
102.0422877375
 20
147.5321515355
 30
0.0
 10
98.9789145736
 20
147.7077305396
 30
0.0
 10
95.9084494957
 20
147.5398877854
 30
0.0
 10
92.944664051
 20
147.0325704971
 30
0.0
 10
90.1980473818
 20
146.2010980621
 30
0.0
 10
88.5107014247
 20
145.4162699446
 30
0.0
 10
87.7398958529
 20
144.9712477966
 30
0.0
  0
SPLINE
  5
45C
100
AcDbEntity
  8
1
100
AcDbSpline
 62
7
  6
BYLAYER
 70
0
 71
3
 72
17
 73
13
 74
0
 42
0.0000001
 43
0.0000001
 44
0.0000000001
 40
0.0
 40
0.0
 40
0.0
 40
0.0
 40
0.110312148
 40
0.2310693617
 40
0.3541890513
 40
0.4736183958
 40
0.5828531175
 40
0.6763665156
 40
0.754509784
 40
0.8262172775
 40
0.905344694
 40
1.0
 40
1.0
 40
1.0
 40
1.0
 10
36.3952142068
 20
118.0695806473
 30
0.0
 10
36.1995860959
 20
118.1825240347
 30
0.0
 10
35.7553958595
 20
118.360553199
 30
0.0
 10
35.037797364
 20
118.4890926699
 30
0.0
 10
34.2898946043
 20
118.4885395104
 30
0.0
 10
33.5769001629
 20
118.360112714
 30
0.0
 10
32.9589789552
 20
118.1132776651
 30
0.0
 10
32.4902848609
 20
117.7656967055
 30
0.0
 10
32.2157115164
 20
117.3279760357
 30
0.0
 10
32.2088075046
 20
116.8337662036
 30
0.0
 10
32.4787542373
 20
116.386611365
 30
0.0
 10
32.7687884063
 20
116.1697030225
 30
0.0
 10
32.9366505957
 20
116.0727899347
 30
0.0
  0
SPLINE
  5
45D
100
AcDbEntity
  8
1
100
AcDbSpline
 62
7
  6
BYLAYER
 70
0
 71
3
 72
17
 73
13
 74
0
 42
0.0000001
 43
0.0000001
 44
0.0000000001
 40
0.0
 40
0.0
 40
0.0
 40
0.0
 40
0.110312148
 40
0.2310693617
 40
0.3541890513
 40
0.4736183958
 40
0.5828531175
 40
0.6763665156
 40
0.754509784
 40
0.8262172775
 40
0.905344694
 40
1.0
 40
1.0
 40
1.0
 40
1.0
 10
32.9366505957
 20
116.0727899347
 30
0.0
 10
33.1322787066
 20
115.9598465473
 30
0.0
 10
33.576468943
 20
115.781817383
 30
0.0
 10
34.2940674385
 20
115.6532779121
 30
0.0
 10
35.0419701982
 20
115.6538310716
 30
0.0
 10
35.7549646396
 20
115.7822578679
 30
0.0
 10
36.3728858473
 20
116.0290929169
 30
0.0
 10
36.8415799416
 20
116.3766738765
 30
0.0
 10
37.1161532861
 20
116.8143945462
 30
0.0
 10
37.1230572979
 20
117.3086043784
 30
0.0
 10
36.8531105652
 20
117.755759217
 30
0.0
 10
36.5630763962
 20
117.9726675595
 30
0.0
 10
36.3952142068
 20
118.0695806473
 30
0.0
  0
SPLINE
  5
45E
100
AcDbEntity
  8
1
100
AcDbSpline
 62
7
  6
BYLAYER
 70
0
 71
3
 72
10
 73
6
 74
0
 42
0.0000001
 43
0.0000001
 44
0.0000000001
 40
0.0
 40
0.0
 40
0.0
 40
0.0
 40
0.2927149127
 40
0.6200021943
 40
1.0
 40
1.0
 40
1.0
 40
1.0
 10
52.4336647316
 20
104.8314705815
 30
0.0
 10
52.4325095028
 20
104.6547553187
 30
0.0
 10
52.5225802208
 20
104.2763518682
 30
0.0
 10
52.8939835041
 20
103.7855370053
 30
0.0
 10
53.2441591912
 20
103.5320281101
 30
0.0
 10
53.4428385129
 20
103.4173231452
 30
0.0
  0
SPLINE
  5
45F
100
AcDbEntity
  8
1
100
AcDbSpline
 62
7
  6
BYLAYER
 70
0
 71
3
 72
10
 73
6
 74
0
 42
0.0000001
 43
0.0000001
 44
0.0000000001
 40
0.0
 40
0.0
 40
0.0
 40
0.0
 40
0.3085383925
 40
0.6464511325
 40
1.0
 40
1.0
 40
1.0
 40
1.0
 10
58.3156097984
 20
106.2306021656
 30
0.0
 10
58.0891755473
 20
106.3613310839
 30
0.0
 10
57.5816459166
 20
106.5792011706
 30
0.0
 10
56.7529763124
 20
106.7713215045
 30
0.0
 10
56.1657956026
 20
106.813883098
 30
0.0
 10
55.8661911698
 20
106.8132288151
 30
0.0
  0
SPLINE
  5
460
100
AcDbEntity
  8
1
100
AcDbSpline
 62
7
  6
BYLAYER
 70
0
 71
3
 72
10
 73
6
 74
0
 42
0.0000001
 43
0.0000001
 44
0.0000000001
 40
0.0
 40
0.0
 40
0.0
 40
0.0
 40
0.2927149127
 40
0.6200021943
 40
1.0
 40
1.0
 40
1.0
 40
1.0
 10
59.3247835797
 20
104.8164547293
 30
0.0
 10
59.3259388085
 20
104.9931699921
 30
0.0
 10
59.2358680905
 20
105.3715734425
 30
0.0
 10
58.8644648072
 20
105.8623883054
 30
0.0
 10
58.5142891201
 20
106.1158972007
 30
0.0
 10
58.3156097984
 20
106.2306021656
 30
0.0
  0
SPLINE
  5
461
100
AcDbEntity
  8
1
100
AcDbSpline
 62
7
  6
BYLAYER
 70
0
 71
3
 72
10
 73
6
 74
0
 42
0.0000001
 43
0.0000001
 44
0.0000000001
 40
0.0
 40
0.0
 40
0.0
 40
0.0
 40
0.3085383925
 40
0.6464511325
 40
1.0
 40
1.0
 40
1.0
 40
1.0
 10
53.4428385129
 20
103.4173231452
 30
0.0
 10
53.669272764
 20
103.2865942269
 30
0.0
 10
54.1768023947
 20
103.0687241402
 30
0.0
 10
55.0054719989
 20
102.8766038063
 30
0.0
 10
55.5926527087
 20
102.8340422127
 30
0.0
 10
55.8922571415
 20
102.8346964957
 30
0.0
  0
SPLINE
  5
462
100
AcDbEntity
  8
1
100
AcDbSpline
 62
7
  6
BYLAYER
 70
0
 71
3
 72
10
 73
6
 74
0
 42
0.0000001
 43
0.0000001
 44
0.0000000001
 40
0.0
 40
0.0
 40
0.0
 40
0.0
 40
0.2964102748
 40
0.627264027
 40
1.0
 40
1.0
 40
1.0
 40
1.0
 10
139.1883356015
 20
179.8218975665
 30
0.0
 10
139.2447627695
 20
179.6147916537
 30
0.0
 10
139.4455261893
 20
179.1968459241
 30
0.0
 10
139.9379629067
 20
178.6563127583
 30
0.0
 10
140.3594430849
 20
178.3629245909
 30
0.0
 10
140.5932098115
 20
178.2279623616
 30
0.0
  0
SPLINE
  5
463
100
AcDbEntity
  8
1
100
AcDbSpline
 62
7
  6
BYLAYER
 70
0
 71
3
 72
11
 73
7
 74
0
 42
0.0000001
 43
0.0000001
 44
0.0000000001
 40
0.0
 40
0.0
 40
0.0
 40
0.0
 40
0.227806045
 40
0.4749828485
 40
0.7350084886
 40
1.0
 40
1.0
 40
1.0
 40
1.0
 10
145.7841778238
 20
181.2249512512
 30
0.0
 10
145.5764598398
 20
181.3448745722
 30
0.0
 10
145.1183936382
 20
181.5526870803
 30
0.0
 10
144.3707933152
 20
181.761672304
 30
0.0
 10
143.563319418
 20
181.8739757759
 30
0.0
 10
143.008889483
 20
181.8808611538
 30
0.0
 10
142.7302414839
 20
181.8668056747
 30
0.0
  0
SPLINE
  5
464
100
AcDbEntity
  8
1
100
AcDbSpline
 62
7
  6
BYLAYER
 70
0
 71
3
 72
11
 73
7
 74
0
 42
0.0000001
 43
0.0000001
 44
0.0000000001
 40
0.0
 40
0.0
 40
0.0
 40
0.0
 40
0.218881996
 40
0.4497256323
 40
0.7078173365
 40
1.0
 40
1.0
 40
1.0
 40
1.0
 10
146.895943619
 20
179.4617908343
 30
0.0
 10
146.9200584944
 20
179.6211596456
 30
0.0
 10
146.9064623778
 20
179.9616242164
 30
0.0
 10
146.6908202652
 20
180.4471303534
 30
0.0
 10
146.3052225228
 20
180.8830670948
 30
0.0
 10
145.9705137544
 20
181.1173725853
 30
0.0
 10
145.7841778238
 20
181.2249512512
 30
0.0
  0
SPLINE
  5
465
100
AcDbEntity
  8
1
100
AcDbSpline
 62
7
  6
BYLAYER
 70
0
 71
3
 72
10
 73
6
 74
0
 42
0.0000001
 43
0.0000001
 44
0.0000000001
 40
0.0
 40
0.0
 40
0.0
 40
0.0
 40
0.3103410179
 40
0.646392564
 40
1.0
 40
1.0
 40
1.0
 40
1.0
 10
140.5932098115
 20
178.2279623616
 30
0.0
 10
140.8527300293
 20
178.0781316837
 30
0.0
 10
141.4232539909
 20
177.8167046706
 30
0.0
 10
142.3534922455
 20
177.548037727
 30
0.0
 10
143.0139923194
 20
177.4477625952
 30
0.0
 10
143.3540377366
 20
177.4168827261
 30
0.0
  0
SPLINE
  5
466
100
AcDbEntity
  8
1
100
AcDbSpline
 62
7
  6
BYLAYER
 70
0
 71
3
 72
16
 73
12
 74
0
 42
0.0000001
 43
0.0000001
 44
0.0000000001
 40
0.0
 40
0.0
 40
0.0
 40
0.0
 40
0.1297271958
 40
0.2471396865
 40
0.3535423066
 40
0.45212983
 40
0.547862113
 40
0.6464501969
 40
0.75285415
 40
0.8702690506
 40
1.0
 40
1.0
 40
1.0
 40
1.0
 10
114.3213960449
 20
133.0540688412
 30
0.0
 10
115.1766384859
 20
133.5478403473
 30
0.0
 10
116.7428604918
 20
134.6077180053
 30
0.0
 10
118.6769494602
 20
136.5040015923
 30
0.0
 10
120.0221695797
 20
138.586156184
 30
0.0
 10
120.7183446597
 20
140.8005909817
 30
0.0
 10
120.7183506034
 20
143.0659867052
 30
0.0
 10
120.0221794802
 20
145.2804386537
 30
0.0
 10
118.6769423549
 20
147.3626224972
 30
0.0
 10
116.7428065614
 20
149.2589411976
 30
0.0
 10
115.1765387302
 20
150.318835973
 30
0.0
 10
114.3212679824
 20
150.8126155987
 30
0.0
  0
SPLINE
  5
467
100
AcDbEntity
  8
1
100
AcDbSpline
 62
7
  6
BYLAYER
 70
0
 71
3
 72
24
 73
20
 74
0
 42
0.0000001
 43
0.0000001
 44
0.0000000001
 40
0.0
 40
0.0
 40
0.0
 40
0.0
 40
0.0569472476
 40
0.1083334694
 40
0.1546973051
 40
0.1975778135
 40
0.2401213187
 40
0.2847547175
 40
0.3335991434
 40
0.387785983
 40
0.4475416549
 40
0.512395791
 40
0.5813876147
 40
0.6532440553
 40
0.726437065
 40
0.7987757061
 40
0.8696388528
 40
0.9371999286
 40
1.0
 40
1.0
 40
1.0
 40
1.0
 10
83.562123001
 20
150.8125416628
 30
0.0
 10
82.6615264887
 20
150.2925851277
 30
0.0
 10
81.0176693429
 20
149.1713632457
 30
0.0
 10
79.0175053146
 20
147.1468051829
 30
0.0
 10
77.6835555572
 20
144.9165744659
 30
0.0
 10
77.0877197743
 20
142.5443030209
 30
0.0
 10
77.2845381244
 20
140.1345005098
 30
0.0
 10
78.2620535817
 20
137.811903956
 30
0.0
 10
79.9450630425
 20
135.6721082479
 30
0.0
 10
82.2533759652
 20
133.7702262224
 30
0.0
 10
85.1054676364
 20
132.1535528089
 30
0.0
 10
88.4094267651
 20
130.8663880895
 30
0.0
 10
92.0605397911
 20
129.9470560926
 30
0.0
 10
95.9419990403
 20
129.4249836384
 30
0.0
 10
99.9177738493
 20
129.318575822
 30
0.0
 10
103.8644946694
 20
129.629899375
 30
0.0
 10
107.6538809242
 20
130.3501505235
 30
0.0
 10
111.1657998278
 20
131.4608607127
 30
0.0
 10
113.3282396113
 20
132.4806731296
 30
0.0
 10
114.3213960449
 20
133.0540688412
 30
0.0
  0
SPLINE
  5
468
100
AcDbEntity
  8
1
100
AcDbSpline
 62
7
  6
BYLAYER
 70
0
 71
3
 72
16
 73
12
 74
0
 42
0.0000001
 43
0.0000001
 44
0.0000000001
 40
0.0
 40
0.0
 40
0.0
 40
0.0
 40
0.1011618368
 40
0.2095271885
 40
0.3234105477
 40
0.440743095
 40
0.5592503051
 40
0.676583641
 40
0.7904684847
 40
0.8988358462
 40
1.0
 40
1.0
 40
1.0
 40
1.0
 10
114.3212679824
 20
150.8126155987
 30
0.0
 10
113.3881056355
 20
151.3513649428
 30
0.0
 10
111.3664360773
 20
152.316939706
 30
0.0
 10
108.0870894164
 20
153.3959000299
 30
0.0
 10
104.5385145481
 20
154.1327843213
 30
0.0
 10
100.8258279984
 20
154.5064293222
 30
0.0
 10
97.057746137
 20
154.506432469
 30
0.0
 10
93.3450348686
 20
154.1327901918
 30
0.0
 10
89.7964147179
 20
153.3958982356
 30
0.0
 10
86.5170102993
 20
152.3169141041
 30
0.0
 10
84.4953028358
 20
151.3513100756
 30
0.0
 10
83.562123001
 20
150.8125416628
 30
0.0
  0
SPLINE
  5
469
100
AcDbEntity
  8
1
100
AcDbSpline
 62
7
  6
BYLAYER
 70
0
 71
3
 72
21
 73
17
 74
0
 42
0.0000001
 43
0.0000001
 44
0.0000000001
 40
0.0
 40
0.0
 40
0.0
 40
0.0
 40
0.0685270236
 40
0.1287828885
 40
0.182543671
 40
0.2334892939
 40
0.287224507
 40
0.3474814428
 40
0.4158602817
 40
0.4922459606
 40
0.5752615272
 40
0.6625845129
 40
0.7512136509
 40
0.8391989869
 40
0.9230238396
 40
1.0
 40
1.0
 40
1.0
 40
1.0
 10
48.0671458761
 20
124.8495005864
 30
0.0
 10
48.0671458761
 20
124.3176585812
 30
0.0
 10
47.9769970823
 20
123.3133539724
 30
0.0
 10
47.5072940868
 20
121.9578746011
 30
0.0
 10
46.7116184458
 20
120.919346342
 30
0.0
 10
45.6195966692
 20
120.2859293069
 30
0.0
 10
44.3231215796
 20
120.1114953516
 30
0.0
 10
42.9145254259
 20
120.3790244786
 30
0.0
 10
41.4585925178
 20
121.0502584394
 30
0.0
 10
40.0153353814
 20
122.0859838692
 30
0.0
 10
38.6481569012
 20
123.4363028684
 30
0.0
 10
37.4216776737
 20
125.0359630374
 30
0.0
 10
36.3911816571
 20
126.8126706834
 30
0.0
 10
35.6078023477
 20
128.6826244275
 30
0.0
 10
35.112288784
 20
130.5552440852
 30
0.0
 10
34.9856159609
 20
131.8045383243
 30
0.0
 10
34.9856159609
 20
132.4019545451
 30
0.0
  0
SPLINE
  5
46A
100
AcDbEntity
  8
1
100
AcDbSpline
 62
7
  6
BYLAYER
 70
0
 71
3
 72
21
 73
17
 74
0
 42
0.0000001
 43
0.0000001
 44
0.0000000001
 40
0.0
 40
0.0
 40
0.0
 40
0.0
 40
0.0685270236
 40
0.1287828885
 40
0.182543671
 40
0.2334892939
 40
0.287224507
 40
0.3474814428
 40
0.4158602817
 40
0.4922459606
 40
0.5752615272
 40
0.6625845129
 40
0.7512136509
 40
0.8391989869
 40
0.9230238396
 40
1.0
 40
1.0
 40
1.0
 40
1.0
 10
34.9856159609
 20
132.4019545451
 30
0.0
 10
34.9856159609
 20
132.9337965503
 30
0.0
 10
35.0757647547
 20
133.9381011591
 30
0.0
 10
35.5454677503
 20
135.2935805304
 30
0.0
 10
36.3411433913
 20
136.3321087896
 30
0.0
 10
37.4331651678
 20
136.9655258246
 30
0.0
 10
38.7296402575
 20
137.13995978
 30
0.0
 10
40.1382364112
 20
136.8724306529
 30
0.0
 10
41.5941693193
 20
136.2011966921
 30
0.0
 10
43.0374264557
 20
135.1654712623
 30
0.0
 10
44.4046049359
 20
133.8151522631
 30
0.0
 10
45.6310841634
 20
132.2154920941
 30
0.0
 10
46.6615801799
 20
130.4387844481
 30
0.0
 10
47.4449594894
 20
128.568830704
 30
0.0
 10
47.940473053
 20
126.6962110463
 30
0.0
 10
48.0671458761
 20
125.4469168072
 30
0.0
 10
48.0671458761
 20
124.8495005864
 30
0.0
  0
SPLINE
  5
46B
100
AcDbEntity
  8
1
100
AcDbSpline
 62
7
  6
BYLAYER
 70
0
 71
3
 72
21
 73
17
 74
0
 42
0.0000001
 43
0.0000001
 44
0.0000000001
 40
0.0
 40
0.0
 40
0.0
 40
0.0
 40
0.07663415
 40
0.1598324789
 40
0.2471757013
 40
0.3354157853
 40
0.4228204077
 40
0.5061640648
 40
0.5827823846
 40
0.651247109
 40
0.7115150022
 40
0.7653486557
 40
0.8165201607
 40
0.8705798514
 40
0.9311985363
 40
1.0
 40
1.0
 40
1.0
 40
1.0
 10
78.1515841372
 20
131.6876340084
 30
0.0
 10
78.1515841372
 20
131.0928776731
 30
0.0
 10
78.0262254051
 20
129.8511206757
 30
0.0
 10
77.5361853459
 20
127.9901263526
 30
0.0
 10
76.7614989035
 20
126.1306207967
 30
0.0
 10
75.7393609402
 20
124.3576945664
 30
0.0
 10
74.5175639321
 20
122.7542964525
 30
0.0
 10
73.1510479926
 20
121.3962259556
 30
0.0
 10
71.7072092608
 20
120.3527816436
 30
0.0
 10
70.2518312607
 20
119.6745519897
 30
0.0
 10
68.843645992
 20
119.3986246252
 30
0.0
 10
67.5434372913
 20
119.5627143704
 30
0.0
 10
66.4415729757
 20
120.1895608348
 30
0.0
 10
65.6359041118
 20
121.2300111204
 30
0.0
 10
65.1611078437
 20
122.5918537771
 30
0.0
 10
65.0701631488
 20
123.6011501712
 30
0.0
 10
65.0701631488
 20
124.1351171618
 30
0.0
  0
SPLINE
  5
46C
100
AcDbEntity
  8
1
100
AcDbSpline
 62
7
  6
BYLAYER
 70
0
 71
3
 72
21
 73
17
 74
0
 42
0.0000001
 43
0.0000001
 44
0.0000000001
 40
0.0
 40
0.0
 40
0.0
 40
0.0
 40
0.07663415
 40
0.1598324789
 40
0.2471757013
 40
0.3354157853
 40
0.4228204077
 40
0.5061640648
 40
0.5827823846
 40
0.651247109
 40
0.7115150022
 40
0.7653486557
 40
0.8165201607
 40
0.8705798514
 40
0.9311985363
 40
1.0
 40
1.0
 40
1.0
 40
1.0
 10
65.0701631488
 20
124.1351171618
 30
0.0
 10
65.0701631488
 20
124.7298734971
 30
0.0
 10
65.1955218809
 20
125.9716304945
 30
0.0
 10
65.6855619401
 20
127.8326248176
 30
0.0
 10
66.4602483825
 20
129.6921303735
 30
0.0
 10
67.4823863458
 20
131.4650566038
 30
0.0
 10
68.7041833539
 20
133.0684547178
 30
0.0
 10
70.0706992934
 20
134.4265252146
 30
0.0
 10
71.5145380252
 20
135.4699695266
 30
0.0
 10
72.9699160254
 20
136.1481991805
 30
0.0
 10
74.378101294
 20
136.424126545
 30
0.0
 10
75.6783099947
 20
136.2600367998
 30
0.0
 10
76.7801743104
 20
135.6331903354
 30
0.0
 10
77.5858431742
 20
134.5927400498
 30
0.0
 10
78.0606394424
 20
133.2308973931
 30
0.0
 10
78.1515841372
 20
132.221600999
 30
0.0
 10
78.1515841372
 20
131.6876340084
 30
0.0
  0
SPLINE
  5
46D
100
AcDbEntity
  8
1
100
AcDbSpline
 62
7
  6
BYLAYER
 70
0
 71
3
 72
11
 73
7
 74
0
 42
0.0000001
 43
0.0000001
 44
0.0000000001
 40
0.0
 40
0.0
 40
0.0
 40
0.0
 40
0.2948509944
 40
0.5469950024
 40
0.7726036779
 40
1.0
 40
1.0
 40
1.0
 40
1.0
 10
161.7205820425
 20
210.493247141
 30
0.0
 10
162.0091526193
 20
210.3266446098
 30
0.0
 10
162.5161151136
 20
209.9599101781
 30
0.0
 10
163.0533620589
 20
209.2492259957
 30
0.0
 10
163.2481482953
 20
208.4489935514
 30
0.0
 10
163.1208743397
 20
207.9317288458
 30
0.0
 10
163.0119374881
 20
207.6989808555
 30
0.0
  0
SPLINE
  5
46E
100
AcDbEntity
  8
1
100
AcDbSpline
 62
7
  6
BYLAYER
 70
0
 71
3
 72
11
 73
7
 74
0
 42
0.0000001
 43
0.0000001
 44
0.0000000001
 40
0.0
 40
0.0
 40
0.0
 40
0.0
 40
0.2620182388
 40
0.5223094175
 40
0.771099883
 40
1.0
 40
1.0
 40
1.0
 40
1.0
 10
156.8587543447
 20
211.2353242499
 30
0.0
 10
157.2900996504
 20
211.3038377686
 30
0.0
 10
158.1621714646
 20
211.371314053
 30
0.0
 10
159.4488867471
 20
211.2783262029
 30
0.0
 10
160.6522597782
 20
211.0002559963
 30
0.0
 10
161.3901492615
 20
210.6840182802
 30
0.0
 10
161.7205820425
 20
210.493247141
 30
0.0
  0
SPLINE
  5
46F
100
AcDbEntity
  8
1
100
AcDbSpline
 62
7
  6
BYLAYER
 70
0
 71
3
 72
11
 73
7
 74
0
 42
0.0000001
 43
0.0000001
 44
0.0000000001
 40
0.0
 40
0.0
 40
0.0
 40
0.0
 40
0.228900117
 40
0.4776905825
 40
0.7379817612
 40
1.0
 40
1.0
 40
1.0
 40
1.0
 10
141.3059658348
 20
209.3706944625
 30
0.0
 10
141.4381389473
 20
209.2943860068
 30
0.0
 10
141.7332947406
 20
209.1678909203
 30
0.0
 10
142.214643953
 20
209.0566628377
 30
0.0
 10
142.729330066
 20
209.0194676977
 30
0.0
 10
143.0781587917
 20
209.0464582114
 30
0.0
 10
143.250696914
 20
209.0738636189
 30
0.0
  0
SPLINE
  5
470
100
AcDbEntity
  8
1
100
AcDbSpline
 62
7
  6
BYLAYER
 70
0
 71
3
 72
11
 73
7
 74
0
 42
0.0000001
 43
0.0000001
 44
0.0000000001
 40
0.0
 40
0.0
 40
0.0
 40
0.0
 40
0.2273963221
 40
0.4530049976
 40
0.7051490056
 40
1.0
 40
1.0
 40
1.0
 40
1.0
 10
159.3122629907
 20
199.7944766299
 30
0.0
 10
159.26868825
 20
199.7013774338
 30
0.0
 10
159.2177786678
 20
199.4944715515
 30
0.0
 10
159.2956931624
 20
199.1743785738
 30
0.0
 10
159.5105919405
 20
198.8901049008
 30
0.0
 10
159.7133769382
 20
198.7434111281
 30
0.0
 10
159.8288051689
 20
198.6767701157
 30
0.0
  0
SPLINE
  5
471
100
AcDbEntity
  8
1
100
AcDbSpline
 62
7
  6
BYLAYER
 70
0
 71
3
 72
11
 73
7
 74
0
 42
0.0000001
 43
0.0000001
 44
0.0000000001
 40
0.0
 40
0.0
 40
0.0
 40
0.0
 40
0.2921826635
 40
0.5502743677
 40
0.781118004
 40
1.0
 40
1.0
 40
1.0
 40
1.0
 10
145.7841778238
 20
213.5584469696
 30
0.0
 10
145.9705137544
 20
213.4508683036
 30
0.0
 10
146.3052225228
 20
213.2165628132
 30
0.0
 10
146.6908202652
 20
212.7806260717
 30
0.0
 10
146.9064623778
 20
212.2951199347
 30
0.0
 10
146.9200584944
 20
211.954655364
 30
0.0
 10
146.895943619
 20
211.7952865527
 30
0.0
  0
SPLINE
  5
472
100
AcDbEntity
  8
1
100
AcDbSpline
 62
7
  6
BYLAYER
 70
0
 71
3
 72
11
 73
7
 74
0
 42
0.0000001
 43
0.0000001
 44
0.0000000001
 40
0.0
 40
0.0
 40
0.0
 40
0.0
 40
0.2649915114
 40
0.5250171515
 40
0.772193955
 40
1.0
 40
1.0
 40
1.0
 40
1.0
 10
142.7302414839
 20
214.200301393
 30
0.0
 10
143.008889483
 20
214.2143568721
 30
0.0
 10
143.563319418
 20
214.2074714943
 30
0.0
 10
144.3707933152
 20
214.0951680223
 30
0.0
 10
145.1183936382
 20
213.8861827987
 30
0.0
 10
145.5764598398
 20
213.6783702905
 30
0.0
 10
145.7841778238
 20
213.5584469696
 30
0.0
  0
SPLINE
  5
473
100
AcDbEntity
  8
1
100
AcDbSpline
 62
7
  6
BYLAYER
 70
0
 71
3
 72
10
 73
6
 74
0
 42
0.0000001
 43
0.0000001
 44
0.0000000001
 40
0.0
 40
0.0
 40
0.0
 40
0.0
 40
0.372735973
 40
0.7035897252
 40
1.0
 40
1.0
 40
1.0
 40
1.0
 10
140.5932098115
 20
210.5614580799
 30
0.0
 10
140.3594430849
 20
210.6964203092
 30
0.0
 10
139.9379629067
 20
210.9898084766
 30
0.0
 10
139.4455261893
 20
211.5303416424
 30
0.0
 10
139.2447627695
 20
211.948287372
 30
0.0
 10
139.1883356015
 20
212.1553932848
 30
0.0
  0
SPLINE
  5
474
100
AcDbEntity
  8
1
100
AcDbSpline
 62
7
  6
BYLAYER
 70
0
 71
3
 72
10
 73
6
 74
0
 42
0.0000001
 43
0.0000001
 44
0.0000000001
 40
0.0
 40
0.0
 40
0.0
 40
0.0
 40
0.353607436
 40
0.6896589821
 40
1.0
 40
1.0
 40
1.0
 40
1.0
 10
143.3540377366
 20
209.7503784444
 30
0.0
 10
143.0139923194
 20
209.7812583136
 30
0.0
 10
142.3534922455
 20
209.8815334453
 30
0.0
 10
141.4232539909
 20
210.1502003889
 30
0.0
 10
140.8527300293
 20
210.411627402
 30
0.0
 10
140.5932098115
 20
210.5614580799
 30
0.0
  0
SPLINE
  5
475
100
AcDbEntity
  8
1
100
AcDbSpline
 62
7
  6
BYLAYER
 70
0
 71
3
 72
13
 73
9
 74
0
 42
0.0000001
 43
0.0000001
 44
0.0000000001
 40
0.0
 40
0.0
 40
0.0
 40
0.0
 40
0.1547319493
 40
0.3235817725
 40
0.4999874465
 40
0.6763964153
 40
0.8452553237
 40
1.0
 40
1.0
 40
1.0
 40
1.0
 10
53.5104018286
 20
147.525186043
 30
0.0
 10
53.7727119246
 20
147.6766299435
 30
0.0
 10
54.3594203114
 20
147.9286873481
 30
0.0
 10
55.3164806583
 20
148.1513669167
 30
0.0
 10
56.3387593103
 20
148.227229215
 30
0.0
 10
57.3610576578
 20
148.1513900024
 30
0.0
 10
58.3181709942
 20
147.9287199
 30
0.0
 10
58.9049233144
 20
147.6766541057
 30
0.0
 10
59.167256078
 20
147.5251996404
 30
0.0
  0
SPLINE
  5
476
100
AcDbEntity
  8
1
100
AcDbSpline
 62
7
  6
BYLAYER
 70
0
 71
3
 72
13
 73
9
 74
0
 42
0.0000001
 43
0.0000001
 44
0.0000000001
 40
0.0
 40
0.0
 40
0.0
 40
0.0
 40
0.1904203033
 40
0.3539528018
 40
0.4999913715
 40
0.646030613
 40
0.809567433
 40
1.0
 40
1.0
 40
1.0
 40
1.0
 10
38.1750996828
 20
159.6447526051
 30
0.0
 10
38.4053202722
 20
159.5118376928
 30
0.0
 10
38.81059592
 20
159.2187569401
 30
0.0
 10
39.2406277474
 20
158.6512536919
 30
0.0
 10
39.3966756093
 20
158.0118277058
 30
0.0
 10
39.2406731646
 20
157.3723824925
 30
0.0
 10
38.8106490466
 20
156.8048390573
 30
0.0
 10
38.4053576924
 20
156.5117381043
 30
0.0
 10
38.1751232346
 20
156.3788129715
 30
0.0
  0
SPLINE
  5
477
100
AcDbEntity
  8
1
100
AcDbSpline
 62
7
  6
BYLAYER
 70
0
 71
3
 72
11
 73
7
 74
0
 42
0.0000001
 43
0.0000001
 44
0.0000000001
 40
0.0
 40
0.0
 40
0.0
 40
0.0
 40
0.2620182388
 40
0.5223094175
 40
0.771099883
 40
1.0
 40
1.0
 40
1.0
 40
1.0
 10
143.250696914
 20
217.4155993676
 30
0.0
 10
143.0781587917
 20
217.3881939602
 30
0.0
 10
142.729330066
 20
217.3612034464
 30
0.0
 10
142.214643953
 20
217.3983985864
 30
0.0
 10
141.7332947406
 20
217.5096266691
 30
0.0
 10
141.4381389473
 20
217.6361217555
 30
0.0
 10
141.3059658348
 20
217.7124302112
 30
0.0
  0
SPLINE
  5
478
100
AcDbEntity
  8
1
100
AcDbSpline
 62
7
  6
BYLAYER
 70
0
 71
3
 72
11
 73
7
 74
0
 42
0.0000001
 43
0.0000001
 44
0.0000000001
 40
0.0
 40
0.0
 40
0.0
 40
0.0
 40
0.228900117
 40
0.4776905825
 40
0.7379817612
 40
1.0
 40
1.0
 40
1.0
 40
1.0
 10
161.7205820425
 20
218.8349828897
 30
0.0
 10
161.3901492615
 20
219.025754029
 30
0.0
 10
160.6522597782
 20
219.341991745
 30
0.0
 10
159.4488867471
 20
219.6200619517
 30
0.0
 10
158.1621714646
 20
219.7130498017
 30
0.0
 10
157.2900996504
 20
219.6455735173
 30
0.0
 10
156.8587543447
 20
219.5770599987
 30
0.0
  0
SPLINE
  5
479
100
AcDbEntity
  8
1
100
AcDbSpline
 62
7
  6
BYLAYER
 70
0
 71
3
 72
11
 73
7
 74
0
 42
0.0000001
 43
0.0000001
 44
0.0000000001
 40
0.0
 40
0.0
 40
0.0
 40
0.0
 40
0.2273963221
 40
0.4530049976
 40
0.7051490056
 40
1.0
 40
1.0
 40
1.0
 40
1.0
 10
163.0119374881
 20
216.0407166042
 30
0.0
 10
163.1208743397
 20
216.2734645945
 30
0.0
 10
163.2481482953
 20
216.7907293002
 30
0.0
 10
163.0533620589
 20
217.5909617445
 30
0.0
 10
162.5161151136
 20
218.3016459268
 30
0.0
 10
162.0091526193
 20
218.6683803586
 30
0.0
 10
161.7205820425
 20
218.8349828897
 30
0.0
  0
SPLINE
  5
47A
100
AcDbEntity
  8
1
100
AcDbSpline
 62
7
  6
BYLAYER
 70
0
 71
3
 72
11
 73
7
 74
0
 42
0.0000001
 43
0.0000001
 44
0.0000000001
 40
0.0
 40
0.0
 40
0.0
 40
0.0
 40
0.2948509944
 40
0.5469950024
 40
0.7726036779
 40
1.0
 40
1.0
 40
1.0
 40
1.0
 10
159.8288051689
 20
207.0185058644
 30
0.0
 10
159.7133769382
 20
207.0851468769
 30
0.0
 10
159.5105919405
 20
207.2318406496
 30
0.0
 10
159.2956931624
 20
207.5161143225
 30
0.0
 10
159.2177786678
 20
207.8362073002
 30
0.0
 10
159.26868825
 20
208.0431131825
 30
0.0
 10
159.3122629907
 20
208.1362123786
 30
0.0
  0
SPLINE
  5
47B
100
AcDbEntity
  8
1
100
AcDbSpline
 62
7
  6
BYLAYER
 70
0
 71
3
 72
22
 73
18
 74
0
 42
0.0000001
 43
0.0000001
 44
0.0000000001
 40
0.0
 40
0.0
 40
0.0
 40
0.0
 40
0.0641884431
 40
0.1212108197
 40
0.1722518611
 40
0.220019862
 40
0.2691177855
 40
0.3229188212
 40
0.3833616879
 40
0.4509273152
 40
0.5250215588
 40
0.6042255663
 40
0.6864727779
 40
0.7691159432
 40
0.850707395
 40
0.928394618
 40
1.0
 40
1.0
 40
1.0
 40
1.0
 10
151.974547314
 20
213.2268482595
 30
0.0
 10
152.5460498575
 20
212.8968985766
 30
0.0
 10
153.5769004394
 20
212.1799223762
 30
0.0
 10
154.7817043661
 20
210.8570149816
 30
0.0
 10
155.490824855
 20
209.3889355062
 30
0.0
 10
155.6390919753
 20
207.8406709298
 30
0.0
 10
155.2058165287
 20
206.3194799734
 30
0.0
 10
154.2407825473
 20
204.9167346242
 30
0.0
 10
152.8162230504
 20
203.6829454665
 30
0.0
 10
150.9986652349
 20
202.6538903425
 30
0.0
 10
148.8610984994
 20
201.86376011
 30
0.0
 10
146.4891703342
 20
201.3428360396
 30
0.0
 10
143.9839699467
 20
201.1133464989
 30
0.0
 10
141.4449762588
 20
201.1845584339
 30
0.0
 10
138.9788737078
 20
201.5558226277
 30
0.0
 10
136.6911821409
 20
202.2143477897
 30
0.0
 10
135.2880426462
 20
202.8567913048
 30
0.0
 10
134.6505033023
 20
203.2248664896
 30
0.0
  0
SPLINE
  5
47C
100
AcDbEntity
  8
1
100
AcDbSpline
 62
7
  6
BYLAYER
 70
0
 71
3
 72
22
 73
18
 74
0
 42
0.0000001
 43
0.0000001
 44
0.0000000001
 40
0.0
 40
0.0
 40
0.0
 40
0.0
 40
0.0641884431
 40
0.1212108197
 40
0.1722518611
 40
0.220019862
 40
0.2691177855
 40
0.3229188212
 40
0.3833616879
 40
0.4509273152
 40
0.5250215588
 40
0.6042255663
 40
0.6864727779
 40
0.7691159432
 40
0.850707395
 40
0.928394618
 40
1.0
 40
1.0
 40
1.0
 40
1.0
 10
134.6505033023
 20
203.2248664896
 30
0.0
 10
134.0790007588
 20
203.5548161725
 30
0.0
 10
133.0481501769
 20
204.2717923729
 30
0.0
 10
131.8433462502
 20
205.5946997675
 30
0.0
 10
131.1342257613
 20
207.0627792428
 30
0.0
 10
130.985958641
 20
208.6110438193
 30
0.0
 10
131.4192340876
 20
210.1322347757
 30
0.0
 10
132.384268069
 20
211.5349801249
 30
0.0
 10
133.8088275659
 20
212.7687692826
 30
0.0
 10
135.6263853814
 20
213.7978244066
 30
0.0
 10
137.7639521169
 20
214.5879546391
 30
0.0
 10
140.1358802821
 20
215.1088787095
 30
0.0
 10
142.6410806696
 20
215.3383682502
 30
0.0
 10
145.1800743575
 20
215.2671563152
 30
0.0
 10
147.6461769085
 20
214.8958921214
 30
0.0
 10
149.9338684754
 20
214.2373669594
 30
0.0
 10
151.3370079701
 20
213.5949234443
 30
0.0
 10
151.974547314
 20
213.2268482595
 30
0.0
  0
SPLINE
  5
47D
100
AcDbEntity
  8
1
100
AcDbSpline
 62
7
  6
BYLAYER
 70
0
 71
3
 72
13
 73
9
 74
0
 42
0.0000001
 43
0.0000001
 44
0.0000000001
 40
0.0
 40
0.0
 40
0.0
 40
0.0
 40
0.1904194235
 40
0.3539511777
 40
0.4999894436
 40
0.6460289887
 40
0.8095665531
 40
1.0
 40
1.0
 40
1.0
 40
1.0
 10
38.1751232346
 20
148.0370772228
 30
0.0
 10
38.4053418018
 20
148.1699931812
 30
0.0
 10
38.81061334
 20
148.4630758829
 30
0.0
 10
39.2406374188
 20
149.0305819666
 30
0.0
 10
39.3966756099
 20
149.6700094081
 30
0.0
 10
39.2406634941
 20
150.3094531662
 30
0.0
 10
38.810631627
 20
150.8769937659
 30
0.0
 10
38.405336163
 20
151.1700927697
 30
0.0
 10
38.1750996828
 20
151.3030168564
 30
0.0
  0
SPLINE
  5
47E
100
AcDbEntity
  8
1
100
AcDbSpline
 62
7
  6
BYLAYER
 70
0
 71
3
 72
17
 73
13
 74
0
 42
0.0000001
 43
0.0000001
 44
0.0000000001
 40
0.0
 40
0.0
 40
0.0
 40
0.0
 40
0.0942680037
 40
0.1727272088
 40
0.2438076597
 40
0.3214679321
 40
0.4146121205
 40
0.5234237305
 40
0.6429374716
 40
0.7671278307
 40
0.8891631138
 40
1.0
 40
1.0
 40
1.0
 40
1.0
 10
32.9366505957
 20
148.406285653
 30
0.0
 10
32.7694707459
 20
148.5028048008
 30
0.0
 10
32.4811472298
 20
148.7183133499
 30
0.0
 10
32.2116681181
 20
149.1608872395
 30
0.0
 10
32.2129326109
 20
149.6508887478
 30
0.0
 10
32.4808318204
 20
150.089333345
 30
0.0
 10
32.9449371563
 20
150.439036855
 30
0.0
 10
33.5601199695
 20
150.6888929881
 30
0.0
 10
34.2740779677
 20
150.8208513937
 30
0.0
 10
35.027068463
 20
150.8239181571
 30
0.0
 10
35.7508304042
 20
150.6957073318
 30
0.0
 10
36.1986502269
 20
150.516560065
 30
0.0
 10
36.3952142068
 20
150.4030763656
 30
0.0
  0
SPLINE
  5
47F
100
AcDbEntity
  8
1
100
AcDbSpline
 62
7
  6
BYLAYER
 70
0
 71
3
 72
17
 73
13
 74
0
 42
0.0000001
 43
0.0000001
 44
0.0000000001
 40
0.0
 40
0.0
 40
0.0
 40
0.0
 40
0.0942680037
 40
0.1727272088
 40
0.2438076597
 40
0.3214679321
 40
0.4146121205
 40
0.5234237305
 40
0.6429374716
 40
0.7671278307
 40
0.8891631138
 40
1.0
 40
1.0
 40
1.0
 40
1.0
 10
36.3952142068
 20
150.4030763656
 30
0.0
 10
36.5623940566
 20
150.3065572179
 30
0.0
 10
36.8507175727
 20
150.0910486688
 30
0.0
 10
37.1201966844
 20
149.6484747792
 30
0.0
 10
37.1189321916
 20
149.1584732708
 30
0.0
 10
36.8510329821
 20
148.7200286737
 30
0.0
 10
36.3869276462
 20
148.3703251636
 30
0.0
 10
35.771744833
 20
148.1204690306
 30
0.0
 10
35.0577868348
 20
147.9885106249
 30
0.0
 10
34.3047963395
 20
147.9854438615
 30
0.0
 10
33.5810343983
 20
148.1136546868
 30
0.0
 10
33.1332145756
 20
148.2928019536
 30
0.0
 10
32.9366505957
 20
148.406285653
 30
0.0
  0
SPLINE
  5
480
100
AcDbEntity
  8
1
100
AcDbSpline
 62
7
  6
BYLAYER
 70
0
 71
3
 72
21
 73
17
 74
0
 42
0.0000001
 43
0.0000001
 44
0.0000000001
 40
0.0
 40
0.0
 40
0.0
 40
0.0
 40
0.0685271575
 40
0.1287830216
 40
0.1825436416
 40
0.2334889698
 40
0.2872238435
 40
0.3474804924
 40
0.4158591514
 40
0.4922447718
 40
0.575260395
 40
0.6625835342
 40
0.751212896
 40
0.8391984969
 40
0.923023616
 40
1.0
 40
1.0
 40
1.0
 40
1.0
 10
33.7481083035
 20
142.2185048574
 30
0.0
 10
33.7481083035
 20
141.6866631608
 30
0.0
 10
33.8382561064
 20
140.6823601224
 30
0.0
 10
34.3079544978
 20
139.3268834366
 30
0.0
 10
35.103623018
 20
138.2883582914
 30
0.0
 10
36.1956367832
 20
137.6549453065
 30
0.0
 10
37.492102581
 20
137.4805175956
 30
0.0
 10
38.9006874079
 20
137.7480540469
 30
0.0
 10
40.3566079849
 20
138.4192952956
 30
0.0
 10
41.7998527632
 20
139.4550277254
 30
0.0
 10
43.1670195425
 20
140.8053532249
 30
0.0
 10
44.3934882927
 20
142.4050191418
 30
0.0
 10
45.4239755159
 20
144.1817315391
 30
0.0
 10
46.2073481339
 20
146.0516887645
 30
0.0
 10
46.7028574618
 20
147.9243104141
 30
0.0
 10
46.829529292
 20
149.1736052614
 30
0.0
 10
46.829529292
 20
149.771021704
 30
0.0
  0
SPLINE
  5
481
100
AcDbEntity
  8
1
100
AcDbSpline
 62
7
  6
BYLAYER
 70
0
 71
3
 72
21
 73
17
 74
0
 42
0.0000001
 43
0.0000001
 44
0.0000000001
 40
0.0
 40
0.0
 40
0.0
 40
0.0
 40
0.0685271575
 40
0.1287830216
 40
0.1825436416
 40
0.2334889698
 40
0.2872238435
 40
0.3474804924
 40
0.4158591514
 40
0.4922447718
 40
0.575260395
 40
0.6625835342
 40
0.751212896
 40
0.8391984969
 40
0.923023616
 40
1.0
 40
1.0
 40
1.0
 40
1.0
 10
46.829529292
 20
149.771021704
 30
0.0
 10
46.829529292
 20
150.3028634005
 30
0.0
 10
46.7393814891
 20
151.307166439
 30
0.0
 10
46.2696830978
 20
152.6626431248
 30
0.0
 10
45.4740145776
 20
153.7011682699
 30
0.0
 10
44.3820008124
 20
154.3345812549
 30
0.0
 10
43.0855350146
 20
154.5090089658
 30
0.0
 10
41.6769501876
 20
154.2414725144
 30
0.0
 10
40.2210296106
 20
153.5702312658
 30
0.0
 10
38.7777848323
 20
152.534498836
 30
0.0
 10
37.4106180531
 20
151.1841733365
 30
0.0
 10
36.1841493029
 20
149.5845074196
 30
0.0
 10
35.1536620796
 20
147.8077950222
 30
0.0
 10
34.3702894617
 20
145.9378377969
 30
0.0
 10
33.8747801338
 20
144.0652161473
 30
0.0
 10
33.7481083035
 20
142.8159213
 30
0.0
 10
33.7481083035
 20
142.2185048574
 30
0.0
  0
SPLINE
  5
482
100
AcDbEntity
  8
1
100
AcDbSpline
 62
7
  6
BYLAYER
 70
0
 71
3
 72
20
 73
16
 74
0
 42
0.0000001
 43
0.0000001
 44
0.0000000001
 40
0.0
 40
0.0
 40
0.0
 40
0.0
 40
0.0813465525
 40
0.1693102729
 40
0.2617678766
 40
0.3561784748
 40
0.4500142295
 40
0.5403805322
 40
0.6248401094
 40
0.7016592365
 40
0.7701002495
 40
0.8307867238
 40
0.8864335488
 40
0.9412960703
 40
1.0
 40
1.0
 40
1.0
 40
1.0
 10
151.974547314
 20
217.4184246137
 30
0.0
 10
151.3350042096
 20
217.787656644
 30
0.0
 10
149.9296483896
 20
218.4306264945
 30
0.0
 10
147.6391315885
 20
219.0890047497
 30
0.0
 10
145.1651498913
 20
219.4605281791
 30
0.0
 10
142.6117144189
 20
219.5298288308
 30
0.0
 10
140.0870954898
 20
219.2937450364
 30
0.0
 10
137.6996505767
 20
218.7617118887
 30
0.0
 10
135.5526948999
 20
217.9564024467
 30
0.0
 10
133.7357073019
 20
216.9100960582
 30
0.0
 10
132.32382155
 20
215.6602286608
 30
0.0
 10
131.3809162061
 20
214.2440067895
 30
0.0
 10
130.9766005659
 20
212.708386897
 30
0.0
 10
131.1638438859
 20
211.1486694915
 30
0.0
 10
131.6441910569
 20
210.2130264081
 30
0.0
 10
131.9490372255
 20
209.7759038645
 30
0.0
  0
SPLINE
  5
483
100
AcDbEntity
  8
1
100
AcDbSpline
 62
7
  6
BYLAYER
 70
0
 71
3
 72
20
 73
16
 74
0
 42
0.0000001
 43
0.0000001
 44
0.0000000001
 40
0.0
 40
0.0
 40
0.0
 40
0.0
 40
0.0951928956
 40
0.1925153665
 40
0.2891566152
 40
0.3823892273
 40
0.4699624755
 40
0.5498296215
 40
0.6210607059
 40
0.684242529
 40
0.7418547252
 40
0.7980806597
 40
0.8577984293
 40
0.9245632814
 40
1.0
 40
1.0
 40
1.0
 40
1.0
 10
138.7760553086
 20
205.8478259823
 30
0.0
 10
139.5929203397
 20
205.6598097973
 30
0.0
 10
141.2723179271
 20
205.391524862
 30
0.0
 10
143.8226183793
 20
205.2997430441
 30
0.0
 10
146.3489255959
 20
205.5127882056
 30
0.0
 10
148.7455055871
 20
206.0214043959
 30
0.0
 10
150.9119245418
 20
206.8048742992
 30
0.0
 10
152.7575930181
 20
207.8328323469
 30
0.0
 10
154.2045597518
 20
209.0678371185
 30
0.0
 10
155.1874619701
 20
210.4722307423
 30
0.0
 10
155.6370314824
 20
211.9990909763
 30
0.0
 10
155.4987257472
 20
213.5568395769
 30
0.0
 10
154.7923156569
 20
215.0342221487
 30
0.0
 10
153.585391766
 20
216.3652294588
 30
0.0
 10
152.54981655
 20
217.0863002791
 30
0.0
 10
151.974547314
 20
217.4184246137
 30
0.0
  0
SPLINE
  5
484
100
AcDbEntity
  8
1
100
AcDbSpline
 62
7
  6
BYLAYER
 70
0
 71
3
 72
10
 73
6
 74
0
 42
0.0000001
 43
0.0000001
 44
0.0000000001
 40
0.0
 40
0.0
 40
0.0
 40
0.0
 40
0.3156245167
 40
0.6499366565
 40
1.0
 40
1.0
 40
1.0
 40
1.0
 10
134.6505033023
 20
203.8243327934
 30
0.0
 10
135.0539471839
 20
203.5914096292
 30
0.0
 10
135.9141265411
 20
203.1615237729
 30
0.0
 10
137.2969910972
 20
202.6397436859
 30
0.0
 10
138.2725356325
 20
202.3716100453
 30
0.0
 10
138.7760553086
 20
202.2557159319
 30
0.0
  0
SPLINE
  5
485
100
AcDbEntity
  8
1
100
AcDbSpline
 62
7
  6
BYLAYER
 70
0
 71
3
 72
10
 73
6
 74
0
 42
0.0000001
 43
0.0000001
 44
0.0000000001
 40
0.0
 40
0.0
 40
0.0
 40
0.0
 40
0.3082682171
 40
0.6412819119
 40
1.0
 40
1.0
 40
1.0
 40
1.0
 10
131.9490372255
 20
206.1837938142
 30
0.0
 10
132.1613475657
 20
205.8793594945
 30
0.0
 10
132.663344189
 20
205.2869059473
 30
0.0
 10
133.5773795249
 20
204.497622861
 30
0.0
 10
134.276467845
 20
204.0402773801
 30
0.0
 10
134.6505033023
 20
203.8243327934
 30
0.0
  0
SPLINE
  5
486
100
AcDbEntity
  8
1
100
AcDbSpline
 62
7
  6
BYLAYER
 70
0
 71
3
 72
17
 73
13
 74
0
 42
0.0000001
 43
0.0000001
 44
0.0000000001
 40
0.0
 40
0.0
 40
0.0
 40
0.0
 40
0.0951888198
 40
0.1728679726
 40
0.2415448663
 40
0.3165407777
 40
0.4080236824
 40
0.5165503785
 40
0.6370011811
 40
0.7629946797
 40
0.8872276827
 40
1.0
 40
1.0
 40
1.0
 40
1.0
 10
53.0130607587
 20
162.3075038901
 30
0.0
 10
53.1492354647
 20
162.386123924
 30
0.0
 10
53.3825874693
 20
162.5580769779
 30
0.0
 10
53.6056313531
 20
162.9070839483
 30
0.0
 10
53.6067540801
 20
163.2941737868
 30
0.0
 10
53.3845434774
 20
163.6325786668
 30
0.0
 10
53.004407997
 20
163.8932754373
 30
0.0
 10
52.5018907917
 20
164.0732356609
 30
0.0
 10
51.9187131102
 20
164.1593444409
 30
0.0
 10
51.3035879886
 20
164.1444872435
 30
0.0
 10
50.7124815118
 20
164.0282662604
 30
0.0
 10
50.3462927583
 20
163.8788021189
 30
0.0
 10
50.1849635477
 20
163.7856592117
 30
0.0
  0
SPLINE
  5
487
100
AcDbEntity
  8
1
100
AcDbSpline
 62
7
  6
BYLAYER
 70
0
 71
3
 72
17
 73
13
 74
0
 42
0.0000001
 43
0.0000001
 44
0.0000000001
 40
0.0
 40
0.0
 40
0.0
 40
0.0
 40
0.0951888198
 40
0.1728679726
 40
0.2415448663
 40
0.3165407777
 40
0.4080236824
 40
0.5165503785
 40
0.6370011811
 40
0.7629946797
 40
0.8872276827
 40
1.0
 40
1.0
 40
1.0
 40
1.0
 10
50.1849635477
 20
163.7856592117
 30
0.0
 10
50.0487888417
 20
163.7070391778
 30
0.0
 10
49.8154368371
 20
163.5350861238
 30
0.0
 10
49.5923929533
 20
163.1860791534
 30
0.0
 10
49.5912702263
 20
162.7989893149
 30
0.0
 10
49.813480829
 20
162.4605844349
 30
0.0
 10
50.1936163095
 20
162.1998876644
 30
0.0
 10
50.6961335147
 20
162.0199274409
 30
0.0
 10
51.2793111962
 20
161.9338186608
 30
0.0
 10
51.8944363178
 20
161.9486758582
 30
0.0
 10
52.4855427946
 20
162.0648968413
 30
0.0
 10
52.8517315481
 20
162.2143609829
 30
0.0
 10
53.0130607587
 20
162.3075038901
 30
0.0
  0
SPLINE
  5
488
100
AcDbEntity
  8
1
100
AcDbSpline
 62
7
  6
BYLAYER
 70
0
 71
3
 72
17
 73
13
 74
0
 42
0.0000001
 43
0.0000001
 44
0.0000000001
 40
0.0
 40
0.0
 40
0.0
 40
0.0
 40
0.0950418652
 40
0.1724759238
 40
0.2409273946
 40
0.3156782164
 40
0.4069452037
 40
0.515428435
 40
0.6367486795
 40
0.7647282677
 40
0.8884338441
 40
1.0
 40
1.0
 40
1.0
 40
1.0
 10
56.9021318555
 20
164.5528467405
 30
0.0
 10
57.0380981631
 20
164.6313464562
 30
0.0
 10
57.2709422277
 20
164.8028928926
 30
0.0
 10
57.4937846247
 20
165.1505481575
 30
0.0
 10
57.4966680283
 20
165.5362333809
 30
0.0
 10
57.2767744747
 20
165.8748114023
 30
0.0
 10
56.8981161352
 20
166.1363269875
 30
0.0
 10
56.3950196151
 20
166.3177682925
 30
0.0
 10
55.8072403677
 20
166.4051263443
 30
0.0
 10
55.1881558745
 20
166.3895621163
 30
0.0
 10
54.5968861426
 20
166.2719930083
 30
0.0
 10
54.2336405085
 20
166.1231499919
 30
0.0
 10
54.0740346524
 20
166.031002058
 30
0.0
  0
SPLINE
  5
489
100
AcDbEntity
  8
1
100
AcDbSpline
 62
7
  6
BYLAYER
 70
0
 71
3
 72
17
 73
13
 74
0
 42
0.0000001
 43
0.0000001
 44
0.0000000001
 40
0.0
 40
0.0
 40
0.0
 40
0.0
 40
0.0951596685
 40
0.1727920703
 40
0.2414257621
 40
0.3163733797
 40
0.407893638
 40
0.5167721903
 40
0.6370511672
 40
0.7631762528
 40
0.8874399453
 40
1.0
 40
1.0
 40
1.0
 40
1.0
 10
54.0740346524
 20
166.031002058
 30
0.0
 10
53.9379014113
 20
165.9524059637
 30
0.0
 10
53.7046479756
 20
165.7805320342
 30
0.0
 10
53.4816413913
 20
165.4317873829
 30
0.0
 10
53.4801766788
 20
165.0449682846
 30
0.0
 10
53.7020129232
 20
164.7064166243
 30
0.0
 10
54.0825232845
 20
164.4452053043
 30
0.0
 10
54.5854407132
 20
164.2651962153
 30
0.0
 10
55.1691280697
 20
164.1791216815
 30
0.0
 10
55.7842457652
 20
164.1940749724
 30
0.0
 10
56.3752453996
 20
164.3104463121
 30
0.0
 10
56.7411060207
 20
164.4598789863
 30
0.0
 10
56.9021318555
 20
164.5528467405
 30
0.0
  0
SPLINE
  5
48A
100
AcDbEntity
  8
1
100
AcDbSpline
 62
7
  6
BYLAYER
 70
0
 71
3
 72
13
 73
9
 74
0
 42
0.0000001
 43
0.0000001
 44
0.0000000001
 40
0.0
 40
0.0
 40
0.0
 40
0.0
 40
0.1547325
 40
0.3235826898
 40
0.4999884917
 40
0.6763973326
 40
0.8452558744
 40
1.0
 40
1.0
 40
1.0
 40
1.0
 10
59.167256078
 20
139.1834638917
 30
0.0
 10
58.9049439564
 20
139.3349064396
 30
0.0
 10
58.3182324174
 20
139.5869609041
 30
0.0
 10
57.3611689427
 20
139.8096359744
 30
0.0
 10
56.3388892249
 20
139.8854934666
 30
0.0
 10
55.316591943
 20
139.8096494477
 30
0.0
 10
54.3594817343
 20
139.5869748469
 30
0.0
 10
53.7727325664
 20
139.3349061123
 30
0.0
 10
53.5104018286
 20
139.1834502942
 30
0.0
  0
SPLINE
  5
48B
100
AcDbEntity
  8
1
100
AcDbSpline
 62
7
  6
BYLAYER
 70
0
 71
3
 72
10
 73
6
 74
0
 42
0.0000001
 43
0.0000001
 44
0.0000000001
 40
0.0
 40
0.0
 40
0.0
 40
0.0
 40
0.3535488675
 40
0.6914616075
 40
1.0
 40
1.0
 40
1.0
 40
1.0
 10
55.8661911698
 20
139.1467245334
 30
0.0
 10
56.1657956026
 20
139.1473788164
 30
0.0
 10
56.7529763124
 20
139.1048172228
 30
0.0
 10
57.5816459166
 20
138.9126968889
 30
0.0
 10
58.0891755473
 20
138.6948268022
 30
0.0
 10
58.3156097984
 20
138.5640978839
 30
0.0
  0
SPLINE
  5
48C
100
AcDbEntity
  8
1
100
AcDbSpline
 62
7
  6
BYLAYER
 70
0
 71
3
 72
10
 73
6
 74
0
 42
0.0000001
 43
0.0000001
 44
0.0000000001
 40
0.0
 40
0.0
 40
0.0
 40
0.0
 40
0.3799978057
 40
0.7072850873
 40
1.0
 40
1.0
 40
1.0
 40
1.0
 10
53.4428385129
 20
135.7508188635
 30
0.0
 10
53.2441591912
 20
135.8655238284
 30
0.0
 10
52.8939835041
 20
136.1190327237
 30
0.0
 10
52.5225802208
 20
136.6098475866
 30
0.0
 10
52.4325095028
 20
136.988251037
 30
0.0
 10
52.4336647316
 20
137.1649662998
 30
0.0
  0
SPLINE
  5
48D
100
AcDbEntity
  8
1
100
AcDbSpline
 62
7
  6
BYLAYER
 70
0
 71
3
 72
10
 73
6
 74
0
 42
0.0000001
 43
0.0000001
 44
0.0000000001
 40
0.0
 40
0.0
 40
0.0
 40
0.0
 40
0.3535488675
 40
0.6914616075
 40
1.0
 40
1.0
 40
1.0
 40
1.0
 10
55.8922571415
 20
135.168192214
 30
0.0
 10
55.5926527087
 20
135.1675379311
 30
0.0
 10
55.0054719989
 20
135.2100995246
 30
0.0
 10
54.1768023947
 20
135.4022198585
 30
0.0
 10
53.669272764
 20
135.6200899452
 30
0.0
 10
53.4428385129
 20
135.7508188635
 30
0.0
  0
SPLINE
  5
48E
100
AcDbEntity
  8
1
100
AcDbSpline
 62
7
  6
BYLAYER
 70
0
 71
3
 72
10
 73
6
 74
0
 42
0.0000001
 43
0.0000001
 44
0.0000000001
 40
0.0
 40
0.0
 40
0.0
 40
0.0
 40
0.3799978057
 40
0.7072850873
 40
1.0
 40
1.0
 40
1.0
 40
1.0
 10
58.3156097984
 20
138.5640978839
 30
0.0
 10
58.5142891201
 20
138.449392919
 30
0.0
 10
58.8644648072
 20
138.1958840237
 30
0.0
 10
59.2358680905
 20
137.7050691609
 30
0.0
 10
59.3259388085
 20
137.3266657104
 30
0.0
 10
59.3247835797
 20
137.1499504476
 30
0.0
  0
SPLINE
  5
48F
100
AcDbEntity
  8
1
100
AcDbSpline
 62
7
  6
BYLAYER
 70
0
 71
3
 72
21
 73
17
 74
0
 42
0.0000001
 43
0.0000001
 44
0.0000000001
 40
0.0
 40
0.0
 40
0.0
 40
0.0
 40
0.0766339274
 40
0.159831992
 40
0.247174951
 40
0.335414811
 40
0.422819278
 40
0.5061628761
 40
0.5827812521
 40
0.6512461539
 40
0.7115143314
 40
0.765348324
 40
0.816520127
 40
0.8705799836
 40
0.9311986705
 40
1.0
 40
1.0
 40
1.0
 40
1.0
 10
40.9238352162
 20
135.8303665657
 30
0.0
 10
40.9238352162
 20
135.2356104506
 30
0.0
 10
41.0491949309
 20
133.9938540567
 30
0.0
 10
41.5392391775
 20
132.1328617055
 30
0.0
 10
42.3139322355
 20
130.2733595922
 30
0.0
 10
43.3360789213
 20
128.5004380703
 30
0.0
 10
44.5578863701
 20
126.8970456756
 30
0.0
 10
45.9244140067
 20
125.5389816729
 30
0.0
 10
47.3682650991
 20
124.4955443635
 30
0.0
 10
48.823655425
 20
123.8173219913
 30
0.0
 10
50.2318520413
 20
123.5414019433
 30
0.0
 10
51.5320700825
 20
123.7054979792
 30
0.0
 10
52.633942442
 20
124.3323485359
 30
0.0
 10
53.4396185013
 20
125.372801945
 30
0.0
 10
53.9144194358
 20
126.7346473199
 30
0.0
 10
54.0053651314
 20
127.743945305
 30
0.0
 10
54.0053651314
 20
128.2779126071
 30
0.0
  0
SPLINE
  5
490
100
AcDbEntity
  8
1
100
AcDbSpline
 62
7
  6
BYLAYER
 70
0
 71
3
 72
21
 73
17
 74
0
 42
0.0000001
 43
0.0000001
 44
0.0000000001
 40
0.0
 40
0.0
 40
0.0
 40
0.0
 40
0.0766339274
 40
0.159831992
 40
0.247174951
 40
0.335414811
 40
0.422819278
 40
0.5061628761
 40
0.5827812521
 40
0.6512461539
 40
0.7115143314
 40
0.765348324
 40
0.816520127
 40
0.8705799836
 40
0.9311986705
 40
1.0
 40
1.0
 40
1.0
 40
1.0
 10
54.0053651314
 20
128.2779126071
 30
0.0
 10
54.0053651314
 20
128.8726687223
 30
0.0
 10
53.8800054167
 20
130.1144251162
 30
0.0
 10
53.3899611701
 20
131.9754174674
 30
0.0
 10
52.6152681121
 20
133.8349195807
 30
0.0
 10
51.5931214263
 20
135.6078411026
 30
0.0
 10
50.3713139775
 20
137.2112334973
 30
0.0
 10
49.004786341
 20
138.5692975
 30
0.0
 10
47.5609352486
 20
139.6127348094
 30
0.0
 10
46.1055449227
 20
140.2909571816
 30
0.0
 10
44.6973483063
 20
140.5668772295
 30
0.0
 10
43.3971302651
 20
140.4027811936
 30
0.0
 10
42.2952579057
 20
139.775930637
 30
0.0
 10
41.4895818463
 20
138.7354772279
 30
0.0
 10
41.0147809118
 20
137.373631853
 30
0.0
 10
40.9238352162
 20
136.3643338679
 30
0.0
 10
40.9238352162
 20
135.8303665657
 30
0.0
  0
SPLINE
  5
491
100
AcDbEntity
  8
1
100
AcDbSpline
 62
7
  6
BYLAYER
 70
0
 71
3
 72
17
 73
13
 74
0
 42
0.0000001
 43
0.0000001
 44
0.0000000001
 40
0.0
 40
0.0
 40
0.0
 40
0.0
 40
0.1103117706
 40
0.2310687759
 40
0.3541884665
 40
0.4736180179
 40
0.5828531124
 40
0.6763669475
 40
0.7545105404
 40
0.8262180427
 40
0.9053451377
 40
1.0
 40
1.0
 40
1.0
 40
1.0
 10
87.5572929481
 20
143.035415205
 30
0.0
 10
87.3413151284
 20
142.910721097
 30
0.0
 10
86.8509177672
 20
142.7141689642
 30
0.0
 10
86.0586689232
 20
142.5722537504
 30
0.0
 10
85.2329612416
 20
142.5728606068
 30
0.0
 10
84.4457914587
 20
142.7146440813
 30
0.0
 10
83.7635836998
 20
142.9871543412
 30
0.0
 10
83.2461260079
 20
143.3708917264
 30
0.0
 10
82.942981885
 20
143.8541462701
 30
0.0
 10
82.9353509757
 20
144.3997690386
 30
0.0
 10
83.2333735758
 20
144.8934443258
 30
0.0
 10
83.5535770468
 20
145.1329194116
 30
0.0
 10
83.7389004323
 20
145.2399152795
 30
0.0
  0
SPLINE
  5
492
100
AcDbEntity
  8
1
100
AcDbSpline
 62
7
  6
BYLAYER
 70
0
 71
3
 72
17
 73
13
 74
0
 42
0.0000001
 43
0.0000001
 44
0.0000000001
 40
0.0
 40
0.0
 40
0.0
 40
0.0
 40
0.1103117706
 40
0.2310687759
 40
0.3541884665
 40
0.4736180179
 40
0.5828531124
 40
0.6763669475
 40
0.7545105404
 40
0.8262180427
 40
0.9053451377
 40
1.0
 40
1.0
 40
1.0
 40
1.0
 10
83.7389004323
 20
145.2399152795
 30
0.0
 10
83.954878252
 20
145.3646093875
 30
0.0
 10
84.4452756132
 20
145.5611615203
 30
0.0
 10
85.2375244572
 20
145.703076734
 30
0.0
 10
86.0632321388
 20
145.7024698777
 30
0.0
 10
86.8504019217
 20
145.5606864032
 30
0.0
 10
87.5326096806
 20
145.2881761433
 30
0.0
 10
88.0500673725
 20
144.9044387581
 30
0.0
 10
88.3532114954
 20
144.4211842144
 30
0.0
 10
88.3608424047
 20
143.8755614459
 30
0.0
 10
88.0628198046
 20
143.3818861587
 30
0.0
 10
87.7426163336
 20
143.1424110729
 30
0.0
 10
87.5572929481
 20
143.035415205
 30
0.0
  0
SPLINE
  5
493
100
AcDbEntity
  8
1
100
AcDbSpline
 62
7
  6
BYLAYER
 70
0
 71
3
 72
17
 73
13
 74
0
 42
0.0000001
 43
0.0000001
 44
0.0000000001
 40
0.0
 40
0.0
 40
0.0
 40
0.0
 40
0.1103117706
 40
0.2310687759
 40
0.3541884665
 40
0.4736180179
 40
0.5828531124
 40
0.6763669475
 40
0.7545105404
 40
0.8262180427
 40
0.9053451377
 40
1.0
 40
1.0
 40
1.0
 40
1.0
 10
114.1446186136
 20
127.6855628351
 30
0.0
 10
113.928640794
 20
127.5608687271
 30
0.0
 10
113.4382434327
 20
127.3643165943
 30
0.0
 10
112.6459945887
 20
127.2224013805
 30
0.0
 10
111.8202869071
 20
127.2230082368
 30
0.0
 10
111.0331171242
 20
127.3647917113
 30
0.0
 10
110.3509093654
 20
127.6373019712
 30
0.0
 10
109.8334516735
 20
128.0210393565
 30
0.0
 10
109.5303075506
 20
128.5042939001
 30
0.0
 10
109.5226766413
 20
129.0499166686
 30
0.0
 10
109.8206992413
 20
129.5435919558
 30
0.0
 10
110.1409027124
 20
129.7830670417
 30
0.0
 10
110.3262260979
 20
129.8900629095
 30
0.0
  0
SPLINE
  5
494
100
AcDbEntity
  8
1
100
AcDbSpline
 62
7
  6
BYLAYER
 70
0
 71
3
 72
17
 73
13
 74
0
 42
0.0000001
 43
0.0000001
 44
0.0000000001
 40
0.0
 40
0.0
 40
0.0
 40
0.0
 40
0.1103117706
 40
0.2310687759
 40
0.3541884665
 40
0.4736180179
 40
0.5828531124
 40
0.6763669475
 40
0.7545105404
 40
0.8262180427
 40
0.9053451377
 40
1.0
 40
1.0
 40
1.0
 40
1.0
 10
110.3262260979
 20
129.8900629095
 30
0.0
 10
110.5422039175
 20
130.0147570175
 30
0.0
 10
111.0326012788
 20
130.2113091503
 30
0.0
 10
111.8248501228
 20
130.3532243641
 30
0.0
 10
112.6505578044
 20
130.3526175077
 30
0.0
 10
113.4377275873
 20
130.2108340332
 30
0.0
 10
114.1199353461
 20
129.9383237734
 30
0.0
 10
114.637393038
 20
129.5545863881
 30
0.0
 10
114.9405371609
 20
129.0713318444
 30
0.0
 10
114.9481680702
 20
128.525709076
 30
0.0
 10
114.6501454702
 20
128.0320337888
 30
0.0
 10
114.3299419991
 20
127.7925587029
 30
0.0
 10
114.1446186136
 20
127.6855628351
 30
0.0
  0
SPLINE
  5
495
100
AcDbEntity
  8
1
100
AcDbSpline
 62
7
  6
BYLAYER
 70
0
 71
3
 72
32
 73
28
 74
0
 42
0.0000001
 43
0.0000001
 44
0.0000000001
 40
0.0
 40
0.0
 40
0.0
 40
0.0
 40
0.0409158949
 40
0.0860711276
 40
0.1339584672
 40
0.1842740342
 40
0.2365859255
 40
0.2901782476
 40
0.3442657374
 40
0.398042015
 40
0.4506955616
 40
0.5014466412
 40
0.5495756688
 40
0.5944950028
 40
0.6360268628
 40
0.6742434626
 40
0.7090074501
 40
0.7403066718
 40
0.7688593965
 40
0.7948828614
 40
0.8200755719
 40
0.8438627431
 40
0.8693022718
 40
0.897407819
 40
0.9288708155
 40
0.9634101318
 40
1.0
 40
1.0
 40
1.0
 40
1.0
 10
110.0714387341
 20
90.922075854
 30
0.0
 10
109.6428465911
 20
90.6746203307
 30
0.0
 10
108.713353189
 20
90.2014145954
 30
0.0
 10
107.2065231321
 20
89.6006207939
 30
0.0
 10
105.5458408146
 20
89.0952646528
 30
0.0
 10
103.7665119866
 20
88.7021605003
 30
0.0
 10
101.8947696799
 20
88.4317377462
 30
0.0
 10
99.9630318117
 20
88.2924717084
 30
0.0
 10
98.0085797475
 20
88.2893127969
 30
0.0
 10
96.0700558999
 20
88.4229024007
 30
0.0
 10
94.1859910033
 20
88.6894087846
 30
0.0
 10
92.3935510599
 20
89.0804659679
 30
0.0
 10
90.7265920481
 20
89.58340401
 30
0.0
 10
89.2110424752
 20
90.1829575986
 30
0.0
 10
87.8632466222
 20
90.8642585753
 30
0.0
 10
86.6950180525
 20
91.6133541848
 30
0.0
 10
85.7171041924
 20
92.4152023818
 30
0.0
 10
84.9368851992
 20
93.258156998
 30
0.0
 10
84.36292771
 20
94.1307456801
 30
0.0
 10
84.0043038113
 20
95.0354118494
 30
0.0
 10
83.8923314468
 20
95.9472132967
 30
0.0
 10
84.0273549736
 20
96.8470143522
 30
0.0
 10
84.3860240989
 20
97.7189903517
 30
0.0
 10
84.9587377563
 20
98.5793757232
 30
0.0
 10
85.7383756742
 20
99.4145355802
 30
0.0
 10
86.7022605196
 20
100.2008607774
 30
0.0
 10
87.4278883569
 20
100.6664870638
 30
0.0
 10
87.8111863099
 20
100.8877736346
 30
0.0
  0
SPLINE
  5
496
100
AcDbEntity
  8
1
100
AcDbSpline
 62
7
  6
BYLAYER
 70
0
 71
3
 72
15
 73
11
 74
0
 42
0.0000001
 43
0.0000001
 44
0.0000000001
 40
0.0
 40
0.0
 40
0.0
 40
0.0
 40
0.0057170841
 40
0.1686197452
 40
0.333726264
 40
0.4999576994
 40
0.6661952317
 40
0.8313182556
 40
0.9942473495
 40
1.0
 40
1.0
 40
1.0
 40
1.0
 10
92.4938648888
 20
83.959126397
 30
0.0
 10
92.5180910613
 20
83.9540787657
 30
0.0
 10
93.2328024219
 20
83.8061062087
 30
0.0
 10
94.6578867533
 20
83.5657975819
 30
0.0
 10
96.7877141467
 20
83.3540516223
 30
0.0
 10
98.9412342342
 20
83.2832797366
 30
0.0
 10
101.0948281421
 20
83.3539841697
 30
0.0
 10
103.2248731873
 20
83.5656901111
 30
0.0
 10
104.6502980951
 20
83.8060253287
 30
0.0
 10
105.3652735451
 20
83.9540465906
 30
0.0
 10
105.3896504353
 20
83.9591256206
 30
0.0
  0
SPLINE
  5
497
100
AcDbEntity
  8
1
100
AcDbSpline
 62
7
  6
BYLAYER
 70
0
 71
3
 72
15
 73
11
 74
0
 42
0.0000001
 43
0.0000001
 44
0.0000000001
 40
0.0
 40
0.0
 40
0.0
 40
0.0
 40
0.1559855513
 40
0.307550982
 40
0.4514343485
 40
0.5881586438
 40
0.719575452
 40
0.8467417586
 40
0.9696196933
 40
1.0
 40
1.0
 40
1.0
 40
1.0
 10
85.3227065313
 20
105.2105529794
 30
0.0
 10
84.7716070759
 20
104.8923833902
 30
0.0
 10
83.7153819017
 20
104.2099512774
 30
0.0
 10
82.2913463281
 20
103.0350830053
 30
0.0
 10
81.0869349846
 20
101.7398004476
 30
0.0
 10
80.1316176379
 20
100.3487183826
 30
0.0
 10
79.4432351492
 20
98.8819578941
 30
0.0
 10
79.0335682767
 20
97.3721670124
 30
0.0
 10
78.9370959828
 20
96.2259709971
 30
0.0
 10
78.9556973563
 20
95.6001061994
 30
0.0
 10
78.9621509311
 20
95.4761830537
 30
0.0
  0
SPLINE
  5
498
100
AcDbEntity
  8
1
100
AcDbSpline
 62
7
  6
BYLAYER
 70
0
 71
3
 72
13
 73
9
 74
0
 42
0.0000001
 43
0.0000001
 44
0.0000000001
 40
0.0
 40
0.0
 40
0.0
 40
0.0
 40
0.1414043187
 40
0.2982358473
 40
0.4646629314
 40
0.6391806336
 40
0.8200876212
 40
1.0
 40
1.0
 40
1.0
 40
1.0
 10
87.8112611432
 20
100.887816699
 30
0.0
 10
88.2041460602
 20
101.1146536529
 30
0.0
 10
89.0562456074
 20
101.5532274947
 30
0.0
 10
90.4364941686
 20
102.1206109693
 30
0.0
 10
91.9584890793
 20
102.6093911181
 30
0.0
 10
93.587290782
 20
103.0028276622
 30
0.0
 10
95.2820315418
 20
103.2890973195
 30
0.0
 10
96.4346247501
 20
103.4063487365
 30
0.0
 10
97.0104262863
 20
103.4466232452
 30
0.0
  0
SPLINE
  5
499
100
AcDbEntity
  8
1
100
AcDbSpline
 62
7
  6
BYLAYER
 70
0
 71
3
 72
13
 73
9
 74
0
 42
0.0000001
 43
0.0000001
 44
0.0000000001
 40
0.0
 40
0.0
 40
0.0
 40
0.0
 40
0.1717806929
 40
0.3460975123
 40
0.5172186826
 40
0.6848214434
 40
0.8482040377
 40
1.0
 40
1.0
 40
1.0
 40
1.0
 10
96.6632271348
 20
108.4241878318
 30
0.0
 10
95.9844695253
 20
108.3767115685
 30
0.0
 10
94.6195319592
 20
108.2379480609
 30
0.0
 10
92.597908697
 20
107.8971601574
 30
0.0
 10
90.6206858998
 20
107.4206680152
 30
0.0
 10
88.7250198578
 20
106.8127214892
 30
0.0
 10
86.9546358512
 20
106.0844542703
 30
0.0
 10
85.8434021225
 20
105.5111785786
 30
0.0
 10
85.3226933991
 20
105.2105454259
 30
0.0
  0
SPLINE
  5
49A
100
AcDbEntity
  8
1
100
AcDbSpline
 62
7
  6
BYLAYER
 70
0
 71
3
 72
27
 73
23
 74
0
 42
0.0000001
 43
0.0000001
 44
0.0000000001
 40
0.0
 40
0.0
 40
0.0
 40
0.0
 40
0.0686545949
 40
0.1399200405
 40
0.2106020881
 40
0.2796369031
 40
0.3460076276
 40
0.4087879434
 40
0.4671976523
 40
0.5207565354
 40
0.5696350336
 40
0.6141898843
 40
0.6545710807
 40
0.6910865328
 40
0.7249883056
 40
0.7583444868
 40
0.7912748044
 40
0.8245688562
 40
0.8609175715
 40
0.9011562522
 40
0.947309233
 40
1.0
 40
1.0
 40
1.0
 40
1.0
 10
97.010427304
 20
103.4466233296
 30
0.0
 10
97.6191640319
 20
103.489205436
 30
0.0
 10
98.8630579788
 20
103.5346119972
 30
0.0
 10
100.7354387451
 20
103.4776556169
 30
0.0
 10
102.6029963782
 20
103.2918063679
 30
0.0
 10
104.409910076
 20
102.9817139447
 30
0.0
 10
106.1209305897
 20
102.5559027269
 30
0.0
 10
107.703862948
 20
102.0271571406
 30
0.0
 10
109.1321311409
 20
101.4117486322
 30
0.0
 10
110.3893492402
 20
100.7264670268
 30
0.0
 10
111.4686223087
 20
99.9855757779
 30
0.0
 10
112.3655701338
 20
99.1997285688
 30
0.0
 10
113.0750887336
 20
98.3807115368
 30
0.0
 10
113.5901975514
 20
97.5351527195
 30
0.0
 10
113.9053236531
 20
96.6598777562
 30
0.0
 10
113.9874685344
 20
95.7622733944
 30
0.0
 10
113.8307390487
 20
94.881394066
 30
0.0
 10
113.4655240969
 20
94.0391151992
 30
0.0
 10
112.9164836437
 20
93.2259640453
 30
0.0
 10
112.1722238274
 20
92.4233713611
 30
0.0
 10
111.2169193912
 20
91.6339988344
 30
0.0
 10
110.4770565725
 20
91.1562494291
 30
0.0
 10
110.0714446889
 20
90.9220792576
 30
0.0
  0
SPLINE
  5
49B
100
AcDbEntity
  8
1
100
AcDbSpline
 62
7
  6
BYLAYER
 70
0
 71
3
 72
23
 73
19
 74
0
 42
0.0000001
 43
0.0000001
 44
0.0000000001
 40
0.0
 40
0.0
 40
0.0
 40
0.0
 40
0.0056314141
 40
0.0557670508
 40
0.107673602
 40
0.161637806
 40
0.2176453313
 40
0.2763785743
 40
0.3379880672
 40
0.4028616694
 40
0.4712840392
 40
0.5424195877
 40
0.6157216611
 40
0.6909327865
 40
0.7676684832
 40
0.8454797314
 40
0.9238738018
 40
1.0
 40
1.0
 40
1.0
 40
1.0
 10
118.9213937326
 20
95.4766521706
 30
0.0
 10
118.9241905255
 20
95.5304821639
 30
0.0
 10
118.9467033919
 20
96.0638196574
 30
0.0
 10
118.8904242922
 20
97.0968524922
 30
0.0
 10
118.549943239
 20
98.5565874439
 30
0.0
 10
117.9460234241
 20
99.9892222504
 30
0.0
 10
117.0856567412
 20
101.3610172883
 30
0.0
 10
115.9861575992
 20
102.6463320922
 30
0.0
 10
114.664195109
 20
103.831291414
 30
0.0
 10
113.1361286942
 20
104.9043668449
 30
0.0
 10
111.4239520854
 20
105.8535653996
 30
0.0
 10
109.5558420486
 20
106.6675522764
 30
0.0
 10
107.5633906737
 20
107.338063468
 30
0.0
 10
105.4724295677
 20
107.8616107098
 30
0.0
 10
103.3061057527
 20
108.2359337133
 30
0.0
 10
101.0885178565
 20
108.4589538213
 30
0.0
 10
98.8668347595
 20
108.5284369435
 30
0.0
 10
97.3892419514
 20
108.4749732326
 30
0.0
 10
96.6632260287
 20
108.4241877707
 30
0.0
  0
SPLINE
  5
49C
100
AcDbEntity
  8
1
100
AcDbSpline
 62
7
  6
BYLAYER
 70
0
 71
3
 72
14
 73
10
 74
0
 42
0.0000001
 43
0.0000001
 44
0.0000000001
 40
0.0
 40
0.0
 40
0.0
 40
0.0
 40
0.1246783075
 40
0.2526841059
 40
0.3862450525
 40
0.5270119916
 40
0.676108141
 40
0.8338215898
 40
1.0
 40
1.0
 40
1.0
 40
1.0
 10
118.341759523
 20
96.6990713431
 30
0.0
 10
118.341759523
 20
97.1553686237
 30
0.0
 10
118.256124896
 20
98.0822927859
 30
0.0
 10
117.8714480582
 20
99.4499631289
 30
0.0
 10
117.2305942695
 20
100.7834497861
 30
0.0
 10
116.3405858711
 20
102.0594005984
 30
0.0
 10
115.2151863086
 20
103.2567494852
 30
0.0
 10
113.8738813603
 20
104.3574813834
 30
0.0
 10
112.8756071233
 20
105.0016026959
 30
0.0
 10
112.3489054838
 20
105.3056871499
 30
0.0
  0
SPLINE
  5
49D
100
AcDbEntity
  8
1
100
AcDbSpline
 62
7
  6
BYLAYER
 70
0
 71
3
 72
27
 73
23
 74
0
 42
0.0000001
 43
0.0000001
 44
0.0000000001
 40
0.0
 40
0.0
 40
0.0
 40
0.0
 40
0.0501660481
 40
0.1024979543
 40
0.1568469768
 40
0.2126983729
 40
0.2696638871
 40
0.3273096873
 40
0.3851941115
 40
0.442828019
 40
0.4997919605
 40
0.5555847824
 40
0.60988279
 40
0.6622792219
 40
0.7125117088
 40
0.7603881457
 40
0.8056855486
 40
0.8485304109
 40
0.8888128925
 40
0.9272325551
 40
0.9640648096
 40
1.0
 40
1.0
 40
1.0
 40
1.0
 10
112.3489054838
 20
105.3056871499
 30
0.0
 10
111.786214895
 20
105.6305493635
 30
0.0
 10
110.6008351071
 20
106.2338271153
 30
0.0
 10
108.7108025832
 20
106.9850808185
 30
0.0
 10
106.693928508
 20
107.5961621617
 30
0.0
 10
104.5772650953
 20
108.0610994246
 30
0.0
 10
102.390050897
 20
108.375436171
 30
0.0
 10
100.1599409306
 20
108.5365571516
 30
0.0
 10
97.9154006148
 20
108.543151214
 30
0.0
 10
95.6845521183
 20
108.3953424296
 30
0.0
 10
93.4963713199
 20
108.094745396
 30
0.0
 10
91.3780731506
 20
107.6442845418
 30
0.0
 10
89.3573665125
 20
107.0484194356
 30
0.0
 10
87.4600348228
 20
106.3125729756
 30
0.0
 10
85.7117282457
 20
105.4437361886
 30
0.0
 10
84.1378489183
 20
104.4507461167
 30
0.0
 10
82.761645238
 20
103.3440250388
 30
0.0
 10
81.6073620122
 20
102.1390955204
 30
0.0
 10
80.6917040012
 20
100.8509631851
 30
0.0
 10
80.0299882093
 20
99.5007004328
 30
0.0
 10
79.6308152986
 20
98.109234992
 30
0.0
 10
79.541759523
 20
97.1644930384
 30
0.0
 10
79.541759523
 20
96.6990713431
 30
0.0
  0
ELLIPSE
  5
49E
100
AcDbEntity
  8
1
100
AcDbEllipse
 62
7
  6
BYLAYER
 10
164.2782424005
 20
167.4077914439
 30
0.0
 11
2.9779649897
 21
-0.0305121236
 31
0.0
 40
0.5772611349
 41
0.0
 42
6.2831853072
  0
ELLIPSE
  5
49F
100
AcDbEntity
  8
1
100
AcDbEllipse
 62
7
  6
BYLAYER
 10
164.2782424005
 20
199.7412871622
 30
0.0
 11
2.9779649897
 21
-0.0305121236
 31
0.0
 40
0.5772611349
 41
0.0
 42
6.2831853072
  0
ELLIPSE
  5
4A0
100
AcDbEntity
  8
1
100
AcDbEllipse
 62
7
  6
BYLAYER
 10
51.5777512737
 20
163.57739129
 30
0.0
 11
2.0031196841
 21
-0.0019420293
 31
0.0
 40
0.5773412865
 41
0.0
 42
6.2831853072
  0
ELLIPSE
  5
4A1
100
AcDbEntity
  8
1
100
AcDbEllipse
 62
7
  6
BYLAYER
 10
55.4668223744
 20
165.8227341385
 30
0.0
 11
2.0031196786
 21
-0.0019420293
 31
0.0
 40
0.5773412865
 41
0.0
 42
6.2831853072
  0
ENDSEC
  0
SECTION
  2
OBJECTS
  0
DICTIONARY
  5
C
100
AcDbDictionary
280
0
281
1
  3
ACAD_GROUP
350
D
  3
ACAD_MLINESTYLE
350
17
  3
ACAD_LAYOUT
350
1A
  3
ACAD_PLOTSETTINGS
350
19
  3
ACAD_PLOTSTYLENAME
350
E
  0
DICTIONARY
  5
D
102
{ACAD_REACTORS
330
C
102
}
100
AcDbDictionary
280
0
281
1
  0
ACDBDICTIONARYWDFLT
  5
E
102
{ACAD_REACTORS
330
C
102
}
100
AcDbDictionary
281
1
  3
Normal
350
F
100
AcDbDictionaryWithDefault
340
F
  0
DICTIONARY
  5
17
102
{ACAD_REACTORS
330
C
102
}
100
AcDbDictionary
280
0
281
1
  3
Standard
350
18
  0
DICTIONARY
  5
19
102
{ACAD_REACTORS
330
C
102
}
100
AcDbDictionary
281
1
  0
DICTIONARY
  5
1A
102
{ACAD_REACTORS
330
C
102
}
100
AcDbDictionary
281
1
  3
Model
350
4A2
  3
Layout1
350
4A3
  0
ACDBPLACEHOLDER
  5
F
102
{ACAD_REACTORS
330
E
102
}
  0
MLINESTYLE
  5
18
102
{ACAD_REACTORS
330
17
102
}
100
AcDbMlineStyle
  2
STANDARD
 70
0
  3

 62
256
 51
90.0
 52
90.0
 71
2
 49
0.5
 62
256
  6
BYLAYER
 49
-0.5
 62
256
  6
BYLAYER
  0
LAYOUT
  5
4A2
102
{ACAD_REACTORS
330
1A
102
}
100
AcDbPlotSettings
  1

  2
none_device
  4

  6

 40
0.0
 41
0.0
 42
0.0
 43
0.0
 44
210.0
 45
297.0
 46
0.0
 47
0.0
 48
0.0
 49
0.0
140
0.0
141
0.0
142
1.0
143
1.0
 70
1024
 72
1
 73
0
 74
0
  7

 75
0
147
1.0
148
0.0
149
0.0
100
AcDbLayout
  1
Model
 70
0
 71
0
 10
0.0
 20
0.0
 11
210.0
 21
297.0
 12
0.0
 22
0.0
 32
0.0
 14
0.0
 24
0.0
 34
0.0
 15
0.0
 25
0.0
 35
0.0
146
0.0
 13
0.0
 23
0.0
 33
0.0
 16
1.0
 26
0.0
 36
0.0
 17
0.0
 27
1.0
 37
0.0
 76
0
330
212
345
0
346
0
  0
LAYOUT
  5
4A3
102
{ACAD_REACTORS
330
1A
102
}
100
AcDbPlotSettings
  1

  2
none_device
  4

  6

 40
0.0
 41
0.0
 42
0.0
 43
0.0
 44
210.0
 45
297.0
 46
0.0
 47
0.0
 48
0.0
 49
0.0
140
0.0
141
0.0
142
1.0
143
1.0
 70
0
 72
1
 73
0
 74
0
  7

 75
0
147
1.0
148
0.0
149
0.0
100
AcDbLayout
  1
Layout1
 70
0
 71
1
 10
0.0
 20
0.0
 11
210.0
 21
297.0
 12
0.0
 22
0.0
 32
0.0
 14
0.0
 24
0.0
 34
0.0
 15
0.0
 25
0.0
 35
0.0
146
0.0
 13
0.0
 23
0.0
 33
0.0
 16
1.0
 26
0.0
 36
0.0
 17
0.0
 27
1.0
 37
0.0
 76
0
330
213
345
0
346
0
  0
ENDSEC
  0
EOF
