999
DXF file: Y:\001_SCHNEIDER_PARIS\maxime fuentes - génération CAD 2D\TRAVAIL\XB5AW36B5_2D-Views\xb5aw36b5_2d-views_5.dxf
999
Pro/ENGINEER 2018260 by Parametric Technology Corporation
  0
SECTION
  2
HEADER
  9
$ACADVER
  1
AC1027
  9
$DWGCODEPAGE
  3
ANSI_1252
  9
$EXTMAX
 10
558.8
 20
431.8
 30
0.0
  9
$EXTMIN
 10
0.0
 20
0.0
 30
0.0
  9
$LIMMIN
 10
0.0
 20
0.0
  9
$LIMMAX
 10
558.8
 20
431.8
  9
$VIEWCTR
 10
279.4
 20
215.9
  9
$VIEWSIZE
 40
431.8
  9
$CLAYER
  8
0
  9
$LTSCALE
 40
30.734
  9
$CELTYPE
  6
BYLAYER
  9
$DIMSCALE
 40
1.0
  9
$DIMASZ
 40
0.1875
  9
$DIMEXO
 40
0.0625
  9
$DIMDLI
 40
21.2344
  9
$DIMEXE
 40
0.125
  9
$DIMCEN
 40
5.0292
  9
$DIMLFAC
 40
1.0
  9
$DIMBLK
  1
_CLOSED
  9
$DIMALT
 70
0
  9
$DIMALTF
 40
0.0393700787
  9
$DIMTXT
 40
0.15625
  9
$DIMTOL
 70
0
  9
$DIMLIM
 70
0
  9
$DIMTFAC
 40
1.0
  9
$DIMGAP
 40
0.625
  9
$DIMDSEP
 70
46
  9
$AUNITS
 70
0
  9
$PDMODE
 70
3
  9
$PDSIZE
 40
0.3125
  9
$HANDSEED
  5
31E
  9
$TILEMODE
 70
1
  9
$MEASUREMENT
 70
1
  9
$INSUNITS
 70
4
  0
ENDSEC
  0
SECTION
  2
CLASSES
  0
CLASS
  1
ACDBDICTIONARYWDFLT
  2
AcDbDictionaryWithDefault
  3
AutoCAD 2000
 90
0
 91
1
280
0
281
0
  0
CLASS
  1
ACDBPLACEHOLDER
  2
AcDbPlaceHolder
  3
AutoCAD 2000
 90
0
 91
1
280
0
281
0
  0
CLASS
  1
LAYOUT
  2
AcDbLayout
  3
AutoCAD 2000
 90
0
 91
0
280
0
281
0
  0
ENDSEC
  0
SECTION
  2
TABLES
  0
TABLE
  2
VPORT
  5
8
100
AcDbSymbolTable
 70
2
  0
VPORT
  5
1F4
100
AcDbSymbolTableRecord
100
AcDbViewportTableRecord
  2
*ACTIVE
 70
0
 10
0.0
 20
0.0
 11
1.0
 21
1.0
 12
279.4
 22
215.9
 13
0.0
 23
0.0
 14
1.0
 24
1.0
 15
0.0
 25
0.0
 16
0.0
 26
0.0
 36
1.0
 17
0.0
 27
0.0
 37
0.0
 40
431.8
 41
1.2941176471
 42
50.0
 43
0.0
 44
0.0
 50
0.0
 51
0.0
 71
0
 72
100
 73
1
 74
1
 75
0
 76
0
 77
0
 78
0
  0
ENDTAB
  0
TABLE
  2
LTYPE
  5
5
100
AcDbSymbolTable
 70
6
  0
LTYPE
  5
14
100
AcDbSymbolTableRecord
100
AcDbLinetypeTableRecord
  2
BYBLOCK
 70
0
  3

 72
65
 73
0
 40
0.0
  0
LTYPE
  5
15
100
AcDbSymbolTableRecord
100
AcDbLinetypeTableRecord
  2
BYLAYER
 70
0
  3

 72
65
 73
0
 40
0.0
  0
LTYPE
  5
16
100
AcDbSymbolTableRecord
100
AcDbLinetypeTableRecord
  2
CONTINUOUS
 70
64
  3
Solid line
 72
65
 73
0
 40
0.0
  0
LTYPE
  5
1F5
100
AcDbSymbolTableRecord
100
AcDbLinetypeTableRecord
  2
CENTER
 70
64
  3
____ _ ____ _ ____ _ ____ _ ____ _ ____ _ ____
 72
65
 73
4
 40
0.6
 49
0.375
 74
0
 49
-0.075
 74
0
 49
0.075
 74
0
 49
-0.075
 74
0
  0
LTYPE
  5
1F6
100
AcDbSymbolTableRecord
100
AcDbLinetypeTableRecord
  2
HIDDEN
 70
64
  3
- - - - - - - - - - - - - - - - - - - -
 72
65
 73
2
 40
0.2
 49
0.1
 74
0
 49
-0.1
 74
0
  0
LTYPE
  5
1F7
100
AcDbSymbolTableRecord
100
AcDbLinetypeTableRecord
  2
PHANTOM
 70
64
  3
_____ _ _ _____ _ _ _____ _ _ _____
 72
65
 73
6
 40
0.8
 49
0.45
 74
0
 49
-0.05
 74
0
 49
0.1
 74
0
 49
-0.05
 74
0
 49
0.1
 74
0
 49
-0.05
 74
0
  0
LTYPE
  5
1F8
100
AcDbSymbolTableRecord
100
AcDbLinetypeTableRecord
  2
DOT
 70
64
  3
. . . . . . . . . . . . . . . . . . . .
 72
65
 73
2
 40
0.2
 49
0.1
 74
0
 49
-0.1
 74
0
  0
LTYPE
  5
1F9
100
AcDbSymbolTableRecord
100
AcDbLinetypeTableRecord
  2
DASHED
 70
64
  3
- - - - - - - - - - - - - - - - - - - -
 72
65
 73
2
 40
0.2
 49
0.1
 74
0
 49
-0.1
 74
0
  0
ENDTAB
  0
TABLE
  2
LAYER
  5
2
100
AcDbSymbolTable
 70
36
  0
LAYER
  5
10
100
AcDbSymbolTableRecord
100
AcDbLayerTableRecord
  2
0
 70
0
 62
7
  6
CONTINUOUS
370
-3
390
F
  0
LAYER
  5
1FA
100
AcDbSymbolTableRecord
100
AcDbLayerTableRecord
  2
DEFAULT_1
 70
0
 62
7
  6
CENTER
370
-3
390
F
  0
LAYER
  5
1FB
100
AcDbSymbolTableRecord
100
AcDbLayerTableRecord
  2
DEFAULT_2
 70
0
 62
8
  6
HIDDEN
370
-3
390
F
  0
LAYER
  5
1FC
100
AcDbSymbolTableRecord
100
AcDbLayerTableRecord
  2
DEFAULT_3
 70
0
 62
7
  6
PHANTOM
370
-3
390
F
  0
LAYER
  5
1FD
100
AcDbSymbolTableRecord
100
AcDbLayerTableRecord
  2
01_ALL_DTM_PLN
 70
0
 62
7
  6
CONTINUOUS
370
-3
390
F
  0
LAYER
  5
1FE
100
AcDbSymbolTableRecord
100
AcDbLayerTableRecord
  2
01__ASM_ALL_DTM_PLN
 70
0
 62
7
  6
CONTINUOUS
370
-3
390
F
  0
LAYER
  5
1FF
100
AcDbSymbolTableRecord
100
AcDbLayerTableRecord
  2
01__ASM_DEF_DTM_PLN
 70
0
 62
7
  6
CONTINUOUS
370
-3
390
F
  0
LAYER
  5
200
100
AcDbSymbolTableRecord
100
AcDbLayerTableRecord
  2
01___PRT_ALL_DTM_PLN
 70
0
 62
7
  6
CONTINUOUS
370
-3
390
F
  0
LAYER
  5
201
100
AcDbSymbolTableRecord
100
AcDbLayerTableRecord
  2
01___PRT_DEF_DTM_PLN
 70
0
 62
7
  6
CONTINUOUS
370
-3
390
F
  0
LAYER
  5
202
100
AcDbSymbolTableRecord
100
AcDbLayerTableRecord
  2
02_ALL_AXES
 70
0
 62
7
  6
CONTINUOUS
370
-3
390
F
  0
LAYER
  5
203
100
AcDbSymbolTableRecord
100
AcDbLayerTableRecord
  2
02__ASM_ALL_AXES
 70
0
 62
7
  6
CONTINUOUS
370
-3
390
F
  0
LAYER
  5
204
100
AcDbSymbolTableRecord
100
AcDbLayerTableRecord
  2
02___PRT_ALL_AXES
 70
0
 62
7
  6
CONTINUOUS
370
-3
390
F
  0
LAYER
  5
205
100
AcDbSymbolTableRecord
100
AcDbLayerTableRecord
  2
03_ALL_CURVES
 70
0
 62
7
  6
CONTINUOUS
370
-3
390
F
  0
LAYER
  5
206
100
AcDbSymbolTableRecord
100
AcDbLayerTableRecord
  2
03__ASM_ALL_CURVES
 70
0
 62
7
  6
CONTINUOUS
370
-3
390
F
  0
LAYER
  5
207
100
AcDbSymbolTableRecord
100
AcDbLayerTableRecord
  2
03___PRT_ALL_CURVES
 70
0
 62
7
  6
CONTINUOUS
370
-3
390
F
  0
LAYER
  5
208
100
AcDbSymbolTableRecord
100
AcDbLayerTableRecord
  2
04_ALL_DTM_PNT
 70
0
 62
7
  6
CONTINUOUS
370
-3
390
F
  0
LAYER
  5
209
100
AcDbSymbolTableRecord
100
AcDbLayerTableRecord
  2
04__ASM_ALL_DTM_PNT
 70
0
 62
7
  6
CONTINUOUS
370
-3
390
F
  0
LAYER
  5
20A
100
AcDbSymbolTableRecord
100
AcDbLayerTableRecord
  2
04___PRT_ALL_DTM_PNT
 70
0
 62
7
  6
CONTINUOUS
370
-3
390
F
  0
LAYER
  5
20B
100
AcDbSymbolTableRecord
100
AcDbLayerTableRecord
  2
05_ALL_DTM_CSYS
 70
0
 62
7
  6
CONTINUOUS
370
-3
390
F
  0
LAYER
  5
20C
100
AcDbSymbolTableRecord
100
AcDbLayerTableRecord
  2
05__ASM_ALL_DTM_CSYS
 70
0
 62
7
  6
CONTINUOUS
370
-3
390
F
  0
LAYER
  5
20D
100
AcDbSymbolTableRecord
100
AcDbLayerTableRecord
  2
05__ASM_DEF_DTM_CSYS
 70
0
 62
7
  6
CONTINUOUS
370
-3
390
F
  0
LAYER
  5
20E
100
AcDbSymbolTableRecord
100
AcDbLayerTableRecord
  2
05___PRT_ALL_DTM_CSYS
 70
0
 62
7
  6
CONTINUOUS
370
-3
390
F
  0
LAYER
  5
20F
100
AcDbSymbolTableRecord
100
AcDbLayerTableRecord
  2
05___PRT_DEF_DTM_CSYS
 70
0
 62
7
  6
CONTINUOUS
370
-3
390
F
  0
LAYER
  5
210
100
AcDbSymbolTableRecord
100
AcDbLayerTableRecord
  2
06_ALL_SURFS
 70
0
 62
7
  6
CONTINUOUS
370
-3
390
F
  0
LAYER
  5
211
100
AcDbSymbolTableRecord
100
AcDbLayerTableRecord
  2
06__ASM_ALL_SURFS
 70
0
 62
7
  6
CONTINUOUS
370
-3
390
F
  0
LAYER
  5
212
100
AcDbSymbolTableRecord
100
AcDbLayerTableRecord
  2
06___PRT_ALL_SURFS
 70
0
 62
7
  6
CONTINUOUS
370
-3
390
F
  0
LAYER
  5
213
100
AcDbSymbolTableRecord
100
AcDbLayerTableRecord
  2
07__ASM_ALL_SKELETONS
 70
0
 62
7
  6
CONTINUOUS
370
-3
390
F
  0
LAYER
  5
214
100
AcDbSymbolTableRecord
100
AcDbLayerTableRecord
  2
CLOSED_SHELL
 70
0
 62
7
  6
CONTINUOUS
370
-3
390
F
  0
LAYER
  5
215
100
AcDbSymbolTableRecord
100
AcDbLayerTableRecord
  2
ORIENTED_CLOSED_SHE
 70
0
 62
7
  6
CONTINUOUS
370
-3
390
F
  0
ENDTAB
  0
TABLE
  2
STYLE
  5
3
100
AcDbSymbolTable
 70
1
  0
STYLE
  5
11
100
AcDbSymbolTableRecord
100
AcDbTextStyleTableRecord
  2
STANDARD
 70
0
 40
0.0
 41
0.8
 50
0.0
 71
0
 42
0.2
  3
txt
  4

  0
STYLE
  5
216
100
AcDbSymbolTableRecord
100
AcDbTextStyleTableRecord
  2
TEXTSTYLE_1
 70
0
 40
0.0
 41
0.8
 50
0.0
 71
0
 42
0.2
  3
gdt
  4

  0
ENDTAB
  0
TABLE
  2
VIEW
  5
6
100
AcDbSymbolTable
 70
0
  0
ENDTAB
  0
TABLE
  2
UCS
  5
7
100
AcDbSymbolTable
 70
0
  0
ENDTAB
  0
TABLE
  2
APPID
  5
9
100
AcDbSymbolTable
 70
1
  0
APPID
  5
217
100
AcDbSymbolTableRecord
100
AcDbRegAppTableRecord
  2
ACAD
 70
0
  0
ENDTAB
  0
TABLE
  2
BLOCK_RECORD
  5
1
100
AcDbSymbolTable
 70
0
  0
BLOCK_RECORD
  5
218
100
AcDbSymbolTableRecord
100
AcDbBlockTableRecord
  2
*Model_Space
  0
BLOCK_RECORD
  5
219
100
AcDbSymbolTableRecord
100
AcDbBlockTableRecord
  2
*Paper_Space
  0
BLOCK_RECORD
  5
21A
100
AcDbSymbolTableRecord
100
AcDbBlockTableRecord
  2
_CLOSED
  0
ENDTAB
  0
TABLE
  2
DIMSTYLE
  5
A
100
AcDbSymbolTable
 70
1
100
AcDbDimStyleTable
 71
0
  0
DIMSTYLE
105
21B
100
AcDbSymbolTableRecord
100
AcDbDimStyleTableRecord
  2
STANDARD
 70
0
  3

  4

 40
1.0
 41
0.1875
 42
0.0625
 43
0.38
 44
0.125
 45
0.0
 46
0.0
 47
0.01
 48
0.01
140
0.15625
141
0.09
142
0.0
143
25.4
144
1.0
145
0.0
146
1.0
147
0.625
 71
0.0
 72
0.0
 73
1
 74
1
 75
0
 76
0
 77
0
 78
8
 79
2
170
0
171
1
172
0
173
0
174
0
175
0
176
0
177
0
178
0
270
2
179
2
271
2
272
2
273
2
274
2
275
0
280
0
281
0
282
0
283
1
284
8
285
0
286
0
287
3
288
0
340
11
278
46
341
21A
342
21A
343
21A
344
21A
  0
ENDTAB
  0
ENDSEC
  0
SECTION
  2
BLOCKS
  0
BLOCK
  5
20
100
AcDbEntity
  8
0
100
AcDbBlockBegin
  2
*Model_Space
 70
0
 10
0.0
 20
0.0
 30
0.0
  3
*Model_Space
  1

  0
ENDBLK
  5
21
100
AcDbEntity
  8
0
100
AcDbBlockEnd
  0
BLOCK
  5
1C
100
AcDbEntity
  8
0
100
AcDbBlockBegin
  2
*Paper_Space
 70
0
 10
0.0
 20
0.0
 30
0.0
  3
*Paper_Space
  1

  0
ENDBLK
  5
1D
100
AcDbEntity
  8
0
100
AcDbBlockEnd
  0
BLOCK
  5
21C
100
AcDbEntity
  8
0
100
AcDbBlockBegin
  2
_CLOSED
 70
64
 10
0.0
 20
0.0
  3
_CLOSED
  1

  0
LINE
  5
21D
100
AcDbEntity
  8
0
  6
BYBLOCK
 62
0
100
AcDbLine
 10
0.0
 20
0.0
 11
-1.0
 21
0.1666666667
  0
LINE
  5
21E
100
AcDbEntity
  8
0
  6
BYBLOCK
 62
0
100
AcDbLine
 10
-1.0
 20
0.1666666667
 11
-1.0
 21
-0.1666666667
  0
LINE
  5
21F
100
AcDbEntity
  8
0
  6
BYBLOCK
 62
0
100
AcDbLine
 10
-1.0
 20
-0.1666666667
 11
0.0
 21
0.0
  0
LINE
  5
220
100
AcDbEntity
  8
0
  6
BYBLOCK
 62
0
100
AcDbLine
 10
-1.0
 20
0.0
 11
0.0
 21
0.0
  0
ENDBLK
  5
221
100
AcDbEntity
  8
0
  6
BYBLOCK
 62
0
100
AcDbBlockEnd
  0
ENDSEC
  0
SECTION
  2
ENTITIES
  0
LINE
  5
222
100
AcDbEntity
  8
0
100
AcDbLine
 62
7
  6
CONTINUOUS
 10
121.8267472168
 20
217.9287015971
 11
122.3267241654
 21
216.2287015846
  0
LINE
  5
223
100
AcDbEntity
  8
0
100
AcDbLine
 62
7
  6
CONTINUOUS
 10
121.2649585645
 20
220.0950450742
 11
121.7896595113
 21
218.128701586
  0
LINE
  5
224
100
AcDbEntity
  8
0
100
AcDbLine
 62
7
  6
CONTINUOUS
 10
121.0400365798
 20
238.9786845766
 11
121.0400365798
 21
221.9787185916
  0
LINE
  5
225
100
AcDbEntity
  8
0
100
AcDbLine
 62
7
  6
CONTINUOUS
 10
121.2649573178
 20
240.86235295
 11
121.2649111702
 21
220.0952407101
  0
LINE
  5
226
100
AcDbEntity
  8
0
100
AcDbLine
 62
7
  6
CONTINUOUS
 10
121.8267472168
 20
243.0287015712
 11
122.3267241654
 21
244.7287015836
  0
LINE
  5
227
100
AcDbEntity
  8
0
100
AcDbLine
 62
7
  6
CONTINUOUS
 10
121.7896595113
 20
218.128701584
 11
121.7896595113
 21
242.8287015842
  0
LINE
  5
228
100
AcDbEntity
  8
0
100
AcDbLine
 62
7
  6
CONTINUOUS
 10
121.8267472168
 20
243.0287015841
 11
121.8267472168
 21
217.9287015971
  0
LINE
  5
229
100
AcDbEntity
  8
0
100
AcDbLine
 62
7
  6
CONTINUOUS
 10
122.3267241649
 20
216.2287015846
 11
122.3267241648
 21
244.7287015841
  0
LINE
  5
22A
100
AcDbEntity
  8
0
100
AcDbLine
 62
7
  6
CONTINUOUS
 10
150.8096595104
 20
211.9786993493
 11
157.3096595106
 21
213.1248247237
  0
LINE
  5
22B
100
AcDbEntity
  8
0
100
AcDbLine
 62
7
  6
CONTINUOUS
 10
164.98657778
 20
215.2841391128
 11
172.3575650598
 21
216.5838430447
  0
LINE
  5
22C
100
AcDbEntity
  8
0
100
AcDbLine
 62
7
  6
CONTINUOUS
 10
149.2096595109
 20
211.9786993493
 11
150.8096595104
 21
211.9786993493
  0
LINE
  5
22D
100
AcDbEntity
  8
0
100
AcDbLine
 62
7
  6
CONTINUOUS
 10
147.6096595113
 20
212.6609091464
 11
149.1096595113
 21
212.6609091464
  0
LINE
  5
22E
100
AcDbEntity
  8
0
100
AcDbLine
 62
7
  6
CONTINUOUS
 10
145.5096595113
 20
212.6786993493
 11
147.5096595113
 21
212.6786993493
  0
LINE
  5
22F
100
AcDbEntity
  8
0
100
AcDbLine
 62
7
  6
CONTINUOUS
 10
157.5096595113
 20
213.1248247237
 11
157.3096595113
 21
213.1248247237
  0
LINE
  5
230
100
AcDbEntity
  8
0
100
AcDbLine
 62
7
  6
CONTINUOUS
 10
149.2096595113
 20
213.5577226144
 11
149.1096595113
 21
213.5577226144
  0
LINE
  5
231
100
AcDbEntity
  8
0
100
AcDbLine
 62
7
  6
CONTINUOUS
 10
173.5884433821
 20
214.1786993493
 11
167.7226372051
 21
214.1786993493
  0
LINE
  5
232
100
AcDbEntity
  8
0
100
AcDbLine
 62
7
  6
CONTINUOUS
 10
145.509659512
 20
214.2896540244
 11
147.509659512
 21
214.2896540244
  0
LINE
  5
233
100
AcDbEntity
  8
0
100
AcDbLine
 62
7
  6
CONTINUOUS
 10
147.6096595113
 20
215.8114859549
 11
149.1096595113
 21
215.8114859549
  0
LINE
  5
234
100
AcDbEntity
  8
0
100
AcDbLine
 62
7
  6
CONTINUOUS
 10
136.8896595113
 20
215.9787015841
 11
135.3896595113
 21
215.9787015841
  0
LINE
  5
235
100
AcDbEntity
  8
0
100
AcDbLine
 62
7
  6
CONTINUOUS
 10
133.8896595113
 20
216.2287015841
 11
122.3267241654
 21
216.2287015841
  0
LINE
  5
236
100
AcDbEntity
  8
0
100
AcDbLine
 62
7
  6
CONTINUOUS
 10
157.5096595113
 20
216.5262180497
 11
157.3096595101
 21
216.5262180497
  0
LINE
  5
237
100
AcDbEntity
  8
0
100
AcDbLine
 62
7
  6
CONTINUOUS
 10
133.8896595113
 20
244.7285734083
 11
133.8896595113
 21
216.2288297599
  0
LINE
  5
238
100
AcDbEntity
  8
0
100
AcDbLine
 62
7
  6
CONTINUOUS
 10
135.1396595113
 20
216.9039426463
 11
135.1396595113
 21
244.0536533547
  0
LINE
  5
239
100
AcDbEntity
  8
0
100
AcDbLine
 62
7
  6
CONTINUOUS
 10
135.3896595113
 20
215.97881785
 11
135.3896595113
 21
244.9785853183
  0
LINE
  5
23A
100
AcDbEntity
  8
0
100
AcDbLine
 62
7
  6
CONTINUOUS
 10
135.1396595113
 20
216.9037015841
 11
133.8896595113
 21
216.9037015841
  0
LINE
  5
23B
100
AcDbEntity
  8
0
100
AcDbLine
 62
7
  6
CONTINUOUS
 10
141.0896595113
 20
217.2204769527
 11
139.3064544577
 21
217.2204769527
  0
LINE
  5
23C
100
AcDbEntity
  8
0
100
AcDbLine
 62
7
  6
CONTINUOUS
 10
141.0896595113
 20
217.2873983132
 11
136.8896595113
 21
217.2873983132
  0
LINE
  5
23D
100
AcDbEntity
  8
0
100
AcDbLine
 62
7
  6
CONTINUOUS
 10
149.1096595113
 20
217.3286993489
 11
149.2096595113
 21
217.3286993489
  0
LINE
  5
23E
100
AcDbEntity
  8
0
100
AcDbLine
 62
7
  6
CONTINUOUS
 10
141.0896595113
 20
217.4384017819
 11
136.8896595113
 21
217.4384017819
  0
LINE
  5
23F
100
AcDbEntity
  8
0
100
AcDbLine
 62
7
  6
CONTINUOUS
 10
147.509659512
 20
217.4786993493
 11
145.509659512
 21
217.4786993493
  0
LINE
  5
240
100
AcDbEntity
  8
0
100
AcDbLine
 62
7
  6
CONTINUOUS
 10
149.1096595113
 20
217.7533041172
 11
147.6096595113
 21
217.7533041172
  0
LINE
  5
241
100
AcDbEntity
  8
0
100
AcDbLine
 62
7
  6
CONTINUOUS
 10
154.2096595113
 20
217.7786993493
 11
149.2096595113
 21
217.7786993493
  0
LINE
  5
242
100
AcDbEntity
  8
0
100
AcDbLine
 62
7
  6
CONTINUOUS
 10
121.7896595118
 20
218.128701584
 11
121.8267472168
 21
218.128701584
  0
LINE
  5
243
100
AcDbEntity
  8
0
100
AcDbLine
 62
7
  6
CONTINUOUS
 10
157.3096595113
 20
218.3786993486
 11
157.3272724214
 21
218.3786993486
  0
LINE
  5
244
100
AcDbEntity
  8
0
100
AcDbLine
 62
7
  6
CONTINUOUS
 10
141.0896595113
 20
218.5652796912
 11
136.8896595113
 21
218.5652796912
  0
LINE
  5
245
100
AcDbEntity
  8
0
100
AcDbLine
 62
7
  6
CONTINUOUS
 10
136.8896595113
 20
244.9786087074
 11
136.8896595113
 21
243.5936444421
  0
LINE
  5
246
100
AcDbEntity
  8
0
100
AcDbLine
 62
7
  6
CONTINUOUS
 10
136.8896595113
 20
242.4897927346
 11
136.8896595113
 21
231.6802225491
  0
LINE
  5
247
100
AcDbEntity
  8
0
100
AcDbLine
 62
7
  6
CONTINUOUS
 10
136.8896595113
 20
229.4494929262
 11
136.8896595113
 21
218.5652796824
  0
LINE
  5
248
100
AcDbEntity
  8
0
100
AcDbLine
 62
7
  6
CONTINUOUS
 10
136.8896595113
 20
217.438401789
 11
136.8896595113
 21
215.9787944609
  0
LINE
  5
249
100
AcDbEntity
  8
0
100
AcDbLine
 62
7
  6
CONTINUOUS
 10
135.3896595113
 20
219.6037015841
 11
135.1396595113
 21
219.6037015841
  0
LINE
  5
24A
100
AcDbEntity
  8
0
100
AcDbLine
 62
7
  6
CONTINUOUS
 10
147.086018125
 20
220.3514415155
 11
141.3896595113
 21
220.3514415155
  0
LINE
  5
24B
100
AcDbEntity
  8
0
100
AcDbLine
 62
7
  6
CONTINUOUS
 10
147.089659512
 20
220.3633863376
 11
147.2657354828
 21
220.3633863376
  0
LINE
  5
24C
100
AcDbEntity
  8
0
100
AcDbLine
 62
7
  6
CONTINUOUS
 10
141.3896595113
 20
220.4063203592
 11
147.086018125
 21
220.4063203592
  0
LINE
  5
24D
100
AcDbEntity
  8
0
100
AcDbLine
 62
7
  6
CONTINUOUS
 10
141.0896595113
 20
220.5554311274
 11
140.1774333828
 21
220.5554311274
  0
LINE
  5
24E
100
AcDbEntity
  8
0
100
AcDbLine
 62
7
  6
CONTINUOUS
 10
147.509659512
 20
220.8072922907
 11
147.2896595113
 21
220.8072922907
  0
LINE
  5
24F
100
AcDbEntity
  8
0
100
AcDbLine
 62
7
  6
CONTINUOUS
 10
147.2896595113
 20
220.838281491
 11
147.509659512
 21
220.838281491
  0
LINE
  5
250
100
AcDbEntity
  8
0
100
AcDbLine
 62
7
  6
CONTINUOUS
 10
154.2096595113
 20
217.7786993493
 11
157.3096595113
 21
216.5262180492
  0
LINE
  5
251
100
AcDbEntity
  8
0
100
AcDbLine
 62
7
  6
CONTINUOUS
 10
152.1953001568
 20
245.7519044304
 11
150.6096595121
 21
244.836434376
  0
LINE
  5
252
100
AcDbEntity
  8
0
100
AcDbLine
 62
7
  6
CONTINUOUS
 10
147.5096595113
 20
223.4786993493
 11
147.6096595113
 21
223.4786993493
  0
LINE
  5
253
100
AcDbEntity
  8
0
100
AcDbLine
 62
7
  6
CONTINUOUS
 10
149.1096595113
 20
223.4786993493
 11
149.2096595113
 21
223.4786993493
  0
LINE
  5
254
100
AcDbEntity
  8
0
100
AcDbLine
 62
7
  6
CONTINUOUS
 10
157.3096595113
 20
218.3858154261
 11
167.7226372054
 21
214.1786993493
  0
LINE
  5
255
100
AcDbEntity
  8
0
100
AcDbLine
 62
7
  6
CONTINUOUS
 10
141.0896595106
 20
243.7369262155
 11
141.0896594149
 21
240.2096633239
  0
LINE
  5
256
100
AcDbEntity
  8
0
100
AcDbLine
 62
7
  6
CONTINUOUS
 10
141.0896595113
 20
233.0559272771
 11
141.0896595113
 21
228.0559894292
  0
LINE
  5
257
100
AcDbEntity
  8
0
100
AcDbLine
 62
7
  6
CONTINUOUS
 10
141.0896595113
 20
220.8487627506
 11
141.0896595113
 21
217.2204769527
  0
LINE
  5
258
100
AcDbEntity
  8
0
100
AcDbLine
 62
7
  6
CONTINUOUS
 10
141.1922655544
 20
239.7860167341
 11
141.1922655544
 21
233.2903653949
  0
LINE
  5
259
100
AcDbEntity
  8
0
100
AcDbLine
 62
7
  6
CONTINUOUS
 10
141.1924151487
 20
227.8132822288
 11
141.1924151487
 21
221.2728239977
  0
LINE
  5
25A
100
AcDbEntity
  8
0
100
AcDbLine
 62
7
  6
CONTINUOUS
 10
141.3896595113
 20
217.5205373491
 11
141.3896595113
 21
243.4368658191
  0
LINE
  5
25B
100
AcDbEntity
  8
0
100
AcDbLine
 62
7
  6
CONTINUOUS
 10
141.6896595113
 20
240.6785204547
 11
141.6896595113
 21
240.6059616527
  0
LINE
  5
25C
100
AcDbEntity
  8
0
100
AcDbLine
 62
7
  6
CONTINUOUS
 10
167.7226372051
 20
246.1786993493
 11
156.5096595109
 21
242.47869935
  0
LINE
  5
25D
100
AcDbEntity
  8
0
100
AcDbLine
 62
7
  6
CONTINUOUS
 10
149.2096595109
 20
225.2616236761
 11
149.1096595113
 21
225.2616236761
  0
LINE
  5
25E
100
AcDbEntity
  8
0
100
AcDbLine
 62
7
  6
CONTINUOUS
 10
147.6096595113
 20
225.2616236761
 11
147.2903545678
 21
225.2616236761
  0
LINE
  5
25F
100
AcDbEntity
  8
0
100
AcDbLine
 62
7
  6
CONTINUOUS
 10
135.1396595113
 20
225.5020862723
 11
133.8896595113
 21
225.5020862723
  0
LINE
  5
260
100
AcDbEntity
  8
0
100
AcDbLine
 62
7
  6
CONTINUOUS
 10
154.1096595113
 20
226.3786993493
 11
154.6096595113
 21
226.3786993493
  0
LINE
  5
261
100
AcDbEntity
  8
0
100
AcDbLine
 62
7
  6
CONTINUOUS
 10
154.1096595109
 20
228.0286993493
 11
154.6096595105
 21
228.0286993493
  0
LINE
  5
262
100
AcDbEntity
  8
0
100
AcDbLine
 62
7
  6
CONTINUOUS
 10
140.1746773265
 20
228.0559894292
 11
141.0896594193
 21
228.0559894292
  0
LINE
  5
263
100
AcDbEntity
  8
0
100
AcDbLine
 62
7
  6
CONTINUOUS
 10
154.1096595113
 20
228.1786993493
 11
154.6096595113
 21
228.1786993493
  0
LINE
  5
264
100
AcDbEntity
  8
0
100
AcDbLine
 62
7
  6
CONTINUOUS
 10
145.5096595113
 20
251.7786993493
 11
145.5096595113
 21
243.9786993493
  0
LINE
  5
265
100
AcDbEntity
  8
0
100
AcDbLine
 62
7
  6
CONTINUOUS
 10
145.5096595113
 20
212.6786993486
 11
145.509659512
 21
217.4786993493
  0
LINE
  5
266
100
AcDbEntity
  8
0
100
AcDbLine
 62
7
  6
CONTINUOUS
 10
147.086018125
 20
240.6059616526
 11
147.086018125
 21
232.2939932484
  0
LINE
  5
267
100
AcDbEntity
  8
0
100
AcDbLine
 62
7
  6
CONTINUOUS
 10
147.086018125
 20
228.7940554004
 11
147.086018125
 21
220.4063203593
  0
LINE
  5
268
100
AcDbEntity
  8
0
100
AcDbLine
 62
7
  6
CONTINUOUS
 10
147.0896595113
 20
220.3943755376
 11
147.0896595113
 21
220.3633863372
  0
LINE
  5
269
100
AcDbEntity
  8
0
100
AcDbLine
 62
7
  6
CONTINUOUS
 10
147.2896595113
 20
220.455607724
 11
147.2896595113
 21
240.5917215971
  0
LINE
  5
26A
100
AcDbEntity
  8
0
100
AcDbLine
 62
7
  6
CONTINUOUS
 10
157.0096595112
 20
246.1786993493
 11
156.5096595109
 21
245.678699349
  0
LINE
  5
26B
100
AcDbEntity
  8
0
100
AcDbLine
 62
7
  6
CONTINUOUS
 10
147.0860181249
 20
228.7940554005
 11
141.3896595113
 21
228.7940554005
  0
LINE
  5
26C
100
AcDbEntity
  8
0
100
AcDbLine
 62
7
  6
CONTINUOUS
 10
141.0896595113
 20
229.449492932
 11
136.8896595113
 21
229.449492932
  0
LINE
  5
26D
100
AcDbEntity
  8
0
100
AcDbLine
 62
7
  6
CONTINUOUS
 10
157.3096595113
 20
223.1232529878
 11
154.1096595113
 21
225.5786993493
  0
LINE
  5
26E
100
AcDbEntity
  8
0
100
AcDbLine
 62
7
  6
CONTINUOUS
 10
154.1096595105
 20
225.9786993501
 11
157.5253209871
 21
223.3100921337
  0
LINE
  5
26F
100
AcDbEntity
  8
0
100
AcDbLine
 62
7
  6
CONTINUOUS
 10
147.5096595113
 20
243.9786993493
 11
147.5096595113
 21
237.4786993493
  0
LINE
  5
270
100
AcDbEntity
  8
0
100
AcDbLine
 62
7
  6
CONTINUOUS
 10
147.509659512
 20
223.4786993493
 11
147.509659512
 21
217.4786993493
  0
LINE
  5
271
100
AcDbEntity
  8
0
100
AcDbLine
 62
7
  6
CONTINUOUS
 10
147.5096595113
 20
216.5204089724
 11
147.5096595113
 21
212.6786993486
  0
LINE
  5
272
100
AcDbEntity
  8
0
100
AcDbLine
 62
7
  6
CONTINUOUS
 10
147.5096595113
 20
247.3286993493
 11
147.5096595113
 21
251.7786993493
  0
LINE
  5
273
100
AcDbEntity
  8
0
100
AcDbLine
 62
7
  6
CONTINUOUS
 10
147.6096595113
 20
212.6609091465
 11
147.6096595113
 21
249.9627516061
  0
LINE
  5
274
100
AcDbEntity
  8
0
100
AcDbLine
 62
7
  6
CONTINUOUS
 10
149.1096595113
 20
212.6609091464
 11
149.1096595113
 21
249.9627516061
  0
LINE
  5
275
100
AcDbEntity
  8
0
100
AcDbLine
 62
7
  6
CONTINUOUS
 10
149.1896595113
 20
227.5356044978
 11
149.1896595113
 21
233.5354979513
  0
LINE
  5
276
100
AcDbEntity
  8
0
100
AcDbLine
 62
7
  6
CONTINUOUS
 10
149.2096595109
 20
211.9786993493
 11
149.2096595113
 21
253.2285811137
  0
LINE
  5
277
100
AcDbEntity
  8
0
100
AcDbLine
 62
7
  6
CONTINUOUS
 10
147.2909342666
 20
225.2616025972
 11
147.6096595113
 21
227.5356044978
  0
LINE
  5
278
100
AcDbEntity
  8
0
100
AcDbLine
 62
7
  6
CONTINUOUS
 10
149.1896595113
 20
233.5354979513
 11
149.2096595109
 21
233.6774967716
  0
LINE
  5
279
100
AcDbEntity
  8
0
100
AcDbLine
 62
7
  6
CONTINUOUS
 10
152.8392083838
 20
241.3616621558
 11
152.9334613707
 21
241.5316990382
  0
LINE
  5
27A
100
AcDbEntity
  8
0
100
AcDbLine
 62
7
  6
CONTINUOUS
 10
141.0896595113
 20
231.6802225494
 11
136.889659512
 21
231.6802225494
  0
LINE
  5
27B
100
AcDbEntity
  8
0
100
AcDbLine
 62
7
  6
CONTINUOUS
 10
154.1096595113
 20
232.1786993493
 11
154.6096595113
 21
232.1786993493
  0
LINE
  5
27C
100
AcDbEntity
  8
0
100
AcDbLine
 62
7
  6
CONTINUOUS
 10
141.3896595113
 20
232.2939932484
 11
147.086018125
 21
232.2939932484
  0
LINE
  5
27D
100
AcDbEntity
  8
0
100
AcDbLine
 62
7
  6
CONTINUOUS
 10
154.1096595105
 20
232.3286993497
 11
154.6096595105
 21
232.3286993497
  0
LINE
  5
27E
100
AcDbEntity
  8
0
100
AcDbLine
 62
7
  6
CONTINUOUS
 10
172.8560724795
 20
214.1786993493
 11
173.0888250192
 21
213.9968531367
  0
LINE
  5
27F
100
AcDbEntity
  8
0
100
AcDbLine
 62
7
  6
CONTINUOUS
 10
147.6096595112
 20
233.5354985465
 11
147.2909871476
 21
235.7967351568
  0
LINE
  5
280
100
AcDbEntity
  8
0
100
AcDbLine
 62
7
  6
CONTINUOUS
 10
149.2096595109
 20
227.3929935886
 11
149.1896595113
 21
227.5356044978
  0
LINE
  5
281
100
AcDbEntity
  8
0
100
AcDbLine
 62
7
  6
CONTINUOUS
 10
150.5096595105
 20
244.6632292946
 11
150.5096595105
 21
243.557410371
  0
LINE
  5
282
100
AcDbEntity
  8
0
100
AcDbLine
 62
7
  6
CONTINUOUS
 10
151.5096595113
 20
253.2285811136
 11
151.5096595113
 21
249.9519044296
  0
LINE
  5
283
100
AcDbEntity
  8
0
100
AcDbLine
 62
7
  6
CONTINUOUS
 10
153.2611858649
 20
242.9786993493
 11
152.9085319033
 21
240.9786993493
  0
LINE
  5
284
100
AcDbEntity
  8
0
100
AcDbLine
 62
7
  6
CONTINUOUS
 10
152.9869651091
 20
241.6786993488
 11
153.2859534756
 21
243.2168611479
  0
LINE
  5
285
100
AcDbEntity
  8
0
100
AcDbLine
 62
7
  6
CONTINUOUS
 10
147.2896595113
 20
220.455607724
 11
147.2657354828
 21
220.3633863376
  0
LINE
  5
286
100
AcDbEntity
  8
0
100
AcDbLine
 62
7
  6
CONTINUOUS
 10
141.0896595113
 20
233.0559272771
 11
140.1486551616
 21
233.0559272771
  0
LINE
  5
287
100
AcDbEntity
  8
0
100
AcDbLine
 62
7
  6
CONTINUOUS
 10
154.6096595113
 20
233.9786993493
 11
154.1096595113
 21
233.9786993493
  0
LINE
  5
288
100
AcDbEntity
  8
0
100
AcDbLine
 62
7
  6
CONTINUOUS
 10
154.1096595113
 20
248.2775886494
 11
154.1096595113
 21
245.77869935
  0
LINE
  5
289
100
AcDbEntity
  8
0
100
AcDbLine
 62
7
  6
CONTINUOUS
 10
154.1096595113
 20
242.9786993493
 11
154.1096595113
 21
225.578699349
  0
LINE
  5
28A
100
AcDbEntity
  8
0
100
AcDbLine
 62
7
  6
CONTINUOUS
 10
173.0888250186
 20
246.3605455621
 11
172.8560724802
 21
246.1786993493
  0
LINE
  5
28B
100
AcDbEntity
  8
0
100
AcDbLine
 62
7
  6
CONTINUOUS
 10
133.8896595113
 20
235.6054953284
 11
135.1396595113
 21
235.6054953284
  0
LINE
  5
28C
100
AcDbEntity
  8
0
100
AcDbLine
 62
7
  6
CONTINUOUS
 10
147.2902395194
 20
235.7979074409
 11
147.6096595113
 21
235.7979074409
  0
LINE
  5
28D
100
AcDbEntity
  8
0
100
AcDbLine
 62
7
  6
CONTINUOUS
 10
149.1096595113
 20
235.7979074409
 11
149.2096595109
 21
235.7979074409
  0
LINE
  5
28E
100
AcDbEntity
  8
0
100
AcDbLine
 62
7
  6
CONTINUOUS
 10
147.5096595113
 20
237.4786993493
 11
147.6096595113
 21
237.4786993493
  0
LINE
  5
28F
100
AcDbEntity
  8
0
100
AcDbLine
 62
7
  6
CONTINUOUS
 10
149.1096595113
 20
237.4786993493
 11
149.2096595113
 21
237.4786993493
  0
LINE
  5
290
100
AcDbEntity
  8
0
100
AcDbLine
 62
7
  6
CONTINUOUS
 10
140.1746772627
 20
240.5050209502
 11
141.0896594149
 21
240.2096633239
  0
LINE
  5
291
100
AcDbEntity
  8
0
100
AcDbLine
 62
7
  6
CONTINUOUS
 10
154.6096595113
 20
226.3786993493
 11
154.6096595113
 21
233.9786993501
  0
LINE
  5
292
100
AcDbEntity
  8
0
100
AcDbLine
 62
7
  6
CONTINUOUS
 10
154.8096595113
 20
248.3786993494
 11
154.8096595113
 21
245.8786993493
  0
LINE
  5
293
100
AcDbEntity
  8
0
100
AcDbLine
 62
7
  6
CONTINUOUS
 10
155.1096595113
 20
242.9786993493
 11
155.1096595113
 21
242.8541215167
  0
LINE
  5
294
100
AcDbEntity
  8
0
100
AcDbLine
 62
7
  6
CONTINUOUS
 10
155.3096595113
 20
245.7786993493
 11
155.3096595113
 21
242.9786993493
  0
LINE
  5
295
100
AcDbEntity
  8
0
100
AcDbLine
 62
7
  6
CONTINUOUS
 10
155.6096595113
 20
242.4786993493
 11
155.6096595113
 21
243.0786993493
  0
LINE
  5
296
100
AcDbEntity
  8
0
100
AcDbLine
 62
7
  6
CONTINUOUS
 10
155.6096595113
 20
245.6286993493
 11
155.6096595113
 21
245.7786993493
  0
LINE
  5
297
100
AcDbEntity
  8
0
100
AcDbLine
 62
7
  6
CONTINUOUS
 10
156.409659512
 20
242.4786993493
 11
156.4096595113
 21
245.7786993493
  0
LINE
  5
298
100
AcDbEntity
  8
0
100
AcDbLine
 62
7
  6
CONTINUOUS
 10
156.5096595113
 20
242.47869935
 11
156.5096595113
 21
245.6786993493
  0
LINE
  5
299
100
AcDbEntity
  8
0
100
AcDbLine
 62
7
  6
CONTINUOUS
 10
139.3064544577
 20
243.7369262155
 11
136.8896595113
 21
244.6165676383
  0
LINE
  5
29A
100
AcDbEntity
  8
0
100
AcDbLine
 62
7
  6
CONTINUOUS
 10
157.3096595113
 20
223.1232529883
 11
157.3096595113
 21
216.5262180497
  0
LINE
  5
29B
100
AcDbEntity
  8
0
100
AcDbLine
 62
7
  6
CONTINUOUS
 10
157.5096595113
 20
216.5262180497
 11
157.5096595113
 21
213.1248247237
  0
LINE
  5
29C
100
AcDbEntity
  8
0
100
AcDbLine
 62
7
  6
CONTINUOUS
 10
157.9096595113
 20
218.1433996908
 11
157.9096595113
 21
222.52208138
  0
LINE
  5
29D
100
AcDbEntity
  8
0
100
AcDbLine
 62
7
  6
CONTINUOUS
 10
141.0896595113
 20
220.8487627506
 11
140.1774333828
 21
220.5554311274
  0
LINE
  5
29E
100
AcDbEntity
  8
0
100
AcDbLine
 62
7
  6
CONTINUOUS
 10
140.0747041023
 20
220.9146068623
 11
141.1924346166
 21
221.2724329209
  0
LINE
  5
29F
100
AcDbEntity
  8
0
100
AcDbLine
 62
7
  6
CONTINUOUS
 10
154.1096595113
 20
242.6415649554
 11
155.6096595113
 21
242.9603997975
  0
LINE
  5
2A0
100
AcDbEntity
  8
0
100
AcDbLine
 62
7
  6
CONTINUOUS
 10
156.4096595113
 20
243.1304450468
 11
156.5096595113
 21
243.151700703
  0
LINE
  5
2A1
100
AcDbEntity
  8
0
100
AcDbLine
 62
7
  6
CONTINUOUS
 10
147.2896595113
 20
240.4787015841
 11
147.5096595113
 21
240.4787015841
  0
LINE
  5
2A2
100
AcDbEntity
  8
0
100
AcDbLine
 62
7
  6
CONTINUOUS
 10
140.1746772627
 20
240.5050209502
 11
141.0896594149
 21
240.5050209502
  0
LINE
  5
2A3
100
AcDbEntity
  8
0
100
AcDbLine
 62
7
  6
CONTINUOUS
 10
147.086018125
 20
240.6059616527
 11
141.3896595113
 21
240.6059616527
  0
LINE
  5
2A4
100
AcDbEntity
  8
0
100
AcDbLine
 62
7
  6
CONTINUOUS
 10
149.2096595105
 20
240.9786993493
 11
152.9085319035
 21
240.9786993493
  0
LINE
  5
2A5
100
AcDbEntity
  8
0
100
AcDbLine
 62
7
  6
CONTINUOUS
 10
173.7096595113
 20
241.1786993493
 11
176.4180890476
 21
241.1786993493
  0
LINE
  5
2A6
100
AcDbEntity
  8
0
100
AcDbLine
 62
7
  6
CONTINUOUS
 10
135.3896595113
 20
241.3537015841
 11
135.1396595113
 21
241.3537015841
  0
LINE
  5
2A7
100
AcDbEntity
  8
0
100
AcDbLine
 62
7
  6
CONTINUOUS
 10
141.3897569765
 20
240.6796374911
 11
141.6896595113
 21
240.6785204551
  0
LINE
  5
2A8
100
AcDbEntity
  8
0
100
AcDbLine
 62
7
  6
CONTINUOUS
 10
150.5633048661
 20
243.4211007306
 11
152.5179715253
 21
241.3223897094
  0
LINE
  5
2A9
100
AcDbEntity
  8
0
100
AcDbLine
 62
7
  6
CONTINUOUS
 10
139.4903193843
 20
217.2873983132
 11
136.8896595113
 21
216.3408355299
  0
LINE
  5
2AA
100
AcDbEntity
  8
0
100
AcDbLine
 62
7
  6
CONTINUOUS
 10
156.5096595113
 20
244.8691602294
 11
156.4096595113
 21
244.8423653101
  0
LINE
  5
2AB
100
AcDbEntity
  8
0
100
AcDbLine
 62
7
  6
CONTINUOUS
 10
154.1096595113
 20
242.4786993493
 11
156.5096595116
 21
242.4786993493
  0
LINE
  5
2AC
100
AcDbEntity
  8
0
100
AcDbLine
 62
7
  6
CONTINUOUS
 10
141.0896595106
 20
242.4897927343
 11
136.8896595113
 21
242.4897927343
  0
LINE
  5
2AD
100
AcDbEntity
  8
0
100
AcDbLine
 62
7
  6
CONTINUOUS
 10
176.7096595113
 20
242.6786993493
 11
177.2329580747
 21
242.6786993493
  0
LINE
  5
2AE
100
AcDbEntity
  8
0
100
AcDbLine
 62
7
  6
CONTINUOUS
 10
121.7896595113
 20
242.8287015842
 11
121.8267472168
 21
242.8287015842
  0
LINE
  5
2AF
100
AcDbEntity
  8
0
100
AcDbLine
 62
7
  6
CONTINUOUS
 10
153.2611858655
 20
242.9786993493
 11
155.3096595113
 21
242.9786993493
  0
LINE
  5
2B0
100
AcDbEntity
  8
0
100
AcDbLine
 62
7
  6
CONTINUOUS
 10
156.4096595113
 20
243.0786993493
 11
155.3096595113
 21
243.0786993493
  0
LINE
  5
2B1
100
AcDbEntity
  8
0
100
AcDbLine
 62
7
  6
CONTINUOUS
 10
153.6322789121
 20
243.3786993493
 11
153.4822789121
 21
243.3786993493
  0
LINE
  5
2B2
100
AcDbEntity
  8
0
100
AcDbLine
 62
7
  6
CONTINUOUS
 10
141.0896595113
 20
243.5936444423
 11
136.889659512
 21
243.5936444423
  0
LINE
  5
2B3
100
AcDbEntity
  8
0
100
AcDbLine
 62
7
  6
CONTINUOUS
 10
141.0896595106
 20
243.7369262155
 11
136.8896595113
 21
243.7369262155
  0
LINE
  5
2B4
100
AcDbEntity
  8
0
100
AcDbLine
 62
7
  6
CONTINUOUS
 10
147.5096595113
 20
243.9786993493
 11
145.5096595113
 21
243.9786993493
  0
LINE
  5
2B5
100
AcDbEntity
  8
0
100
AcDbLine
 62
7
  6
CONTINUOUS
 10
135.1396595113
 20
244.0537015841
 11
133.8896595113
 21
244.0537015841
  0
LINE
  5
2B6
100
AcDbEntity
  8
0
100
AcDbLine
 62
7
  6
CONTINUOUS
 10
133.8896595113
 20
244.7287015841
 11
122.3267241654
 21
244.7287015841
  0
LINE
  5
2B7
100
AcDbEntity
  8
0
100
AcDbLine
 62
7
  6
CONTINUOUS
 10
136.8896595113
 20
244.9787015841
 11
135.389659512
 21
244.9787015841
  0
LINE
  5
2B8
100
AcDbEntity
  8
0
100
AcDbLine
 62
7
  6
CONTINUOUS
 10
155.3096595113
 20
245.6286993493
 11
156.4096595113
 21
245.6286993493
  0
LINE
  5
2B9
100
AcDbEntity
  8
0
100
AcDbLine
 62
7
  6
CONTINUOUS
 10
156.4096595113
 20
245.7786993493
 11
155.609659512
 21
245.7786993493
  0
LINE
  5
2BA
100
AcDbEntity
  8
0
100
AcDbLine
 62
7
  6
CONTINUOUS
 10
155.3096595113
 20
245.77869935
 11
152.2953001582
 21
245.77869935
  0
LINE
  5
2BB
100
AcDbEntity
  8
0
100
AcDbLine
 62
7
  6
CONTINUOUS
 10
154.8096595105
 20
245.8786993493
 11
154.1096595113
 21
245.8786993493
  0
LINE
  5
2BC
100
AcDbEntity
  8
0
100
AcDbLine
 62
7
  6
CONTINUOUS
 10
157.0096595106
 20
246.1786993493
 11
173.5884433818
 21
246.1786993493
  0
LINE
  5
2BD
100
AcDbEntity
  8
0
100
AcDbLine
 62
7
  6
CONTINUOUS
 10
147.6096595113
 20
246.4123108302
 11
149.1096595113
 21
246.4123108302
  0
LINE
  5
2BE
100
AcDbEntity
  8
0
100
AcDbLine
 62
7
  6
CONTINUOUS
 10
166.8096595106
 20
246.6786993493
 11
165.9176146639
 21
246.6786993493
  0
LINE
  5
2BF
100
AcDbEntity
  8
0
100
AcDbLine
 62
7
  6
CONTINUOUS
 10
165.3260066842
 20
247.1786993493
 11
163.2880713098
 21
247.1786993493
  0
LINE
  5
2C0
100
AcDbEntity
  8
0
100
AcDbLine
 62
7
  6
CONTINUOUS
 10
149.2096595113
 20
247.3286993493
 11
149.1096595116
 21
247.3286993493
  0
LINE
  5
2C1
100
AcDbEntity
  8
0
100
AcDbLine
 62
7
  6
CONTINUOUS
 10
147.6096595116
 20
247.3286993493
 11
147.5096595113
 21
247.3286993493
  0
LINE
  5
2C2
100
AcDbEntity
  8
0
100
AcDbLine
 62
7
  6
CONTINUOUS
 10
149.1096595113
 20
249.1786993493
 11
147.6096595113
 21
249.1786993493
  0
LINE
  5
2C3
100
AcDbEntity
  8
0
100
AcDbLine
 62
7
  6
CONTINUOUS
 10
172.3575650593
 20
243.773555654
 11
164.5864031622
 21
245.143821168
  0
LINE
  5
2C4
100
AcDbEntity
  8
0
100
AcDbLine
 62
7
  6
CONTINUOUS
 10
154.8096595113
 20
248.3786993493
 11
151.6924945571
 21
249.7011329662
  0
LINE
  5
2C5
100
AcDbEntity
  8
0
100
AcDbLine
 62
7
  6
CONTINUOUS
 10
154.1096595113
 20
248.2775886494
 11
151.6596595112
 21
249.692096809
  0
LINE
  5
2C6
100
AcDbEntity
  8
0
100
AcDbLine
 62
7
  6
CONTINUOUS
 10
167.1096595113
 20
246.1786993493
 11
167.1096595113
 21
246.3786993486
  0
LINE
  5
2C7
100
AcDbEntity
  8
0
100
AcDbLine
 62
7
  6
CONTINUOUS
 10
149.2096595109
 20
249.4013490793
 11
152.1632493511
 21
249.4013490793
  0
LINE
  5
2C8
100
AcDbEntity
  8
0
100
AcDbLine
 62
7
  6
CONTINUOUS
 10
147.6096595113
 20
249.9627516062
 11
149.1096595113
 21
249.9627516062
  0
LINE
  5
2C9
100
AcDbEntity
  8
0
100
AcDbLine
 62
7
  6
CONTINUOUS
 10
151.509659512
 20
250.2673744836
 11
149.2096595113
 21
250.2673744836
  0
LINE
  5
2CA
100
AcDbEntity
  8
0
100
AcDbLine
 62
7
  6
CONTINUOUS
 10
149.2096595113
 20
251.6447247534
 11
151.509659512
 21
251.6447247534
  0
LINE
  5
2CB
100
AcDbEntity
  8
0
100
AcDbLine
 62
7
  6
CONTINUOUS
 10
151.5096595113
 20
251.7786993493
 11
149.2096595105
 21
251.7786993493
  0
LINE
  5
2CC
100
AcDbEntity
  8
0
100
AcDbLine
 62
7
  6
CONTINUOUS
 10
147.5096595113
 20
251.7786993493
 11
145.5096595113
 21
251.7786993493
  0
LINE
  5
2CD
100
AcDbEntity
  8
0
100
AcDbLine
 62
7
  6
CONTINUOUS
 10
151.5096595113
 20
252.1519578828
 11
149.2096595107
 21
252.1519578828
  0
LINE
  5
2CE
100
AcDbEntity
  8
0
100
AcDbLine
 62
7
  6
CONTINUOUS
 10
151.5096595113
 20
253.2286993493
 11
149.2096595113
 21
253.2286993493
  0
LINE
  5
2CF
100
AcDbEntity
  8
0
100
AcDbLine
 62
7
  6
CONTINUOUS
 10
177.709659512
 20
244.6786993493
 11
173.0888250186
 21
246.3605455621
  0
LINE
  5
2D0
100
AcDbEntity
  8
0
100
AcDbLine
 62
7
  6
CONTINUOUS
 10
172.7096595113
 20
214.1786993493
 11
172.7096595113
 21
216.2884007178
  0
LINE
  5
2D1
100
AcDbEntity
  8
0
100
AcDbLine
 62
7
  6
CONTINUOUS
 10
172.7096595113
 20
244.0689979808
 11
172.7096595113
 21
246.1786993488
  0
LINE
  5
2D2
100
AcDbEntity
  8
0
100
AcDbLine
 62
7
  6
CONTINUOUS
 10
173.7096595113
 20
246.1345802855
 11
173.7096595113
 21
241.1786993493
  0
LINE
  5
2D3
100
AcDbEntity
  8
0
100
AcDbLine
 62
7
  6
CONTINUOUS
 10
176.7096595121
 20
242.6786993493
 11
176.4180890479
 21
241.1786993493
  0
LINE
  5
2D4
100
AcDbEntity
  8
0
100
AcDbLine
 62
7
  6
CONTINUOUS
 10
173.0888250192
 20
213.9968531367
 11
177.709659512
 21
215.6786993493
  0
LINE
  5
2D5
100
AcDbEntity
  8
0
100
AcDbLine
 62
7
  6
CONTINUOUS
 10
177.709659512
 20
242.2786993489
 11
177.2329580735
 21
242.6786993493
  0
LINE
  5
2D6
100
AcDbEntity
  8
0
100
AcDbLine
 62
7
  6
CONTINUOUS
 10
177.7096595113
 20
244.6786993493
 11
177.7096595113
 21
215.6786993493
  0
ARC
  5
2D7
100
AcDbEntity
  8
0
100
AcDbCircle
 62
7
  6
CONTINUOUS
 10
164.1250761233
 20
230.4787015851
 40
44.0999999965
100
AcDbArc
 50
163.7370885597
 51
166.3814333624
  0
ARC
  5
2D8
100
AcDbEntity
  8
0
100
AcDbCircle
 62
7
  6
CONTINUOUS
 10
129.0400365797
 20
238.9787015841
 40
7.9999999999
100
AcDbArc
 50
166.3814333619
 51
180.0
  0
ARC
  5
2D9
100
AcDbEntity
  8
0
100
AcDbCircle
 62
7
  6
CONTINUOUS
 10
129.0400365797
 20
221.9787015841
 40
7.9999999999
100
AcDbArc
 50
180.0
 51
193.6171294333
  0
ARC
  5
2DA
100
AcDbEntity
  8
0
100
AcDbCircle
 62
7
  6
CONTINUOUS
 10
159.2096595113
 20
249.4098171274
 40
4.5
100
AcDbArc
 50
313.8962507831
 51
328.1756997697
  0
ARC
  5
2DB
100
AcDbEntity
  8
0
100
AcDbCircle
 62
7
  6
CONTINUOUS
 10
156.9096497998
 20
222.5220766435
 40
1.0000097115
100
AcDbArc
 50
0.0002713818
 51
51.9997285906
  0
ARC
  5
2DC
100
AcDbEntity
  8
0
100
AcDbCircle
 62
7
  6
CONTINUOUS
 10
152.4961515177
 20
241.774103847
 40
0.5
100
AcDbArc
 50
331.0000000972
 51
348.9999999401
  0
ARC
  5
2DD
100
AcDbEntity
  8
0
100
AcDbCircle
 62
7
  6
CONTINUOUS
 10
172.4096385671
 20
216.2883797735
 40
0.300020945
100
AcDbArc
 50
359.9833366779
 51
99.9968301497
  0
ARC
  5
2DE
100
AcDbEntity
  8
0
100
AcDbCircle
 62
7
  6
CONTINUOUS
 10
172.4096385671
 20
244.0690189251
 40
0.300020945
100
AcDbArc
 50
260.0031699855
 51
359.987996871
  0
ARC
  5
2DF
100
AcDbEntity
  8
0
100
AcDbCircle
 62
7
  6
CONTINUOUS
 10
141.0896595113
 20
243.4369262155
 40
0.3
100
AcDbArc
 50
0.0
 51
90.0
  0
ARC
  5
2E0
100
AcDbEntity
  8
0
100
AcDbCircle
 62
7
  6
CONTINUOUS
 10
141.0896595113
 20
217.5204769527
 40
0.3
100
AcDbArc
 50
270.0
 51
360.0
  0
ARC
  5
2E1
100
AcDbEntity
  8
0
100
AcDbCircle
 62
7
  6
CONTINUOUS
 10
141.0896595113
 20
217.5873983132
 40
0.3
100
AcDbArc
 50
270.0
 51
360.0
  0
ARC
  5
2E2
100
AcDbEntity
  8
0
100
AcDbCircle
 62
7
  6
CONTINUOUS
 10
141.0896595113
 20
232.7559272771
 40
0.3
100
AcDbArc
 50
0.0
 51
90.0
  0
ARC
  5
2E3
100
AcDbEntity
  8
0
100
AcDbCircle
 62
7
  6
CONTINUOUS
 10
151.8096595113
 20
249.9519044301
 40
0.3
100
AcDbArc
 50
180.0000000955
 51
239.9999999966
  0
ARC
  5
2E4
100
AcDbEntity
  8
0
100
AcDbCircle
 62
7
  6
CONTINUOUS
 10
151.8096595113
 20
249.9773075007
 40
0.3
100
AcDbArc
 50
213.5056415905
 51
247.01128318
  0
ARC
  5
2E5
100
AcDbEntity
  8
0
100
AcDbCircle
 62
7
  6
CONTINUOUS
 10
166.8096595113
 20
246.3786993493
 40
0.3
100
AcDbArc
 50
359.9999998663
 51
90.0000001337
  0
ARC
  5
2E6
100
AcDbEntity
  8
0
100
AcDbCircle
 62
7
  6
CONTINUOUS
 10
165.917614662
 20
246.9786993493
 40
0.3
100
AcDbArc
 50
189.5940682112
 51
270.0000003575
  0
ARC
  5
2E7
100
AcDbEntity
  8
0
100
AcDbCircle
 62
7
  6
CONTINUOUS
 10
165.3260066837
 20
246.8786993493
 40
0.3
100
AcDbArc
 50
9.5940682428
 51
89.9999999045
  0
ARC
  5
2E8
100
AcDbEntity
  8
0
100
AcDbCircle
 62
7
  6
CONTINUOUS
 10
163.2880713092
 20
246.8786993493
 40
0.3
100
AcDbArc
 50
89.9999998759
 51
148.175699751
  0
ARC
  5
2E9
100
AcDbEntity
  8
0
100
AcDbCircle
 62
7
  6
CONTINUOUS
 10
141.0896621749
 20
228.3539612291
 40
0.2999973364
100
AcDbArc
 50
269.999473717
 51
359.9994912601
  0
ARC
  5
2EA
100
AcDbEntity
  8
0
100
AcDbCircle
 62
7
  6
CONTINUOUS
 10
152.2953001573
 20
245.5786993493
 40
0.2
100
AcDbArc
 50
89.9999997594
 51
120.0000000919
  0
ARC
  5
2EB
100
AcDbEntity
  8
0
100
AcDbCircle
 62
7
  6
CONTINUOUS
 10
150.7096595113
 20
244.6632292955
 40
0.2
100
AcDbArc
 50
119.9999998306
 51
180.0000002578
  0
ARC
  5
2EC
100
AcDbEntity
  8
0
100
AcDbCircle
 62
7
  6
CONTINUOUS
 10
150.7096595113
 20
243.5574103712
 40
0.2
100
AcDbArc
 50
180.0000000573
 51
222.9647436697
  0
ARC
  5
2ED
100
AcDbEntity
  8
0
100
AcDbCircle
 62
7
  6
CONTINUOUS
 10
152.6643261701
 20
241.4586993493
 40
0.2
100
AcDbArc
 50
222.9647436083
 51
330.9753449962
  0
ARC
  5
2EE
100
AcDbEntity
  8
0
100
AcDbCircle
 62
7
  6
CONTINUOUS
 10
153.4822789121
 20
243.1786993493
 40
0.2
100
AcDbArc
 50
89.9999999205
 51
169.0000001129
  0
ARC
  5
2EF
100
AcDbEntity
  8
0
100
AcDbCircle
 62
7
  6
CONTINUOUS
 10
153.6322789121
 20
243.1786993493
 40
0.2
100
AcDbArc
 50
359.9999939123
 51
89.9999995416
  0
ARC
  5
2F0
100
AcDbEntity
  8
0
100
AcDbCircle
 62
7
  6
CONTINUOUS
 10
154.0322789121
 20
243.1786993493
 40
0.2
100
AcDbArc
 50
180.0000060877
 51
270.0000001352
  0
SPLINE
  5
2F1
100
AcDbEntity
  8
0
100
AcDbSpline
 62
7
  6
CONTINUOUS
 70
0
 71
3
 72
13
 73
9
 74
0
 42
0.0000001
 43
0.0000001
 44
0.0000000001
 40
0.0
 40
0.0
 40
0.0
 40
0.0
 40
0.0761025692
 40
0.1644299098
 40
0.2711248557
 40
0.3971659644
 40
0.6930790492
 40
1.0
 40
1.0
 40
1.0
 40
1.0
 10
141.3896595113
 20
240.3581126681
 30
0.0
 10
141.3896595112
 20
240.3489450111
 30
0.0
 10
141.3857325717
 20
240.3290055377
 30
0.0
 10
141.3684764796
 20
240.3006435131
 30
0.0
 10
141.339618834
 20
240.2743162023
 30
0.0
 10
141.2845981304
 20
240.2416206926
 30
0.0
 10
141.1993190118
 20
240.2162211754
 30
0.0
 10
141.12663249
 20
240.2096636402
 30
0.0
 10
141.0896594149
 20
240.2096636453
 30
0.0
  0
SPLINE
  5
2F2
100
AcDbEntity
  8
0
100
AcDbSpline
 62
7
  6
CONTINUOUS
 70
0
 71
3
 72
14
 73
10
 74
0
 42
0.0000001
 43
0.0000001
 44
0.0000000001
 40
0.0
 40
0.0
 40
0.0
 40
0.0
 40
0.378885354
 40
0.5501491798
 40
0.7004460885
 40
0.8241988171
 40
0.9167531831
 40
0.9751356887
 40
1.0
 40
1.0
 40
1.0
 40
1.0
 10
141.0896595113
 20
231.6802225495
 30
0.0
 10
141.1279374872
 20
231.6802225495
 30
0.0
 10
141.1835525494
 20
231.6793778351
 30
0.0
 10
141.2541912075
 20
231.6763453447
 30
0.0
 10
141.2992396765
 20
231.6733355868
 30
0.0
 10
141.3356887729
 20
231.669899359
 30
0.0
 10
141.3641980332
 20
231.6656478955
 30
0.0
 10
141.3795804754
 20
231.6621796362
 30
0.0
 10
141.3896595113
 20
231.6578754832
 30
0.0
 10
141.3896595113
 20
231.655363495
 30
0.0
  0
SPLINE
  5
2F3
100
AcDbEntity
  8
0
100
AcDbSpline
 62
7
  6
CONTINUOUS
 70
0
 71
3
 72
10
 73
6
 74
0
 42
0.0000001
 43
0.0000001
 44
0.0000000001
 40
0.0
 40
0.0
 40
0.0
 40
0.0
 40
0.534224965
 40
0.7973054101
 40
1.0
 40
1.0
 40
1.0
 40
1.0
 10
140.1770982939
 20
240.5042371662
 30
0.0
 10
140.1509879338
 20
240.4431823118
 30
0.0
 10
140.1184881382
 20
240.3491870522
 30
0.0
 10
140.0877180109
 20
240.2287416689
 30
0.0
 10
140.0775105644
 20
240.1716279115
 30
0.0
 10
140.0748278183
 20
240.1465764017
 30
0.0
  0
SPLINE
  5
2F4
100
AcDbEntity
  8
0
100
AcDbSpline
 62
7
  6
CONTINUOUS
 70
0
 71
3
 72
15
 73
11
 74
0
 42
0.0000001
 43
0.0000001
 44
0.0000000001
 40
0.0
 40
0.0
 40
0.0
 40
0.0
 40
0.0083888686
 40
0.0242240001
 40
0.0821692424
 40
0.1746036226
 40
0.2984173122
 40
0.4488980731
 40
0.6204319559
 40
1.0
 40
1.0
 40
1.0
 40
1.0
 10
141.3896595113
 20
229.470786904
 30
0.0
 10
141.3896595113
 20
229.4699409495
 30
0.0
 10
141.3875921355
 20
229.4679542824
 30
0.0
 10
141.380056712
 20
229.4651566139
 30
0.0
 10
141.3633240994
 20
229.4617372306
 30
0.0
 10
141.3360178961
 20
229.458434258
 30
0.0
 10
141.2990943364
 20
229.4553539897
 30
0.0
 10
141.2542260522
 20
229.4528259888
 30
0.0
 10
141.1835128428
 20
229.4502076586
 30
0.0
 10
141.1279361031
 20
229.4494929319
 30
0.0
 10
141.0896595113
 20
229.4494929319
 30
0.0
  0
SPLINE
  5
2F5
100
AcDbEntity
  8
0
100
AcDbSpline
 62
7
  6
CONTINUOUS
 70
0
 71
3
 72
10
 73
6
 74
0
 42
0.0000001
 43
0.0000001
 44
0.0000000001
 40
0.0
 40
0.0
 40
0.0
 40
0.0
 40
0.4990662366
 40
0.7499555209
 40
1.0
 40
1.0
 40
1.0
 40
1.0
 10
140.1774325308
 20
240.5050209502
 30
0.0
 10
139.6145170027
 20
240.6568108284
 30
0.0
 10
138.7753697888
 20
240.9128481229
 30
0.0
 10
137.6830634937
 20
241.3278133889
 30
0.0
 10
137.1488974397
 20
241.5689520766
 30
0.0
 10
136.8896595113
 20
241.7035732335
 30
0.0
  0
SPLINE
  5
2F6
100
AcDbEntity
  8
0
100
AcDbSpline
 62
7
  6
CONTINUOUS
 70
0
 71
3
 72
12
 73
8
 74
0
 42
0.0000001
 43
0.0000001
 44
0.0000000001
 40
0.0
 40
0.0
 40
0.0
 40
0.0
 40
0.3845970717
 40
0.6961972788
 40
0.8115955583
 40
0.8983450327
 40
1.0
 40
1.0
 40
1.0
 40
1.0
 10
141.1924151339
 20
227.8132930182
 30
0.0
 10
141.2196222232
 20
227.815396046
 30
0.0
 10
141.2687914574
 20
227.8209653985
 30
0.0
 10
141.3252560338
 20
227.8323277639
 30
0.0
 10
141.3598711243
 20
227.8449870179
 30
0.0
 10
141.3785264971
 20
227.85442181
 30
0.0
 10
141.3896595113
 20
227.865837014
 30
0.0
 10
141.3896595113
 20
227.8730497207
 30
0.0
  0
SPLINE
  5
2F7
100
AcDbEntity
  8
0
100
AcDbSpline
 62
7
  6
CONTINUOUS
 70
0
 71
3
 72
11
 73
7
 74
0
 42
0.0000001
 43
0.0000001
 44
0.0000000001
 40
0.0
 40
0.0
 40
0.0
 40
0.0
 40
0.3209808939
 40
0.4559981972
 40
0.6156294972
 40
1.0
 40
1.0
 40
1.0
 40
1.0
 10
141.089659017
 20
228.0542770945
 30
0.0
 10
141.1188305832
 20
228.0536884301
 30
0.0
 10
141.1483759911
 20
228.007889729
 30
0.0
 10
141.1666524853
 20
227.9572950441
 30
0.0
 10
141.1822382744
 20
227.896820446
 30
0.0
 10
141.189391358
 20
227.8479910756
 30
0.0
 10
141.1924348459
 20
227.8131841944
 30
0.0
  0
SPLINE
  5
2F8
100
AcDbEntity
  8
0
100
AcDbSpline
 62
7
  6
CONTINUOUS
 70
0
 71
3
 72
13
 73
9
 74
0
 42
0.0000001
 43
0.0000001
 44
0.0000000001
 40
0.0
 40
0.0
 40
0.0
 40
0.0
 40
0.3053438705
 40
0.6002738157
 40
0.7263599567
 40
0.8335446371
 40
0.9227759395
 40
1.0
 40
1.0
 40
1.0
 40
1.0
 10
141.0896595113
 20
220.8487626627
 30
0.0
 10
141.1266394604
 20
220.8487626618
 30
0.0
 10
141.199411496
 20
220.8420610801
 30
0.0
 10
141.2847283758
 20
220.8160761634
 30
0.0
 10
141.3396909052
 20
220.782710094
 30
0.0
 10
141.3685436236
 20
220.7558053636
 30
0.0
 10
141.3857555788
 20
220.7268603184
 30
0.0
 10
141.3896595112
 20
220.7065695562
 30
0.0
 10
141.3896595112
 20
220.6972170127
 30
0.0
  0
SPLINE
  5
2F9
100
AcDbEntity
  8
0
100
AcDbSpline
 62
7
  6
CONTINUOUS
 70
0
 71
3
 72
11
 73
7
 74
0
 42
0.0000001
 43
0.0000001
 44
0.0000000001
 40
0.0
 40
0.0
 40
0.0
 40
0.0
 40
0.2251145113
 40
0.4715813
 40
0.7352852501
 40
1.0
 40
1.0
 40
1.0
 40
1.0
 10
141.3896595113
 20
221.4792080744
 30
0.0
 10
141.3896595112
 20
221.4562991965
 30
0.0
 10
141.378870059
 20
221.4078277935
 30
0.0
 10
141.3341163066
 20
221.3458051724
 30
0.0
 10
141.2691451366
 20
221.2992476386
 30
0.0
 10
141.2184423994
 20
221.2797651805
 30
0.0
 10
141.1924151341
 20
221.2728167172
 30
0.0
  0
SPLINE
  5
2FA
100
AcDbEntity
  8
0
100
AcDbSpline
 62
7
  6
CONTINUOUS
 70
0
 71
3
 72
11
 73
7
 74
0
 42
0.0000001
 43
0.0000001
 44
0.0000000001
 40
0.0
 40
0.0
 40
0.0
 40
0.0
 40
0.2480195213
 40
0.497783375
 40
0.7488963187
 40
1.0
 40
1.0
 40
1.0
 40
1.0
 10
140.0748274292
 20
240.1465756636
 30
0.0
 10
139.8016647306
 20
240.234661677
 30
0.0
 10
139.2565859857
 20
240.4215061301
 30
0.0
 10
138.4490847947
 20
240.7370013139
 30
0.0
 10
137.6544602673
 20
241.0924809182
 30
0.0
 10
137.1394019845
 20
241.3634866626
 30
0.0
 10
136.8896645611
 20
241.5120454189
 30
0.0
  0
SPLINE
  5
2FB
100
AcDbEntity
  8
0
100
AcDbSpline
 62
7
  6
CONTINUOUS
 70
0
 71
3
 72
13
 73
9
 74
0
 42
0.0000001
 43
0.0000001
 44
0.0000000001
 40
0.0
 40
0.0
 40
0.0
 40
0.0
 40
0.0828397966
 40
0.1741769319
 40
0.2791476585
 40
0.3997364748
 40
0.6823971264
 40
1.0
 40
1.0
 40
1.0
 40
1.0
 10
141.3896595113
 20
220.4038852443
 30
0.0
 10
141.3896595113
 20
220.4139181353
 30
0.0
 10
141.38525701
 20
220.4351669048
 30
0.0
 10
141.3669799987
 20
220.4642274218
 30
0.0
 10
141.3383834582
 20
220.4903415056
 30
0.0
 10
141.2853098067
 20
220.5220977455
 30
0.0
 10
141.2009686205
 20
220.5485213091
 30
0.0
 10
141.1281250211
 20
220.5554308942
 30
0.0
 10
141.0896595113
 20
220.5554308942
 30
0.0
  0
SPLINE
  5
2FC
100
AcDbEntity
  8
0
100
AcDbSpline
 62
7
  6
CONTINUOUS
 70
0
 71
3
 72
11
 73
7
 74
0
 42
0.0000001
 43
0.0000001
 44
0.0000000001
 40
0.0
 40
0.0
 40
0.0
 40
0.0
 40
0.2270585296
 40
0.4681492692
 40
0.7278399763
 40
1.0
 40
1.0
 40
1.0
 40
1.0
 10
141.3896595113
 20
218.8117642821
 30
0.0
 10
141.3896595113
 20
218.7794103224
 30
0.0
 10
141.3727478627
 20
218.7118319031
 30
0.0
 10
141.3039281888
 20
218.6303631235
 30
0.0
 10
141.204837898
 20
218.5773852886
 30
0.0
 10
141.1284400602
 20
218.5652796912
 30
0.0
 10
141.0896595113
 20
218.5652796912
 30
0.0
  0
SPLINE
  5
2FD
100
AcDbEntity
  8
0
100
AcDbSpline
 62
7
  6
CONTINUOUS
 70
0
 71
3
 72
8
 73
4
 74
0
 42
0.0000001
 43
0.0000001
 44
0.0000000001
 40
0.0
 40
0.0
 40
0.0
 40
0.0
 40
1.0
 40
1.0
 40
1.0
 40
1.0
 10
141.3896595113
 20
217.7082010881
 30
0.0
 10
141.3896595113
 20
217.6799825415
 30
0.0
 10
141.3845547428
 20
217.6513717461
 30
0.0
 10
141.3749764662
 20
217.6248285174
 30
0.0
  0
SPLINE
  5
2FE
100
AcDbEntity
  8
0
100
AcDbSpline
 62
7
  6
CONTINUOUS
 70
0
 71
3
 72
10
 73
6
 74
0
 42
0.0000001
 43
0.0000001
 44
0.0000000001
 40
0.0
 40
0.0
 40
0.0
 40
0.0
 40
0.2405126347
 40
0.4888644671
 40
1.0
 40
1.0
 40
1.0
 40
1.0
 10
141.3749764662
 20
217.6248285174
 30
0.0
 10
141.3651958655
 20
217.5977246102
 30
0.0
 10
141.3353639976
 20
217.5457669103
 30
0.0
 10
141.2449503801
 20
217.4649810481
 30
0.0
 10
141.1508960975
 20
217.4384017819
 30
0.0
 10
141.0896595113
 20
217.4384017819
 30
0.0
  0
LINE
  5
2FF
100
AcDbEntity
  8
0
100
AcDbLine
 62
7
  6
CONTINUOUS
 10
141.1924348899
 20
239.7863631212
 11
140.0746549998
 21
240.1462220276
  0
LINE
  5
300
100
AcDbEntity
  8
0
100
AcDbLine
 62
7
  6
CONTINUOUS
 10
140.0746549537
 20
233.2946239066
 11
141.1924348152
 21
233.2904687711
  0
SPLINE
  5
301
100
AcDbEntity
  8
0
100
AcDbSpline
 62
7
  6
CONTINUOUS
 70
0
 71
3
 72
11
 73
7
 74
0
 42
0.0000001
 43
0.0000001
 44
0.0000000001
 40
0.0
 40
0.0
 40
0.0
 40
0.0
 40
0.2494809449
 40
0.4989234468
 40
0.7489747741
 40
1.0
 40
1.0
 40
1.0
 40
1.0
 10
136.8896642598
 20
232.7840549253
 30
0.0
 10
137.1374734358
 20
232.8908821689
 30
0.0
 10
137.6548834611
 20
233.054083004
 30
0.0
 10
138.452242919
 20
233.2025821612
 30
0.0
 10
139.2610547995
 20
233.2819863289
 30
0.0
 10
139.8033045549
 20
233.2957737751
 30
0.0
 10
140.0748274283
 20
233.2947282519
 30
0.0
  0
SPLINE
  5
302
100
AcDbEntity
  8
0
100
AcDbSpline
 62
7
  6
CONTINUOUS
 70
0
 71
3
 72
8
 73
4
 74
0
 42
0.0000001
 43
0.0000001
 44
0.0000000001
 40
0.0
 40
0.0
 40
0.0
 40
0.0
 40
1.0
 40
1.0
 40
1.0
 40
1.0
 10
141.3896595113
 20
243.322300797
 30
0.0
 10
141.3896595113
 20
243.3506760217
 30
0.0
 10
141.3845593754
 20
243.3794425204
 30
0.0
 10
141.3749764662
 20
243.4061505947
 30
0.0
  0
SPLINE
  5
303
100
AcDbEntity
  8
0
100
AcDbSpline
 62
7
  6
CONTINUOUS
 70
0
 71
3
 72
11
 73
7
 74
0
 42
0.0000001
 43
0.0000001
 44
0.0000000001
 40
0.0
 40
0.0
 40
0.0
 40
0.0
 40
0.239801034
 40
0.4869810371
 40
0.7413260231
 40
1.0
 40
1.0
 40
1.0
 40
1.0
 10
141.3749764662
 20
243.4061505947
 30
0.0
 10
141.36520297
 20
243.4333898448
 30
0.0
 10
141.3355011922
 20
243.4855938435
 30
0.0
 10
141.2677696895
 20
243.5461652776
 30
0.0
 10
141.1831551364
 20
243.5848319219
 30
0.0
 10
141.1208766843
 20
243.5936444423
 30
0.0
 10
141.0896595113
 20
243.5936444423
 30
0.0
  0
SPLINE
  5
304
100
AcDbEntity
  8
0
100
AcDbSpline
 62
7
  6
CONTINUOUS
 70
0
 71
3
 72
11
 73
7
 74
0
 42
0.0000001
 43
0.0000001
 44
0.0000000001
 40
0.0
 40
0.0
 40
0.0
 40
0.0
 40
0.228018534
 40
0.4694547616
 40
0.7287320179
 40
1.0
 40
1.0
 40
1.0
 40
1.0
 10
141.3896595113
 20
242.2412874002
 30
0.0
 10
141.3896595113
 20
242.2738919758
 30
0.0
 10
141.372812094
 20
242.3418943775
 30
0.0
 10
141.3040654052
 20
242.4240724905
 30
0.0
 10
141.2049341408
 20
242.4775637753
 30
0.0
 10
141.1284483644
 20
242.4897927344
 30
0.0
 10
141.0896595113
 20
242.4897927344
 30
0.0
  0
SPLINE
  5
305
100
AcDbEntity
  8
0
100
AcDbSpline
 62
7
  6
CONTINUOUS
 70
0
 71
3
 72
13
 73
9
 74
0
 42
0.0000001
 43
0.0000001
 44
0.0000000001
 40
0.0
 40
0.0
 40
0.0
 40
0.0
 40
0.3192390606
 40
0.6028245681
 40
0.7233840564
 40
0.8279051886
 40
0.9183551847
 40
1.0
 40
1.0
 40
1.0
 40
1.0
 10
141.0896594149
 20
240.5050209505
 30
0.0
 10
141.128117157
 20
240.5050209444
 30
0.0
 10
141.2008731241
 20
240.5117798772
 30
0.0
 10
141.2851911126
 20
240.5376173244
 30
0.0
 10
141.3383162154
 20
240.568733778
 30
0.0
 10
141.3669131107
 20
240.5942871072
 30
0.0
 10
141.3852287539
 20
240.622749926
 30
0.0
 10
141.3896595113
 20
240.643634475
 30
0.0
 10
141.3896595113
 20
240.6534699733
 30
0.0
  0
SPLINE
  5
306
100
AcDbEntity
  8
0
100
AcDbSpline
 62
7
  6
CONTINUOUS
 70
0
 71
3
 72
12
 73
8
 74
0
 42
0.0000001
 43
0.0000001
 44
0.0000000001
 40
0.0
 40
0.0
 40
0.0
 40
0.0
 40
0.1315634782
 40
0.2210456995
 40
0.3316958771
 40
0.6221163065
 40
1.0
 40
1.0
 40
1.0
 40
1.0
 10
141.0933388524
 20
233.0536645968
 30
0.0
 10
141.1051164579
 20
233.0545418082
 30
0.0
 10
141.1235573328
 20
233.0665248702
 30
0.0
 10
141.141152107
 20
233.0902928316
 30
0.0
 10
141.1619264774
 20
233.1294401442
 30
0.0
 10
141.1814073351
 20
233.1970871912
 30
0.0
 10
141.1900444879
 20
233.2566311216
 30
0.0
 10
141.1924348152
 20
233.2904687711
 30
0.0
  0
SPLINE
  5
307
100
AcDbEntity
  8
0
100
AcDbSpline
 62
7
  6
CONTINUOUS
 70
0
 71
3
 72
10
 73
6
 74
0
 42
0.0000001
 43
0.0000001
 44
0.0000000001
 40
0.0
 40
0.0
 40
0.0
 40
0.0
 40
0.5986050491
 40
0.8341109104
 40
1.0
 40
1.0
 40
1.0
 40
1.0
 10
140.074827816
 20
233.2947271297
 30
0.0
 10
140.0783484308
 20
233.2449499917
 30
0.0
 10
140.0888873732
 20
233.1750108753
 30
0.0
 10
140.120789311
 20
233.0979086853
 30
0.0
 10
140.1423432002
 20
233.070615057
 30
0.0
 10
140.1539867511
 20
233.063153885
 30
0.0
  0
SPLINE
  5
308
100
AcDbEntity
  8
0
100
AcDbSpline
 62
7
  6
CONTINUOUS
 70
0
 71
3
 72
12
 73
8
 74
0
 42
0.0000001
 43
0.0000001
 44
0.0000000001
 40
0.0
 40
0.0
 40
0.0
 40
0.0
 40
0.1170085125
 40
0.2132935815
 40
0.3362397113
 40
0.6463370275
 40
1.0
 40
1.0
 40
1.0
 40
1.0
 10
141.3896595112
 20
233.2273179992
 30
0.0
 10
141.3896595112
 20
233.2356778512
 30
0.0
 10
141.3765783428
 20
233.2485114682
 30
0.0
 10
141.3557208088
 20
233.258763993
 30
0.0
 10
141.3197131002
 20
233.2716726226
 30
0.0
 10
141.2646385426
 20
233.2828156557
 30
0.0
 10
141.2174502457
 20
233.2883158292
 30
0.0
 10
141.1922655545
 20
233.2903658865
 30
0.0
  0
SPLINE
  5
309
100
AcDbEntity
  8
0
100
AcDbSpline
 62
7
  6
CONTINUOUS
 70
0
 71
3
 72
12
 73
8
 74
0
 42
0.0000001
 43
0.0000001
 44
0.0000000001
 40
0.0
 40
0.0
 40
0.0
 40
0.0
 40
0.2511321131
 40
0.5014393931
 40
0.7509571211
 40
0.8755176328
 40
1.0
 40
1.0
 40
1.0
 40
1.0
 10
140.1486540649
 20
233.0559274251
 30
0.0
 10
139.8715217657
 20
233.0559303967
 30
0.0
 10
139.3179972961
 20
233.0412481599
 30
0.0
 10
138.4919959136
 20
232.9682385867
 30
0.0
 10
137.8112306216
 20
232.8543233774
 30
0.0
 10
137.2780124722
 20
232.7175432859
 30
0.0
 10
137.0172559178
 20
232.6292892474
 30
0.0
 10
136.8896595113
 20
232.5783996963
 30
0.0
  0
SPLINE
  5
30A
100
AcDbEntity
  8
0
100
AcDbSpline
 62
7
  6
CONTINUOUS
 70
0
 71
3
 72
10
 73
6
 74
0
 42
0.0000001
 43
0.0000001
 44
0.0000000001
 40
0.0
 40
0.0
 40
0.0
 40
0.0
 40
0.2047194097
 40
0.4686136187
 40
1.0
 40
1.0
 40
1.0
 40
1.0
 10
140.0748763529
 20
220.9142580671
 30
0.0
 10
140.077582254
 20
220.8888716078
 30
0.0
 10
140.087813204
 20
220.831207885
 30
0.0
 10
140.1186149655
 20
220.7103479237
 30
0.0
 10
140.151180388
 20
220.6162784519
 30
0.0
 10
140.1774333272
 20
220.5554320274
 30
0.0
  0
SPLINE
  5
30B
100
AcDbEntity
  8
0
100
AcDbSpline
 62
7
  6
CONTINUOUS
 70
0
 71
3
 72
11
 73
7
 74
0
 42
0.0000001
 43
0.0000001
 44
0.0000000001
 40
0.0
 40
0.0
 40
0.0
 40
0.0
 40
0.2483666043
 40
0.5141184305
 40
0.7762638563
 40
1.0
 40
1.0
 40
1.0
 40
1.0
 10
141.0896590705
 20
220.8486003294
 30
0.0
 10
141.1018749608
 20
220.8826305065
 30
0.0
 10
141.1233270618
 20
220.9543976465
 30
0.0
 10
141.1530351584
 20
221.0634466153
 30
0.0
 10
141.1767451989
 20
221.1702614265
 30
0.0
 10
141.1892520132
 20
221.2400180616
 30
0.0
 10
141.1924346166
 20
221.2724329209
 30
0.0
  0
LINE
  5
30C
100
AcDbEntity
  8
0
100
AcDbLine
 62
7
  6
CONTINUOUS
 10
141.1924348459
 20
227.8131841944
 11
140.0750610165
 21
227.8139763167
  0
SPLINE
  5
30D
100
AcDbEntity
  8
0
100
AcDbSpline
 62
7
  6
CONTINUOUS
 70
0
 71
3
 72
11
 73
7
 74
0
 42
0.0000001
 43
0.0000001
 44
0.0000000001
 40
0.0
 40
0.0
 40
0.0
 40
0.0
 40
0.2508684686
 40
0.5008487421
 40
0.7503290091
 40
1.0
 40
1.0
 40
1.0
 40
1.0
 10
140.0748274296
 20
227.8138775393
 30
0.0
 10
139.8032658467
 20
227.8140356212
 30
0.0
 10
139.2609161929
 20
227.8302772205
 30
0.0
 10
138.4520705392
 20
227.9134771441
 30
0.0
 10
137.6546431418
 20
228.0658763623
 30
0.0
 10
137.137379011
 20
228.2316833505
 30
0.0
 10
136.889664561
 20
228.3397616772
 30
0.0
  0
SPLINE
  5
30E
100
AcDbEntity
  8
0
100
AcDbSpline
 62
7
  6
CONTINUOUS
 70
0
 71
3
 72
9
 73
5
 74
0
 42
0.0000001
 43
0.0000001
 44
0.0000000001
 40
0.0
 40
0.0
 40
0.0
 40
0.0
 40
0.5001996341
 40
1.0
 40
1.0
 40
1.0
 40
1.0
 10
136.8896642598
 20
219.5515019579
 30
0.0
 10
137.1488901263
 20
219.7061894815
 30
0.0
 10
137.6841587461
 20
219.9869493439
 30
0.0
 10
138.2361757251
 20
220.2314778733
 30
0.0
 10
138.5149276572
 20
220.3467090365
 30
0.0
  0
SPLINE
  5
30F
100
AcDbEntity
  8
0
100
AcDbSpline
 62
7
  6
CONTINUOUS
 70
0
 71
3
 72
9
 73
5
 74
0
 42
0.0000001
 43
0.0000001
 44
0.0000000001
 40
0.0
 40
0.0
 40
0.0
 40
0.0
 40
0.2512943937
 40
1.0
 40
1.0
 40
1.0
 40
1.0
 10
138.5149276572
 20
220.3467090365
 30
0.0
 10
138.6434591352
 20
220.3998416968
 30
0.0
 10
139.1573902708
 20
220.6053287101
 30
0.0
 10
139.6801924921
 20
220.7883409765
 30
0.0
 10
140.0748277603
 20
220.9147163426
 30
0.0
  0
SPLINE
  5
310
100
AcDbEntity
  8
0
100
AcDbSpline
 62
7
  6
CONTINUOUS
 70
0
 71
3
 72
10
 73
6
 74
0
 42
0.0000001
 43
0.0000001
 44
0.0000000001
 40
0.0
 40
0.0
 40
0.0
 40
0.0
 40
0.5011972877
 40
0.7508524018
 40
1.0
 40
1.0
 40
1.0
 40
1.0
 10
140.177432508
 20
228.0559894292
 30
0.0
 10
139.619457193
 20
228.0570132114
 30
0.0
 10
138.7816225136
 20
228.1018351868
 30
0.0
 10
137.6829203111
 20
228.2874811234
 30
0.0
 10
137.1474353696
 20
228.4442368953
 30
0.0
 10
136.8896595113
 20
228.5466440243
 30
0.0
  0
SPLINE
  5
311
100
AcDbEntity
  8
0
100
AcDbSpline
 62
7
  6
CONTINUOUS
 70
0
 71
3
 72
12
 73
8
 74
0
 42
0.0000001
 43
0.0000001
 44
0.0000000001
 40
0.0
 40
0.0
 40
0.0
 40
0.0
 40
0.3483375741
 40
0.641368304
 40
0.7595707346
 40
0.8573170061
 40
1.0
 40
1.0
 40
1.0
 40
1.0
 10
140.0750610165
 20
227.8139763167
 30
0.0
 10
140.0773112183
 20
227.8459486136
 30
0.0
 10
140.0848977204
 20
227.9046279039
 30
0.0
 10
140.1034506926
 20
227.9724222809
 30
0.0
 10
140.1243040961
 20
228.0147184999
 30
0.0
 10
140.143064307
 20
228.0414845871
 30
0.0
 10
140.1639734247
 20
228.0552278447
 30
0.0
 10
140.1770995794
 20
228.0554816174
 30
0.0
  0
SPLINE
  5
312
100
AcDbEntity
  8
0
100
AcDbSpline
 62
7
  6
CONTINUOUS
 70
0
 71
3
 72
11
 73
7
 74
0
 42
0.0000001
 43
0.0000001
 44
0.0000000001
 40
0.0
 40
0.0
 40
0.0
 40
0.0
 40
0.2488399208
 40
0.4989275698
 40
0.7497936509
 40
1.0
 40
1.0
 40
1.0
 40
1.0
 10
140.1774333831
 20
220.5554311274
 30
0.0
 10
139.8964824372
 20
220.4807835166
 30
0.0
 10
139.3361655368
 20
220.319659307
 30
0.0
 10
138.5037013593
 20
220.0465473474
 30
0.0
 10
137.6824210586
 20
219.7363291436
 30
0.0
 10
137.1497400376
 20
219.4918544636
 30
0.0
 10
136.8896595113
 20
219.3584586535
 30
0.0
  0
SPLINE
  5
313
100
AcDbEntity
  8
0
100
AcDbSpline
 62
7
  6
CONTINUOUS
 70
0
 71
3
 72
11
 73
7
 74
0
 42
0.0000001
 43
0.0000001
 44
0.0000000001
 40
0.0
 40
0.0
 40
0.0
 40
0.0
 40
0.2861136821
 40
0.5548421409
 40
0.7925169927
 40
1.0
 40
1.0
 40
1.0
 40
1.0
 10
141.1922655545
 20
239.7860162726
 30
0.0
 10
141.2205555622
 20
239.7783932896
 30
0.0
 10
141.2739923739
 20
239.7570975476
 30
0.0
 10
141.3393505126
 20
239.7069139486
 30
0.0
 10
141.3804497885
 20
239.6445423376
 30
0.0
 10
141.3896595113
 20
239.5985581709
 30
0.0
 10
141.3896595113
 20
239.5773111784
 30
0.0
  0
SPLINE
  5
314
100
AcDbEntity
  8
0
100
AcDbSpline
 62
7
  6
CONTINUOUS
 70
0
 71
3
 72
11
 73
7
 74
0
 42
0.0000001
 43
0.0000001
 44
0.0000000001
 40
0.0
 40
0.0
 40
0.0
 40
0.0
 40
0.2496335917
 40
0.5159272006
 40
0.7775073565
 40
1.0
 40
1.0
 40
1.0
 40
1.0
 10
141.0896589967
 20
240.2098227659
 30
0.0
 10
141.1020646665
 20
240.1756993403
 30
0.0
 10
141.1237044117
 20
240.1037759254
 30
0.0
 10
141.1533323243
 20
239.9946194065
 30
0.0
 10
141.1760738928
 20
239.8878507972
 30
0.0
 10
141.1884995338
 20
239.8184838903
 30
0.0
 10
141.1924348899
 20
239.7863631212
 30
0.0
  0
SPLINE
  5
315
100
AcDbEntity
  8
0
100
AcDbSpline
 62
7
  6
CONTINUOUS
 70
0
 71
3
 72
9
 73
5
 74
0
 42
0.0000001
 43
0.0000001
 44
0.0000000001
 40
0.0
 40
0.0
 40
0.0
 40
0.0
 40
0.4546871226
 40
1.0
 40
1.0
 40
1.0
 40
1.0
 10
147.5096595113
 20
213.2758558065
 30
0.0
 10
147.5096595113
 20
213.304463466
 30
0.0
 10
147.5307378992
 20
213.3680628455
 30
0.0
 10
147.5797383296
 20
213.4107460235
 30
0.0
 10
147.6081483736
 20
213.4299818446
 30
0.0
  0
SPLINE
  5
316
100
AcDbEntity
  8
0
100
AcDbSpline
 62
7
  6
CONTINUOUS
 70
0
 71
3
 72
9
 73
5
 74
0
 42
0.0000001
 43
0.0000001
 44
0.0000000001
 40
0.0
 40
0.0
 40
0.0
 40
0.0
 40
0.2508387051
 40
1.0
 40
1.0
 40
1.0
 40
1.0
 10
147.6096595116
 20
216.9367490032
 30
0.0
 10
147.5930413988
 20
216.9048166703
 30
0.0
 10
147.5349454384
 20
216.7733710777
 30
0.0
 10
147.509659512
 20
216.627920681
 30
0.0
 10
147.509659512
 20
216.5204089815
 30
0.0
  0
LINE
  5
317
100
AcDbEntity
  8
0
100
AcDbLine
 62
7
  6
CONTINUOUS
 10
147.2896595113
 20
228.7894645448
 11
147.0860181249
 21
228.7940554005
  0
LINE
  5
318
100
AcDbEntity
  8
0
100
AcDbLine
 62
7
  6
CONTINUOUS
 10
147.2657354827
 20
220.3943755376
 11
147.2896595113
 21
220.4865969241
  0
SPLINE
  5
319
100
AcDbEntity
  8
0
100
AcDbSpline
 62
7
  6
CONTINUOUS
 70
0
 71
3
 72
9
 73
5
 74
0
 42
0.0000001
 43
0.0000001
 44
0.0000000001
 40
0.0
 40
0.0
 40
0.0
 40
0.0
 40
0.1904522006
 40
1.0
 40
1.0
 40
1.0
 40
1.0
 10
147.2896595113
 20
240.5917215975
 30
0.0
 10
147.2767685216
 20
240.5930600881
 30
0.0
 10
147.2089826517
 20
240.5991127065
 30
0.0
 10
147.1410289195
 20
240.6030120907
 30
0.0
 10
147.086018125
 20
240.6059616527
 30
0.0
  0
LINE
  5
31A
100
AcDbEntity
  8
0
100
AcDbLine
 62
7
  6
CONTINUOUS
 10
147.086018125
 20
232.2939932484
 11
147.2896595117
 21
232.2894023927
  0
SPLINE
  5
31B
100
AcDbEntity
  8
0
100
AcDbSpline
 62
7
  6
CONTINUOUS
 70
0
 71
3
 72
9
 73
5
 74
0
 42
0.0000001
 43
0.0000001
 44
0.0000000001
 40
0.0
 40
0.0
 40
0.0
 40
0.0
 40
0.2951018021
 40
1.0
 40
1.0
 40
1.0
 40
1.0
 10
147.086018125
 20
220.4063203592
 30
0.0
 10
147.1037104102
 20
220.4053717365
 30
0.0
 10
147.163653056
 20
220.4019995028
 30
0.0
 10
147.2235813304
 20
220.3981363022
 30
0.0
 10
147.2657354828
 20
220.3943755376
 30
0.0
  0
ENDSEC
  0
SECTION
  2
OBJECTS
  0
DICTIONARY
  5
C
100
AcDbDictionary
280
0
281
1
  3
ACAD_GROUP
350
D
  3
ACAD_MLINESTYLE
350
17
  3
ACAD_LAYOUT
350
1A
  3
ACAD_PLOTSETTINGS
350
19
  3
ACAD_PLOTSTYLENAME
350
E
  0
DICTIONARY
  5
D
102
{ACAD_REACTORS
330
C
102
}
100
AcDbDictionary
280
0
281
1
  0
ACDBDICTIONARYWDFLT
  5
E
102
{ACAD_REACTORS
330
C
102
}
100
AcDbDictionary
281
1
  3
Normal
350
F
100
AcDbDictionaryWithDefault
340
F
  0
DICTIONARY
  5
17
102
{ACAD_REACTORS
330
C
102
}
100
AcDbDictionary
280
0
281
1
  3
Standard
350
18
  0
DICTIONARY
  5
19
102
{ACAD_REACTORS
330
C
102
}
100
AcDbDictionary
281
1
  0
DICTIONARY
  5
1A
102
{ACAD_REACTORS
330
C
102
}
100
AcDbDictionary
281
1
  3
Model
350
31C
  3
Layout1
350
31D
  0
ACDBPLACEHOLDER
  5
F
102
{ACAD_REACTORS
330
E
102
}
  0
MLINESTYLE
  5
18
102
{ACAD_REACTORS
330
17
102
}
100
AcDbMlineStyle
  2
STANDARD
 70
0
  3

 62
256
 51
90.0
 52
90.0
 71
2
 49
0.5
 62
256
  6
BYLAYER
 49
-0.5
 62
256
  6
BYLAYER
  0
LAYOUT
  5
31C
102
{ACAD_REACTORS
330
1A
102
}
100
AcDbPlotSettings
  1

  2
none_device
  4
ANSI_C_(22.00_x_17.00_Inches)
  6

 40
0.0
 41
0.0
 42
0.0
 43
0.0
 44
558.8
 45
431.8
 46
0.0
 47
0.0
 48
0.0
 49
0.0
140
0.0
141
0.0
142
1.0
143
1.0
 70
1024
 72
1
 73
0
 74
0
  7

 75
0
147
1.0
148
0.0
149
0.0
100
AcDbLayout
  1
Model
 70
0
 71
0
 10
0.0
 20
0.0
 11
558.8
 21
431.8
 12
0.0
 22
0.0
 32
0.0
 14
0.0
 24
0.0
 34
0.0
 15
0.0
 25
0.0
 35
0.0
146
0.0
 13
0.0
 23
0.0
 33
0.0
 16
1.0
 26
0.0
 36
0.0
 17
0.0
 27
1.0
 37
0.0
 76
0
330
218
345
0
346
0
  0
LAYOUT
  5
31D
102
{ACAD_REACTORS
330
1A
102
}
100
AcDbPlotSettings
  1

  2
none_device
  4
ANSI_C_(22.00_x_17.00_Inches)
  6

 40
0.0
 41
0.0
 42
0.0
 43
0.0
 44
558.8
 45
431.8
 46
0.0
 47
0.0
 48
0.0
 49
0.0
140
0.0
141
0.0
142
1.0
143
1.0
 70
0
 72
1
 73
0
 74
0
  7

 75
0
147
1.0
148
0.0
149
0.0
100
AcDbLayout
  1
Layout1
 70
0
 71
1
 10
0.0
 20
0.0
 11
558.8
 21
431.8
 12
0.0
 22
0.0
 32
0.0
 14
0.0
 24
0.0
 34
0.0
 15
0.0
 25
0.0
 35
0.0
146
0.0
 13
0.0
 23
0.0
 33
0.0
 16
1.0
 26
0.0
 36
0.0
 17
0.0
 27
1.0
 37
0.0
 76
0
330
219
345
0
346
0
  0
ENDSEC
  0
EOF
