999
DXF file: Y:\001_SCHNEIDER_PARIS\maxime fuentes - génération CAD 2D\TRAVAIL\XB5AW3365_2D-Views\xb5aw3365_2d-views_5.dxf
999
Pro/ENGINEER 2018260 by Parametric Technology Corporation
  0
SECTION
  2
HEADER
  9
$ACADVER
  1
AC1027
  9
$DWGCODEPAGE
  3
ANSI_1252
  9
$EXTMAX
 10
558.8
 20
431.8
 30
0.0
  9
$EXTMIN
 10
0.0
 20
0.0
 30
0.0
  9
$LIMMIN
 10
0.0
 20
0.0
  9
$LIMMAX
 10
558.8
 20
431.8
  9
$VIEWCTR
 10
279.4
 20
215.9
  9
$VIEWSIZE
 40
431.8
  9
$CLAYER
  8
0
  9
$LTSCALE
 40
30.734
  9
$CELTYPE
  6
BYLAYER
  9
$DIMSCALE
 40
1.0
  9
$DIMASZ
 40
0.1875
  9
$DIMEXO
 40
0.0625
  9
$DIMDLI
 40
21.2344
  9
$DIMEXE
 40
0.125
  9
$DIMCEN
 40
5.0292
  9
$DIMLFAC
 40
1.0
  9
$DIMBLK
  1
_CLOSED
  9
$DIMALT
 70
0
  9
$DIMALTF
 40
0.0393700787
  9
$DIMTXT
 40
0.15625
  9
$DIMTOL
 70
0
  9
$DIMLIM
 70
0
  9
$DIMTFAC
 40
1.0
  9
$DIMGAP
 40
0.625
  9
$DIMDSEP
 70
46
  9
$AUNITS
 70
0
  9
$PDMODE
 70
3
  9
$PDSIZE
 40
0.3125
  9
$HANDSEED
  5
317
  9
$TILEMODE
 70
1
  9
$MEASUREMENT
 70
1
  9
$INSUNITS
 70
4
  0
ENDSEC
  0
SECTION
  2
CLASSES
  0
CLASS
  1
ACDBDICTIONARYWDFLT
  2
AcDbDictionaryWithDefault
  3
AutoCAD 2000
 90
0
 91
1
280
0
281
0
  0
CLASS
  1
ACDBPLACEHOLDER
  2
AcDbPlaceHolder
  3
AutoCAD 2000
 90
0
 91
1
280
0
281
0
  0
CLASS
  1
LAYOUT
  2
AcDbLayout
  3
AutoCAD 2000
 90
0
 91
0
280
0
281
0
  0
ENDSEC
  0
SECTION
  2
TABLES
  0
TABLE
  2
VPORT
  5
8
100
AcDbSymbolTable
 70
2
  0
VPORT
  5
1F4
100
AcDbSymbolTableRecord
100
AcDbViewportTableRecord
  2
*ACTIVE
 70
0
 10
0.0
 20
0.0
 11
1.0
 21
1.0
 12
279.4
 22
215.9
 13
0.0
 23
0.0
 14
1.0
 24
1.0
 15
0.0
 25
0.0
 16
0.0
 26
0.0
 36
1.0
 17
0.0
 27
0.0
 37
0.0
 40
431.8
 41
1.2941176471
 42
50.0
 43
0.0
 44
0.0
 50
0.0
 51
0.0
 71
0
 72
100
 73
1
 74
1
 75
0
 76
0
 77
0
 78
0
  0
ENDTAB
  0
TABLE
  2
LTYPE
  5
5
100
AcDbSymbolTable
 70
6
  0
LTYPE
  5
14
100
AcDbSymbolTableRecord
100
AcDbLinetypeTableRecord
  2
BYBLOCK
 70
0
  3

 72
65
 73
0
 40
0.0
  0
LTYPE
  5
15
100
AcDbSymbolTableRecord
100
AcDbLinetypeTableRecord
  2
BYLAYER
 70
0
  3

 72
65
 73
0
 40
0.0
  0
LTYPE
  5
16
100
AcDbSymbolTableRecord
100
AcDbLinetypeTableRecord
  2
CONTINUOUS
 70
64
  3
Solid line
 72
65
 73
0
 40
0.0
  0
LTYPE
  5
1F5
100
AcDbSymbolTableRecord
100
AcDbLinetypeTableRecord
  2
CENTER
 70
64
  3
____ _ ____ _ ____ _ ____ _ ____ _ ____ _ ____
 72
65
 73
4
 40
0.6
 49
0.375
 74
0
 49
-0.075
 74
0
 49
0.075
 74
0
 49
-0.075
 74
0
  0
LTYPE
  5
1F6
100
AcDbSymbolTableRecord
100
AcDbLinetypeTableRecord
  2
HIDDEN
 70
64
  3
- - - - - - - - - - - - - - - - - - - -
 72
65
 73
2
 40
0.2
 49
0.1
 74
0
 49
-0.1
 74
0
  0
LTYPE
  5
1F7
100
AcDbSymbolTableRecord
100
AcDbLinetypeTableRecord
  2
PHANTOM
 70
64
  3
_____ _ _ _____ _ _ _____ _ _ _____
 72
65
 73
6
 40
0.8
 49
0.45
 74
0
 49
-0.05
 74
0
 49
0.1
 74
0
 49
-0.05
 74
0
 49
0.1
 74
0
 49
-0.05
 74
0
  0
LTYPE
  5
1F8
100
AcDbSymbolTableRecord
100
AcDbLinetypeTableRecord
  2
DOT
 70
64
  3
. . . . . . . . . . . . . . . . . . . .
 72
65
 73
2
 40
0.2
 49
0.1
 74
0
 49
-0.1
 74
0
  0
LTYPE
  5
1F9
100
AcDbSymbolTableRecord
100
AcDbLinetypeTableRecord
  2
DASHED
 70
64
  3
- - - - - - - - - - - - - - - - - - - -
 72
65
 73
2
 40
0.2
 49
0.1
 74
0
 49
-0.1
 74
0
  0
ENDTAB
  0
TABLE
  2
LAYER
  5
2
100
AcDbSymbolTable
 70
36
  0
LAYER
  5
10
100
AcDbSymbolTableRecord
100
AcDbLayerTableRecord
  2
0
 70
0
 62
7
  6
CONTINUOUS
370
-3
390
F
  0
LAYER
  5
1FA
100
AcDbSymbolTableRecord
100
AcDbLayerTableRecord
  2
DEFAULT_1
 70
0
 62
7
  6
CENTER
370
-3
390
F
  0
LAYER
  5
1FB
100
AcDbSymbolTableRecord
100
AcDbLayerTableRecord
  2
DEFAULT_2
 70
0
 62
8
  6
HIDDEN
370
-3
390
F
  0
LAYER
  5
1FC
100
AcDbSymbolTableRecord
100
AcDbLayerTableRecord
  2
DEFAULT_3
 70
0
 62
7
  6
PHANTOM
370
-3
390
F
  0
LAYER
  5
1FD
100
AcDbSymbolTableRecord
100
AcDbLayerTableRecord
  2
01_ALL_DTM_PLN
 70
0
 62
7
  6
CONTINUOUS
370
-3
390
F
  0
LAYER
  5
1FE
100
AcDbSymbolTableRecord
100
AcDbLayerTableRecord
  2
01__ASM_ALL_DTM_PLN
 70
0
 62
7
  6
CONTINUOUS
370
-3
390
F
  0
LAYER
  5
1FF
100
AcDbSymbolTableRecord
100
AcDbLayerTableRecord
  2
01__ASM_DEF_DTM_PLN
 70
0
 62
7
  6
CONTINUOUS
370
-3
390
F
  0
LAYER
  5
200
100
AcDbSymbolTableRecord
100
AcDbLayerTableRecord
  2
01___PRT_ALL_DTM_PLN
 70
0
 62
7
  6
CONTINUOUS
370
-3
390
F
  0
LAYER
  5
201
100
AcDbSymbolTableRecord
100
AcDbLayerTableRecord
  2
01___PRT_DEF_DTM_PLN
 70
0
 62
7
  6
CONTINUOUS
370
-3
390
F
  0
LAYER
  5
202
100
AcDbSymbolTableRecord
100
AcDbLayerTableRecord
  2
02_ALL_AXES
 70
0
 62
7
  6
CONTINUOUS
370
-3
390
F
  0
LAYER
  5
203
100
AcDbSymbolTableRecord
100
AcDbLayerTableRecord
  2
02__ASM_ALL_AXES
 70
0
 62
7
  6
CONTINUOUS
370
-3
390
F
  0
LAYER
  5
204
100
AcDbSymbolTableRecord
100
AcDbLayerTableRecord
  2
02___PRT_ALL_AXES
 70
0
 62
7
  6
CONTINUOUS
370
-3
390
F
  0
LAYER
  5
205
100
AcDbSymbolTableRecord
100
AcDbLayerTableRecord
  2
03_ALL_CURVES
 70
0
 62
7
  6
CONTINUOUS
370
-3
390
F
  0
LAYER
  5
206
100
AcDbSymbolTableRecord
100
AcDbLayerTableRecord
  2
03__ASM_ALL_CURVES
 70
0
 62
7
  6
CONTINUOUS
370
-3
390
F
  0
LAYER
  5
207
100
AcDbSymbolTableRecord
100
AcDbLayerTableRecord
  2
03___PRT_ALL_CURVES
 70
0
 62
7
  6
CONTINUOUS
370
-3
390
F
  0
LAYER
  5
208
100
AcDbSymbolTableRecord
100
AcDbLayerTableRecord
  2
04_ALL_DTM_PNT
 70
0
 62
7
  6
CONTINUOUS
370
-3
390
F
  0
LAYER
  5
209
100
AcDbSymbolTableRecord
100
AcDbLayerTableRecord
  2
04__ASM_ALL_DTM_PNT
 70
0
 62
7
  6
CONTINUOUS
370
-3
390
F
  0
LAYER
  5
20A
100
AcDbSymbolTableRecord
100
AcDbLayerTableRecord
  2
04___PRT_ALL_DTM_PNT
 70
0
 62
7
  6
CONTINUOUS
370
-3
390
F
  0
LAYER
  5
20B
100
AcDbSymbolTableRecord
100
AcDbLayerTableRecord
  2
05_ALL_DTM_CSYS
 70
0
 62
7
  6
CONTINUOUS
370
-3
390
F
  0
LAYER
  5
20C
100
AcDbSymbolTableRecord
100
AcDbLayerTableRecord
  2
05__ASM_ALL_DTM_CSYS
 70
0
 62
7
  6
CONTINUOUS
370
-3
390
F
  0
LAYER
  5
20D
100
AcDbSymbolTableRecord
100
AcDbLayerTableRecord
  2
05__ASM_DEF_DTM_CSYS
 70
0
 62
7
  6
CONTINUOUS
370
-3
390
F
  0
LAYER
  5
20E
100
AcDbSymbolTableRecord
100
AcDbLayerTableRecord
  2
05___PRT_ALL_DTM_CSYS
 70
0
 62
7
  6
CONTINUOUS
370
-3
390
F
  0
LAYER
  5
20F
100
AcDbSymbolTableRecord
100
AcDbLayerTableRecord
  2
05___PRT_DEF_DTM_CSYS
 70
0
 62
7
  6
CONTINUOUS
370
-3
390
F
  0
LAYER
  5
210
100
AcDbSymbolTableRecord
100
AcDbLayerTableRecord
  2
06_ALL_SURFS
 70
0
 62
7
  6
CONTINUOUS
370
-3
390
F
  0
LAYER
  5
211
100
AcDbSymbolTableRecord
100
AcDbLayerTableRecord
  2
06__ASM_ALL_SURFS
 70
0
 62
7
  6
CONTINUOUS
370
-3
390
F
  0
LAYER
  5
212
100
AcDbSymbolTableRecord
100
AcDbLayerTableRecord
  2
06___PRT_ALL_SURFS
 70
0
 62
7
  6
CONTINUOUS
370
-3
390
F
  0
LAYER
  5
213
100
AcDbSymbolTableRecord
100
AcDbLayerTableRecord
  2
07__ASM_ALL_SKELETONS
 70
0
 62
7
  6
CONTINUOUS
370
-3
390
F
  0
LAYER
  5
214
100
AcDbSymbolTableRecord
100
AcDbLayerTableRecord
  2
CLOSED_SHELL
 70
0
 62
7
  6
CONTINUOUS
370
-3
390
F
  0
LAYER
  5
215
100
AcDbSymbolTableRecord
100
AcDbLayerTableRecord
  2
ORIENTED_CLOSED_SHE
 70
0
 62
7
  6
CONTINUOUS
370
-3
390
F
  0
ENDTAB
  0
TABLE
  2
STYLE
  5
3
100
AcDbSymbolTable
 70
1
  0
STYLE
  5
11
100
AcDbSymbolTableRecord
100
AcDbTextStyleTableRecord
  2
STANDARD
 70
0
 40
0.0
 41
0.8
 50
0.0
 71
0
 42
0.2
  3
txt
  4

  0
STYLE
  5
216
100
AcDbSymbolTableRecord
100
AcDbTextStyleTableRecord
  2
TEXTSTYLE_1
 70
0
 40
0.0
 41
0.8
 50
0.0
 71
0
 42
0.2
  3
gdt
  4

  0
ENDTAB
  0
TABLE
  2
VIEW
  5
6
100
AcDbSymbolTable
 70
0
  0
ENDTAB
  0
TABLE
  2
UCS
  5
7
100
AcDbSymbolTable
 70
0
  0
ENDTAB
  0
TABLE
  2
APPID
  5
9
100
AcDbSymbolTable
 70
1
  0
APPID
  5
217
100
AcDbSymbolTableRecord
100
AcDbRegAppTableRecord
  2
ACAD
 70
0
  0
ENDTAB
  0
TABLE
  2
BLOCK_RECORD
  5
1
100
AcDbSymbolTable
 70
0
  0
BLOCK_RECORD
  5
218
100
AcDbSymbolTableRecord
100
AcDbBlockTableRecord
  2
*Model_Space
  0
BLOCK_RECORD
  5
219
100
AcDbSymbolTableRecord
100
AcDbBlockTableRecord
  2
*Paper_Space
  0
BLOCK_RECORD
  5
21A
100
AcDbSymbolTableRecord
100
AcDbBlockTableRecord
  2
_CLOSED
  0
ENDTAB
  0
TABLE
  2
DIMSTYLE
  5
A
100
AcDbSymbolTable
 70
1
100
AcDbDimStyleTable
 71
0
  0
DIMSTYLE
105
21B
100
AcDbSymbolTableRecord
100
AcDbDimStyleTableRecord
  2
STANDARD
 70
0
  3

  4

 40
1.0
 41
0.1875
 42
0.0625
 43
0.38
 44
0.125
 45
0.0
 46
0.0
 47
0.01
 48
0.01
140
0.15625
141
0.09
142
0.0
143
25.4
144
1.0
145
0.0
146
1.0
147
0.625
 71
0.0
 72
0.0
 73
1
 74
1
 75
0
 76
0
 77
0
 78
8
 79
2
170
0
171
1
172
0
173
0
174
0
175
0
176
0
177
0
178
0
270
2
179
2
271
2
272
2
273
2
274
2
275
0
280
0
281
0
282
0
283
1
284
8
285
0
286
0
287
3
288
0
340
11
278
46
341
21A
342
21A
343
21A
344
21A
  0
ENDTAB
  0
ENDSEC
  0
SECTION
  2
BLOCKS
  0
BLOCK
  5
20
100
AcDbEntity
  8
0
100
AcDbBlockBegin
  2
*Model_Space
 70
0
 10
0.0
 20
0.0
 30
0.0
  3
*Model_Space
  1

  0
ENDBLK
  5
21
100
AcDbEntity
  8
0
100
AcDbBlockEnd
  0
BLOCK
  5
1C
100
AcDbEntity
  8
0
100
AcDbBlockBegin
  2
*Paper_Space
 70
0
 10
0.0
 20
0.0
 30
0.0
  3
*Paper_Space
  1

  0
ENDBLK
  5
1D
100
AcDbEntity
  8
0
100
AcDbBlockEnd
  0
BLOCK
  5
21C
100
AcDbEntity
  8
0
100
AcDbBlockBegin
  2
_CLOSED
 70
64
 10
0.0
 20
0.0
  3
_CLOSED
  1

  0
LINE
  5
21D
100
AcDbEntity
  8
0
  6
BYBLOCK
 62
0
100
AcDbLine
 10
0.0
 20
0.0
 11
-1.0
 21
0.1666666667
  0
LINE
  5
21E
100
AcDbEntity
  8
0
  6
BYBLOCK
 62
0
100
AcDbLine
 10
-1.0
 20
0.1666666667
 11
-1.0
 21
-0.1666666667
  0
LINE
  5
21F
100
AcDbEntity
  8
0
  6
BYBLOCK
 62
0
100
AcDbLine
 10
-1.0
 20
-0.1666666667
 11
0.0
 21
0.0
  0
LINE
  5
220
100
AcDbEntity
  8
0
  6
BYBLOCK
 62
0
100
AcDbLine
 10
-1.0
 20
0.0
 11
0.0
 21
0.0
  0
ENDBLK
  5
221
100
AcDbEntity
  8
0
  6
BYBLOCK
 62
0
100
AcDbBlockEnd
  0
ENDSEC
  0
SECTION
  2
ENTITIES
  0
LINE
  5
222
100
AcDbEntity
  8
0
100
AcDbLine
 62
7
  6
CONTINUOUS
 10
122.4398068526
 20
239.6749601171
 11
122.4398068526
 21
221.2824430512
  0
LINE
  5
223
100
AcDbEntity
  8
0
100
AcDbLine
 62
7
  6
CONTINUOUS
 10
122.4898812756
 20
217.7287015841
 11
122.4898812756
 21
243.2287015841
  0
LINE
  5
224
100
AcDbEntity
  8
0
100
AcDbLine
 62
7
  6
CONTINUOUS
 10
122.4972843338
 20
243.2826127892
 11
122.4972843338
 21
217.674790379
  0
LINE
  5
225
100
AcDbEntity
  8
0
100
AcDbLine
 62
7
  6
CONTINUOUS
 10
122.4972843339
 20
243.2826127892
 11
122.4898812756
 21
243.2287015841
  0
LINE
  5
226
100
AcDbEntity
  8
0
100
AcDbLine
 62
7
  6
CONTINUOUS
 10
122.4972843339
 20
217.674790379
 11
122.4898812756
 21
217.7287015841
  0
LINE
  5
227
100
AcDbEntity
  8
0
100
AcDbLine
 62
7
  6
CONTINUOUS
 10
122.92694593
 20
216.2287015841
 11
122.92694593
 21
244.7287015841
  0
LINE
  5
228
100
AcDbEntity
  8
0
100
AcDbLine
 62
7
  6
CONTINUOUS
 10
149.4098812748
 20
211.9786993493
 11
155.909881275
 21
213.1248247237
  0
LINE
  5
229
100
AcDbEntity
  8
0
100
AcDbLine
 62
7
  6
CONTINUOUS
 10
147.8098812753
 20
211.9786993493
 11
149.4098812748
 21
211.9786993493
  0
LINE
  5
22A
100
AcDbEntity
  8
0
100
AcDbLine
 62
7
  6
CONTINUOUS
 10
163.5867995443
 20
215.2841391128
 11
170.9577868349
 21
216.5838430462
  0
LINE
  5
22B
100
AcDbEntity
  8
0
100
AcDbLine
 62
7
  6
CONTINUOUS
 10
146.2098812756
 20
212.6609091464
 11
147.7098812756
 21
212.6609091464
  0
LINE
  5
22C
100
AcDbEntity
  8
0
100
AcDbLine
 62
7
  6
CONTINUOUS
 10
144.1098812756
 20
212.6786993493
 11
146.1098812756
 21
212.6786993493
  0
LINE
  5
22D
100
AcDbEntity
  8
0
100
AcDbLine
 62
7
  6
CONTINUOUS
 10
156.1098812756
 20
213.1248247237
 11
155.9098812756
 21
213.1248247237
  0
LINE
  5
22E
100
AcDbEntity
  8
0
100
AcDbLine
 62
7
  6
CONTINUOUS
 10
147.8098812756
 20
213.5577226144
 11
147.7098812756
 21
213.5577226144
  0
LINE
  5
22F
100
AcDbEntity
  8
0
100
AcDbLine
 62
7
  6
CONTINUOUS
 10
166.3228589694
 20
214.1786993493
 11
172.1886651469
 21
214.1786993493
  0
LINE
  5
230
100
AcDbEntity
  8
0
100
AcDbLine
 62
7
  6
CONTINUOUS
 10
144.1098812764
 20
214.2896540244
 11
146.1098812764
 21
214.2896540244
  0
LINE
  5
231
100
AcDbEntity
  8
0
100
AcDbLine
 62
7
  6
CONTINUOUS
 10
132.4898812756
 20
244.728572263
 11
132.4898812756
 21
216.2288309042
  0
LINE
  5
232
100
AcDbEntity
  8
0
100
AcDbLine
 62
7
  6
CONTINUOUS
 10
133.7398812756
 20
216.9037015848
 11
133.7398812756
 21
244.0537015834
  0
LINE
  5
233
100
AcDbEntity
  8
0
100
AcDbLine
 62
7
  6
CONTINUOUS
 10
146.2098812756
 20
215.8114859549
 11
147.7098812756
 21
215.8114859549
  0
LINE
  5
234
100
AcDbEntity
  8
0
100
AcDbLine
 62
7
  6
CONTINUOUS
 10
135.4898812756
 20
215.9787015841
 11
133.9898812756
 21
215.9787015841
  0
LINE
  5
235
100
AcDbEntity
  8
0
100
AcDbLine
 62
7
  6
CONTINUOUS
 10
132.4898812756
 20
216.2287015841
 11
122.92694593
 21
216.2287015841
  0
LINE
  5
236
100
AcDbEntity
  8
0
100
AcDbLine
 62
7
  6
CONTINUOUS
 10
156.1098812756
 20
216.5262180497
 11
155.9098812744
 21
216.5262180497
  0
LINE
  5
237
100
AcDbEntity
  8
0
100
AcDbLine
 62
7
  6
CONTINUOUS
 10
132.4898812756
 20
216.9037015841
 11
133.7398812756
 21
216.9037015841
  0
LINE
  5
238
100
AcDbEntity
  8
0
100
AcDbLine
 62
7
  6
CONTINUOUS
 10
133.9898812756
 20
215.9788219656
 11
133.9898812756
 21
244.9785812026
  0
LINE
  5
239
100
AcDbEntity
  8
0
100
AcDbLine
 62
7
  6
CONTINUOUS
 10
135.4898812756
 20
244.9786071435
 11
135.4898812756
 21
243.5565551474
  0
LINE
  5
23A
100
AcDbEntity
  8
0
100
AcDbLine
 62
7
  6
CONTINUOUS
 10
135.4898812756
 20
242.4411705325
 11
135.4898812756
 21
231.5940861993
  0
LINE
  5
23B
100
AcDbEntity
  8
0
100
AcDbLine
 62
7
  6
CONTINUOUS
 10
135.4898812756
 20
229.3633169629
 11
135.4898812756
 21
218.5162326273
  0
LINE
  5
23C
100
AcDbEntity
  8
0
100
AcDbLine
 62
7
  6
CONTINUOUS
 10
135.4898812756
 20
217.4008480277
 11
135.4898812756
 21
215.9787960247
  0
LINE
  5
23D
100
AcDbEntity
  8
0
100
AcDbLine
 62
7
  6
CONTINUOUS
 10
139.6898812756
 20
217.2537294238
 11
135.4898812756
 21
217.2537294238
  0
LINE
  5
23E
100
AcDbEntity
  8
0
100
AcDbLine
 62
7
  6
CONTINUOUS
 10
147.7098812756
 20
217.3286993489
 11
147.8098812756
 21
217.3286993489
  0
LINE
  5
23F
100
AcDbEntity
  8
0
100
AcDbLine
 62
7
  6
CONTINUOUS
 10
139.6898812756
 20
217.4008480207
 11
135.4898812756
 21
217.4008480207
  0
LINE
  5
240
100
AcDbEntity
  8
0
100
AcDbLine
 62
7
  6
CONTINUOUS
 10
146.1098812764
 20
217.4786993493
 11
144.1098812764
 21
217.4786993493
  0
LINE
  5
241
100
AcDbEntity
  8
0
100
AcDbLine
 62
7
  6
CONTINUOUS
 10
147.7098812756
 20
217.7533041172
 11
146.2098812756
 21
217.7533041172
  0
LINE
  5
242
100
AcDbEntity
  8
0
100
AcDbLine
 62
7
  6
CONTINUOUS
 10
152.8098812756
 20
217.7786993493
 11
147.8098812756
 21
217.7786993493
  0
LINE
  5
243
100
AcDbEntity
  8
0
100
AcDbLine
 62
7
  6
CONTINUOUS
 10
155.9098812756
 20
218.3786993486
 11
155.9274941857
 21
218.3786993486
  0
LINE
  5
244
100
AcDbEntity
  8
0
100
AcDbLine
 62
7
  6
CONTINUOUS
 10
139.6898812756
 20
218.516232636
 11
135.4898812756
 21
218.516232636
  0
LINE
  5
245
100
AcDbEntity
  8
0
100
AcDbLine
 62
7
  6
CONTINUOUS
 10
133.7398812756
 20
219.6037015841
 11
133.9898812756
 21
219.6037015841
  0
LINE
  5
246
100
AcDbEntity
  8
0
100
AcDbLine
 62
7
  6
CONTINUOUS
 10
139.9898812756
 20
220.3787015841
 11
145.8659572472
 21
220.3787015841
  0
LINE
  5
247
100
AcDbEntity
  8
0
100
AcDbLine
 62
7
  6
CONTINUOUS
 10
139.6898812756
 20
220.503729657
 11
138.7776551471
 21
220.503729657
  0
LINE
  5
248
100
AcDbEntity
  8
0
100
AcDbLine
 62
7
  6
CONTINUOUS
 10
146.1098812764
 20
220.6076154635
 11
145.8898812756
 21
220.6076154635
  0
LINE
  5
249
100
AcDbEntity
  8
0
100
AcDbLine
 62
7
  6
CONTINUOUS
 10
145.8898812756
 20
220.8226154205
 11
146.1098812764
 21
220.8226154205
  0
LINE
  5
24A
100
AcDbEntity
  8
0
100
AcDbLine
 62
7
  6
CONTINUOUS
 10
152.8098812756
 20
217.7786993493
 11
155.9098812756
 21
216.5262180492
  0
LINE
  5
24B
100
AcDbEntity
  8
0
100
AcDbLine
 62
7
  6
CONTINUOUS
 10
139.6898812748
 20
243.7036737444
 11
139.6898811793
 21
240.159323661
  0
LINE
  5
24C
100
AcDbEntity
  8
0
100
AcDbLine
 62
7
  6
CONTINUOUS
 10
139.6898812756
 20
232.9787015841
 11
139.6898812756
 21
227.9787015841
  0
LINE
  5
24D
100
AcDbEntity
  8
0
100
AcDbLine
 62
7
  6
CONTINUOUS
 10
139.6898812756
 20
220.7980792749
 11
139.6898812756
 21
217.2537294238
  0
LINE
  5
24E
100
AcDbEntity
  8
0
100
AcDbLine
 62
7
  6
CONTINUOUS
 10
139.7924873187
 20
239.735486008
 11
139.7924873187
 21
233.2172917907
  0
LINE
  5
24F
100
AcDbEntity
  8
0
100
AcDbLine
 62
7
  6
CONTINUOUS
 10
139.792636913
 20
227.7401116943
 11
139.792636913
 21
221.2219646843
  0
LINE
  5
250
100
AcDbEntity
  8
0
100
AcDbLine
 62
7
  6
CONTINUOUS
 10
139.9898812756
 20
217.5537824622
 11
139.9898812756
 21
243.4036205667
  0
LINE
  5
251
100
AcDbEntity
  8
0
100
AcDbLine
 62
7
  6
CONTINUOUS
 10
140.2898812758
 20
240.6787015837
 11
140.2898812758
 21
240.5787015841
  0
LINE
  5
252
100
AcDbEntity
  8
0
100
AcDbLine
 62
7
  6
CONTINUOUS
 10
150.7955219211
 20
245.7519044304
 11
149.2098812765
 21
244.836434376
  0
LINE
  5
253
100
AcDbEntity
  8
0
100
AcDbLine
 62
7
  6
CONTINUOUS
 10
146.1098812756
 20
223.4786993493
 11
146.2098812756
 21
223.4786993493
  0
LINE
  5
254
100
AcDbEntity
  8
0
100
AcDbLine
 62
7
  6
CONTINUOUS
 10
147.7098812756
 20
223.4786993493
 11
147.8098812756
 21
223.4786993493
  0
LINE
  5
255
100
AcDbEntity
  8
0
100
AcDbLine
 62
7
  6
CONTINUOUS
 10
155.9098812756
 20
218.3858154261
 11
166.3228589697
 21
214.1786993493
  0
LINE
  5
256
100
AcDbEntity
  8
0
100
AcDbLine
 62
7
  6
CONTINUOUS
 10
166.3228589693
 20
246.1786993493
 11
155.1098812777
 21
242.47869935
  0
LINE
  5
257
100
AcDbEntity
  8
0
100
AcDbLine
 62
7
  6
CONTINUOUS
 10
147.8098812753
 20
225.2108747086
 11
147.7098812756
 21
225.2108747086
  0
LINE
  5
258
100
AcDbEntity
  8
0
100
AcDbLine
 62
7
  6
CONTINUOUS
 10
146.2098812756
 20
225.2108747086
 11
145.8907685134
 21
225.2108747086
  0
LINE
  5
259
100
AcDbEntity
  8
0
100
AcDbLine
 62
7
  6
CONTINUOUS
 10
133.7398812756
 20
225.4269073476
 11
132.4898812756
 21
225.4269073476
  0
LINE
  5
25A
100
AcDbEntity
  8
0
100
AcDbLine
 62
7
  6
CONTINUOUS
 10
145.9258100081
 20
225.4599028046
 11
146.2098812756
 21
225.4599028027
  0
LINE
  5
25B
100
AcDbEntity
  8
0
100
AcDbLine
 62
7
  6
CONTINUOUS
 10
144.1098812756
 20
251.7786993493
 11
144.1098812756
 21
243.9786993493
  0
LINE
  5
25C
100
AcDbEntity
  8
0
100
AcDbLine
 62
7
  6
CONTINUOUS
 10
144.1098812756
 20
212.6786993486
 11
144.1098812764
 21
217.4786993493
  0
LINE
  5
25D
100
AcDbEntity
  8
0
100
AcDbLine
 62
7
  6
CONTINUOUS
 10
155.6098812753
 20
246.1786993493
 11
155.1098812753
 21
245.6786993493
  0
LINE
  5
25E
100
AcDbEntity
  8
0
100
AcDbLine
 62
7
  6
CONTINUOUS
 10
152.7098812756
 20
226.3786993493
 11
153.2098812756
 21
226.3786993493
  0
LINE
  5
25F
100
AcDbEntity
  8
0
100
AcDbLine
 62
7
  6
CONTINUOUS
 10
138.7748990905
 20
227.9787015841
 11
139.6898811836
 21
227.9787015841
  0
LINE
  5
260
100
AcDbEntity
  8
0
100
AcDbLine
 62
7
  6
CONTINUOUS
 10
145.6862398894
 20
240.5787015841
 11
145.6862398894
 21
232.2287015841
  0
LINE
  5
261
100
AcDbEntity
  8
0
100
AcDbLine
 62
7
  6
CONTINUOUS
 10
145.6862398894
 20
228.7287015841
 11
145.6862398894
 21
220.3787015841
  0
LINE
  5
262
100
AcDbEntity
  8
0
100
AcDbLine
 62
7
  6
CONTINUOUS
 10
145.8898812756
 20
220.4709246085
 11
145.8898812756
 21
240.5787015837
  0
LINE
  5
263
100
AcDbEntity
  8
0
100
AcDbLine
 62
7
  6
CONTINUOUS
 10
146.1098812756
 20
243.9786993493
 11
146.1098812756
 21
237.4786993493
  0
LINE
  5
264
100
AcDbEntity
  8
0
100
AcDbLine
 62
7
  6
CONTINUOUS
 10
146.1098812764
 20
223.4786993493
 11
146.1098812764
 21
217.4786993493
  0
LINE
  5
265
100
AcDbEntity
  8
0
100
AcDbLine
 62
7
  6
CONTINUOUS
 10
146.1098812756
 20
216.5204089724
 11
146.1098812756
 21
212.6786993486
  0
LINE
  5
266
100
AcDbEntity
  8
0
100
AcDbLine
 62
7
  6
CONTINUOUS
 10
146.1098812756
 20
247.3286993493
 11
146.1098812756
 21
251.7786993493
  0
LINE
  5
267
100
AcDbEntity
  8
0
100
AcDbLine
 62
7
  6
CONTINUOUS
 10
146.2098812756
 20
212.6609091465
 11
146.2098812756
 21
249.9627516061
  0
LINE
  5
268
100
AcDbEntity
  8
0
100
AcDbLine
 62
7
  6
CONTINUOUS
 10
145.8911598078
 20
225.2108805027
 11
146.2098812757
 21
227.4787015849
  0
LINE
  5
269
100
AcDbEntity
  8
0
100
AcDbLine
 62
7
  6
CONTINUOUS
 10
151.4394301481
 20
241.3616621558
 11
151.533683135
 21
241.5316990382
  0
LINE
  5
26A
100
AcDbEntity
  8
0
100
AcDbLine
 62
7
  6
CONTINUOUS
 10
145.8898812756
 20
228.7287015841
 11
139.9898812756
 21
228.7287015841
  0
LINE
  5
26B
100
AcDbEntity
  8
0
100
AcDbLine
 62
7
  6
CONTINUOUS
 10
147.8098812756
 20
229.0787015841
 11
147.7898812756
 21
229.0787015841
  0
LINE
  5
26C
100
AcDbEntity
  8
0
100
AcDbLine
 62
7
  6
CONTINUOUS
 10
139.6898812756
 20
229.3633169687
 11
135.4898812756
 21
229.3633169687
  0
LINE
  5
26D
100
AcDbEntity
  8
0
100
AcDbLine
 62
7
  6
CONTINUOUS
 10
155.9098812756
 20
223.1232529878
 11
152.7098812756
 21
225.5786993493
  0
LINE
  5
26E
100
AcDbEntity
  8
0
100
AcDbLine
 62
7
  6
CONTINUOUS
 10
152.7098812749
 20
225.9786993501
 11
156.1255427515
 21
223.3100921337
  0
LINE
  5
26F
100
AcDbEntity
  8
0
100
AcDbLine
 62
7
  6
CONTINUOUS
 10
146.2098812756
 20
233.4787015841
 11
145.8911983061
 21
235.7462487363
  0
LINE
  5
270
100
AcDbEntity
  8
0
100
AcDbLine
 62
7
  6
CONTINUOUS
 10
147.8098812753
 20
227.3363941923
 11
147.7898812755
 21
227.4787015849
  0
LINE
  5
271
100
AcDbEntity
  8
0
100
AcDbLine
 62
7
  6
CONTINUOUS
 10
147.7098812756
 20
212.6609091464
 11
147.7098812756
 21
249.9627516061
  0
LINE
  5
272
100
AcDbEntity
  8
0
100
AcDbLine
 62
7
  6
CONTINUOUS
 10
147.7898812756
 20
227.4787015849
 11
147.7898812756
 21
233.4787015824
  0
LINE
  5
273
100
AcDbEntity
  8
0
100
AcDbLine
 62
7
  6
CONTINUOUS
 10
147.8098812753
 20
211.9786993493
 11
147.8098812756
 21
253.2285811137
  0
LINE
  5
274
100
AcDbEntity
  8
0
100
AcDbLine
 62
7
  6
CONTINUOUS
 10
149.1098812749
 20
244.6632292946
 11
149.1098812749
 21
243.557410371
  0
LINE
  5
275
100
AcDbEntity
  8
0
100
AcDbLine
 62
7
  6
CONTINUOUS
 10
147.7898812754
 20
233.4787015825
 11
147.8098812753
 21
233.621008976
  0
LINE
  5
276
100
AcDbEntity
  8
0
100
AcDbLine
 62
7
  6
CONTINUOUS
 10
139.6898812756
 20
231.5940861995
 11
135.4898812763
 21
231.5940861995
  0
LINE
  5
277
100
AcDbEntity
  8
0
100
AcDbLine
 62
7
  6
CONTINUOUS
 10
147.7898812752
 20
231.8787015841
 11
147.8098812756
 21
231.8787015841
  0
LINE
  5
278
100
AcDbEntity
  8
0
100
AcDbLine
 62
7
  6
CONTINUOUS
 10
139.9898812756
 20
232.2287015841
 11
145.889881276
 21
232.2287015841
  0
LINE
  5
279
100
AcDbEntity
  8
0
100
AcDbLine
 62
7
  6
CONTINUOUS
 10
171.4562942446
 20
214.1786993493
 11
171.689046783
 21
213.9968531366
  0
LINE
  5
27A
100
AcDbEntity
  8
0
100
AcDbLine
 62
7
  6
CONTINUOUS
 10
150.1098812756
 20
253.2285811136
 11
150.1098812756
 21
249.9519044296
  0
LINE
  5
27B
100
AcDbEntity
  8
0
100
AcDbLine
 62
7
  6
CONTINUOUS
 10
151.8614076293
 20
242.9786993493
 11
151.5087536677
 21
240.9786993493
  0
LINE
  5
27C
100
AcDbEntity
  8
0
100
AcDbLine
 62
7
  6
CONTINUOUS
 10
151.5871868735
 20
241.6786993488
 11
151.88617524
 21
243.2168611479
  0
LINE
  5
27D
100
AcDbEntity
  8
0
100
AcDbLine
 62
7
  6
CONTINUOUS
 10
139.6898812756
 20
232.9787015841
 11
138.7776521954
 21
232.9787015841
  0
LINE
  5
27E
100
AcDbEntity
  8
0
100
AcDbLine
 62
7
  6
CONTINUOUS
 10
152.7098812749
 20
233.9786993501
 11
153.2098812749
 21
233.9786993501
  0
LINE
  5
27F
100
AcDbEntity
  8
0
100
AcDbLine
 62
7
  6
CONTINUOUS
 10
152.7098812756
 20
248.2775886494
 11
152.7098812756
 21
245.77869935
  0
LINE
  5
280
100
AcDbEntity
  8
0
100
AcDbLine
 62
7
  6
CONTINUOUS
 10
152.7098812756
 20
242.9786993493
 11
152.7098812756
 21
225.578699349
  0
LINE
  5
281
100
AcDbEntity
  8
0
100
AcDbLine
 62
7
  6
CONTINUOUS
 10
153.2098812749
 20
233.9786993501
 11
153.2098812749
 21
226.3786993486
  0
LINE
  5
282
100
AcDbEntity
  8
0
100
AcDbLine
 62
7
  6
CONTINUOUS
 10
153.4098812756
 20
248.3786993494
 11
153.4098812756
 21
245.8786993493
  0
LINE
  5
283
100
AcDbEntity
  8
0
100
AcDbLine
 62
7
  6
CONTINUOUS
 10
153.7098812756
 20
242.9786993493
 11
153.7098812756
 21
242.8541215167
  0
LINE
  5
284
100
AcDbEntity
  8
0
100
AcDbLine
 62
7
  6
CONTINUOUS
 10
153.9098812756
 20
245.7786993493
 11
153.9098812756
 21
242.9786993493
  0
LINE
  5
285
100
AcDbEntity
  8
0
100
AcDbLine
 62
7
  6
CONTINUOUS
 10
171.689046783
 20
246.3605455621
 11
171.4562942446
 21
246.1786993493
  0
LINE
  5
286
100
AcDbEntity
  8
0
100
AcDbLine
 62
7
  6
CONTINUOUS
 10
146.2098812756
 20
235.497500364
 11
145.925810009
 21
235.497500364
  0
LINE
  5
287
100
AcDbEntity
  8
0
100
AcDbLine
 62
7
  6
CONTINUOUS
 10
132.4898812756
 20
235.5304958206
 11
133.7398812756
 21
235.5304958206
  0
LINE
  5
288
100
AcDbEntity
  8
0
100
AcDbLine
 62
7
  6
CONTINUOUS
 10
145.8906527771
 20
235.7473509631
 11
146.2098812756
 21
235.7473509631
  0
LINE
  5
289
100
AcDbEntity
  8
0
100
AcDbLine
 62
7
  6
CONTINUOUS
 10
147.7098812756
 20
235.7473509631
 11
147.8098812753
 21
235.7473509631
  0
LINE
  5
28A
100
AcDbEntity
  8
0
100
AcDbLine
 62
7
  6
CONTINUOUS
 10
138.7748990268
 20
240.453673745
 11
139.6898811793
 21
240.159323661
  0
LINE
  5
28B
100
AcDbEntity
  8
0
100
AcDbLine
 62
7
  6
CONTINUOUS
 10
154.2098812756
 20
242.47869935
 11
154.2098812756
 21
243.0786993493
  0
LINE
  5
28C
100
AcDbEntity
  8
0
100
AcDbLine
 62
7
  6
CONTINUOUS
 10
154.2098812756
 20
245.6286993493
 11
154.2098812756
 21
245.7786993493
  0
LINE
  5
28D
100
AcDbEntity
  8
0
100
AcDbLine
 62
7
  6
CONTINUOUS
 10
155.0098812764
 20
242.47869935
 11
155.0098812756
 21
245.7786993493
  0
LINE
  5
28E
100
AcDbEntity
  8
0
100
AcDbLine
 62
7
  6
CONTINUOUS
 10
155.1098812756
 20
242.47869935
 11
155.1098812756
 21
245.6786993493
  0
LINE
  5
28F
100
AcDbEntity
  8
0
100
AcDbLine
 62
7
  6
CONTINUOUS
 10
155.9098812756
 20
223.1232529883
 11
155.9098812756
 21
216.5262180497
  0
LINE
  5
290
100
AcDbEntity
  8
0
100
AcDbLine
 62
7
  6
CONTINUOUS
 10
156.1098812756
 20
216.5262180497
 11
156.1098812756
 21
213.1248247237
  0
LINE
  5
291
100
AcDbEntity
  8
0
100
AcDbLine
 62
7
  6
CONTINUOUS
 10
146.1098812756
 20
237.4786993493
 11
146.2098812756
 21
237.4786993493
  0
LINE
  5
292
100
AcDbEntity
  8
0
100
AcDbLine
 62
7
  6
CONTINUOUS
 10
147.7098812756
 20
237.4786993493
 11
147.8098812756
 21
237.4786993493
  0
LINE
  5
293
100
AcDbEntity
  8
0
100
AcDbLine
 62
7
  6
CONTINUOUS
 10
137.9980366355
 20
243.7036737444
 11
135.4898812756
 21
244.6165676383
  0
LINE
  5
294
100
AcDbEntity
  8
0
100
AcDbLine
 62
7
  6
CONTINUOUS
 10
156.5098812756
 20
222.52208138
 11
156.5098812756
 21
218.1433996906
  0
LINE
  5
295
100
AcDbEntity
  8
0
100
AcDbLine
 62
7
  6
CONTINUOUS
 10
139.6898812756
 20
220.7980792749
 11
138.7776551471
 21
220.503729657
  0
LINE
  5
296
100
AcDbEntity
  8
0
100
AcDbLine
 62
7
  6
CONTINUOUS
 10
138.6749258667
 20
220.8624967799
 11
139.7926563809
 21
221.2215715571
  0
LINE
  5
297
100
AcDbEntity
  8
0
100
AcDbLine
 62
7
  6
CONTINUOUS
 10
152.7098812756
 20
242.6415649555
 11
154.2098812756
 21
242.9603997975
  0
LINE
  5
298
100
AcDbEntity
  8
0
100
AcDbLine
 62
7
  6
CONTINUOUS
 10
155.0098812756
 20
243.1304450468
 11
155.1098812756
 21
243.151700703
  0
LINE
  5
299
100
AcDbEntity
  8
0
100
AcDbLine
 62
7
  6
CONTINUOUS
 10
138.7748990268
 20
240.453673745
 11
139.6898811793
 21
240.453673745
  0
LINE
  5
29A
100
AcDbEntity
  8
0
100
AcDbLine
 62
7
  6
CONTINUOUS
 10
145.8898812756
 20
240.4787015841
 11
146.1098812756
 21
240.4787015841
  0
LINE
  5
29B
100
AcDbEntity
  8
0
100
AcDbLine
 62
7
  6
CONTINUOUS
 10
145.8898812756
 20
240.5787015841
 11
139.9898812756
 21
240.5787015841
  0
LINE
  5
29C
100
AcDbEntity
  8
0
100
AcDbLine
 62
7
  6
CONTINUOUS
 10
139.9898812756
 20
240.6787015841
 11
140.2898812756
 21
240.6787015841
  0
LINE
  5
29D
100
AcDbEntity
  8
0
100
AcDbLine
 62
7
  6
CONTINUOUS
 10
147.8098812749
 20
240.9786993493
 11
151.5087536679
 21
240.9786993493
  0
LINE
  5
29E
100
AcDbEntity
  8
0
100
AcDbLine
 62
7
  6
CONTINUOUS
 10
133.7398812756
 20
241.3537015841
 11
133.9898812756
 21
241.3537015841
  0
LINE
  5
29F
100
AcDbEntity
  8
0
100
AcDbLine
 62
7
  6
CONTINUOUS
 10
149.1635266304
 20
243.4211007306
 11
151.1181932897
 21
241.3223897094
  0
LINE
  5
2A0
100
AcDbEntity
  8
0
100
AcDbLine
 62
7
  6
CONTINUOUS
 10
137.9980366355
 20
217.2537294238
 11
135.4898812756
 21
216.3408355299
  0
LINE
  5
2A1
100
AcDbEntity
  8
0
100
AcDbLine
 62
7
  6
CONTINUOUS
 10
155.1098812756
 20
244.8691602294
 11
155.0098812756
 21
244.8423653101
  0
LINE
  5
2A2
100
AcDbEntity
  8
0
100
AcDbLine
 62
7
  6
CONTINUOUS
 10
139.6898812748
 20
242.4411705322
 11
135.4898812756
 21
242.4411705322
  0
LINE
  5
2A3
100
AcDbEntity
  8
0
100
AcDbLine
 62
7
  6
CONTINUOUS
 10
155.1098812777
 20
242.47869935
 11
152.7098812749
 21
242.47869935
  0
LINE
  5
2A4
100
AcDbEntity
  8
0
100
AcDbLine
 62
7
  6
CONTINUOUS
 10
175.8331798379
 20
242.6786993493
 11
175.5706727495
 21
242.6786993493
  0
LINE
  5
2A5
100
AcDbEntity
  8
0
100
AcDbLine
 62
7
  6
CONTINUOUS
 10
151.8614076299
 20
242.9786993493
 11
153.9098812756
 21
242.9786993493
  0
LINE
  5
2A6
100
AcDbEntity
  8
0
100
AcDbLine
 62
7
  6
CONTINUOUS
 10
155.0098812756
 20
243.0786993493
 11
153.9098812756
 21
243.0786993493
  0
LINE
  5
2A7
100
AcDbEntity
  8
0
100
AcDbLine
 62
7
  6
CONTINUOUS
 10
152.2325006764
 20
243.3786993493
 11
152.0825006764
 21
243.3786993493
  0
LINE
  5
2A8
100
AcDbEntity
  8
0
100
AcDbLine
 62
7
  6
CONTINUOUS
 10
139.6898812756
 20
243.5565551475
 11
135.4898812763
 21
243.5565551475
  0
LINE
  5
2A9
100
AcDbEntity
  8
0
100
AcDbLine
 62
7
  6
CONTINUOUS
 10
139.6898812748
 20
243.7036737444
 11
135.4898812756
 21
243.7036737444
  0
LINE
  5
2AA
100
AcDbEntity
  8
0
100
AcDbLine
 62
7
  6
CONTINUOUS
 10
146.1098812756
 20
243.9786993493
 11
144.1098812756
 21
243.9786993493
  0
LINE
  5
2AB
100
AcDbEntity
  8
0
100
AcDbLine
 62
7
  6
CONTINUOUS
 10
132.4898812756
 20
244.0537015841
 11
133.7398812756
 21
244.0537015841
  0
LINE
  5
2AC
100
AcDbEntity
  8
0
100
AcDbLine
 62
7
  6
CONTINUOUS
 10
172.6836473124
 20
242.9107676336
 11
175.5886885938
 21
242.771382829
  0
LINE
  5
2AD
100
AcDbEntity
  8
0
100
AcDbLine
 62
7
  6
CONTINUOUS
 10
132.4898812756
 20
244.7287015841
 11
122.92694593
 21
244.7287015841
  0
LINE
  5
2AE
100
AcDbEntity
  8
0
100
AcDbLine
 62
7
  6
CONTINUOUS
 10
135.4898812756
 20
244.9787015841
 11
133.9898812763
 21
244.9787015841
  0
LINE
  5
2AF
100
AcDbEntity
  8
0
100
AcDbLine
 62
7
  6
CONTINUOUS
 10
153.9098812756
 20
245.6286993493
 11
155.0098812756
 21
245.6286993493
  0
LINE
  5
2B0
100
AcDbEntity
  8
0
100
AcDbLine
 62
7
  6
CONTINUOUS
 10
155.0098812756
 20
245.7786993493
 11
154.2098812764
 21
245.7786993493
  0
LINE
  5
2B1
100
AcDbEntity
  8
0
100
AcDbLine
 62
7
  6
CONTINUOUS
 10
153.9098812756
 20
245.77869935
 11
150.8955219225
 21
245.77869935
  0
LINE
  5
2B2
100
AcDbEntity
  8
0
100
AcDbLine
 62
7
  6
CONTINUOUS
 10
153.4098812749
 20
245.8786993493
 11
152.7098812756
 21
245.8786993493
  0
LINE
  5
2B3
100
AcDbEntity
  8
0
100
AcDbLine
 62
7
  6
CONTINUOUS
 10
155.609881275
 20
246.1786993493
 11
172.1886651468
 21
246.1786993493
  0
LINE
  5
2B4
100
AcDbEntity
  8
0
100
AcDbLine
 62
7
  6
CONTINUOUS
 10
146.2098812756
 20
246.4123108302
 11
147.7098812756
 21
246.4123108302
  0
LINE
  5
2B5
100
AcDbEntity
  8
0
100
AcDbLine
 62
7
  6
CONTINUOUS
 10
165.4098812749
 20
246.6786993493
 11
164.5178364282
 21
246.6786993493
  0
LINE
  5
2B6
100
AcDbEntity
  8
0
100
AcDbLine
 62
7
  6
CONTINUOUS
 10
163.9262284485
 20
247.1786993493
 11
161.8882930742
 21
247.1786993493
  0
LINE
  5
2B7
100
AcDbEntity
  8
0
100
AcDbLine
 62
7
  6
CONTINUOUS
 10
147.8098812756
 20
247.3286993493
 11
147.709881276
 21
247.3286993493
  0
LINE
  5
2B8
100
AcDbEntity
  8
0
100
AcDbLine
 62
7
  6
CONTINUOUS
 10
146.209881276
 20
247.3286993493
 11
146.1098812756
 21
247.3286993493
  0
LINE
  5
2B9
100
AcDbEntity
  8
0
100
AcDbLine
 62
7
  6
CONTINUOUS
 10
170.9577868236
 20
243.773555654
 11
163.1866249258
 21
245.1438211682
  0
LINE
  5
2BA
100
AcDbEntity
  8
0
100
AcDbLine
 62
7
  6
CONTINUOUS
 10
153.4098812756
 20
248.3786993493
 11
150.2927163215
 21
249.7011329662
  0
LINE
  5
2BB
100
AcDbEntity
  8
0
100
AcDbLine
 62
7
  6
CONTINUOUS
 10
152.7098812756
 20
248.2775886494
 11
150.2598812756
 21
249.692096809
  0
LINE
  5
2BC
100
AcDbEntity
  8
0
100
AcDbLine
 62
7
  6
CONTINUOUS
 10
165.7098812756
 20
246.1786993493
 11
165.7098812756
 21
246.3786993486
  0
LINE
  5
2BD
100
AcDbEntity
  8
0
100
AcDbLine
 62
7
  6
CONTINUOUS
 10
147.7098812756
 20
249.1786993493
 11
146.2098812756
 21
249.1786993493
  0
LINE
  5
2BE
100
AcDbEntity
  8
0
100
AcDbLine
 62
7
  6
CONTINUOUS
 10
147.8098812753
 20
249.4013490793
 11
150.7634711154
 21
249.4013490793
  0
LINE
  5
2BF
100
AcDbEntity
  8
0
100
AcDbLine
 62
7
  6
CONTINUOUS
 10
146.2098812756
 20
249.9627516062
 11
147.7098812756
 21
249.9627516062
  0
LINE
  5
2C0
100
AcDbEntity
  8
0
100
AcDbLine
 62
7
  6
CONTINUOUS
 10
150.1098812764
 20
250.2673744836
 11
147.8098812756
 21
250.2673744836
  0
LINE
  5
2C1
100
AcDbEntity
  8
0
100
AcDbLine
 62
7
  6
CONTINUOUS
 10
147.8098812756
 20
251.6447247534
 11
150.1098812764
 21
251.6447247534
  0
LINE
  5
2C2
100
AcDbEntity
  8
0
100
AcDbLine
 62
7
  6
CONTINUOUS
 10
150.1098812756
 20
251.7786993493
 11
147.8098812749
 21
251.7786993493
  0
LINE
  5
2C3
100
AcDbEntity
  8
0
100
AcDbLine
 62
7
  6
CONTINUOUS
 10
146.1098812756
 20
251.7786993493
 11
144.1098812756
 21
251.7786993493
  0
LINE
  5
2C4
100
AcDbEntity
  8
0
100
AcDbLine
 62
7
  6
CONTINUOUS
 10
150.1098812756
 20
252.1519578828
 11
147.8098812751
 21
252.1519578828
  0
LINE
  5
2C5
100
AcDbEntity
  8
0
100
AcDbLine
 62
7
  6
CONTINUOUS
 10
150.1098812756
 20
253.2286993493
 11
147.8098812756
 21
253.2286993493
  0
LINE
  5
2C6
100
AcDbEntity
  8
0
100
AcDbLine
 62
7
  6
CONTINUOUS
 10
176.3098812756
 20
244.6786993496
 11
171.689046783
 21
246.3605455621
  0
LINE
  5
2C7
100
AcDbEntity
  8
0
100
AcDbLine
 62
7
  6
CONTINUOUS
 10
171.3098812763
 20
246.1786993493
 11
171.3098812763
 21
244.0689560724
  0
LINE
  5
2C8
100
AcDbEntity
  8
0
100
AcDbLine
 62
7
  6
CONTINUOUS
 10
171.3098812756
 20
214.1786993493
 11
171.3098812756
 21
216.2884007178
  0
LINE
  5
2C9
100
AcDbEntity
  8
0
100
AcDbLine
 62
7
  6
CONTINUOUS
 10
172.3098812756
 20
246.1345802855
 11
172.3098812756
 21
243.4104662183
  0
LINE
  5
2CA
100
AcDbEntity
  8
0
100
AcDbLine
 62
7
  6
CONTINUOUS
 10
175.5886885938
 20
242.771382829
 11
175.2031883998
 21
240.7881562612
  0
LINE
  5
2CB
100
AcDbEntity
  8
0
100
AcDbLine
 62
7
  6
CONTINUOUS
 10
171.689046783
 20
213.9968531366
 11
176.3098812763
 21
215.67869935
  0
LINE
  5
2CC
100
AcDbEntity
  8
0
100
AcDbLine
 62
7
  6
CONTINUOUS
 10
176.3098812763
 20
242.2786993489
 11
175.8331798379
 21
242.6786993493
  0
LINE
  5
2CD
100
AcDbEntity
  8
0
100
AcDbLine
 62
7
  6
CONTINUOUS
 10
174.7748382974
 20
240.6654714601
 11
172.3769379694
 21
243.2400791677
  0
LINE
  5
2CE
100
AcDbEntity
  8
0
100
AcDbLine
 62
7
  6
CONTINUOUS
 10
176.3098812763
 20
215.67869935
 11
176.3098812756
 21
244.6786993496
  0
ARC
  5
2CF
100
AcDbEntity
  8
0
100
AcDbCircle
 62
7
  6
CONTINUOUS
 10
168.239057997
 20
230.4787015841
 40
47.5
100
AcDbArc
 50
162.5423968762
 51
164.3621505099
  0
ARC
  5
2D0
100
AcDbEntity
  8
0
100
AcDbCircle
 62
7
  6
CONTINUOUS
 10
168.239057997
 20
230.4787015841
 40
47.5
100
AcDbArc
 50
195.6378494901
 51
197.4576031238
  0
ARC
  5
2D1
100
AcDbEntity
  8
0
100
AcDbCircle
 62
7
  6
CONTINUOUS
 10
132.4395234401
 20
239.6787650055
 40
9.9997165875
100
AcDbArc
 50
175.5067381096
 51
180.0
  0
ARC
  5
2D2
100
AcDbEntity
  8
0
100
AcDbCircle
 62
7
  6
CONTINUOUS
 10
132.4395234401
 20
221.2786381627
 40
9.9997165875
100
AcDbArc
 50
180.0
 51
184.4931111853
  0
ARC
  5
2D3
100
AcDbEntity
  8
0
100
AcDbCircle
 62
7
  6
CONTINUOUS
 10
157.8098812756
 20
249.4098171274
 40
4.5
100
AcDbArc
 50
313.8962627612
 51
328.1756997697
  0
ARC
  5
2D4
100
AcDbEntity
  8
0
100
AcDbCircle
 62
7
  6
CONTINUOUS
 10
144.6204940653
 20
230.6369476494
 40
3.3908126823
100
AcDbArc
 50
339.3237655489
 51
340.3241508663
  0
ARC
  5
2D5
100
AcDbEntity
  8
0
100
AcDbCircle
 62
7
  6
CONTINUOUS
 10
144.6205093627
 20
230.3204610502
 40
3.3907964162
100
AcDbArc
 50
19.6756363731
 51
20.6760155093
  0
ARC
  5
2D6
100
AcDbEntity
  8
0
100
AcDbCircle
 62
7
  6
CONTINUOUS
 10
155.5098715641
 20
222.5220766435
 40
1.0000097115
100
AcDbArc
 50
0.0002713818
 51
51.9997285906
  0
ARC
  5
2D7
100
AcDbEntity
  8
0
100
AcDbCircle
 62
7
  6
CONTINUOUS
 10
151.096373282
 20
241.774103847
 40
0.5
100
AcDbArc
 50
331.0000000972
 51
348.9999999401
  0
ARC
  5
2D8
100
AcDbEntity
  8
0
100
AcDbCircle
 62
7
  6
CONTINUOUS
 10
139.6898812756
 20
232.6787015841
 40
0.3
100
AcDbArc
 50
0.0
 51
90.0
  0
ARC
  5
2D9
100
AcDbEntity
  8
0
100
AcDbCircle
 62
7
  6
CONTINUOUS
 10
139.6898812756
 20
228.2787015841
 40
0.3
100
AcDbArc
 50
269.9999824274
 51
360.0
  0
ARC
  5
2DA
100
AcDbEntity
  8
0
100
AcDbCircle
 62
7
  6
CONTINUOUS
 10
139.6898812756
 20
243.4036737444
 40
0.3
100
AcDbArc
 50
0.0
 51
90.0
  0
ARC
  5
2DB
100
AcDbEntity
  8
0
100
AcDbCircle
 62
7
  6
CONTINUOUS
 10
139.6898812756
 20
217.5537294238
 40
0.3
100
AcDbArc
 50
270.0
 51
360.0
  0
ARC
  5
2DC
100
AcDbEntity
  8
0
100
AcDbCircle
 62
7
  6
CONTINUOUS
 10
150.4098812756
 20
249.9519044301
 40
0.3
100
AcDbArc
 50
180.0000000955
 51
239.9999999966
  0
ARC
  5
2DD
100
AcDbEntity
  8
0
100
AcDbCircle
 62
7
  6
CONTINUOUS
 10
150.4098812756
 20
249.9773075007
 40
0.3
100
AcDbArc
 50
213.5056415905
 51
247.01128318
  0
ARC
  5
2DE
100
AcDbEntity
  8
0
100
AcDbCircle
 62
7
  6
CONTINUOUS
 10
165.4098812756
 20
246.3786993493
 40
0.3
100
AcDbArc
 50
359.9999998663
 51
90.0000001337
  0
ARC
  5
2DF
100
AcDbEntity
  8
0
100
AcDbCircle
 62
7
  6
CONTINUOUS
 10
164.5178364263
 20
246.9786993493
 40
0.3
100
AcDbArc
 50
189.5940682222
 51
270.0000003575
  0
ARC
  5
2E0
100
AcDbEntity
  8
0
100
AcDbCircle
 62
7
  6
CONTINUOUS
 10
163.926228448
 20
246.8786993493
 40
0.3
100
AcDbArc
 50
9.5940682318
 51
89.9999999045
  0
ARC
  5
2E1
100
AcDbEntity
  8
0
100
AcDbCircle
 62
7
  6
CONTINUOUS
 10
161.8882930735
 20
246.8786993493
 40
0.3
100
AcDbArc
 50
89.9999998759
 51
148.175699751
  0
ARC
  5
2E2
100
AcDbEntity
  8
0
100
AcDbCircle
 62
7
  6
CONTINUOUS
 10
171.0098812756
 20
216.2884007178
 40
0.3
100
AcDbArc
 50
359.9793354455
 51
99.999997553
  0
ARC
  5
2E3
100
AcDbEntity
  8
0
100
AcDbCircle
 62
7
  6
CONTINUOUS
 10
171.0098812756
 20
244.0689979808
 40
0.3
100
AcDbArc
 50
260.000000275
 51
359.9919960881
  0
ARC
  5
2E4
100
AcDbEntity
  8
0
100
AcDbCircle
 62
7
  6
CONTINUOUS
 10
172.5598812756
 20
243.4104662183
 40
0.25
100
AcDbArc
 50
180.0000000043
 51
222.9647436812
  0
ARC
  5
2E5
100
AcDbEntity
  8
0
100
AcDbCircle
 62
7
  6
CONTINUOUS
 10
174.957781604
 20
240.8358585105
 40
0.25
100
AcDbArc
 50
222.9647435947
 51
348.9999998957
  0
ARC
  5
2E6
100
AcDbEntity
  8
0
100
AcDbCircle
 62
7
  6
CONTINUOUS
 10
150.8955219217
 20
245.5786993493
 40
0.2
100
AcDbArc
 50
89.9999997594
 51
120.0000000919
  0
ARC
  5
2E7
100
AcDbEntity
  8
0
100
AcDbCircle
 62
7
  6
CONTINUOUS
 10
149.3098812756
 20
244.6632292955
 40
0.2
100
AcDbArc
 50
119.9999998306
 51
180.0000002578
  0
ARC
  5
2E8
100
AcDbEntity
  8
0
100
AcDbCircle
 62
7
  6
CONTINUOUS
 10
149.3098812756
 20
243.5574103712
 40
0.2
100
AcDbArc
 50
180.0000000573
 51
222.9647436697
  0
ARC
  5
2E9
100
AcDbEntity
  8
0
100
AcDbCircle
 62
7
  6
CONTINUOUS
 10
151.2645479344
 20
241.4586993493
 40
0.2
100
AcDbArc
 50
222.9647436083
 51
330.9753449962
  0
ARC
  5
2EA
100
AcDbEntity
  8
0
100
AcDbCircle
 62
7
  6
CONTINUOUS
 10
152.0825006764
 20
243.1786993493
 40
0.2
100
AcDbArc
 50
89.9999999205
 51
169.0000001129
  0
ARC
  5
2EB
100
AcDbEntity
  8
0
100
AcDbCircle
 62
7
  6
CONTINUOUS
 10
152.2325006764
 20
243.1786993493
 40
0.2
100
AcDbArc
 50
359.9999939123
 51
89.9999995416
  0
ARC
  5
2EC
100
AcDbEntity
  8
0
100
AcDbCircle
 62
7
  6
CONTINUOUS
 10
152.6325006764
 20
243.1786993493
 40
0.2
100
AcDbArc
 50
180.0000060877
 51
270.0000001352
  0
SPLINE
  5
2ED
100
AcDbEntity
  8
0
100
AcDbSpline
 62
7
  6
CONTINUOUS
 70
0
 71
3
 72
12
 73
8
 74
0
 42
0.0000001
 43
0.0000001
 44
0.0000000001
 40
0.0
 40
0.0
 40
0.0
 40
0.0
 40
0.1153799064
 40
0.2114360347
 40
0.3344367705
 40
0.6452313931
 40
1.0
 40
1.0
 40
1.0
 40
1.0
 10
139.9898812756
 20
233.1558829793
 30
0.0
 10
139.9898812756
 20
233.1640977978
 30
0.0
 10
139.9766576446
 20
233.1765969395
 30
0.0
 10
139.9559270628
 20
233.1865165145
 30
0.0
 10
139.9198842736
 20
233.1991013878
 30
0.0
 10
139.8648384108
 20
233.2099384399
 30
0.0
 10
139.8176671157
 20
233.2152958938
 30
0.0
 10
139.7924873188
 20
233.217292283
 30
0.0
  0
SPLINE
  5
2EE
100
AcDbEntity
  8
0
100
AcDbSpline
 62
7
  6
CONTINUOUS
 70
0
 71
3
 72
11
 73
7
 74
0
 42
0.0000001
 43
0.0000001
 44
0.0000000001
 40
0.0
 40
0.0
 40
0.0
 40
0.0
 40
0.2866907277
 40
0.5556077443
 40
0.7930255496
 40
1.0
 40
1.0
 40
1.0
 40
1.0
 10
139.7924873188
 20
239.7354855434
 30
0.0
 10
139.820765745
 20
239.7279070504
 30
0.0
 10
139.8741635579
 20
239.7067496368
 30
0.0
 10
139.9395216944
 20
239.6568648695
 30
0.0
 10
139.9806547302
 20
239.5948286769
 30
0.0
 10
139.9898812756
 20
239.5490493786
 30
0.0
 10
139.9898812756
 20
239.5279135351
 30
0.0
  0
SPLINE
  5
2EF
100
AcDbEntity
  8
0
100
AcDbSpline
 62
7
  6
CONTINUOUS
 70
0
 71
3
 72
11
 73
7
 74
0
 42
0.0000001
 43
0.0000001
 44
0.0000000001
 40
0.0
 40
0.0
 40
0.0
 40
0.0
 40
0.2489663184
 40
0.514971588
 40
0.7767468037
 40
1.0
 40
1.0
 40
1.0
 40
1.0
 10
139.6898807611
 20
240.159484767
 30
0.0
 10
139.7022963241
 20
240.1254505077
 30
0.0
 10
139.7239505008
 20
240.0536392524
 30
0.0
 10
139.7535784402
 20
239.9445433022
 30
0.0
 10
139.7763225026
 20
239.8376237048
 30
0.0
 10
139.7887299376
 20
239.7680788354
 30
0.0
 10
139.7926566542
 20
239.7358305229
 30
0.0
  0
SPLINE
  5
2F0
100
AcDbEntity
  8
0
100
AcDbSpline
 62
7
  6
CONTINUOUS
 70
0
 71
3
 72
14
 73
10
 74
0
 42
0.0000001
 43
0.0000001
 44
0.0000000001
 40
0.0
 40
0.0
 40
0.0
 40
0.0
 40
0.3793779899
 40
0.5508445028
 40
0.7012917131
 40
0.8251212986
 40
0.917647315
 40
0.9758248697
 40
1.0
 40
1.0
 40
1.0
 40
1.0
 10
139.6898812756
 20
231.5940861996
 30
0.0
 10
139.7281585329
 20
231.5940861996
 30
0.0
 10
139.783772585
 20
231.5933035003
 30
0.0
 10
139.8544041755
 20
231.5904852696
 30
0.0
 10
139.8994679107
 20
231.5876992103
 30
0.0
 10
139.9358600072
 20
231.5844888237
 30
0.0
 10
139.9644749492
 20
231.5805968725
 30
0.0
 10
139.9795838322
 20
231.5772912066
 30
0.0
 10
139.9898812756
 20
231.5734484209
 30
0.0
 10
139.9898812756
 20
231.5710092765
 30
0.0
  0
SPLINE
  5
2F1
100
AcDbEntity
  8
0
100
AcDbSpline
 62
7
  6
CONTINUOUS
 70
0
 71
3
 72
14
 73
10
 74
0
 42
0.0000001
 43
0.0000001
 44
0.0000000001
 40
0.0
 40
0.0
 40
0.0
 40
0.0
 40
0.0241751303
 40
0.082352685
 40
0.1748787014
 40
0.2987082869
 40
0.4491554972
 40
0.6206220101
 40
1.0
 40
1.0
 40
1.0
 40
1.0
 10
139.9898812756
 20
229.3863938917
 30
0.0
 10
139.9898812756
 20
229.3839547473
 30
0.0
 10
139.9795838322
 20
229.3801119617
 30
0.0
 10
139.9644749492
 20
229.3768062958
 30
0.0
 10
139.9358600072
 20
229.3729143446
 30
0.0
 10
139.8994679107
 20
229.3697039579
 30
0.0
 10
139.8544041755
 20
229.3669178986
 30
0.0
 10
139.783772585
 20
229.3640996679
 30
0.0
 10
139.7281585329
 20
229.3633169686
 30
0.0
 10
139.6898812756
 20
229.3633169686
 30
0.0
  0
SPLINE
  5
2F2
100
AcDbEntity
  8
0
100
AcDbSpline
 62
7
  6
CONTINUOUS
 70
0
 71
3
 72
13
 73
9
 74
0
 42
0.0000001
 43
0.0000001
 44
0.0000000001
 40
0.0
 40
0.0
 40
0.0
 40
0.0
 40
0.0766660521
 40
0.1654469466
 40
0.2723869833
 40
0.3984500389
 40
0.6938695858
 40
1.0
 40
1.0
 40
1.0
 40
1.0
 10
139.9898812756
 20
240.3093239814
 30
0.0
 10
139.9898812756
 20
240.3000637367
 30
0.0
 10
139.9859660301
 20
240.2799484046
 30
0.0
 10
139.9687321377
 20
240.2512941138
 30
0.0
 10
139.9398767577
 20
240.2246775094
 30
0.0
 10
139.8848850086
 20
240.1916459939
 30
0.0
 10
139.7995868143
 20
240.1659535707
 30
0.0
 10
139.726857683
 20
240.1593239762
 30
0.0
 10
139.6898811793
 20
240.1593239814
 30
0.0
  0
SPLINE
  5
2F3
100
AcDbEntity
  8
0
100
AcDbSpline
 62
7
  6
CONTINUOUS
 70
0
 71
3
 72
10
 73
6
 74
0
 42
0.0000001
 43
0.0000001
 44
0.0000000001
 40
0.0
 40
0.0
 40
0.0
 40
0.0
 40
0.5331741522
 40
0.7965338127
 40
1.0
 40
1.0
 40
1.0
 40
1.0
 10
138.7773200582
 20
240.4528926239
 30
0.0
 10
138.7511563816
 20
240.3919201142
 30
0.0
 10
138.7186499766
 20
240.297899888
 30
0.0
 10
138.6879139101
 20
240.1772986878
 30
0.0
 10
138.6777271365
 20
240.1199804552
 30
0.0
 10
138.6750495826
 20
240.0948028022
 30
0.0
  0
SPLINE
  5
2F4
100
AcDbEntity
  8
0
100
AcDbSpline
 62
7
  6
CONTINUOUS
 70
0
 71
3
 72
10
 73
6
 74
0
 42
0.0000001
 43
0.0000001
 44
0.0000000001
 40
0.0
 40
0.0
 40
0.0
 40
0.0
 40
0.4990013826
 40
0.749894475
 40
1.0
 40
1.0
 40
1.0
 40
1.0
 10
138.7776542951
 20
240.453673745
 30
0.0
 10
138.2147113527
 20
240.6049531955
 30
0.0
 10
137.375500176
 20
240.86044028
 30
0.0
 10
136.2831978608
 20
241.275255574
 30
0.0
 10
135.7490651126
 20
241.5166105095
 30
0.0
 10
135.4898812756
 20
241.6514572771
 30
0.0
  0
SPLINE
  5
2F5
100
AcDbEntity
  8
0
100
AcDbSpline
 62
7
  6
CONTINUOUS
 70
0
 71
3
 72
12
 73
8
 74
0
 42
0.0000001
 43
0.0000001
 44
0.0000000001
 40
0.0
 40
0.0
 40
0.0
 40
0.0
 40
0.3834160191
 40
0.6943646824
 40
0.8097587817
 40
0.8967818091
 40
1.0
 40
1.0
 40
1.0
 40
1.0
 10
139.7926368983
 20
227.7401224697
 30
0.0
 10
139.8198497511
 20
227.7422836879
 30
0.0
 10
139.8690387344
 20
227.7480050083
 30
0.0
 10
139.9255323941
 20
227.7596997243
 30
0.0
 10
139.9601108077
 20
227.7726916925
 30
0.0
 10
139.9788761377
 20
227.7824537718
 30
0.0
 10
139.9898812756
 20
227.7941706685
 30
0.0
 10
139.9898812756
 20
227.8015196201
 30
0.0
  0
SPLINE
  5
2F6
100
AcDbEntity
  8
0
100
AcDbSpline
 62
7
  6
CONTINUOUS
 70
0
 71
3
 72
11
 73
7
 74
0
 42
0.0000001
 43
0.0000001
 44
0.0000000001
 40
0.0
 40
0.0
 40
0.0
 40
0.0
 40
0.3196881522
 40
0.4545986117
 40
0.6143765271
 40
1.0
 40
1.0
 40
1.0
 40
1.0
 10
139.6898807814
 20
227.9790147926
 30
0.0
 10
139.7187631651
 20
227.9789774029
 30
0.0
 10
139.7487052508
 20
227.9337113069
 30
0.0
 10
139.7668700161
 20
227.883576692
 30
0.0
 10
139.7824913545
 20
227.8233728084
 30
0.0
 10
139.7896173661
 20
227.7747171629
 30
0.0
 10
139.7926566103
 20
227.7400106098
 30
0.0
  0
SPLINE
  5
2F7
100
AcDbEntity
  8
0
100
AcDbSpline
 62
7
  6
CONTINUOUS
 70
0
 71
3
 72
9
 73
5
 74
0
 42
0.0000001
 43
0.0000001
 44
0.0000000001
 40
0.0
 40
0.0
 40
0.0
 40
0.0
 40
0.24870247
 40
1.0
 40
1.0
 40
1.0
 40
1.0
 10
138.6750491936
 20
240.094802058
 30
0.0
 10
138.5447585007
 20
240.1366717522
 30
0.0
 10
138.022377984
 20
240.3096198234
 30
0.0
 10
137.5064560614
 20
240.5023995078
 30
0.0
 10
137.1243764381
 20
240.6602824325
 30
0.0
  0
SPLINE
  5
2F8
100
AcDbEntity
  8
0
100
AcDbSpline
 62
7
  6
CONTINUOUS
 70
0
 71
3
 72
9
 73
5
 74
0
 42
0.0000001
 43
0.0000001
 44
0.0000000001
 40
0.0
 40
0.0
 40
0.0
 40
0.0
 40
0.4998558599
 40
1.0
 40
1.0
 40
1.0
 40
1.0
 10
137.1243764381
 20
240.6602824325
 30
0.0
 10
136.8440527843
 20
240.77611776
 30
0.0
 10
136.2889574565
 20
241.0218414902
 30
0.0
 10
135.7506069359
 20
241.3038296013
 30
0.0
 10
135.4898863254
 20
241.459168214
 30
0.0
  0
SPLINE
  5
2F9
100
AcDbEntity
  8
0
100
AcDbSpline
 62
7
  6
CONTINUOUS
 70
0
 71
3
 72
13
 73
9
 74
0
 42
0.0000001
 43
0.0000001
 44
0.0000000001
 40
0.0
 40
0.0
 40
0.0
 40
0.0
 40
0.3061304416
 40
0.6015499777
 40
0.7276130236
 40
0.8345530533
 40
0.923333946
 40
1.0
 40
1.0
 40
1.0
 40
1.0
 10
139.6898812756
 20
220.7980791867
 30
0.0
 10
139.7268577728
 20
220.7980791858
 30
0.0
 10
139.7995868859
 20
220.7914495825
 30
0.0
 10
139.8848850548
 20
220.7657571536
 30
0.0
 10
139.9398767815
 20
220.7327256403
 30
0.0
 10
139.9687321483
 20
220.7061090402
 30
0.0
 10
139.9859660321
 20
220.6774547558
 30
0.0
 10
139.9898812756
 20
220.6573394291
 30
0.0
 10
139.9898812756
 20
220.6480791865
 30
0.0
  0
SPLINE
  5
2FA
100
AcDbEntity
  8
0
100
AcDbSpline
 62
7
  6
CONTINUOUS
 70
0
 71
3
 72
11
 73
7
 74
0
 42
0.0000001
 43
0.0000001
 44
0.0000000001
 40
0.0
 40
0.0
 40
0.0
 40
0.0
 40
0.2256673867
 40
0.4723593446
 40
0.735834362
 40
1.0
 40
1.0
 40
1.0
 40
1.0
 10
139.9898812756
 20
221.4294890477
 30
0.0
 10
139.9898812756
 20
221.4064591349
 30
0.0
 10
139.9791142298
 20
221.357772411
 30
0.0
 10
139.934391052
 20
221.2953989093
 30
0.0
 10
139.8694111579
 20
221.2485559385
 30
0.0
 10
139.8186738347
 20
221.2289468983
 30
0.0
 10
139.7926368984
 20
221.221957451
 30
0.0
  0
LINE
  5
2FB
100
AcDbEntity
  8
0
100
AcDbLine
 62
7
  6
CONTINUOUS
 10
139.7926566542
 20
239.7358305229
 11
138.6748767641
 21
240.0944503257
  0
SPLINE
  5
2FC
100
AcDbEntity
  8
0
100
AcDbSpline
 62
7
  6
CONTINUOUS
 70
0
 71
3
 72
13
 73
9
 74
0
 42
0.0000001
 43
0.0000001
 44
0.0000000001
 40
0.0
 40
0.0
 40
0.0
 40
0.0
 40
0.0822452088
 40
0.1731402531
 40
0.2778863345
 40
0.39845992
 40
0.6815811013
 40
1.0
 40
1.0
 40
1.0
 40
1.0
 10
139.9898812756
 20
220.3537294229
 30
0.0
 10
139.9898812756
 20
220.3636637672
 30
0.0
 10
139.9854648749
 20
220.3847306508
 30
0.0
 10
139.9671686343
 20
220.4134930938
 30
0.0
 10
139.9385717313
 20
220.4393273342
 30
0.0
 10
139.8854722574
 20
220.4707643644
 30
0.0
 10
139.8011425024
 20
220.4968951273
 30
0.0
 10
139.7283428836
 20
220.5037294229
 30
0.0
 10
139.6898812756
 20
220.5037294229
 30
0.0
  0
SPLINE
  5
2FD
100
AcDbEntity
  8
0
100
AcDbSpline
 62
7
  6
CONTINUOUS
 70
0
 71
3
 72
11
 73
7
 74
0
 42
0.0000001
 43
0.0000001
 44
0.0000000001
 40
0.0
 40
0.0
 40
0.0
 40
0.0
 40
0.2275415936
 40
0.4688058967
 40
0.7282884968
 40
1.0
 40
1.0
 40
1.0
 40
1.0
 10
139.9898812756
 20
218.7637319935
 30
0.0
 10
139.9898812756
 20
218.7312521949
 30
0.0
 10
139.9730020588
 20
218.6634608854
 30
0.0
 10
139.9042189619
 20
218.5816356663
 30
0.0
 10
139.8051079128
 20
218.5284001042
 30
0.0
 10
139.7286659865
 20
218.516232636
 30
0.0
 10
139.6898812756
 20
218.516232636
 30
0.0
  0
SPLINE
  5
2FE
100
AcDbEntity
  8
0
100
AcDbSpline
 62
7
  6
CONTINUOUS
 70
0
 71
3
 72
8
 73
4
 74
0
 42
0.0000001
 43
0.0000001
 44
0.0000000001
 40
0.0
 40
0.0
 40
0.0
 40
0.0
 40
1.0
 40
1.0
 40
1.0
 40
1.0
 10
139.9898812756
 20
217.6714243013
 30
0.0
 10
139.9898812756
 20
217.6431269315
 30
0.0
 10
139.9847788465
 20
217.6144378024
 30
0.0
 10
139.9751982305
 20
217.5878116323
 30
0.0
  0
SPLINE
  5
2FF
100
AcDbEntity
  8
0
100
AcDbSpline
 62
7
  6
CONTINUOUS
 70
0
 71
3
 72
10
 73
6
 74
0
 42
0.0000001
 43
0.0000001
 44
0.0000000001
 40
0.0
 40
0.0
 40
0.0
 40
0.0
 40
0.2408058473
 40
0.4892391112
 40
1.0
 40
1.0
 40
1.0
 40
1.0
 10
139.9751982305
 20
217.5878116323
 30
0.0
 10
139.9654212164
 20
217.5606396384
 30
0.0
 10
139.9356106631
 20
217.5085548618
 30
0.0
 10
139.8452411582
 20
217.4275456852
 30
0.0
 10
139.7511317537
 20
217.4008480207
 30
0.0
 10
139.6898812756
 20
217.4008480207
 30
0.0
  0
LINE
  5
300
100
AcDbEntity
  8
0
100
AcDbLine
 62
7
  6
CONTINUOUS
 10
138.674876718
 20
233.219074029
 11
139.7926565795
 21
233.2173924522
  0
SPLINE
  5
301
100
AcDbEntity
  8
0
100
AcDbSpline
 62
7
  6
CONTINUOUS
 70
0
 71
3
 72
11
 73
7
 74
0
 42
0.0000001
 43
0.0000001
 44
0.0000000001
 40
0.0
 40
0.0
 40
0.0
 40
0.0
 40
0.2495762874
 40
0.4990376498
 40
0.749053324
 40
1.0
 40
1.0
 40
1.0
 40
1.0
 10
135.4898860242
 20
232.7008876049
 30
0.0
 10
135.7376474889
 20
232.808342284
 30
0.0
 10
136.2549844248
 20
232.972849284
 30
0.0
 10
137.0523782101
 20
233.1233013125
 30
0.0
 10
137.8612072076
 20
233.204604647
 30
0.0
 10
138.4035069764
 20
233.219619202
 30
0.0
 10
138.6750491926
 20
233.2191756049
 30
0.0
  0
SPLINE
  5
302
100
AcDbEntity
  8
0
100
AcDbSpline
 62
7
  6
CONTINUOUS
 70
0
 71
3
 72
11
 73
7
 74
0
 42
0.0000001
 43
0.0000001
 44
0.0000000001
 40
0.0
 40
0.0
 40
0.0
 40
0.0
 40
0.319431693
 40
0.4544661669
 40
0.6141622933
 40
1.0
 40
1.0
 40
1.0
 40
1.0
 10
139.6898808471
 20
232.9783883756
 30
0.0
 10
139.7187363922
 20
232.9784270624
 30
0.0
 10
139.7482315091
 20
233.0239716465
 30
0.0
 10
139.7670202162
 20
233.0737929827
 30
0.0
 10
139.7832889062
 20
233.1338624725
 30
0.0
 10
139.7902041972
 20
233.1826245375
 30
0.0
 10
139.7926565795
 20
233.2173924522
 30
0.0
  0
SPLINE
  5
303
100
AcDbEntity
  8
0
100
AcDbSpline
 62
7
  6
CONTINUOUS
 70
0
 71
3
 72
8
 73
4
 74
0
 42
0.0000001
 43
0.0000001
 44
0.0000000001
 40
0.0
 40
0.0
 40
0.0
 40
0.0
 40
1.0
 40
1.0
 40
1.0
 40
1.0
 10
139.9898812756
 20
243.285978867
 30
0.0
 10
139.9898812756
 20
243.3142762367
 30
0.0
 10
139.9847788465
 20
243.3429653658
 30
0.0
 10
139.9751982305
 20
243.3695915359
 30
0.0
  0
SPLINE
  5
304
100
AcDbEntity
  8
0
100
AcDbSpline
 62
7
  6
CONTINUOUS
 70
0
 71
3
 72
10
 73
6
 74
0
 42
0.0000001
 43
0.0000001
 44
0.0000000001
 40
0.0
 40
0.0
 40
0.0
 40
0.0
 40
0.2408058473
 40
0.4892391112
 40
1.0
 40
1.0
 40
1.0
 40
1.0
 10
139.9751982305
 20
243.3695915359
 30
0.0
 10
139.9654212164
 20
243.3967635299
 30
0.0
 10
139.9356106631
 20
243.4488483064
 30
0.0
 10
139.8452411582
 20
243.529857483
 30
0.0
 10
139.7511317537
 20
243.5565551476
 30
0.0
 10
139.6898812756
 20
243.5565551476
 30
0.0
  0
SPLINE
  5
305
100
AcDbEntity
  8
0
100
AcDbSpline
 62
7
  6
CONTINUOUS
 70
0
 71
3
 72
11
 73
7
 74
0
 42
0.0000001
 43
0.0000001
 44
0.0000000001
 40
0.0
 40
0.0
 40
0.0
 40
0.0
 40
0.2275415936
 40
0.4688058967
 40
0.7282884968
 40
1.0
 40
1.0
 40
1.0
 40
1.0
 10
139.9898812756
 20
242.1936711747
 30
0.0
 10
139.9898812756
 20
242.2261509733
 30
0.0
 10
139.9730020588
 20
242.2939422828
 30
0.0
 10
139.9042189619
 20
242.3757675019
 30
0.0
 10
139.8051079128
 20
242.4290030641
 30
0.0
 10
139.7286659865
 20
242.4411705322
 30
0.0
 10
139.6898812756
 20
242.4411705322
 30
0.0
  0
SPLINE
  5
306
100
AcDbEntity
  8
0
100
AcDbSpline
 62
7
  6
CONTINUOUS
 70
0
 71
3
 72
13
 73
9
 74
0
 42
0.0000001
 43
0.0000001
 44
0.0000000001
 40
0.0
 40
0.0
 40
0.0
 40
0.0
 40
0.3184188936
 40
0.6015400818
 40
0.722113671
 40
0.8268597536
 40
0.9177547958
 40
1.0
 40
1.0
 40
1.0
 40
1.0
 10
139.6898811793
 20
240.4536737453
 30
0.0
 10
139.7283427968
 20
240.4536737391
 30
0.0
 10
139.8011424363
 20
240.4605080265
 30
0.0
 10
139.8854722175
 20
240.4866387859
 30
0.0
 10
139.9385717107
 20
240.5180758183
 30
0.0
 10
139.9671686247
 20
240.5439100623
 30
0.0
 10
139.9854648729
 20
240.5726725105
 30
0.0
 10
139.9898812756
 20
240.5937393989
 30
0.0
 10
139.9898812756
 20
240.6036737453
 30
0.0
  0
SPLINE
  5
307
100
AcDbEntity
  8
0
100
AcDbSpline
 62
7
  6
CONTINUOUS
 70
0
 71
3
 72
12
 73
8
 74
0
 42
0.0000001
 43
0.0000001
 44
0.0000000001
 40
0.0
 40
0.0
 40
0.0
 40
0.0
 40
0.339105792
 40
0.6419629645
 40
0.7639295996
 40
0.862554614
 40
1.0
 40
1.0
 40
1.0
 40
1.0
 10
138.6750495804
 20
233.2191744821
 30
0.0
 10
138.6772461908
 20
233.1880814201
 30
0.0
 10
138.6847968805
 20
233.1294340465
 30
0.0
 10
138.703252671
 20
233.0612023102
 30
0.0
 10
138.7250075717
 20
233.0179162619
 30
0.0
 10
138.7441180419
 20
232.9914205068
 30
0.0
 10
138.7650211227
 20
232.9787017425
 30
0.0
 10
138.7776550832
 20
232.9787015841
 30
0.0
  0
SPLINE
  5
308
100
AcDbEntity
  8
0
100
AcDbSpline
 62
7
  6
CONTINUOUS
 70
0
 71
3
 72
10
 73
6
 74
0
 42
0.0000001
 43
0.0000001
 44
0.0000000001
 40
0.0
 40
0.0
 40
0.0
 40
0.0
 40
0.2039499002
 40
0.4675662813
 40
1.0
 40
1.0
 40
1.0
 40
1.0
 10
138.6750981173
 20
220.8621460746
 30
0.0
 10
138.6778091842
 20
220.8368846749
 30
0.0
 10
138.6880607263
 20
220.7794227123
 30
0.0
 10
138.7188965105
 20
220.6587123982
 30
0.0
 10
138.7514558718
 20
220.5646632097
 30
0.0
 10
138.7776550916
 20
220.50373056
 30
0.0
  0
SPLINE
  5
309
100
AcDbEntity
  8
0
100
AcDbSpline
 62
7
  6
CONTINUOUS
 70
0
 71
3
 72
11
 73
7
 74
0
 42
0.0000001
 43
0.0000001
 44
0.0000000001
 40
0.0
 40
0.0
 40
0.0
 40
0.0
 40
0.2490334233
 40
0.5150725669
 40
0.7770267015
 40
1.0
 40
1.0
 40
1.0
 40
1.0
 10
139.6898808349
 20
220.7979185131
 30
0.0
 10
139.70208681
 20
220.8320389522
 30
0.0
 10
139.7235245307
 20
220.9039206975
 30
0.0
 10
139.7532325231
 20
221.0130348097
 30
0.0
 10
139.7769381407
 20
221.1197023042
 30
0.0
 10
139.789466577
 20
221.1892828943
 30
0.0
 10
139.7926563809
 20
221.2215715571
 30
0.0
  0
LINE
  5
30A
100
AcDbEntity
  8
0
100
AcDbLine
 62
7
  6
CONTINUOUS
 10
139.7926566103
 20
227.7400106098
 11
138.6752827808
 21
227.7383300116
  0
SPLINE
  5
30B
100
AcDbEntity
  8
0
100
AcDbSpline
 62
7
  6
CONTINUOUS
 70
0
 71
3
 72
11
 73
7
 74
0
 42
0.0000001
 43
0.0000001
 44
0.0000000001
 40
0.0
 40
0.0
 40
0.0
 40
0.0
 40
0.2509466889
 40
0.5009623364
 40
0.750423707
 40
1.0
 40
1.0
 40
1.0
 40
1.0
 10
138.675049194
 20
227.7382275631
 30
0.0
 10
138.4035069908
 20
227.7377836174
 30
0.0
 10
137.8612072721
 20
227.7527984063
 30
0.0
 10
137.0523784121
 20
227.8341020085
 30
0.0
 10
136.2549846485
 20
227.9845536803
 30
0.0
 10
135.7376477812
 20
228.1490607868
 30
0.0
 10
135.4898863254
 20
228.2565154355
 30
0.0
  0
SPLINE
  5
30C
100
AcDbEntity
  8
0
100
AcDbSpline
 62
7
  6
CONTINUOUS
 70
0
 71
3
 72
9
 73
5
 74
0
 42
0.0000001
 43
0.0000001
 44
0.0000000001
 40
0.0
 40
0.0
 40
0.0
 40
0.0
 40
0.5001441292
 40
1.0
 40
1.0
 40
1.0
 40
1.0
 10
135.4898860241
 20
219.4982347764
 30
0.0
 10
135.7506080274
 20
219.6535742038
 30
0.0
 10
136.2889614754
 20
219.9355637316
 30
0.0
 10
136.8440598851
 20
220.1812885116
 30
0.0
 10
137.1243851019
 20
220.2971243137
 30
0.0
  0
SPLINE
  5
30D
100
AcDbEntity
  8
0
100
AcDbSpline
 62
7
  6
CONTINUOUS
 70
0
 71
3
 72
9
 73
5
 74
0
 42
0.0000001
 43
0.0000001
 44
0.0000000001
 40
0.0
 40
0.0
 40
0.0
 40
0.0
 40
0.2512718645
 40
1.0
 40
1.0
 40
1.0
 40
1.0
 10
137.1243851019
 20
220.2971243137
 30
0.0
 10
137.2521729595
 20
220.3499287284
 30
0.0
 10
137.7631395896
 20
220.5542495971
 30
0.0
 10
138.2828011356
 20
220.7365498581
 30
0.0
 10
138.6750495247
 20
220.8626012167
 30
0.0
  0
SPLINE
  5
30E
100
AcDbEntity
  8
0
100
AcDbSpline
 62
7
  6
CONTINUOUS
 70
0
 71
3
 72
10
 73
6
 74
0
 42
0.0000001
 43
0.0000001
 44
0.0000000001
 40
0.0
 40
0.0
 40
0.0
 40
0.0
 40
0.5012855974
 40
0.7509274882
 40
1.0
 40
1.0
 40
1.0
 40
1.0
 10
138.7776542724
 20
227.9787015841
 30
0.0
 10
138.21974272
 20
227.9787015842
 30
0.0
 10
137.3819879178
 20
228.0218891278
 30
0.0
 10
136.2832447621
 20
228.2053121519
 30
0.0
 10
135.747694848
 20
228.3609228596
 30
0.0
 10
135.4898812756
 20
228.4627879501
 30
0.0
  0
SPLINE
  5
30F
100
AcDbEntity
  8
0
100
AcDbSpline
 62
7
  6
CONTINUOUS
 70
0
 71
3
 72
12
 73
8
 74
0
 42
0.0000001
 43
0.0000001
 44
0.0000000001
 40
0.0
 40
0.0
 40
0.0
 40
0.0
 40
0.3491568227
 40
0.6422038956
 40
0.7601714593
 40
0.8576015443
 40
1.0
 40
1.0
 40
1.0
 40
1.0
 10
138.6752827808
 20
227.7383300116
 30
0.0
 10
138.6775307183
 20
227.7702341814
 30
0.0
 10
138.6851030724
 20
227.8287244782
 30
0.0
 10
138.7036459033
 20
227.8962665973
 30
0.0
 10
138.7245189873
 20
227.9382637421
 30
0.0
 10
138.7432808399
 20
227.9647698078
 30
0.0
 10
138.7642775116
 20
227.9781562068
 30
0.0
 10
138.7773213437
 20
227.9781991256
 30
0.0
  0
SPLINE
  5
310
100
AcDbEntity
  8
0
100
AcDbSpline
 62
7
  6
CONTINUOUS
 70
0
 71
3
 72
11
 73
7
 74
0
 42
0.0000001
 43
0.0000001
 44
0.0000000001
 40
0.0
 40
0.0
 40
0.0
 40
0.0
 40
0.2488791976
 40
0.4989911134
 40
0.7498539074
 40
1.0
 40
1.0
 40
1.0
 40
1.0
 10
138.7776551474
 20
220.503729657
 30
0.0
 10
138.4967088361
 20
220.4288242204
 30
0.0
 10
137.9364127989
 20
220.2672512815
 30
0.0
 10
137.1039676847
 20
219.9937124503
 30
0.0
 10
136.2827309926
 20
219.683386857
 30
0.0
 10
135.7500132057
 20
219.439122187
 30
0.0
 10
135.4898812756
 20
219.3059458911
 30
0.0
  0
SPLINE
  5
311
100
AcDbEntity
  8
0
100
AcDbSpline
 62
7
  6
CONTINUOUS
 70
0
 71
3
 72
12
 73
8
 74
0
 42
0.0000001
 43
0.0000001
 44
0.0000000001
 40
0.0
 40
0.0
 40
0.0
 40
0.0
 40
0.251083307
 40
0.5013666053
 40
0.7508935645
 40
0.8754769257
 40
1.0
 40
1.0
 40
1.0
 40
1.0
 10
138.7776551433
 20
232.9787015841
 30
0.0
 10
138.4980882383
 20
232.9787015695
 30
0.0
 10
137.9396721182
 20
232.9638002665
 30
0.0
 10
137.1063517478
 20
232.8897685832
 30
0.0
 10
136.4195395785
 20
232.7743155251
 30
0.0
 10
135.8816043818
 20
232.6356921451
 30
0.0
 10
135.6185677545
 20
232.546223598
 30
0.0
 10
135.4898812756
 20
232.4946152182
 30
0.0
  0
SPLINE
  5
312
100
AcDbEntity
  8
0
100
AcDbSpline
 62
7
  6
CONTINUOUS
 70
0
 71
3
 72
9
 73
5
 74
0
 42
0.0000001
 43
0.0000001
 44
0.0000000001
 40
0.0
 40
0.0
 40
0.0
 40
0.0
 40
0.4546871226
 40
1.0
 40
1.0
 40
1.0
 40
1.0
 10
146.1098812756
 20
213.2758558065
 30
0.0
 10
146.1098812756
 20
213.304463466
 30
0.0
 10
146.1309596635
 20
213.3680628455
 30
0.0
 10
146.1799600939
 20
213.4107460235
 30
0.0
 10
146.208370138
 20
213.4299818446
 30
0.0
  0
SPLINE
  5
313
100
AcDbEntity
  8
0
100
AcDbSpline
 62
7
  6
CONTINUOUS
 70
0
 71
3
 72
9
 73
5
 74
0
 42
0.0000001
 43
0.0000001
 44
0.0000000001
 40
0.0
 40
0.0
 40
0.0
 40
0.0
 40
0.2508387051
 40
1.0
 40
1.0
 40
1.0
 40
1.0
 10
146.209881276
 20
216.9367490032
 30
0.0
 10
146.1932631631
 20
216.9048166703
 30
0.0
 10
146.1351672028
 20
216.7733710777
 30
0.0
 10
146.1098812764
 20
216.627920681
 30
0.0
 10
146.1098812764
 20
216.5204089815
 30
0.0
  0
LINE
  5
314
100
AcDbEntity
  8
0
100
AcDbLine
 62
7
  6
CONTINUOUS
 10
145.8659572471
 20
220.3787015841
 11
145.8898812756
 21
220.4709246079
  0
ENDSEC
  0
SECTION
  2
OBJECTS
  0
DICTIONARY
  5
C
100
AcDbDictionary
280
0
281
1
  3
ACAD_GROUP
350
D
  3
ACAD_MLINESTYLE
350
17
  3
ACAD_LAYOUT
350
1A
  3
ACAD_PLOTSETTINGS
350
19
  3
ACAD_PLOTSTYLENAME
350
E
  0
DICTIONARY
  5
D
102
{ACAD_REACTORS
330
C
102
}
100
AcDbDictionary
280
0
281
1
  0
ACDBDICTIONARYWDFLT
  5
E
102
{ACAD_REACTORS
330
C
102
}
100
AcDbDictionary
281
1
  3
Normal
350
F
100
AcDbDictionaryWithDefault
340
F
  0
DICTIONARY
  5
17
102
{ACAD_REACTORS
330
C
102
}
100
AcDbDictionary
280
0
281
1
  3
Standard
350
18
  0
DICTIONARY
  5
19
102
{ACAD_REACTORS
330
C
102
}
100
AcDbDictionary
281
1
  0
DICTIONARY
  5
1A
102
{ACAD_REACTORS
330
C
102
}
100
AcDbDictionary
281
1
  3
Model
350
315
  3
Layout1
350
316
  0
ACDBPLACEHOLDER
  5
F
102
{ACAD_REACTORS
330
E
102
}
  0
MLINESTYLE
  5
18
102
{ACAD_REACTORS
330
17
102
}
100
AcDbMlineStyle
  2
STANDARD
 70
0
  3

 62
256
 51
90.0
 52
90.0
 71
2
 49
0.5
 62
256
  6
BYLAYER
 49
-0.5
 62
256
  6
BYLAYER
  0
LAYOUT
  5
315
102
{ACAD_REACTORS
330
1A
102
}
100
AcDbPlotSettings
  1

  2
none_device
  4
ANSI_C_(22.00_x_17.00_Inches)
  6

 40
0.0
 41
0.0
 42
0.0
 43
0.0
 44
558.8
 45
431.8
 46
0.0
 47
0.0
 48
0.0
 49
0.0
140
0.0
141
0.0
142
1.0
143
1.0
 70
1024
 72
1
 73
0
 74
0
  7

 75
0
147
1.0
148
0.0
149
0.0
100
AcDbLayout
  1
Model
 70
0
 71
0
 10
0.0
 20
0.0
 11
558.8
 21
431.8
 12
0.0
 22
0.0
 32
0.0
 14
0.0
 24
0.0
 34
0.0
 15
0.0
 25
0.0
 35
0.0
146
0.0
 13
0.0
 23
0.0
 33
0.0
 16
1.0
 26
0.0
 36
0.0
 17
0.0
 27
1.0
 37
0.0
 76
0
330
218
345
0
346
0
  0
LAYOUT
  5
316
102
{ACAD_REACTORS
330
1A
102
}
100
AcDbPlotSettings
  1

  2
none_device
  4
ANSI_C_(22.00_x_17.00_Inches)
  6

 40
0.0
 41
0.0
 42
0.0
 43
0.0
 44
558.8
 45
431.8
 46
0.0
 47
0.0
 48
0.0
 49
0.0
140
0.0
141
0.0
142
1.0
143
1.0
 70
0
 72
1
 73
0
 74
0
  7

 75
0
147
1.0
148
0.0
149
0.0
100
AcDbLayout
  1
Layout1
 70
0
 71
1
 10
0.0
 20
0.0
 11
558.8
 21
431.8
 12
0.0
 22
0.0
 32
0.0
 14
0.0
 24
0.0
 34
0.0
 15
0.0
 25
0.0
 35
0.0
146
0.0
 13
0.0
 23
0.0
 33
0.0
 16
1.0
 26
0.0
 36
0.0
 17
0.0
 27
1.0
 37
0.0
 76
0
330
219
345
0
346
0
  0
ENDSEC
  0
EOF
