999
DXF file: C:\Users\sesa63760\Dev\_Creo\CAD\MCADID0005472_3D-CAD\drw0001_1.dxf
999
Pro/ENGINEER 2019471 by Parametric Technology Corporation
  0
SECTION
  2
HEADER
  9
$ACADVER
  1
AC1024
  9
$DWGCODEPAGE
  3
ANSI_1252
  9
$EXTMAX
 10
63.5692728186
 20
89.9051144149
 30
0.0
  9
$EXTMIN
 10
0.0
 20
0.0
 30
0.0
  9
$LIMMIN
 10
0.0
 20
0.0
  9
$LIMMAX
 10
63.5692728186
 20
89.9051144149
  9
$VIEWCTR
 10
31.7846364093
 20
44.9525572075
  9
$VIEWSIZE
 40
89.9051144149
  9
$CLAYER
  8
0
  9
$LTSCALE
 40
5.8604815322
  9
$CELTYPE
  6
BYLAYER
  9
$DIMSCALE
 40
1.0
  9
$DIMASZ
 40
0.7567770574
  9
$DIMEXO
 40
1.0
  9
$DIMDLI
 40
4.0490599677
  9
$DIMEXE
 40
1.0
  9
$DIMCEN
 40
0.9589878871
  9
$DIMLFAC
 40
1.0
  9
$DIMBLK
  1
_FILLED
  9
$DIMALT
 70
0
  9
$DIMALTF
 40
0.0393700787
  9
$DIMTXT
 40
1.0594878803
  9
$DIMTOL
 70
1
  9
$DIMLIM
 70
0
  9
$DIMTFAC
 40
1.0
  9
$DIMTP
 40
0.01
  9
$DIMTM
 40
0.01
  9
$DIMGAP
 40
0.625
  9
$DIMDSEP
 70
46
  9
$AUNITS
 70
0
  9
$PDMODE
 70
3
  9
$PDSIZE
 40
0.3125
  9
$HANDSEED
  5
29D
  9
$TILEMODE
 70
1
  9
$MEASUREMENT
 70
1
  9
$INSUNITS
 70
4
  0
ENDSEC
  0
SECTION
  2
CLASSES
  0
CLASS
  1
ACDBDICTIONARYWDFLT
  2
AcDbDictionaryWithDefault
  3
AutoCAD 2000
 90
0
 91
1
280
0
281
0
  0
CLASS
  1
ACDBPLACEHOLDER
  2
AcDbPlaceHolder
  3
AutoCAD 2000
 90
0
 91
1
280
0
281
0
  0
CLASS
  1
LAYOUT
  2
AcDbLayout
  3
AutoCAD 2000
 90
0
 91
0
280
0
281
0
  0
ENDSEC
  0
SECTION
  2
TABLES
  0
TABLE
  2
VPORT
  5
8
100
AcDbSymbolTable
 70
2
  0
VPORT
  5
1F4
100
AcDbSymbolTableRecord
100
AcDbViewportTableRecord
  2
*ACTIVE
 70
0
 10
0.0
 20
0.0
 11
1.0
 21
1.0
 12
31.7846364093
 22
44.9525572075
 13
0.0
 23
0.0
 14
1.0
 24
1.0
 15
0.0
 25
0.0
 16
0.0
 26
0.0
 36
1.0
 17
0.0
 27
0.0
 37
0.0
 40
89.9051144149
 41
0.7070707071
 42
50.0
 43
0.0
 44
0.0
 50
0.0
 51
0.0
 71
0
 72
100
 73
1
 74
1
 75
0
 76
0
 77
0
 78
0
  0
ENDTAB
  0
TABLE
  2
LTYPE
  5
5
100
AcDbSymbolTable
 70
6
  0
LTYPE
  5
14
100
AcDbSymbolTableRecord
100
AcDbLinetypeTableRecord
  2
BYBLOCK
 70
0
  3

 72
65
 73
0
 40
0.0
  0
LTYPE
  5
15
100
AcDbSymbolTableRecord
100
AcDbLinetypeTableRecord
  2
BYLAYER
 70
0
  3

 72
65
 73
0
 40
0.0
  0
LTYPE
  5
16
100
AcDbSymbolTableRecord
100
AcDbLinetypeTableRecord
  2
CONTINUOUS
 70
64
  3
Solid line
 72
65
 73
0
 40
0.0
  0
LTYPE
  5
1F5
100
AcDbSymbolTableRecord
100
AcDbLinetypeTableRecord
  2
CENTER
 70
64
  3
____ _ ____ _ ____ _ ____ _ ____ _ ____ _ ____
 72
65
 73
4
 40
0.6
 49
0.375
 74
0
 49
-0.075
 74
0
 49
0.075
 74
0
 49
-0.075
 74
0
  0
LTYPE
  5
1F6
100
AcDbSymbolTableRecord
100
AcDbLinetypeTableRecord
  2
HIDDEN
 70
64
  3
- - - - - - - - - - - - - - - - - - - -
 72
65
 73
2
 40
0.2
 49
0.1
 74
0
 49
-0.1
 74
0
  0
LTYPE
  5
1F7
100
AcDbSymbolTableRecord
100
AcDbLinetypeTableRecord
  2
PHANTOM
 70
64
  3
_____ _ _ _____ _ _ _____ _ _ _____
 72
65
 73
6
 40
0.8
 49
0.45
 74
0
 49
-0.05
 74
0
 49
0.1
 74
0
 49
-0.05
 74
0
 49
0.1
 74
0
 49
-0.05
 74
0
  0
LTYPE
  5
1F8
100
AcDbSymbolTableRecord
100
AcDbLinetypeTableRecord
  2
DOT
 70
64
  3
. . . . . . . . . . . . . . . . . . . .
 72
65
 73
2
 40
0.2
 49
0.1
 74
0
 49
-0.1
 74
0
  0
LTYPE
  5
1F9
100
AcDbSymbolTableRecord
100
AcDbLinetypeTableRecord
  2
DASHED
 70
64
  3
- - - - - - - - - - - - - - - - - - - -
 72
65
 73
2
 40
0.2
 49
0.1
 74
0
 49
-0.1
 74
0
  0
ENDTAB
  0
TABLE
  2
LAYER
  5
2
100
AcDbSymbolTable
 70
36
  0
LAYER
  5
10
100
AcDbSymbolTableRecord
100
AcDbLayerTableRecord
  2
0
 70
0
 62
7
  6
CONTINUOUS
370
-3
390
F
  0
LAYER
  5
1FA
100
AcDbSymbolTableRecord
100
AcDbLayerTableRecord
  2
DEFAULT_1
 70
0
 62
7
  6
CENTER
370
-3
390
F
  0
LAYER
  5
1FB
100
AcDbSymbolTableRecord
100
AcDbLayerTableRecord
  2
DEFAULT_2
 70
0
 62
7
  6
HIDDEN
370
-3
390
F
  0
LAYER
  5
1FC
100
AcDbSymbolTableRecord
100
AcDbLayerTableRecord
  2
DEFAULT_3
 70
0
 62
7
  6
PHANTOM
370
-3
390
F
  0
LAYER
  5
1FD
100
AcDbSymbolTableRecord
100
AcDbLayerTableRecord
  2
00_COMPONENTS
 70
0
 62
7
  6
CONTINUOUS
370
-3
390
F
  0
LAYER
  5
1FE
100
AcDbSymbolTableRecord
100
AcDbLayerTableRecord
  2
01_1_DEFAULT_DATUMS
 70
0
 62
7
  6
CONTINUOUS
370
-3
390
F
  0
LAYER
  5
1FF
100
AcDbSymbolTableRecord
100
AcDbLayerTableRecord
  2
01_PLANES
 70
0
 62
7
  6
CONTINUOUS
370
-3
390
F
  0
LAYER
  5
200
100
AcDbSymbolTableRecord
100
AcDbLayerTableRecord
  2
02_COORD_SYS
 70
0
 62
7
  6
CONTINUOUS
370
-3
390
F
  0
LAYER
  5
201
100
AcDbSymbolTableRecord
100
AcDbLayerTableRecord
  2
03_AXES
 70
0
 62
7
  6
CONTINUOUS
370
-3
390
F
  0
LAYER
  5
202
100
AcDbSymbolTableRecord
100
AcDbLayerTableRecord
  2
04_POINTS
 70
0
 62
7
  6
CONTINUOUS
370
-3
390
F
  0
LAYER
  5
203
100
AcDbSymbolTableRecord
100
AcDbLayerTableRecord
  2
05_CURVES
 70
0
 62
7
  6
CONTINUOUS
370
-3
390
F
  0
LAYER
  5
204
100
AcDbSymbolTableRecord
100
AcDbLayerTableRecord
  2
06_SURFS
 70
0
 62
7
  6
CONTINUOUS
370
-3
390
F
  0
LAYER
  5
205
100
AcDbSymbolTableRecord
100
AcDbLayerTableRecord
  2
07_COSMETICS
 70
0
 62
7
  6
CONTINUOUS
370
-3
390
F
  0
LAYER
  5
206
100
AcDbSymbolTableRecord
100
AcDbLayerTableRecord
  2
10_NOTES
 70
0
 62
7
  6
CONTINUOUS
370
-3
390
F
  0
LAYER
  5
207
100
AcDbSymbolTableRecord
100
AcDbLayerTableRecord
  2
11_NOTES_PUB
 70
0
 62
7
  6
CONTINUOUS
370
-3
390
F
  0
LAYER
  5
208
100
AcDbSymbolTableRecord
100
AcDbLayerTableRecord
  2
13_REF_GTOL
 70
0
 62
7
  6
CONTINUOUS
370
-3
390
F
  0
LAYER
  5
209
100
AcDbSymbolTableRecord
100
AcDbLayerTableRecord
  2
16_MISC
 70
0
 62
7
  6
CONTINUOUS
370
-3
390
F
  0
LAYER
  5
20A
100
AcDbSymbolTableRecord
100
AcDbLayerTableRecord
  2
17_NO_PRINT
 70
0
 62
7
  6
CONTINUOUS
370
-3
390
F
  0
LAYER
  5
20B
100
AcDbSymbolTableRecord
100
AcDbLayerTableRecord
  2
18_DATUM_CAMS_JOINTS
 70
0
 62
7
  6
CONTINUOUS
370
-3
390
F
  0
LAYER
  5
20C
100
AcDbSymbolTableRecord
100
AcDbLayerTableRecord
  2
19_DATUM_FUNCTIONAL
 70
0
 62
7
  6
CONTINUOUS
370
-3
390
F
  0
LAYER
  5
20D
100
AcDbSymbolTableRecord
100
AcDbLayerTableRecord
  2
20_DATUM_KINEMATIC_SCHEME
 70
0
 62
7
  6
CONTINUOUS
370
-3
390
F
  0
ENDTAB
  0
TABLE
  2
STYLE
  5
3
100
AcDbSymbolTable
 70
1
  0
STYLE
  5
11
100
AcDbSymbolTableRecord
100
AcDbTextStyleTableRecord
  2
STANDARD
 70
0
 40
0.0
 41
1.0
 50
0.0
 71
0
 42
0.2
  3
ARIAL.TTF
  4

  0
STYLE
  5
20E
100
AcDbSymbolTableRecord
100
AcDbTextStyleTableRecord
  2
TEXTSTYLE_1
 70
0
 40
0.0
 41
0.8
 50
0.0
 71
0
 42
0.2
  3
gdt
  4

  0
ENDTAB
  0
TABLE
  2
VIEW
  5
6
100
AcDbSymbolTable
 70
0
  0
ENDTAB
  0
TABLE
  2
UCS
  5
7
100
AcDbSymbolTable
 70
0
  0
ENDTAB
  0
TABLE
  2
APPID
  5
9
100
AcDbSymbolTable
 70
1
  0
APPID
  5
20F
100
AcDbSymbolTableRecord
100
AcDbRegAppTableRecord
  2
ACAD
 70
0
  0
ENDTAB
  0
TABLE
  2
BLOCK_RECORD
  5
1
100
AcDbSymbolTable
 70
0
  0
BLOCK_RECORD
  5
210
100
AcDbSymbolTableRecord
100
AcDbBlockTableRecord
  2
*Model_Space
  0
BLOCK_RECORD
  5
211
100
AcDbSymbolTableRecord
100
AcDbBlockTableRecord
  2
*Paper_Space
  0
BLOCK_RECORD
  5
212
100
AcDbSymbolTableRecord
100
AcDbBlockTableRecord
  2
_FILLED
  0
ENDTAB
  0
TABLE
  2
DIMSTYLE
  5
A
100
AcDbSymbolTable
 70
1
100
AcDbDimStyleTable
 71
0
  0
DIMSTYLE
105
213
100
AcDbSymbolTableRecord
100
AcDbDimStyleTableRecord
  2
STANDARD
 70
0
  3

  4

 40
1.0
 41
0.7567770574
 42
1.0
 43
0.38
 44
1.0
 45
0.0
 46
0.0
 47
0.01
 48
0.01
140
1.0594878803
141
0.09
142
0.0
143
25.4
144
1.0
145
0.0
146
1.0
147
0.625
 71
1
 72
0
 73
0
 74
0
 75
0
 76
0
 77
1
 78
8
 79
2
170
0
171
1
172
0
173
0
174
0
175
0
176
0
177
0
178
0
270
2
179
2
271
2
272
2
273
2
274
2
275
0
280
0
281
0
282
0
283
1
284
8
285
0
286
0
287
3
288
0
340
11
278
46
341
212
342
212
343
212
344
212
  0
ENDTAB
  0
ENDSEC
  0
SECTION
  2
BLOCKS
  0
BLOCK
  5
20
100
AcDbEntity
  8
0
100
AcDbBlockBegin
  2
*Model_Space
 70
0
 10
0.0
 20
0.0
 30
0.0
  3
*Model_Space
  1

  0
ENDBLK
  5
21
100
AcDbEntity
  8
0
100
AcDbBlockEnd
  0
BLOCK
  5
1C
100
AcDbEntity
  8
0
100
AcDbBlockBegin
  2
*Paper_Space
 70
0
 10
0.0
 20
0.0
 30
0.0
  3
*Paper_Space
  1

  0
ENDBLK
  5
1D
100
AcDbEntity
  8
0
100
AcDbBlockEnd
  0
BLOCK
  5
214
100
AcDbEntity
  8
0
100
AcDbBlockBegin
  2
_FILLED
 70
64
 10
0.0
 20
0.0
  3
_FILLED
  1

  0
SOLID
  5
215
100
AcDbEntity
  8
0
  6
BYBLOCK
 62
0
100
AcDbTrace
 10
0.0
 20
0.0
 11
-1.0
 21
0.25
 12
-1.0
 22
-0.25
 13
-1.0
 23
-0.25
  0
ENDBLK
  5
216
100
AcDbEntity
  8
0
  6
BYBLOCK
 62
0
100
AcDbBlockEnd
  0
ENDSEC
  0
SECTION
  2
ENTITIES
  0
LINE
  5
217
100
AcDbEntity
  8
0
100
AcDbLine
 62
7
  6
BYLAYER
 10
14.3043846335
 20
68.9142188404
 11
7.3747670288
 21
64.9134261324
  0
LINE
  5
218
100
AcDbEntity
  8
0
100
AcDbLine
 62
7
  6
BYLAYER
 10
15.8741217454
 20
67.5873426604
 11
11.4566086951
 21
64.9923884918
  0
LINE
  5
219
100
AcDbEntity
  8
0
100
AcDbLine
 62
7
  6
BYLAYER
 10
10.2889190332
 20
64.455731376
 11
17.2185366379
 21
68.4565240839
  0
LINE
  5
21A
100
AcDbEntity
  8
0
100
AcDbLine
 62
7
  6
BYLAYER
 10
10.6277665542
 20
29.7630850965
 11
10.3093315619
 21
30.5838013513
  0
LINE
  5
21B
100
AcDbEntity
  8
0
100
AcDbLine
 62
7
  6
BYLAYER
 10
7.3747670288
 20
41.2348560357
 11
7.3747670288
 21
64.9134261324
  0
LINE
  5
21C
100
AcDbEntity
  8
0
100
AcDbLine
 62
7
  6
BYLAYER
 10
21.3663052315
 20
66.0618629443
 11
20.6592013943
 21
65.6536187905
  0
LINE
  5
21D
100
AcDbEntity
  8
0
100
AcDbLine
 62
7
  6
BYLAYER
 10
15.143791464
 20
62.4693143903
 11
14.4366876268
 21
62.0610702364
  0
LINE
  5
21E
100
AcDbEntity
  8
0
100
AcDbLine
 62
7
  6
BYLAYER
 10
14.8923808881
 20
62.989424441
 11
19.362663172
 21
65.5536155462
  0
LINE
  5
21F
100
AcDbEntity
  8
0
100
AcDbLine
 62
7
  6
BYLAYER
 10
14.7641228303
 20
27.3750127125
 11
10.6277665542
 21
29.7630850965
  0
LINE
  5
220
100
AcDbEntity
  8
0
100
AcDbLine
 62
7
  6
BYLAYER
 10
10.3093315619
 20
30.5838013513
 11
10.3093315619
 21
37.2954512201
  0
LINE
  5
221
100
AcDbEntity
  8
0
100
AcDbLine
 62
7
  6
BYLAYER
 10
28.0669435031
 20
22.9947261034
 11
23.8242851523
 21
25.4441706306
  0
LINE
  5
222
100
AcDbEntity
  8
0
100
AcDbLine
 62
7
  6
BYLAYER
 10
17.2390068683
 20
29.8653816739
 11
15.8247874181
 21
30.6818631829
  0
LINE
  5
223
100
AcDbEntity
  8
0
100
AcDbLine
 62
7
  6
BYLAYER
 10
17.9366449349
 20
30.2681607951
 11
18.2275632503
 21
30.0384578192
  0
LINE
  5
224
100
AcDbEntity
  8
0
100
AcDbLine
 62
7
  6
BYLAYER
 10
12.4306607373
 20
45.1178251433
 11
12.4306607373
 21
50.2778710146
  0
LINE
  5
225
100
AcDbEntity
  8
0
100
AcDbLine
 62
7
  6
BYLAYER
 10
13.1377704625
 20
49.8696302601
 11
13.1377704625
 21
55.013595488
  0
LINE
  5
226
100
AcDbEntity
  8
0
100
AcDbLine
 62
7
  6
BYLAYER
 10
13.4913253251
 20
38.2753011639
 11
13.4913253251
 21
43.9243210275
  0
LINE
  5
227
100
AcDbEntity
  8
0
100
AcDbLine
 62
7
  6
BYLAYER
 10
34.2801751952
 20
67.2200956887
 11
13.1377704625
 21
55.013595488
  0
LWPOLYLINE
  5
228
100
AcDbEntity
  8
0
100
AcDbPolyline
 62
7
  6
BYLAYER
 90
3
 70
0
 10
34.2672445462
 20
25.3077018555
 10
32.4629600966
 20
25.6031956145
 10
31.9117948395
 20
25.8771855501
  0
LINE
  5
229
100
AcDbEntity
  8
0
100
AcDbLine
 62
7
  6
BYLAYER
 10
23.0372583335
 20
27.1837579923
 11
27.2799166844
 21
24.7343134651
  0
LINE
  5
22A
100
AcDbEntity
  8
0
100
AcDbLine
 62
7
  6
BYLAYER
 10
22.4702166316
 20
27.5890046866
 11
18.2275582807
 21
30.0384492137
  0
LINE
  5
22B
100
AcDbEntity
  8
0
100
AcDbLine
 62
7
  6
BYLAYER
 10
29.0476717507
 20
24.5172702401
 11
29.401228196
 21
24.3131489491
  0
LINE
  5
22C
100
AcDbEntity
  8
0
100
AcDbLine
 62
7
  6
BYLAYER
 10
17.440531462
 20
31.7780365754
 11
21.6831898128
 21
29.3285920483
  0
LINE
  5
22D
100
AcDbEntity
  8
0
100
AcDbLine
 62
7
  6
BYLAYER
 10
10.2889190332
 20
38.3276540278
 11
7.3747670288
 21
41.2348560357
  0
LINE
  5
22E
100
AcDbEntity
  8
0
100
AcDbLine
 62
7
  6
BYLAYER
 10
14.7641228303
 20
30.0028166465
 11
14.7641228303
 21
27.3750127125
  0
LINE
  5
22F
100
AcDbEntity
  8
0
100
AcDbLine
 62
7
  6
BYLAYER
 10
17.440531462
 20
53.9052520796
 11
19.9154155
 21
56.5589215244
  0
LINE
  5
230
100
AcDbEntity
  8
0
100
AcDbLine
 62
7
  6
BYLAYER
 10
19.9154155
 20
56.5589215244
 11
21.683175093
 21
57.5795319091
  0
LINE
  5
231
100
AcDbEntity
  8
0
100
AcDbLine
 62
7
  6
BYLAYER
 10
38.8870114524
 20
67.5121121728
 11
40.6547710454
 21
68.5327225575
  0
LINE
  5
232
100
AcDbEntity
  8
0
100
AcDbLine
 62
7
  6
BYLAYER
 10
23.4509448792
 20
29.6959926586
 11
23.8045013245
 21
29.4918713676
  0
LINE
  5
233
100
AcDbEntity
  8
0
100
AcDbLine
 62
7
  6
BYLAYER
 10
11.2640160839
 20
37.764694219
 11
10.2889190332
 21
38.3276540278
  0
LINE
  5
234
100
AcDbEntity
  8
0
100
AcDbLine
 62
7
  6
BYLAYER
 10
27.6690668548
 20
28.3265094609
 11
31.9117252057
 21
25.8770649338
  0
LINE
  5
235
100
AcDbEntity
  8
0
100
AcDbLine
 62
7
  6
BYLAYER
 10
37.4651704243
 20
23.2484935729
 11
39.688340537
 21
21.9649747469
  0
LINE
  5
236
100
AcDbEntity
  8
0
100
AcDbLine
 62
7
  6
BYLAYER
 10
34.9947439995
 20
24.6850572009
 11
37.4289453244
 21
23.2797022041
  0
LINE
  5
237
100
AcDbEntity
  8
0
100
AcDbLine
 62
7
  6
BYLAYER
 10
23.4509494059
 20
31.7699000929
 11
23.9742028716
 21
31.4678063979
  0
LINE
  5
238
100
AcDbEntity
  8
0
100
AcDbLine
 62
7
  6
BYLAYER
 10
17.2390068683
 20
52.6457991118
 11
17.2390068683
 21
29.8653816739
  0
LINE
  5
239
100
AcDbEntity
  8
0
100
AcDbLine
 62
7
  6
BYLAYER
 10
17.440531462
 20
31.7780365754
 11
17.440531462
 21
53.9052520796
  0
LINE
  5
23A
100
AcDbEntity
  8
0
100
AcDbLine
 62
7
  6
BYLAYER
 10
12.4306607373
 20
50.2778710146
 11
13.1377704625
 21
50.6861185678
  0
LINE
  5
23B
100
AcDbEntity
  8
0
100
AcDbLine
 62
7
  6
BYLAYER
 10
42.4225453583
 20
67.5121206712
 11
40.6547857653
 21
66.4915102865
  0
LINE
  5
23C
100
AcDbEntity
  8
0
100
AcDbLine
 62
7
  6
BYLAYER
 10
23.4509494059
 20
56.5589300228
 11
21.6831898128
 21
55.5383196381
  0
LINE
  5
23D
100
AcDbEntity
  8
0
100
AcDbLine
 62
7
  6
BYLAYER
 10
17.2390068683
 20
52.6457991118
 11
17.440531462
 21
52.7621486956
  0
LINE
  5
23E
100
AcDbEntity
  8
0
100
AcDbLine
 62
7
  6
BYLAYER
 10
32.7949347596
 20
61.626964657
 11
36.4121274144
 21
63.715339344
  0
LINE
  5
23F
100
AcDbEntity
  8
0
100
AcDbLine
 62
7
  6
BYLAYER
 10
25.1798297446
 20
31.6494237527
 11
24.7342987801
 21
31.9066453558
  0
LINE
  5
240
100
AcDbEntity
  8
0
100
AcDbLine
 62
7
  6
BYLAYER
 10
13.4913253251
 20
43.9243210275
 11
12.4306607373
 21
45.1178251433
  0
LINE
  5
241
100
AcDbEntity
  8
0
100
AcDbLine
 62
7
  6
BYLAYER
 10
21.6831898128
 20
55.5383196381
 11
21.6831898128
 21
29.3285920483
  0
LINE
  5
242
100
AcDbEntity
  8
0
100
AcDbLine
 62
7
  6
BYLAYER
 10
23.0372583335
 20
27.4786863277
 11
23.0372583335
 21
27.1837579923
  0
LINE
  5
243
100
AcDbEntity
  8
0
100
AcDbLine
 62
7
  6
BYLAYER
 10
36.4121274144
 20
64.858442728
 11
38.8870114524
 21
67.5121121728
  0
LINE
  5
244
100
AcDbEntity
  8
0
100
AcDbLine
 62
7
  6
BYLAYER
 10
26.1839069143
 20
52.7478812262
 11
37.1790150555
 21
59.0958719789
  0
LINE
  5
245
100
AcDbEntity
  8
0
100
AcDbLine
 62
7
  6
BYLAYER
 10
23.4509494059
 20
29.6960004993
 11
23.4509494059
 21
56.5589300228
  0
LINE
  5
246
100
AcDbEntity
  8
0
100
AcDbLine
 62
7
  6
BYLAYER
 10
23.9742028716
 20
31.4678063979
 11
23.9742028716
 21
46.3397557977
  0
LINE
  5
247
100
AcDbEntity
  8
0
100
AcDbLine
 62
7
  6
BYLAYER
 10
23.9742028716
 20
46.3397557977
 11
26.1839069143
 21
50.1670914599
  0
LINE
  5
248
100
AcDbEntity
  8
0
100
AcDbLine
 62
7
  6
BYLAYER
 10
26.1839069143
 20
50.1670914599
 11
26.1839069143
 21
52.7478812262
  0
LINE
  5
249
100
AcDbEntity
  8
0
100
AcDbLine
 62
7
  6
BYLAYER
 10
27.2799166844
 20
28.6596726674
 11
27.2799166844
 21
24.7343134651
  0
LWPOLYLINE
  5
24A
100
AcDbEntity
  8
0
100
AcDbPolyline
 62
7
  6
BYLAYER
 90
6
 70
0
 10
30.6643486002
 20
49.4914541391
 10
30.2381838627
 20
49.1664089382
 10
28.2494533006
 20
46.8446984098
 10
26.6665205039
 20
44.1005478038
 10
25.6545524777
 20
41.22433226
 10
25.530217515
 20
40.2493894534
  0
LINE
  5
24B
100
AcDbEntity
  8
0
100
AcDbLine
 62
7
  6
BYLAYER
 10
12.4306607373
 20
50.2778710146
 11
13.1377704625
 21
49.8696302601
  0
LINE
  5
24C
100
AcDbEntity
  8
0
100
AcDbLine
 62
7
  6
BYLAYER
 10
29.0476762774
 20
24.5172780807
 11
29.0476762774
 21
27.5305869458
  0
LINE
  5
24D
100
AcDbEntity
  8
0
100
AcDbLine
 62
7
  6
BYLAYER
 10
10.9598670921
 20
37.6710358417
 11
10.3093315619
 21
37.2954512201
  0
LINE
  5
24E
100
AcDbEntity
  8
0
100
AcDbLine
 62
7
  6
BYLAYER
 10
13.0811962676
 20
38.3242691375
 11
13.4913253251
 21
38.5610558458
  0
LINE
  5
24F
100
AcDbEntity
  8
0
100
AcDbLine
 62
7
  6
BYLAYER
 10
23.4509494059
 20
46.6418494927
 11
23.9742028716
 21
46.3397557977
  0
LINE
  5
250
100
AcDbEntity
  8
0
100
AcDbLine
 62
7
  6
BYLAYER
 10
13.1377704625
 20
55.013595488
 11
17.2390068683
 21
52.6457991118
  0
LINE
  5
251
100
AcDbEntity
  8
0
100
AcDbLine
 62
7
  6
BYLAYER
 10
14.4366876268
 20
62.0610702364
 11
18.5374360551
 21
58.1310752626
  0
LINE
  5
252
100
AcDbEntity
  8
0
100
AcDbLine
 62
7
  6
BYLAYER
 10
15.8741217454
 20
67.5873426604
 11
17.7676733271
 21
64.6387161029
  0
LINE
  5
253
100
AcDbEntity
  8
0
100
AcDbLine
 62
7
  6
BYLAYER
 10
13.0811962676
 20
38.3242691375
 11
10.9598670921
 21
37.6710358417
  0
LINE
  5
254
100
AcDbEntity
  8
0
100
AcDbLine
 62
7
  6
BYLAYER
 10
10.3093315619
 20
37.2954512201
 11
13.4913253251
 21
38.2753011639
  0
LINE
  5
255
100
AcDbEntity
  8
0
100
AcDbLine
 62
7
  6
BYLAYER
 10
26.1839069143
 20
50.1670914599
 11
23.4509494059
 21
51.7449295176
  0
LINE
  5
256
100
AcDbEntity
  8
0
100
AcDbLine
 62
7
  6
BYLAYER
 10
19.2445398923
 20
58.5393194164
 11
15.143791464
 21
62.4693143903
  0
LINE
  5
257
100
AcDbEntity
  8
0
100
AcDbLine
 62
7
  6
BYLAYER
 10
36.4121274144
 20
59.5386247486
 11
36.4121274144
 21
64.858442728
  0
LINE
  5
258
100
AcDbEntity
  8
0
100
AcDbLine
 62
7
  6
BYLAYER
 10
15.8247874181
 20
30.6818631829
 11
14.7641228303
 21
30.0028166465
  0
LINE
  5
259
100
AcDbEntity
  8
0
100
AcDbLine
 62
7
  6
BYLAYER
 10
14.7641228303
 20
30.0028166465
 11
15.8825306662
 21
30.6485258572
  0
LINE
  5
25A
100
AcDbEntity
  8
0
100
AcDbLine
 62
7
  6
BYLAYER
 10
23.4509494059
 20
54.3257192839
 11
26.1839069143
 21
52.7478812262
  0
LINE
  5
25B
100
AcDbEntity
  8
0
100
AcDbLine
 62
7
  6
BYLAYER
 10
19.9154155
 20
56.5589215244
 11
21.6831898128
 21
55.5383196381
  0
LINE
  5
25C
100
AcDbEntity
  8
0
100
AcDbLine
 62
7
  6
BYLAYER
 10
17.9366449349
 20
30.2681607951
 11
17.2390068683
 21
29.8653816739
  0
LINE
  5
25D
100
AcDbEntity
  8
0
100
AcDbLine
 62
7
  6
BYLAYER
 10
18.8024627826
 20
29.7065354537
 11
14.7641228303
 21
27.3750127125
  0
LWPOLYLINE
  5
25E
100
AcDbEntity
  8
0
100
AcDbPolyline
 62
7
  6
BYLAYER
 90
9
 70
0
 10
45.7980206498
 20
49.8906124895
 10
45.0448843203
 20
50.0149095271
 10
42.4238109866
 20
49.3914863701
 10
39.6900029647
 20
47.8139724331
 10
37.0695048445
 20
45.413324002
 10
34.7743881956
 20
42.3871354555
 10
32.9853555315
 20
38.9748732009
 10
31.846840548
 20
35.4466138586
 10
31.455610252
 20
32.0885940205
  0
LINE
  5
25F
100
AcDbEntity
  8
0
100
AcDbLine
 62
7
  6
BYLAYER
 10
21.683175093
 20
57.5795319091
 11
23.4509494059
 21
56.5589300228
  0
LINE
  5
260
100
AcDbEntity
  8
0
100
AcDbLine
 62
7
  6
BYLAYER
 10
10.2889190332
 20
64.455731376
 11
14.4366876268
 21
62.0610702364
  0
LINE
  5
261
100
AcDbEntity
  8
0
100
AcDbLine
 62
7
  6
BYLAYER
 10
20.5977068915
 20
59.3205660843
 11
15.143791464
 21
62.4693143903
  0
LINE
  5
262
100
AcDbEntity
  8
0
100
AcDbLine
 62
7
  6
BYLAYER
 10
11.4566086951
 20
64.9923884918
 11
14.8923808881
 21
62.989424441
  0
LINE
  5
263
100
AcDbEntity
  8
0
100
AcDbLine
 62
7
  6
BYLAYER
 10
40.4143716382
 20
57.1898272834
 11
40.4143716382
 21
54.3862133691
  0
LINE
  5
264
100
AcDbEntity
  8
0
100
AcDbLine
 62
7
  6
BYLAYER
 10
40.6547857653
 20
66.4915102865
 11
40.6547857653
 21
54.3465969376
  0
LINE
  5
265
100
AcDbEntity
  8
0
100
AcDbLine
 62
7
  6
BYLAYER
 10
25.0181347151
 20
32.0705171311
 11
23.9742028716
 21
31.4678063979
  0
LINE
  5
266
100
AcDbEntity
  8
0
100
AcDbLine
 62
7
  6
BYLAYER
 10
25.7191907663
 20
30.5973112337
 11
23.8045013245
 21
29.4918713676
  0
LINE
  5
267
100
AcDbEntity
  8
0
100
AcDbLine
 62
7
  6
BYLAYER
 10
23.5091707837
 20
64.0082254201
 11
21.3663052315
 21
66.0618629443
  0
LINE
  5
268
100
AcDbEntity
  8
0
100
AcDbLine
 62
7
  6
BYLAYER
 10
42.4225453583
 20
53.8742517449
 11
42.4225453583
 21
67.5121206712
  0
LINE
  5
269
100
AcDbEntity
  8
0
100
AcDbLine
 62
7
  6
BYLAYER
 10
24.3701843942
 20
27.7772106479
 11
26.7233771639
 21
29.1358190171
  0
LINE
  5
26A
100
AcDbEntity
  8
0
100
AcDbLine
 62
7
  6
BYLAYER
 10
19.362663172
 20
65.5536155462
 11
15.8741217454
 21
67.5873426604
  0
LINE
  5
26B
100
AcDbEntity
  8
0
100
AcDbLine
 62
7
  6
BYLAYER
 10
20.6592013943
 20
65.6536187905
 11
26.1131168218
 21
62.5048704845
  0
LINE
  5
26C
100
AcDbEntity
  8
0
100
AcDbLine
 62
7
  6
BYLAYER
 10
49.2353339493
 20
49.3510405303
 11
51.5871075959
 21
47.9932740991
  0
LINE
  5
26D
100
AcDbEntity
  8
0
100
AcDbLine
 62
7
  6
BYLAYER
 10
51.7146756005
 20
47.9299188766
 11
53.9378457132
 21
46.6464000507
  0
LINE
  5
26E
100
AcDbEntity
  8
0
100
AcDbLine
 62
7
  6
BYLAYER
 10
42.4188165911
 20
53.8744033607
 11
46.661474942
 21
51.4249588335
  0
LINE
  5
26F
100
AcDbEntity
  8
0
100
AcDbLine
 62
7
  6
BYLAYER
 10
21.3663052315
 20
66.0618629443
 11
17.2185366379
 21
68.4565240839
  0
LINE
  5
270
100
AcDbEntity
  8
0
100
AcDbLine
 62
7
  6
BYLAYER
 10
7.3747670288
 20
64.9134261324
 11
10.2889190332
 21
64.455731376
  0
LINE
  5
271
100
AcDbEntity
  8
0
100
AcDbLine
 62
7
  6
BYLAYER
 10
37.1790150555
 20
59.0958719789
 11
32.7949347596
 21
61.626964657
  0
LINE
  5
272
100
AcDbEntity
  8
0
100
AcDbLine
 62
7
  6
BYLAYER
 10
37.1790150555
 20
59.0958719789
 11
40.4143716382
 21
57.1898272834
  0
LWPOLYLINE
  5
273
100
AcDbEntity
  8
0
100
AcDbPolyline
 62
7
  6
BYLAYER
 90
3
 70
0
 10
46.6614053082
 20
51.4248382172
 10
48.055135618
 20
50.2346228758
 10
48.3438890131
 20
49.6730559916
  0
LINE
  5
274
100
AcDbEntity
  8
0
100
AcDbLine
 62
7
  6
BYLAYER
 10
32.0184244309
 20
25.8241788802
 11
29.401228196
 21
24.3131489491
  0
LINE
  5
275
100
AcDbEntity
  8
0
100
AcDbLine
 62
7
  6
BYLAYER
 10
29.9669112658
 20
23.1829320648
 11
33.7841731554
 21
25.3868160889
  0
LINE
  5
276
100
AcDbEntity
  8
0
100
AcDbLine
 62
7
  6
BYLAYER
 10
17.2185366379
 20
68.4565240839
 11
14.3043846335
 21
68.9142188404
  0
LINE
  5
277
100
AcDbEntity
  8
0
100
AcDbLine
 62
7
  6
BYLAYER
 10
37.0976349936
 20
65.5934713149
 11
34.2801751952
 21
67.2200956887
  0
LINE
  5
278
100
AcDbEntity
  8
0
100
AcDbLine
 62
7
  6
BYLAYER
 10
38.8870114524
 20
67.5121121728
 11
40.6547857653
 21
66.4915102865
  0
LINE
  5
279
100
AcDbEntity
  8
0
100
AcDbLine
 62
7
  6
BYLAYER
 10
42.4225453583
 20
67.5121206712
 11
40.6547710454
 21
68.5327225575
  0
ARC
  5
27A
100
AcDbEntity
  8
0
100
AcDbCircle
 62
7
  6
BYLAYER
 10
43.5636941763
 20
39.7149963796
 40
13.618425884
100
AcDbArc
 50
359.0176181426
 51
359.9987850335
  0
ARC
  5
27B
100
AcDbEntity
  8
0
100
AcDbCircle
 62
7
  6
BYLAYER
 10
39.8421937101
 20
27.3657217035
 40
4.7541161504
100
AcDbArc
 50
239.4341199351
 51
240.0006208275
  0
SPLINE
  5
27C
100
AcDbEntity
  8
0
100
AcDbSpline
 62
7
  6
BYLAYER
 70
0
 71
3
 72
15
 73
11
 74
0
 42
0.0000001
 43
0.0000001
 44
0.0000000001
 40
0.0
 40
0.0
 40
0.0
 40
0.0
 40
0.1485852834
 40
0.2895081276
 40
0.422723154
 40
0.5486425695
 40
0.6680014678
 40
0.7819385118
 40
0.8919875057
 40
1.0
 40
1.0
 40
1.0
 40
1.0
 10
32.045292323
 20
31.204312629
 30
0.0
 10
32.045292323
 20
30.8334337453
 30
0.0
 10
32.0752005379
 20
30.1103041025
 30
0.0
 10
32.2175330577
 20
29.0631263551
 30
0.0
 10
32.4553244383
 20
28.0911631707
 30
0.0
 10
32.7866763317
 20
27.2038401866
 30
0.0
 10
33.2090647092
 20
26.4097012996
 30
0.0
 10
33.7191927305
 20
25.7168586446
 30
0.0
 10
34.3123472216
 20
25.1331069867
 30
0.0
 10
34.7612662924
 20
24.8198748868
 30
0.0
 10
34.9947538156
 20
24.6850742054
 30
0.0
  0
SPLINE
  5
27D
100
AcDbEntity
  8
0
100
AcDbSpline
 62
7
  6
BYLAYER
 70
0
 71
3
 72
15
 73
11
 74
0
 42
0.0000001
 43
0.0000001
 44
0.0000000001
 40
0.0
 40
0.0
 40
0.0
 40
0.0
 40
0.1484610549
 40
0.289325176
 40
0.4225416682
 40
0.5485106144
 40
0.6679467381
 40
0.7819573913
 40
0.892038191
 40
1.0
 40
1.0
 40
1.0
 40
1.0
 10
34.5138722633
 20
29.7718303374
 30
0.0
 10
34.5138722633
 20
29.4033491056
 30
0.0
 10
34.5433846595
 20
28.6847556792
 30
0.0
 10
34.6837672278
 20
27.643805058
 30
0.0
 10
34.9183018024
 20
26.6769087343
 30
0.0
 10
35.2451394173
 20
25.7933117389
 30
0.0
 10
35.6618081434
 20
25.0013839687
 30
0.0
 10
36.1651073012
 20
24.3090744213
 30
0.0
 10
36.7504725894
 20
23.7240355781
 30
0.0
 10
37.1938617434
 20
23.4084800106
 30
0.0
 10
37.4245889708
 20
23.2722137097
 30
0.0
  0
SPLINE
  5
27E
100
AcDbEntity
  8
0
100
AcDbSpline
 62
7
  6
BYLAYER
 70
0
 71
3
 72
28
 73
24
 74
0
 42
0.0000001
 43
0.0000001
 44
0.0000000001
 40
0.0
 40
0.0
 40
0.0
 40
0.0
 40
0.0213293787
 40
0.042887228
 40
0.064889716
 40
0.0875317293
 40
0.1109781017
 40
0.1353620916
 40
0.1872563779
 40
0.2149166586
 40
0.243723994
 40
0.3046639754
 40
0.3697432942
 40
0.438331719
 40
0.509608966
 40
0.5826238578
 40
0.6563459792
 40
0.7297139207
 40
0.8016812175
 40
0.8712656942
 40
0.9375959077
 40
0.9693347516
 40
1.0
 40
1.0
 40
1.0
 40
1.0
 10
42.4188064048
 20
53.8743857141
 30
0.0
 10
42.2375921235
 20
53.979007157
 30
0.0
 10
41.8593131416
 20
54.1662532906
 30
0.0
 10
41.2561526608
 20
54.3746923883
 30
0.0
 10
40.6194431941
 20
54.5105445709
 30
0.0
 10
39.9529647559
 20
54.5730020674
 30
0.0
 10
39.2603862041
 20
54.5621200151
 30
0.0
 10
38.2874116311
 20
54.4476543782
 30
0.0
 10
37.2960658879
 20
54.1844335291
 30
0.0
 10
36.3062741871
 20
53.7950829331
 30
0.0
 10
35.2668922152
 20
53.2965258707
 30
0.0
 10
33.9675778375
 20
52.5015676029
 30
0.0
 10
32.4615287163
 20
51.3224751254
 30
0.0
 10
31.0110417025
 20
49.9255232466
 30
0.0
 10
29.646872409
 20
48.3404819481
 30
0.0
 10
28.3978968917
 20
46.6010021116
 30
0.0
 10
27.2907347308
 20
44.7441600636
 30
0.0
 10
26.349010119
 20
42.809580889
 30
0.0
 10
25.592773992
 20
40.8384435234
 30
0.0
 10
25.0382313183
 20
38.8728845774
 30
0.0
 10
24.7496589925
 20
37.250229523
 30
0.0
 10
24.6340404599
 20
35.9920391929
 30
0.0
 10
24.614160124
 20
35.3796894041
 30
0.0
 10
24.614160124
 20
35.0788551412
 30
0.0
  0
SPLINE
  5
27F
100
AcDbEntity
  8
0
100
AcDbSpline
 62
7
  6
BYLAYER
 70
0
 71
3
 72
14
 73
10
 74
0
 42
0.0000001
 43
0.0000001
 44
0.0000000001
 40
0.0
 40
0.0
 40
0.0
 40
0.0
 40
0.143623303
 40
0.2817291889
 40
0.540827263
 40
0.6624025874
 40
0.7790607369
 40
0.8913501042
 40
1.0
 40
1.0
 40
1.0
 40
1.0
 10
31.455610252
 20
32.0885940205
 30
0.0
 10
31.455610252
 20
31.8188912169
 30
0.0
 10
31.4723619344
 20
31.2895758043
 30
0.0
 10
31.5747474576
 20
30.2787305873
 30
0.0
 10
31.7802287807
 20
29.3210108662
 30
0.0
 10
32.0990627575
 20
28.4419509878
 30
0.0
 10
32.3830963082
 20
27.8468486309
 30
0.0
 10
32.71563404
 20
27.3057124278
 30
0.0
 10
32.9722135488
 20
26.9782337339
 30
0.0
 10
33.107629805
 20
26.8256235112
 30
0.0
  0
SPLINE
  5
280
100
AcDbEntity
  8
0
100
AcDbSpline
 62
7
  6
BYLAYER
 70
0
 71
3
 72
16
 73
12
 74
0
 42
0.0000001
 43
0.0000001
 44
0.0000000001
 40
0.0
 40
0.0
 40
0.0
 40
0.0
 40
0.1485709457
 40
0.2894802242
 40
0.4226823138
 40
0.5485894668
 40
0.6679367746
 40
0.7818628003
 40
0.8919011861
 40
0.9460798021
 40
1.0
 40
1.0
 40
1.0
 40
1.0
 10
24.614160124
 20
35.0788551412
 30
0.0
 10
24.614160124
 20
34.6947157189
 30
0.0
 10
24.6451380699
 20
33.9457308281
 30
0.0
 10
24.7925583948
 20
32.8611125755
 30
0.0
 10
25.0388554845
 20
31.8543960209
 30
0.0
 10
25.3820420068
 20
30.9353544566
 30
0.0
 10
25.819575147
 20
30.1127999065
 30
0.0
 10
26.3477927608
 20
29.3952626511
 30
0.0
 10
26.8629903879
 20
28.8884395599
 30
0.0
 10
27.3121033406
 20
28.5463715017
 30
0.0
 10
27.5483401824
 20
28.3962327856
 30
0.0
 10
27.6690770411
 20
28.3265271074
 30
0.0
  0
SPLINE
  5
281
100
AcDbEntity
  8
0
100
AcDbSpline
 62
7
  6
BYLAYER
 70
0
 71
3
 72
9
 73
5
 74
0
 42
0.0000001
 43
0.0000001
 44
0.0000000001
 40
0.0
 40
0.0
 40
0.0
 40
0.0
 40
0.4850250806
 40
1.0
 40
1.0
 40
1.0
 40
1.0
 10
56.7960026286
 20
42.7084132975
 30
0.0
 10
56.9290608478
 20
42.2376900186
 30
0.0
 10
57.1241923482
 20
41.2438417804
 30
0.0
 10
57.1821200572
 20
40.2340807844
 30
0.0
 10
57.1821200572
 20
39.7147075986
 30
0.0
  0
SPLINE
  5
282
100
AcDbEntity
  8
0
100
AcDbSpline
 62
7
  6
BYLAYER
 70
0
 71
3
 72
23
 73
19
 74
0
 42
0.0000001
 43
0.0000001
 44
0.0000000001
 40
0.0
 40
0.0
 40
0.0
 40
0.0
 40
0.058629937
 40
0.1197614561
 40
0.1831143864
 40
0.2483262461
 40
0.3149461921
 40
0.3824780743
 40
0.4503909068
 40
0.5181408399
 40
0.5851898845
 40
0.6510247958
 40
0.7151762079
 40
0.7772391256
 40
0.8368968639
 40
0.8939333378
 40
0.9482865722
 40
1.0
 40
1.0
 40
1.0
 40
1.0
 10
57.1801183479
 20
39.4815090418
 30
0.0
 10
57.1723357428
 20
39.0259801037
 30
0.0
 10
57.1107344617
 20
38.095837713
 30
0.0
 10
56.8938255543
 20
36.6880063579
 30
0.0
 10
56.5540138618
 20
35.2521255873
 30
0.0
 10
56.0961295606
 20
33.8048085391
 30
0.0
 10
55.5259956991
 20
32.3630251786
 30
0.0
 10
54.8508324349
 20
30.9441200391
 30
0.0
 10
54.0789938662
 20
29.5653480159
 30
0.0
 10
53.2199770228
 20
28.2435990278
 30
0.0
 10
52.2842152458
 20
26.9950969846
 30
0.0
 10
51.2828797979
 20
25.8351466308
 30
0.0
 10
50.2276473068
 20
24.7779191203
 30
0.0
 10
49.1304125686
 20
23.8362634554
 30
0.0
 10
48.0030335424
 20
23.021770548
 30
0.0
 10
46.8569148375
 20
22.3444655468
 30
0.0
 10
45.7033258754
 20
21.8139277065
 30
0.0
 10
44.9173667541
 20
21.5575202906
 30
0.0
 10
44.52782548
 20
21.4588264408
 30
0.0
  0
SPLINE
  5
283
100
AcDbEntity
  8
0
100
AcDbSpline
 62
7
  6
BYLAYER
 70
0
 71
3
 72
28
 73
24
 74
0
 42
0.0000001
 43
0.0000001
 44
0.0000000001
 40
0.0
 40
0.0
 40
0.0
 40
0.0
 40
0.0213293681
 40
0.0428872081
 40
0.0648896902
 40
0.0875317013
 40
0.1109780709
 40
0.1353620533
 40
0.1872563349
 40
0.2149166222
 40
0.243723968
 40
0.3046639831
 40
0.3697433401
 40
0.4383317881
 40
0.5096090597
 40
0.5826239435
 40
0.6563460273
 40
0.7297139287
 40
0.8016812243
 40
0.871265734
 40
0.937595946
 40
0.9693347652
 40
1.0
 40
1.0
 40
1.0
 40
1.0
 10
49.2353241333
 20
49.3510235257
 30
0.0
 10
49.0603654492
 20
49.4520334191
 30
0.0
 10
48.6951447618
 20
49.6328156987
 30
0.0
 10
48.112805602
 20
49.8340595712
 30
0.0
 10
47.4980754309
 20
49.9652220887
 30
0.0
 10
46.8546038761
 20
50.0255236967
 30
0.0
 10
46.1859331784
 20
50.0150173178
 30
0.0
 10
45.2465456984
 20
49.9045032982
 30
0.0
 10
44.2894211196
 20
49.6503688865
 30
0.0
 10
43.3337968094
 20
49.2744586091
 30
0.0
 10
42.3302936816
 20
48.793111631
 30
0.0
 10
41.0758308413
 20
48.0255947896
 30
0.0
 10
39.6217697157
 20
46.8872038359
 30
0.0
 10
38.2213528594
 20
45.5384739231
 30
0.0
 10
36.9042744816
 20
44.0081476341
 30
0.0
 10
35.6984137292
 20
42.3287145125
 30
0.0
 10
34.6294712517
 20
40.5359710639
 30
0.0
 10
33.7202552545
 20
38.6681740027
 30
0.0
 10
32.9901243708
 20
36.7650801517
 30
0.0
 10
32.4547244269
 20
34.8673717908
 30
0.0
 10
32.1761136908
 20
33.3007305355
 30
0.0
 10
32.0644862971
 20
32.085973177
 30
0.0
 10
32.045292323
 20
31.494761997
 30
0.0
 10
32.045292323
 20
31.204312629
 30
0.0
  0
SPLINE
  5
284
100
AcDbEntity
  8
0
100
AcDbSpline
 62
7
  6
BYLAYER
 70
0
 71
3
 72
28
 73
24
 74
0
 42
0.0000001
 43
0.0000001
 44
0.0000000001
 40
0.0
 40
0.0
 40
0.0
 40
0.0
 40
0.0213293683
 40
0.0428872085
 40
0.0648896907
 40
0.087531702
 40
0.1109780717
 40
0.1353620542
 40
0.187256336
 40
0.2149166233
 40
0.2437239688
 40
0.3046639833
 40
0.3697433397
 40
0.4383317874
 40
0.5096090587
 40
0.5826239429
 40
0.6563460274
 40
0.7297139293
 40
0.8016812248
 40
0.8712657337
 40
0.9375959455
 40
0.969334765
 40
1.0
 40
1.0
 40
1.0
 40
1.0
 10
51.7146657781
 20
47.9299018611
 30
0.0
 10
51.5395975606
 20
48.0309749918
 30
0.0
 10
51.1741482261
 20
48.2118704512
 30
0.0
 10
50.5914444908
 20
48.4132403102
 30
0.0
 10
49.9763294675
 20
48.5444849422
 30
0.0
 10
49.3324550674
 20
48.6048242987
 30
0.0
 10
48.6633657488
 20
48.5943113414
 30
0.0
 10
47.723390168
 20
48.483728129
 30
0.0
 10
46.7656663867
 20
48.2294346153
 30
0.0
 10
45.8094438161
 20
47.853289001
 30
0.0
 10
44.8053124613
 20
47.3716406789
 30
0.0
 10
43.550064285
 20
46.6036433457
 30
0.0
 10
42.0950928658
 20
45.4645397194
 30
0.0
 10
40.6937992951
 20
44.1149654518
 30
0.0
 10
39.3758963681
 20
42.5836811151
 30
0.0
 10
38.169280689
 20
40.9031965899
 30
0.0
 10
37.0996689986
 20
39.1093307935
 30
0.0
 10
36.1898837892
 20
37.2403644006
 30
0.0
 10
35.4592958143
 20
35.3360791331
 30
0.0
 10
34.9235606905
 20
33.437182735
 30
0.0
 10
34.6447755318
 20
31.8695607011
 30
0.0
 10
34.5330782549
 20
30.6540428493
 30
0.0
 10
34.5138722633
 20
30.062461541
 30
0.0
 10
34.5138722633
 20
29.7718303374
 30
0.0
  0
SPLINE
  5
285
100
AcDbEntity
  8
0
100
AcDbSpline
 62
7
  6
BYLAYER
 70
0
 71
3
 72
13
 73
9
 74
0
 42
0.0000001
 43
0.0000001
 44
0.0000000001
 40
0.0
 40
0.0
 40
0.0
 40
0.0
 40
0.1197202149
 40
0.2398281666
 40
0.3610383642
 40
0.4838578545
 40
0.7359145264
 40
1.0
 40
1.0
 40
1.0
 40
1.0
 10
53.9378457132
 20
46.6464000507
 30
0.0
 10
54.1101984361
 20
46.5468944109
 30
0.0
 10
54.4447325634
 20
46.3282863947
 30
0.0
 10
54.9091054041
 20
45.946320009
 30
0.0
 10
55.3335458617
 20
45.5131223766
 30
0.0
 10
55.8479971888
 20
44.8669909905
 30
0.0
 10
56.3819805533
 20
43.9411423878
 30
0.0
 10
56.6765911295
 20
43.130858245
 30
0.0
 10
56.7960026286
 20
42.7084132975
 30
0.0
  0
SPLINE
  5
286
100
AcDbEntity
  8
0
100
AcDbSpline
 62
7
  6
BYLAYER
 70
0
 71
3
 72
13
 73
9
 74
0
 42
0.0000001
 43
0.0000001
 44
0.0000000001
 40
0.0
 40
0.0
 40
0.0
 40
0.0
 40
0.2640853925
 40
0.5161418661
 40
0.6389612819
 40
0.7601714246
 40
0.8802797238
 40
1.0
 40
1.0
 40
1.0
 40
1.0
 10
44.52782548
 20
21.4588264408
 30
0.0
 10
44.1022739172
 20
21.3510090546
 30
0.0
 10
43.2532453776
 20
21.2009905269
 30
0.0
 10
42.184445925
 20
21.2004886981
 30
0.0
 10
41.3676521287
 20
21.3229341865
 30
0.0
 10
40.7802683355
 20
21.4738999139
 30
0.0
 10
40.2172848445
 20
21.6850651023
 30
0.0
 10
39.860693348
 20
21.8654690562
 30
0.0
 10
39.688340537
 20
21.9649747469
 30
0.0
  0
SPLINE
  5
287
100
AcDbEntity
  8
0
100
AcDbSpline
 62
7
  6
BYLAYER
 70
0
 71
3
 72
15
 73
11
 74
0
 42
0.0000001
 43
0.0000001
 44
0.0000000001
 40
0.0
 40
0.0
 40
0.0
 40
0.0
 40
0.145987038
 40
0.2855339619
 40
0.4185025802
 40
0.5451113256
 40
0.6657897066
 40
0.7811813023
 40
0.8921993205
 40
1.0
 40
1.0
 40
1.0
 40
1.0
 10
30.3417365331
 20
33.4867233372
 30
0.0
 10
30.3417365331
 20
33.2007883767
 30
0.0
 10
30.3618637833
 20
32.641255473
 30
0.0
 10
30.4567423403
 20
31.8261425462
 30
0.0
 10
30.6153323385
 20
31.059515058
 30
0.0
 10
30.8365649546
 20
30.3470034584
 30
0.0
 10
31.1190558634
 20
29.6936151935
 30
0.0
 10
31.4612031516
 20
29.1041575614
 30
0.0
 10
31.8605992407
 20
28.5832186079
 30
0.0
 10
32.166862147
 20
28.2809877957
 30
0.0
 10
32.3275351241
 20
28.1440020174
 30
0.0
  0
SPLINE
  5
288
100
AcDbEntity
  8
0
100
AcDbSpline
 62
7
  6
BYLAYER
 70
0
 71
3
 72
26
 73
22
 74
0
 42
0.0000001
 43
0.0000001
 44
0.0000000001
 40
0.0
 40
0.0
 40
0.0
 40
0.0
 40
0.0214457572
 40
0.0434186131
 40
0.0660768169
 40
0.0895507642
 40
0.1392858223
 40
0.1657156319
 40
0.1932112519
 40
0.2513580857
 40
0.3135474931
 40
0.3793182855
 40
0.4480232277
 40
0.5188799142
 40
0.5910146899
 40
0.6635026135
 40
0.7354043177
 40
0.8058045735
 40
0.8738473071
 40
0.9387832185
 40
1.0
 40
1.0
 40
1.0
 40
1.0
 10
44.7947357232
 20
49.9692623627
 30
0.0
 10
44.6292228727
 20
50.0230679639
 30
0.0
 10
44.2873512562
 20
50.1121457251
 30
0.0
 10
43.7555066744
 20
50.1881647419
 30
0.0
 10
43.2021245908
 20
50.2075530651
 30
0.0
 10
42.4247193619
 20
50.1571885948
 30
0.0
 10
41.6285672394
 20
49.9907351155
 30
0.0
 10
40.8301047195
 20
49.7244579421
 30
0.0
 10
39.9898101592
 20
49.3744596966
 30
0.0
 10
38.9323563182
 20
48.8005247294
 30
0.0
 10
37.6948501571
 20
47.9297821772
 30
0.0
 10
36.4884691494
 20
46.8809695873
 30
0.0
 10
35.3361748097
 20
45.6742288695
 30
0.0
 10
34.2598659799
 20
44.332601059
 30
0.0
 10
33.2801683019
 20
42.8818165462
 30
0.0
 10
32.4158943069
 20
41.3497330774
 30
0.0
 10
31.6836367395
 20
39.7657813207
 30
0.0
 10
31.0974840793
 20
38.1603889272
 30
0.0
 10
30.6686318312
 20
36.5641833101
 30
0.0
 10
30.4054062543
 20
35.0079196358
 30
0.0
 10
30.3417365331
 20
33.983516365
 30
0.0
 10
30.3417365331
 20
33.4867233372
 30
0.0
  0
SPLINE
  5
289
100
AcDbEntity
  8
0
100
AcDbSpline
 62
7
  6
BYLAYER
 70
0
 71
3
 72
42
 73
38
 74
0
 42
0.0000001
 43
0.0000001
 44
0.0000000001
 40
0.0
 40
0.0
 40
0.0
 40
0.0
 40
0.0325427742
 40
0.0665529483
 40
0.101874401
 40
0.1383440812
 40
0.1757610304
 40
0.2139054719
 40
0.2525439834
 40
0.2914321029
 40
0.3303208256
 40
0.3689612527
 40
0.4071087155
 40
0.4445286991
 40
0.4810017087
 40
0.5163281165
 40
0.5503354831
 40
0.5828842577
 40
0.613874729
 40
0.6432571177
 40
0.6710398397
 40
0.684358158
 40
0.6973119155
 40
0.7222028058
 40
0.745963307
 40
0.7689125223
 40
0.7802117795
 40
0.7914570612
 40
0.8139812642
 40
0.8369300599
 40
0.8606894337
 40
0.8855792219
 40
0.8985325678
 40
0.9118499441
 40
0.9396290772
 40
0.9690151436
 40
1.0
 40
1.0
 40
1.0
 40
1.0
 10
57.0926574119
 20
39.4759848023
 30
0.0
 10
57.0926574119
 20
39.1039675352
 30
0.0
 10
57.0595961559
 20
38.342881542
 30
0.0
 10
56.9194729922
 20
37.1857538352
 30
0.0
 10
56.6889026085
 20
35.9974663504
 30
0.0
 10
56.3702177299
 20
34.789514976
 30
0.0
 10
55.9664184313
 20
33.5732976893
 30
0.0
 10
55.4813824568
 20
32.3604432795
 30
0.0
 10
54.9197437261
 20
31.1625345642
 30
0.0
 10
54.2868446702
 20
29.991035004
 30
0.0
 10
53.5887678965
 20
28.8571399147
 30
0.0
 10
52.8321878965
 20
27.7717009454
 30
0.0
 10
52.0243084467
 20
26.7451301146
 30
0.0
 10
51.1728859129
 20
25.7872223387
 30
0.0
 10
50.2860465211
 20
24.907129854
 30
0.0
 10
49.3722031145
 20
24.1132899988
 30
0.0
 10
48.4400581201
 20
23.4132399775
 30
0.0
 10
47.4984226448
 20
22.8136580634
 30
0.0
 10
46.5560769397
 20
22.3203294921
 30
0.0
 10
45.6219360349
 20
21.9380328295
 30
0.0
 10
44.846632442
 20
21.7119946019
 30
0.0
 10
44.2399588476
 20
21.5926609246
 30
0.0
 10
43.6598778642
 20
21.515605201
 30
0.0
 10
42.9536322683
 20
21.4910850764
 30
0.0
 10
42.1371318262
 20
21.5821061097
 30
0.0
 10
41.4948938602
 20
21.7598905885
 30
0.0
 10
41.0146318432
 20
21.9608687383
 30
0.0
 10
40.5574079018
 20
22.1994931667
 30
0.0
 10
40.0228816121
 20
22.5724537061
 30
0.0
 10
39.456358127
 20
23.1300860181
 30
0.0
 10
38.9692313184
 20
23.7917366171
 30
0.0
 10
38.637420987
 20
24.4156041641
 30
0.0
 10
38.4141642414
 20
24.9564913435
 30
0.0
 10
38.2142141598
 20
25.5415037179
 30
0.0
 10
38.0223094179
 20
26.3259583566
 30
0.0
 10
37.8863956907
 20
27.3259822756
 30
0.0
 10
37.8578329038
 20
28.0166122714
 30
0.0
 10
37.8578329038
 20
28.3708199836
 30
0.0
  0
SPLINE
  5
28A
100
AcDbEntity
  8
0
100
AcDbSpline
 62
7
  6
BYLAYER
 70
0
 71
3
 72
42
 73
38
 74
0
 42
0.0000001
 43
0.0000001
 44
0.0000000001
 40
0.0
 40
0.0
 40
0.0
 40
0.0
 40
0.032542771
 40
0.0665529418
 40
0.1018743901
 40
0.1383440645
 40
0.1757610066
 40
0.213905443
 40
0.252543952
 40
0.2914320688
 40
0.3303207849
 40
0.3689612015
 40
0.4071086563
 40
0.4445286412
 40
0.4810016648
 40
0.5163280949
 40
0.550335482
 40
0.5828842634
 40
0.6138747184
 40
0.6432570659
 40
0.6710397301
 40
0.6843580189
 40
0.6973117504
 40
0.7222026128
 40
0.7459631307
 40
0.7689124044
 40
0.7802116964
 40
0.7914570102
 40
0.8139812616
 40
0.8369300778
 40
0.8606894497
 40
0.88557923
 40
0.898532574
 40
0.9118499494
 40
0.9396290813
 40
0.9690151463
 40
1.0
 40
1.0
 40
1.0
 40
1.0
 10
37.8578329038
 20
28.3708199836
 30
0.0
 10
37.8578329038
 20
28.7428372567
 30
0.0
 10
37.8908941245
 20
29.5039232613
 30
0.0
 10
38.0310172387
 20
30.6610509819
 30
0.0
 10
38.2615876571
 20
31.8493384414
 30
0.0
 10
38.580272695
 20
33.0572897219
 30
0.0
 10
38.9840725211
 20
34.2735067726
 30
0.0
 10
39.4691087769
 20
35.4863610335
 30
0.0
 10
40.0307468825
 20
36.6842700482
 30
0.0
 10
40.6636441556
 20
37.8557705619
 30
0.0
 10
41.361718437
 20
38.9896670851
 30
0.0
 10
42.1182961627
 20
40.0751074939
 30
0.0
 10
42.9261748547
 20
41.1016789082
 30
0.0
 10
43.7775983003
 20
42.059586227
 30
0.0
 10
44.6644398387
 20
42.9396773914
 30
0.0
 10
45.5782856588
 20
43.7335156625
 30
0.0
 10
46.5104324349
 20
44.4335644346
 30
0.0
 10
47.4520684819
 20
45.0331458442
 30
0.0
 10
48.3944133957
 20
45.526474846
 30
0.0
 10
49.3285524821
 20
45.9087726912
 30
0.0
 10
50.1038542547
 20
46.1348122352
 30
0.0
 10
50.7105264291
 20
46.2541468044
 30
0.0
 10
51.2906064216
 20
46.3312032732
 30
0.0
 10
51.9968516991
 20
46.3557238076
 30
0.0
 10
52.8133527575
 20
46.2647022699
 30
0.0
 10
53.4555918506
 20
46.0869168766
 30
0.0
 10
53.9358551567
 20
45.8859379569
 30
0.0
 10
54.393080288
 20
45.6473128404
 30
0.0
 10
54.9276076912
 20
45.2743517621
 30
0.0
 10
55.4941319941
 20
44.7167190443
 30
0.0
 10
55.9812589391
 20
44.0550682607
 30
0.0
 10
56.3130691186
 20
43.4312006972
 30
0.0
 10
56.5363258362
 20
42.8903135683
 30
0.0
 10
56.7362759512
 20
42.3053011797
 30
0.0
 10
56.9281807659
 20
41.5208465089
 30
0.0
 10
57.0640945863
 20
40.5208225498
 30
0.0
 10
57.0926574119
 20
39.8301925238
 30
0.0
 10
57.0926574119
 20
39.4759848023
 30
0.0
  0
SPLINE
  5
28B
100
AcDbEntity
  8
0
100
AcDbSpline
 62
7
  6
BYLAYER
 70
0
 71
3
 72
28
 73
24
 74
0
 42
0.0000001
 43
0.0000001
 44
0.0000000001
 40
0.0
 40
0.0
 40
0.0
 40
0.0
 40
0.0306651804
 40
0.0624038081
 40
0.1287335437
 40
0.1983177848
 40
0.2702852464
 40
0.3436532015
 40
0.4173754616
 40
0.490390546
 40
0.5616680091
 40
0.6302565585
 40
0.6953359483
 40
0.7562759631
 40
0.7850832929
 40
0.8127435561
 40
0.8646378192
 40
0.8890218246
 40
0.9124682312
 40
0.9351102828
 40
0.9571127881
 40
0.978670636
 40
1.0
 40
1.0
 40
1.0
 40
1.0
 10
36.737042376
 20
28.4883115115
 30
0.0
 10
36.737042376
 20
28.7789422864
 30
0.0
 10
36.7562478897
 20
29.3705214505
 30
0.0
 10
36.8679444406
 20
30.5860328678
 30
0.0
 10
37.1467266755
 20
32.1536468184
 30
0.0
 10
37.682457672
 20
34.0525392974
 30
0.0
 10
38.4130431506
 20
35.9568257268
 30
0.0
 10
39.3228283096
 20
37.8257970172
 30
0.0
 10
40.3924405725
 20
39.619667967
 30
0.0
 10
41.5990585774
 20
41.3001582483
 30
0.0
 10
42.9169641154
 20
42.8314473479
 30
0.0
 10
44.3182599034
 20
44.1810246583
 30
0.0
 10
45.7732325576
 20
45.3201297223
 30
0.0
 10
47.0284811841
 20
46.0881275041
 30
0.0
 10
48.0326124076
 20
46.5697760156
 30
0.0
 10
48.9888347524
 20
46.9459215754
 30
0.0
 10
49.9465586294
 20
47.2002150312
 30
0.0
 10
50.8865348577
 20
47.3107987196
 30
0.0
 10
51.5556253401
 20
47.3213112256
 30
0.0
 10
52.1995008885
 20
47.2609718207
 30
0.0
 10
52.8146166745
 20
47.1297265357
 30
0.0
 10
53.397320673
 20
46.9283560863
 30
0.0
 10
53.7627699496
 20
46.7474601534
 30
0.0
 10
53.937838092
 20
46.6463868501
 30
0.0
  0
SPLINE
  5
28C
100
AcDbEntity
  8
0
100
AcDbSpline
 62
7
  6
BYLAYER
 70
0
 71
3
 72
16
 73
12
 74
0
 42
0.0000001
 43
0.0000001
 44
0.0000000001
 40
0.0
 40
0.0
 40
0.0
 40
0.0
 40
0.0539199468
 40
0.1080983401
 40
0.2181363331
 40
0.3320622046
 40
0.4514095969
 40
0.577316828
 40
0.7105192145
 40
0.8514290469
 40
1.0
 40
1.0
 40
1.0
 40
1.0
 10
31.9117354687
 20
25.8770827145
 30
0.0
 10
31.7909990945
 20
25.9467879241
 30
0.0
 10
31.5547630935
 20
26.0969257186
 30
0.0
 10
31.1056527702
 20
26.4389934535
 30
0.0
 10
30.590454847
 20
26.9458131831
 30
0.0
 10
30.062237583
 20
27.6633493921
 30
0.0
 10
29.6247042704
 20
28.4859037198
 30
0.0
 10
29.2815151631
 20
29.404945563
 30
0.0
 10
29.0352173794
 20
30.4116644736
 30
0.0
 10
28.8877969197
 20
31.4962848845
 30
0.0
 10
28.8568184749
 20
32.2452711852
 30
0.0
 10
28.8568184749
 20
32.629410614
 30
0.0
  0
SPLINE
  5
28D
100
AcDbEntity
  8
0
100
AcDbSpline
 62
7
  6
BYLAYER
 70
0
 71
3
 72
15
 73
11
 74
0
 42
0.0000001
 43
0.0000001
 44
0.0000000001
 40
0.0
 40
0.0
 40
0.0
 40
0.0
 40
0.1080123505
 40
0.2180612604
 40
0.3319987571
 40
0.451358019
 40
0.577277368
 40
0.7104921624
 40
0.8514147837
 40
1.0
 40
1.0
 40
1.0
 40
1.0
 10
39.6883481582
 20
21.9649879475
 30
0.0
 10
39.4547148337
 20
22.099873093
 30
0.0
 10
39.0055153292
 20
22.413301358
 30
0.0
 10
38.4119889744
 20
22.9974191573
 30
0.0
 10
37.9015419498
 20
23.6906983668
 30
0.0
 10
37.4788875925
 20
24.4853359823
 30
0.0
 10
37.147329941
 20
25.3732156104
 30
0.0
 10
36.9093903263
 20
26.3457863052
 30
0.0
 10
36.7669691863
 20
27.3936186878
 30
0.0
 10
36.737042376
 20
28.1172005075
 30
0.0
 10
36.737042376
 20
28.4883115115
 30
0.0
  0
SPLINE
  5
28E
100
AcDbEntity
  8
0
100
AcDbSpline
 62
7
  6
BYLAYER
 70
0
 71
3
 72
28
 73
24
 74
0
 42
0.0000001
 43
0.0000001
 44
0.0000000001
 40
0.0
 40
0.0
 40
0.0
 40
0.0
 40
0.0306652175
 40
0.0624039242
 40
0.128733839
 40
0.1983181081
 40
0.2702853377
 40
0.343653442
 40
0.4173758058
 40
0.4903908713
 40
0.5616682525
 40
0.6302568315
 40
0.6953362834
 40
0.7562763025
 40
0.7850836167
 40
0.8127438604
 40
0.8646380709
 40
0.8890220351
 40
0.9124683884
 40
0.9351103851
 40
0.95711285
 40
0.9786706644
 40
1.0
 40
1.0
 40
1.0
 40
1.0
 10
28.8568184749
 20
32.629410614
 30
0.0
 10
28.8568184749
 20
32.9302445731
 30
0.0
 10
28.8766984229
 20
33.5425927207
 30
0.0
 10
28.9923166206
 20
34.8007784848
 30
0.0
 10
29.2808870906
 20
36.423427385
 30
0.0
 10
29.8354263955
 20
38.38898142
 30
0.0
 10
30.5916606212
 20
40.3601183336
 30
0.0
 10
31.5333851516
 20
42.2947012409
 30
0.0
 10
32.6405492807
 20
44.1515487499
 30
0.0
 10
33.8895274279
 20
45.8910333559
 30
0.0
 10
35.2536995113
 20
47.476078247
 30
0.0
 10
36.7041896057
 20
48.8730329055
 30
0.0
 10
38.2102415932
 20
50.0521269287
 30
0.0
 10
39.5095576654
 20
50.8470852574
 30
0.0
 10
40.5489397503
 20
51.3456416137
 30
0.0
 10
41.5387305387
 20
51.734990956
 30
0.0
 10
42.5300751376
 20
51.998210627
 30
0.0
 10
43.5030485773
 20
52.1126758423
 30
0.0
 10
44.1956265299
 20
52.1235571432
 30
0.0
 10
44.8621043767
 20
52.0610995855
 30
0.0
 10
45.4988130136
 20
51.9252470478
 30
0.0
 10
46.1019725195
 20
51.7168081473
 30
0.0
 10
46.4802506419
 20
51.5295620714
 30
0.0
 10
46.6614646789
 20
51.4249410528
 30
0.0
  0
SPLINE
  5
28F
100
AcDbEntity
  8
0
100
AcDbSpline
 62
7
  6
BYLAYER
 70
0
 71
3
 72
23
 73
19
 74
0
 42
0.0000001
 43
0.0000001
 44
0.0000000001
 40
0.0
 40
0.0
 40
0.0
 40
0.0
 40
0.0486831003
 40
0.1007882513
 40
0.1563449995
 40
0.2152011171
 40
0.277057082
 40
0.341497111
 40
0.4080167926
 40
0.4760457921
 40
0.5449680719
 40
0.6141418277
 40
0.6829173667
 40
0.750657523
 40
0.8167566744
 40
0.8806510973
 40
0.9418727145
 40
1.0
 40
1.0
 40
1.0
 40
1.0
 10
34.7565110842
 20
52.8779443717
 30
0.0
 10
34.4497284108
 20
52.8219581012
 30
0.0
 10
33.8229059366
 20
52.6572653642
 30
0.0
 10
32.8929178363
 20
52.279678751
 30
0.0
 10
31.9541095419
 20
51.7690366329
 30
0.0
 10
31.0194215708
 20
51.1326276377
 30
0.0
 10
30.1014934566
 20
50.3793055291
 30
0.0
 10
29.2129553386
 20
49.519559968
 30
0.0
 10
28.3660929537
 20
48.5653361292
 30
0.0
 10
27.5726854478
 20
47.5299054895
 30
0.0
 10
26.8437971953
 20
46.4276943954
 30
0.0
 10
26.1895870143
 20
45.2740968654
 30
0.0
 10
25.6191730603
 20
44.0852222541
 30
0.0
 10
25.1405223937
 20
42.8776329054
 30
0.0
 10
24.7603562047
 20
41.6681799952
 30
0.0
 10
24.4838480999
 20
40.473559871
 30
0.0
 10
24.3150596058
 20
39.3105653037
 30
0.0
 10
24.2747265538
 20
38.5456782011
 30
0.0
 10
24.2747265538
 20
38.1733321281
 30
0.0
  0
SPLINE
  5
290
100
AcDbEntity
  8
0
100
AcDbSpline
 62
7
  6
BYLAYER
 70
0
 71
3
 72
10
 73
6
 74
0
 42
0.0000001
 43
0.0000001
 44
0.0000000001
 40
0.0
 40
0.0
 40
0.0
 40
0.0
 40
0.2665935031
 40
0.5223125269
 40
1.0
 40
1.0
 40
1.0
 40
1.0
 10
24.2747265538
 20
38.1733321281
 30
0.0
 10
24.2747265538
 20
37.9373161134
 30
0.0
 10
24.2902727452
 20
37.474625058
 30
0.0
 10
24.3852460064
 20
36.594099602
 30
0.0
 10
24.5316394411
 20
35.9569353959
 30
0.0
 10
24.6673360285
 20
35.5563991756
 30
0.0
  0
SPLINE
  5
291
100
AcDbEntity
  8
0
100
AcDbSpline
 62
7
  6
BYLAYER
 70
0
 71
3
 72
14
 73
10
 74
0
 42
0.0000001
 43
0.0000001
 44
0.0000000001
 40
0.0
 40
0.0
 40
0.0
 40
0.0
 40
0.2892739853
 40
0.4225573976
 40
0.5485010804
 40
0.6678897775
 40
0.7818700675
 40
0.8919538208
 40
1.0
 40
1.0
 40
1.0
 40
1.0
 10
23.0372583335
 20
27.1837579923
 30
0.0
 10
23.0372583335
 20
26.9911505911
 30
0.0
 10
23.0597451638
 20
26.7084148604
 30
0.0
 10
23.1466700713
 20
26.3530610657
 30
0.0
 10
23.2350847907
 20
26.1162611248
 30
0.0
 10
23.3478257195
 20
25.9043949172
 30
0.0
 10
23.4839088455
 20
25.7194898351
 30
0.0
 10
23.6422162808
 20
25.5637505084
 30
0.0
 10
23.7619858062
 20
25.4801458503
 30
0.0
 10
23.8242883959
 20
25.4441762488
 30
0.0
  0
SPLINE
  5
292
100
AcDbEntity
  8
0
100
AcDbSpline
 62
7
  6
BYLAYER
 70
0
 71
3
 72
14
 73
10
 74
0
 42
0.0000001
 43
0.0000001
 44
0.0000000001
 40
0.0
 40
0.0
 40
0.0
 40
0.0
 40
0.2892725412
 40
0.4225555544
 40
0.5484991078
 40
0.6678879603
 40
0.7818686775
 40
0.8919530679
 40
1.0
 40
1.0
 40
1.0
 40
1.0
 10
29.9669112658
 20
23.1829320648
 30
0.0
 10
29.8001155688
 20
23.086633099
 30
0.0
 10
29.5440268814
 20
22.9647453477
 30
0.0
 10
29.1928341847
 20
22.8623522383
 30
0.0
 10
28.94356227
 20
22.8205230819
 30
0.0
 10
28.7037195667
 20
22.8122259654
 30
0.0
 10
28.475553624
 20
22.8376223633
 30
0.0
 10
28.2615323944
 20
22.8968464713
 30
0.0
 10
28.1292473007
 20
22.9587633032
 30
0.0
 10
28.0669467468
 20
22.9947317217
 30
0.0
  0
SPLINE
  5
293
100
AcDbEntity
  8
0
100
AcDbSpline
 62
7
  6
BYLAYER
 70
0
 71
3
 72
14
 73
10
 74
0
 42
0.0000001
 43
0.0000001
 44
0.0000000001
 40
0.0
 40
0.0
 40
0.0
 40
0.0
 40
0.2892725412
 40
0.4225555544
 40
0.5484991078
 40
0.6678879603
 40
0.7818686775
 40
0.8919530679
 40
1.0
 40
1.0
 40
1.0
 40
1.0
 10
24.3701843942
 20
27.7772106479
 30
0.0
 10
24.2033886972
 20
27.6809116822
 30
0.0
 10
23.9473000098
 20
27.5590239308
 30
0.0
 10
23.5961073132
 20
27.4566308214
 30
0.0
 10
23.3468353985
 20
27.414801665
 30
0.0
 10
23.1069926952
 20
27.4065045485
 30
0.0
 10
22.8788267525
 20
27.4319009464
 30
0.0
 10
22.6648055229
 20
27.4911250544
 30
0.0
 10
22.5325204292
 20
27.5530418863
 30
0.0
 10
22.4702198752
 20
27.5890103048
 30
0.0
  0
SPLINE
  5
294
100
AcDbEntity
  8
0
100
AcDbSpline
 62
7
  6
BYLAYER
 70
0
 71
3
 72
11
 73
7
 74
0
 42
0.0000001
 43
0.0000001
 44
0.0000000001
 40
0.0
 40
0.0
 40
0.0
 40
0.0
 40
0.2895411595
 40
0.5491183966
 40
0.7822559144
 40
1.0
 40
1.0
 40
1.0
 40
1.0
 10
23.4509494059
 20
29.6960004993
 30
0.0
 10
23.4509494059
 20
29.6706810733
 30
0.0
 10
23.4548154266
 20
29.6225026471
 30
0.0
 10
23.4742919807
 20
29.5562970655
 30
0.0
 10
23.507145263
 20
29.5025564971
 30
0.0
 10
23.5380294638
 20
29.4766519937
 30
0.0
 10
23.5545195541
 20
29.4671316539
 30
0.0
  0
SPLINE
  5
295
100
AcDbEntity
  8
0
100
AcDbSpline
 62
7
  6
BYLAYER
 70
0
 71
3
 72
11
 73
7
 74
0
 42
0.0000001
 43
0.0000001
 44
0.0000000001
 40
0.0
 40
0.0
 40
0.0
 40
0.0
 40
0.2895411595
 40
0.5491183966
 40
0.7822559144
 40
1.0
 40
1.0
 40
1.0
 40
1.0
 10
29.0476762774
 20
24.5172780807
 30
0.0
 10
29.0476762774
 20
24.4919586548
 30
0.0
 10
29.0515422981
 20
24.4437802286
 30
0.0
 10
29.0710188522
 20
24.377574647
 30
0.0
 10
29.1038721345
 20
24.3238340785
 30
0.0
 10
29.1347563353
 20
24.2979295752
 30
0.0
 10
29.1512464256
 20
24.2884092354
 30
0.0
  0
SPLINE
  5
296
100
AcDbEntity
  8
0
100
AcDbSpline
 62
7
  6
BYLAYER
 70
0
 71
3
 72
14
 73
10
 74
0
 42
0.0000001
 43
0.0000001
 44
0.0000000001
 40
0.0
 40
0.0
 40
0.0
 40
0.0
 40
0.1080461851
 40
0.2181299428
 40
0.3321102356
 40
0.4514989376
 40
0.5774426208
 40
0.7107260235
 40
1.0
 40
1.0
 40
1.0
 40
1.0
 10
28.0669467468
 20
22.9947317217
 30
0.0
 10
28.0046441503
 20
23.0307013195
 30
0.0
 10
27.884874624
 20
23.11430599
 30
0.0
 10
27.7265671809
 20
23.2700453201
 30
0.0
 10
27.5904840509
 20
23.4549504105
 30
0.0
 10
27.477743129
 20
23.666816628
 30
0.0
 10
27.3893284131
 20
23.903616567
 30
0.0
 10
27.3024035085
 20
24.2589703505
 30
0.0
 10
27.2799166844
 20
24.5417060696
 30
0.0
 10
27.2799166844
 20
24.7343134651
 30
0.0
  0
SPLINE
  5
297
100
AcDbEntity
  8
0
100
AcDbSpline
 62
7
  6
BYLAYER
 70
0
 71
3
 72
11
 73
7
 74
0
 42
0.0000001
 43
0.0000001
 44
0.0000000001
 40
0.0
 40
0.0
 40
0.0
 40
0.0
 40
0.2177456295
 40
0.4508837762
 40
0.7104602913
 40
1.0
 40
1.0
 40
1.0
 40
1.0
 10
23.5545195541
 20
29.4671316539
 30
0.0
 10
23.5710091083
 20
29.4576116236
 30
0.0
 10
23.6088839811
 20
29.4438183746
 30
0.0
 10
23.6718489228
 20
29.4422372346
 30
0.0
 10
23.7389201224
 20
29.4584721103
 30
0.0
 10
23.7825750038
 20
29.479212276
 30
0.0
 10
23.8045013245
 20
29.4918713676
 30
0.0
  0
SPLINE
  5
298
100
AcDbEntity
  8
0
100
AcDbSpline
 62
7
  6
BYLAYER
 70
0
 71
3
 72
11
 73
7
 74
0
 42
0.0000001
 43
0.0000001
 44
0.0000000001
 40
0.0
 40
0.0
 40
0.0
 40
0.0
 40
0.282805661
 40
0.542317204
 40
0.7799381162
 40
1.0
 40
1.0
 40
1.0
 40
1.0
 10
17.440531462
 20
31.7780365754
 30
0.0
 10
17.440531462
 20
31.6248349655
 30
0.0
 10
17.4593058704
 20
31.330492812
 30
0.0
 10
17.5517860754
 20
30.9161436549
 30
0.0
 10
17.7065670659
 20
30.5570201554
 30
0.0
 10
17.8543846849
 20
30.354443804
 30
0.0
 10
17.9366449349
 20
30.2681607951
 30
0.0
  0
SPLINE
  5
299
100
AcDbEntity
  8
0
100
AcDbSpline
 62
7
  6
BYLAYER
 70
0
 71
3
 72
11
 73
7
 74
0
 42
0.0000001
 43
0.0000001
 44
0.0000000001
 40
0.0
 40
0.0
 40
0.0
 40
0.0
 40
0.2177456295
 40
0.4508837762
 40
0.7104602913
 40
1.0
 40
1.0
 40
1.0
 40
1.0
 10
29.1512464256
 20
24.2884092354
 30
0.0
 10
29.1677359799
 20
24.278889205
 30
0.0
 10
29.2056108527
 20
24.2650959561
 30
0.0
 10
29.2685757943
 20
24.263514816
 30
0.0
 10
29.335646994
 20
24.2797496918
 30
0.0
 10
29.3793018754
 20
24.3004898575
 30
0.0
 10
29.401228196
 20
24.3131489491
 30
0.0
  0
SPLINE
  5
29A
100
AcDbEntity
  8
0
100
AcDbSpline
 62
7
  6
BYLAYER
 70
0
 71
3
 72
14
 73
10
 74
0
 42
0.0000001
 43
0.0000001
 44
0.0000000001
 40
0.0
 40
0.0
 40
0.0
 40
0.0
 40
0.1080461851
 40
0.2181299428
 40
0.3321102356
 40
0.4514989376
 40
0.5774426208
 40
0.7107260235
 40
1.0
 40
1.0
 40
1.0
 40
1.0
 10
22.4702198752
 20
27.5890103048
 30
0.0
 10
22.4079172787
 20
27.6249799026
 30
0.0
 10
22.2881477524
 20
27.7085845731
 30
0.0
 10
22.1298403094
 20
27.8643239032
 30
0.0
 10
21.9937571794
 20
28.0492289936
 30
0.0
 10
21.8810162575
 20
28.2610952112
 30
0.0
 10
21.7926015415
 20
28.4978951501
 30
0.0
 10
21.705676637
 20
28.8532489337
 30
0.0
 10
21.6831898128
 20
29.1359846528
 30
0.0
 10
21.6831898128
 20
29.3285920483
 30
0.0
  0
ENDSEC
  0
SECTION
  2
OBJECTS
  0
DICTIONARY
  5
C
100
AcDbDictionary
280
0
281
1
  3
ACAD_GROUP
350
D
  3
ACAD_MLINESTYLE
350
17
  3
ACAD_LAYOUT
350
1A
  3
ACAD_PLOTSETTINGS
350
19
  3
ACAD_PLOTSTYLENAME
350
E
  0
DICTIONARY
  5
D
102
{ACAD_REACTORS
330
C
102
}
100
AcDbDictionary
280
0
281
1
  0
ACDBDICTIONARYWDFLT
  5
E
102
{ACAD_REACTORS
330
C
102
}
100
AcDbDictionary
281
1
  3
Normal
350
F
100
AcDbDictionaryWithDefault
340
F
  0
DICTIONARY
  5
17
102
{ACAD_REACTORS
330
C
102
}
100
AcDbDictionary
280
0
281
1
  3
Standard
350
18
  0
DICTIONARY
  5
19
102
{ACAD_REACTORS
330
C
102
}
100
AcDbDictionary
281
1
  0
DICTIONARY
  5
1A
102
{ACAD_REACTORS
330
C
102
}
100
AcDbDictionary
281
1
  3
Model
350
29B
  3
Layout1
350
29C
  0
ACDBPLACEHOLDER
  5
F
102
{ACAD_REACTORS
330
E
102
}
  0
MLINESTYLE
  5
18
102
{ACAD_REACTORS
330
17
102
}
100
AcDbMlineStyle
  2
STANDARD
 70
0
  3

 62
256
 51
90.0
 52
90.0
 71
2
 49
0.5
 62
256
  6
BYLAYER
 49
-0.5
 62
256
  6
BYLAYER
  0
LAYOUT
  5
29B
102
{ACAD_REACTORS
330
1A
102
}
100
AcDbPlotSettings
  1

  2
none_device
  4

  6

 40
0.0
 41
0.0
 42
0.0
 43
0.0
 44
210.0
 45
297.0
 46
0.0
 47
0.0
 48
0.0
 49
0.0
140
0.0
141
0.0
142
1.0
143
1.0
 70
1024
 72
1
 73
0
 74
0
  7

 75
0
147
1.0
148
0.0
149
0.0
100
AcDbLayout
  1
Model
 70
0
 71
0
 10
0.0
 20
0.0
 11
210.0
 21
297.0
 12
0.0
 22
0.0
 32
0.0
 14
0.0
 24
0.0
 34
0.0
 15
0.0
 25
0.0
 35
0.0
146
0.0
 13
0.0
 23
0.0
 33
0.0
 16
1.0
 26
0.0
 36
0.0
 17
0.0
 27
1.0
 37
0.0
 76
0
330
210
345
0
346
0
  0
LAYOUT
  5
29C
102
{ACAD_REACTORS
330
1A
102
}
100
AcDbPlotSettings
  1

  2
none_device
  4

  6

 40
0.0
 41
0.0
 42
0.0
 43
0.0
 44
210.0
 45
297.0
 46
0.0
 47
0.0
 48
0.0
 49
0.0
140
0.0
141
0.0
142
1.0
143
1.0
 70
0
 72
1
 73
0
 74
0
  7

 75
0
147
1.0
148
0.0
149
0.0
100
AcDbLayout
  1
Layout1
 70
0
 71
1
 10
0.0
 20
0.0
 11
210.0
 21
297.0
 12
0.0
 22
0.0
 32
0.0
 14
0.0
 24
0.0
 34
0.0
 15
0.0
 25
0.0
 35
0.0
146
0.0
 13
0.0
 23
0.0
 33
0.0
 16
1.0
 26
0.0
 36
0.0
 17
0.0
 27
1.0
 37
0.0
 76
0
330
211
345
0
346
0
  0
ENDSEC
  0
EOF
