999
DXF file: Y:\001_SCHNEIDER_PARIS\maxime fuentes - génération CAD 2D\TRAVAIL\XB5AA61_2D-Views\xb5aa61_2d-views_3.dxf
999
Pro/ENGINEER 2018260 by Parametric Technology Corporation
  0
SECTION
  2
HEADER
  9
$ACADVER
  1
AC1027
  9
$DWGCODEPAGE
  3
ANSI_1252
  9
$EXTMAX
 10
558.8
 20
431.8
 30
0.0
  9
$EXTMIN
 10
0.0
 20
0.0
 30
0.0
  9
$LIMMIN
 10
0.0
 20
0.0
  9
$LIMMAX
 10
558.8
 20
431.8
  9
$VIEWCTR
 10
279.4
 20
215.9
  9
$VIEWSIZE
 40
431.8
  9
$CLAYER
  8
0
  9
$LTSCALE
 40
30.734
  9
$CELTYPE
  6
BYLAYER
  9
$DIMSCALE
 40
1.0
  9
$DIMASZ
 40
3.5
  9
$DIMEXO
 40
1.0
  9
$DIMDLI
 40
21.2344
  9
$DIMEXE
 40
3.0
  9
$DIMCEN
 40
5.0292
  9
$DIMLFAC
 40
1.0
  9
$DIMBLK
  1
_FILLED
  9
$DIMALT
 70
0
  9
$DIMALTF
 40
0.0393700787
  9
$DIMTXT
 40
4.0
  9
$DIMTOL
 70
1
  9
$DIMLIM
 70
0
  9
$DIMTFAC
 40
1.0
  9
$DIMTP
 40
0.0001
  9
$DIMTM
 40
0.0001
  9
$DIMGAP
 40
0.625
  9
$DIMDSEP
 70
46
  9
$AUNITS
 70
0
  9
$PDMODE
 70
0
  9
$PDSIZE
 40
0.01
  9
$HANDSEED
  5
2F6
  9
$TILEMODE
 70
1
  9
$MEASUREMENT
 70
1
  9
$INSUNITS
 70
4
  0
ENDSEC
  0
SECTION
  2
CLASSES
  0
CLASS
  1
ACDBDICTIONARYWDFLT
  2
AcDbDictionaryWithDefault
  3
AutoCAD 2000
 90
0
 91
1
280
0
281
0
  0
CLASS
  1
ACDBPLACEHOLDER
  2
AcDbPlaceHolder
  3
AutoCAD 2000
 90
0
 91
1
280
0
281
0
  0
CLASS
  1
LAYOUT
  2
AcDbLayout
  3
AutoCAD 2000
 90
0
 91
0
280
0
281
0
  0
ENDSEC
  0
SECTION
  2
TABLES
  0
TABLE
  2
VPORT
  5
8
100
AcDbSymbolTable
 70
2
  0
VPORT
  5
1F4
100
AcDbSymbolTableRecord
100
AcDbViewportTableRecord
  2
*ACTIVE
 70
0
 10
0.0
 20
0.0
 11
1.0
 21
1.0
 12
279.4
 22
215.9
 13
0.0
 23
0.0
 14
1.0
 24
1.0
 15
0.0
 25
0.0
 16
0.0
 26
0.0
 36
1.0
 17
0.0
 27
0.0
 37
0.0
 40
431.8
 41
1.2941176471
 42
50.0
 43
0.0
 44
0.0
 50
0.0
 51
0.0
 71
0
 72
100
 73
1
 74
1
 75
0
 76
0
 77
0
 78
0
  0
ENDTAB
  0
TABLE
  2
LTYPE
  5
5
100
AcDbSymbolTable
 70
6
  0
LTYPE
  5
14
100
AcDbSymbolTableRecord
100
AcDbLinetypeTableRecord
  2
BYBLOCK
 70
0
  3

 72
65
 73
0
 40
0.0
  0
LTYPE
  5
15
100
AcDbSymbolTableRecord
100
AcDbLinetypeTableRecord
  2
BYLAYER
 70
0
  3

 72
65
 73
0
 40
0.0
  0
LTYPE
  5
16
100
AcDbSymbolTableRecord
100
AcDbLinetypeTableRecord
  2
CONTINUOUS
 70
64
  3
Solid line
 72
65
 73
0
 40
0.0
  0
LTYPE
  5
1F5
100
AcDbSymbolTableRecord
100
AcDbLinetypeTableRecord
  2
CENTER
 70
64
  3
____ _ ____ _ ____ _ ____ _ ____ _ ____ _ ____
 72
65
 73
4
 40
0.6
 49
0.375
 74
0
 49
-0.075
 74
0
 49
0.075
 74
0
 49
-0.075
 74
0
  0
LTYPE
  5
1F6
100
AcDbSymbolTableRecord
100
AcDbLinetypeTableRecord
  2
HIDDEN
 70
64
  3
- - - - - - - - - - - - - - - - - - - -
 72
65
 73
2
 40
0.2
 49
0.1
 74
0
 49
-0.1
 74
0
  0
LTYPE
  5
1F7
100
AcDbSymbolTableRecord
100
AcDbLinetypeTableRecord
  2
PHANTOM
 70
64
  3
_____ _ _ _____ _ _ _____ _ _ _____
 72
65
 73
6
 40
0.8
 49
0.45
 74
0
 49
-0.05
 74
0
 49
0.1
 74
0
 49
-0.05
 74
0
 49
0.1
 74
0
 49
-0.05
 74
0
  0
LTYPE
  5
1F8
100
AcDbSymbolTableRecord
100
AcDbLinetypeTableRecord
  2
DOT
 70
64
  3
. . . . . . . . . . . . . . . . . . . .
 72
65
 73
2
 40
0.2
 49
0.1
 74
0
 49
-0.1
 74
0
  0
LTYPE
  5
1F9
100
AcDbSymbolTableRecord
100
AcDbLinetypeTableRecord
  2
DASHED
 70
64
  3
- - - - - - - - - - - - - - - - - - - -
 72
65
 73
2
 40
0.2
 49
0.1
 74
0
 49
-0.1
 74
0
  0
ENDTAB
  0
TABLE
  2
LAYER
  5
2
100
AcDbSymbolTable
 70
36
  0
LAYER
  5
10
100
AcDbSymbolTableRecord
100
AcDbLayerTableRecord
  2
0
 70
0
 62
7
  6
CONTINUOUS
370
-3
390
F
  0
LAYER
  5
1FA
100
AcDbSymbolTableRecord
100
AcDbLayerTableRecord
  2
DEFAULT_1
 70
0
 62
7
  6
CENTER
370
-3
390
F
  0
LAYER
  5
1FB
100
AcDbSymbolTableRecord
100
AcDbLayerTableRecord
  2
DEFAULT_2
 70
0
 62
8
  6
HIDDEN
370
-3
390
F
  0
LAYER
  5
1FC
100
AcDbSymbolTableRecord
100
AcDbLayerTableRecord
  2
DEFAULT_3
 70
0
 62
7
  6
PHANTOM
370
-3
390
F
  0
LAYER
  5
1FD
100
AcDbSymbolTableRecord
100
AcDbLayerTableRecord
  2
01_ALL_DTM_PLN
 70
0
 62
7
  6
CONTINUOUS
370
-3
390
F
  0
LAYER
  5
1FE
100
AcDbSymbolTableRecord
100
AcDbLayerTableRecord
  2
01__ASM_ALL_DTM_PLN
 70
0
 62
7
  6
CONTINUOUS
370
-3
390
F
  0
LAYER
  5
1FF
100
AcDbSymbolTableRecord
100
AcDbLayerTableRecord
  2
01__ASM_DEF_DTM_PLN
 70
0
 62
7
  6
CONTINUOUS
370
-3
390
F
  0
LAYER
  5
200
100
AcDbSymbolTableRecord
100
AcDbLayerTableRecord
  2
01___PRT_ALL_DTM_PLN
 70
0
 62
7
  6
CONTINUOUS
370
-3
390
F
  0
LAYER
  5
201
100
AcDbSymbolTableRecord
100
AcDbLayerTableRecord
  2
01___PRT_DEF_DTM_PLN
 70
0
 62
7
  6
CONTINUOUS
370
-3
390
F
  0
LAYER
  5
202
100
AcDbSymbolTableRecord
100
AcDbLayerTableRecord
  2
02_ALL_AXES
 70
0
 62
7
  6
CONTINUOUS
370
-3
390
F
  0
LAYER
  5
203
100
AcDbSymbolTableRecord
100
AcDbLayerTableRecord
  2
02__ASM_ALL_AXES
 70
0
 62
7
  6
CONTINUOUS
370
-3
390
F
  0
LAYER
  5
204
100
AcDbSymbolTableRecord
100
AcDbLayerTableRecord
  2
02___PRT_ALL_AXES
 70
0
 62
7
  6
CONTINUOUS
370
-3
390
F
  0
LAYER
  5
205
100
AcDbSymbolTableRecord
100
AcDbLayerTableRecord
  2
03_ALL_CURVES
 70
0
 62
7
  6
CONTINUOUS
370
-3
390
F
  0
LAYER
  5
206
100
AcDbSymbolTableRecord
100
AcDbLayerTableRecord
  2
03__ASM_ALL_CURVES
 70
0
 62
7
  6
CONTINUOUS
370
-3
390
F
  0
LAYER
  5
207
100
AcDbSymbolTableRecord
100
AcDbLayerTableRecord
  2
03___PRT_ALL_CURVES
 70
0
 62
7
  6
CONTINUOUS
370
-3
390
F
  0
LAYER
  5
208
100
AcDbSymbolTableRecord
100
AcDbLayerTableRecord
  2
04_ALL_DTM_PNT
 70
0
 62
7
  6
CONTINUOUS
370
-3
390
F
  0
LAYER
  5
209
100
AcDbSymbolTableRecord
100
AcDbLayerTableRecord
  2
04__ASM_ALL_DTM_PNT
 70
0
 62
7
  6
CONTINUOUS
370
-3
390
F
  0
LAYER
  5
20A
100
AcDbSymbolTableRecord
100
AcDbLayerTableRecord
  2
04___PRT_ALL_DTM_PNT
 70
0
 62
7
  6
CONTINUOUS
370
-3
390
F
  0
LAYER
  5
20B
100
AcDbSymbolTableRecord
100
AcDbLayerTableRecord
  2
05_ALL_DTM_CSYS
 70
0
 62
7
  6
CONTINUOUS
370
-3
390
F
  0
LAYER
  5
20C
100
AcDbSymbolTableRecord
100
AcDbLayerTableRecord
  2
05__ASM_ALL_DTM_CSYS
 70
0
 62
7
  6
CONTINUOUS
370
-3
390
F
  0
LAYER
  5
20D
100
AcDbSymbolTableRecord
100
AcDbLayerTableRecord
  2
05__ASM_DEF_DTM_CSYS
 70
0
 62
7
  6
CONTINUOUS
370
-3
390
F
  0
LAYER
  5
20E
100
AcDbSymbolTableRecord
100
AcDbLayerTableRecord
  2
05___PRT_ALL_DTM_CSYS
 70
0
 62
7
  6
CONTINUOUS
370
-3
390
F
  0
LAYER
  5
20F
100
AcDbSymbolTableRecord
100
AcDbLayerTableRecord
  2
05___PRT_DEF_DTM_CSYS
 70
0
 62
7
  6
CONTINUOUS
370
-3
390
F
  0
LAYER
  5
210
100
AcDbSymbolTableRecord
100
AcDbLayerTableRecord
  2
06_ALL_SURFS
 70
0
 62
7
  6
CONTINUOUS
370
-3
390
F
  0
LAYER
  5
211
100
AcDbSymbolTableRecord
100
AcDbLayerTableRecord
  2
06__ASM_ALL_SURFS
 70
0
 62
7
  6
CONTINUOUS
370
-3
390
F
  0
LAYER
  5
212
100
AcDbSymbolTableRecord
100
AcDbLayerTableRecord
  2
06___PRT_ALL_SURFS
 70
0
 62
7
  6
CONTINUOUS
370
-3
390
F
  0
LAYER
  5
213
100
AcDbSymbolTableRecord
100
AcDbLayerTableRecord
  2
07__ASM_ALL_SKELETONS
 70
0
 62
7
  6
CONTINUOUS
370
-3
390
F
  0
LAYER
  5
214
100
AcDbSymbolTableRecord
100
AcDbLayerTableRecord
  2
CLOSED_SHELL
 70
0
 62
7
  6
CONTINUOUS
370
-3
390
F
  0
ENDTAB
  0
TABLE
  2
STYLE
  5
3
100
AcDbSymbolTable
 70
1
  0
STYLE
  5
11
100
AcDbSymbolTableRecord
100
AcDbTextStyleTableRecord
  2
STANDARD
 70
0
 40
0.0
 41
0.6
 50
0.0
 71
0
 42
0.2
  3
txt
  4

  0
STYLE
  5
215
100
AcDbSymbolTableRecord
100
AcDbTextStyleTableRecord
  2
TEXTSTYLE_1
 70
0
 40
0.0
 41
0.8
 50
0.0
 71
0
 42
0.2
  3
gdt
  4

  0
ENDTAB
  0
TABLE
  2
VIEW
  5
6
100
AcDbSymbolTable
 70
0
  0
ENDTAB
  0
TABLE
  2
UCS
  5
7
100
AcDbSymbolTable
 70
0
  0
ENDTAB
  0
TABLE
  2
APPID
  5
9
100
AcDbSymbolTable
 70
1
  0
APPID
  5
216
100
AcDbSymbolTableRecord
100
AcDbRegAppTableRecord
  2
ACAD
 70
0
  0
ENDTAB
  0
TABLE
  2
BLOCK_RECORD
  5
1
100
AcDbSymbolTable
 70
0
  0
BLOCK_RECORD
  5
217
100
AcDbSymbolTableRecord
100
AcDbBlockTableRecord
  2
*Model_Space
  0
BLOCK_RECORD
  5
218
100
AcDbSymbolTableRecord
100
AcDbBlockTableRecord
  2
*Paper_Space
  0
BLOCK_RECORD
  5
219
100
AcDbSymbolTableRecord
100
AcDbBlockTableRecord
  2
_FILLED
  0
ENDTAB
  0
TABLE
  2
DIMSTYLE
  5
A
100
AcDbSymbolTable
 70
1
100
AcDbDimStyleTable
 71
0
  0
DIMSTYLE
105
21A
100
AcDbSymbolTableRecord
100
AcDbDimStyleTableRecord
  2
STANDARD
 70
0
  3

  4

 40
1.0
 41
3.5
 42
1.0
 43
0.38
 44
3.0
 45
0.0
 46
0.0
 47
0.0001
 48
0.0001
140
4.0
141
0.09
142
0.0
143
25.4
144
1.0
145
0.0
146
1.0
147
0.625
 71
1.0
 72
0.0
 73
0
 74
0
 75
0
 76
0
 77
1
 78
8
 79
2
170
0
171
3
172
0
173
0
174
0
175
0
176
0
177
0
178
0
270
2
179
4
271
4
272
4
273
2
274
2
275
0
280
0
281
0
282
0
283
1
284
8
285
0
286
0
287
3
288
0
340
11
278
46
341
219
342
219
343
219
344
219
  0
ENDTAB
  0
ENDSEC
  0
SECTION
  2
BLOCKS
  0
BLOCK
  5
20
100
AcDbEntity
  8
0
100
AcDbBlockBegin
  2
*Model_Space
 70
0
 10
0.0
 20
0.0
 30
0.0
  3
*Model_Space
  1

  0
ENDBLK
  5
21
100
AcDbEntity
  8
0
100
AcDbBlockEnd
  0
BLOCK
  5
1C
100
AcDbEntity
  8
0
100
AcDbBlockBegin
  2
*Paper_Space
 70
0
 10
0.0
 20
0.0
 30
0.0
  3
*Paper_Space
  1

  0
ENDBLK
  5
1D
100
AcDbEntity
  8
0
100
AcDbBlockEnd
  0
BLOCK
  5
21B
100
AcDbEntity
  8
0
100
AcDbBlockBegin
  2
_FILLED
 70
64
 10
0.0
 20
0.0
  3
_FILLED
  1

  0
SOLID
  5
21C
100
AcDbEntity
  8
0
  6
BYBLOCK
 62
0
100
AcDbTrace
 10
0.0
 20
0.0
 11
-1.0
 21
0.2857142857
 12
-1.0
 22
-0.2857142857
 13
-1.0
 23
-0.2857142857
  0
ENDBLK
  5
21D
100
AcDbEntity
  8
0
  6
BYBLOCK
 62
0
100
AcDbBlockEnd
  0
ENDSEC
  0
SECTION
  2
ENTITIES
  0
LINE
  5
21E
100
AcDbEntity
  8
0
100
AcDbLine
 62
7
  6
CONTINUOUS
 10
257.5813538582
 20
324.4175913008
 11
257.127111067
 21
324.2877993289
  0
LINE
  5
21F
100
AcDbEntity
  8
0
100
AcDbLine
 62
7
  6
CONTINUOUS
 10
274.5771125638
 20
272.9950961451
 11
284.3771125638
 21
272.9950961451
  0
LINE
  5
220
100
AcDbEntity
  8
0
100
AcDbLine
 62
7
  6
CONTINUOUS
 10
274.5771125638
 20
277.1163122743
 11
284.3771125638
 21
277.1163122743
  0
LINE
  5
221
100
AcDbEntity
  8
0
100
AcDbLine
 62
7
  6
CONTINUOUS
 10
275.8771125634
 20
277.2819792876
 11
282.9771125638
 21
277.2819792876
  0
LINE
  5
222
100
AcDbEntity
  8
0
100
AcDbLine
 62
7
  6
CONTINUOUS
 10
284.3771125638
 20
277.9950961445
 11
283.7271125638
 21
277.9950961445
  0
LINE
  5
223
100
AcDbEntity
  8
0
100
AcDbLine
 62
7
  6
CONTINUOUS
 10
274.5771125638
 20
277.9950961451
 11
275.2271125638
 21
277.9950961451
  0
LINE
  5
224
100
AcDbEntity
  8
0
100
AcDbLine
 62
9
  6
CONTINUOUS
 10
284.3771125638
 20
278.3471905981
 11
283.7271125638
 21
278.3471905981
  0
LINE
  5
225
100
AcDbEntity
  8
0
100
AcDbLine
 62
9
  6
CONTINUOUS
 10
275.2271125638
 20
278.3471905977
 11
274.5771125638
 21
278.3471905977
  0
LINE
  5
226
100
AcDbEntity
  8
0
100
AcDbLine
 62
7
  6
CONTINUOUS
 10
275.977112563
 20
280.6259464946
 11
282.9771125638
 21
280.6259464946
  0
LINE
  5
227
100
AcDbEntity
  8
0
100
AcDbLine
 62
7
  6
CONTINUOUS
 10
276.1771125638
 20
281.3935868328
 11
278.2771125638
 21
281.3935868328
  0
LINE
  5
228
100
AcDbEntity
  8
0
100
AcDbLine
 62
7
  6
CONTINUOUS
 10
280.6771125638
 20
281.3935868328
 11
282.7771125638
 21
281.3935868328
  0
LINE
  5
229
100
AcDbEntity
  8
0
100
AcDbLine
 62
7
  6
CONTINUOUS
 10
282.2771125638
 20
282.5901972235
 11
275.9771125638
 21
282.5901972235
  0
LINE
  5
22A
100
AcDbEntity
  8
0
100
AcDbLine
 62
7
  6
CONTINUOUS
 10
282.2771125638
 20
282.592818949
 11
282.9771125638
 21
282.592818949
  0
LINE
  5
22B
100
AcDbEntity
  8
0
100
AcDbLine
 62
9
  6
CONTINUOUS
 10
282.2771125638
 20
282.6004194758
 11
275.977112563
 21
282.6004194758
  0
LINE
  5
22C
100
AcDbEntity
  8
0
100
AcDbLine
 62
9
  6
CONTINUOUS
 10
275.977112563
 20
282.9080692145
 11
282.2771125638
 21
282.9080692145
  0
LINE
  5
22D
100
AcDbEntity
  8
0
100
AcDbLine
 62
7
  6
CONTINUOUS
 10
282.2771125638
 20
282.9607292266
 11
275.968089727
 21
282.9607292266
  0
LINE
  5
22E
100
AcDbEntity
  8
0
100
AcDbLine
 62
7
  6
CONTINUOUS
 10
275.2271125638
 20
282.9821184513
 11
275.8771125638
 21
282.9821184513
  0
LINE
  5
22F
100
AcDbEntity
  8
0
100
AcDbLine
 62
7
  6
CONTINUOUS
 10
282.9771125638
 20
282.9821184513
 11
283.7271125638
 21
282.9821184513
  0
LINE
  5
230
100
AcDbEntity
  8
0
100
AcDbLine
 62
7
  6
CONTINUOUS
 10
282.9771125638
 20
283.0176870534
 11
275.8771125634
 21
283.0176870534
  0
LINE
  5
231
100
AcDbEntity
  8
0
100
AcDbLine
 62
7
  6
CONTINUOUS
 10
254.5771125638
 20
293.3950961451
 11
254.5771125638
 21
301.4950961454
  0
LINE
  5
232
100
AcDbEntity
  8
0
100
AcDbLine
 62
7
  6
CONTINUOUS
 10
254.9771125638
 20
309.6150961451
 11
254.9771125638
 21
315.3150961443
  0
LINE
  5
233
100
AcDbEntity
  8
0
100
AcDbLine
 62
9
  6
CONTINUOUS
 10
255.0200756212
 20
313.8150961451
 11
255.0200756212
 21
309.6150961451
  0
LINE
  5
234
100
AcDbEntity
  8
0
100
AcDbLine
 62
7
  6
CONTINUOUS
 10
255.2271125638
 20
316.8150961451
 11
255.2271125638
 21
323.8150958257
  0
LINE
  5
235
100
AcDbEntity
  8
0
100
AcDbLine
 62
7
  6
CONTINUOUS
 10
255.5771125638
 20
293.1950961447
 11
255.5771125638
 21
301.4950961454
  0
LINE
  5
236
100
AcDbEntity
  8
0
100
AcDbLine
 62
9
  6
CONTINUOUS
 10
256.51563228
 20
310.5273222484
 11
256.7916476386
 21
310.6301011169
  0
LINE
  5
237
100
AcDbEntity
  8
0
100
AcDbLine
 62
9
  6
CONTINUOUS
 10
256.515631167
 20
309.3150961451
 11
256.515631167
 21
310.5273222844
  0
LINE
  5
238
100
AcDbEntity
  8
0
100
AcDbLine
 62
9
  6
CONTINUOUS
 10
256.855516996
 20
309.6150961451
 11
256.855516996
 21
309.3150961451
  0
LINE
  5
239
100
AcDbEntity
  8
0
100
AcDbLine
 62
7
  6
CONTINUOUS
 10
256.8771125638
 20
316.8150961451
 11
256.8771125638
 21
315.5650961451
  0
LINE
  5
23A
100
AcDbEntity
  8
0
100
AcDbLine
 62
7
  6
CONTINUOUS
 10
284.3771125638
 20
285.7181778757
 11
283.7271125638
 21
285.7181778757
  0
LINE
  5
23B
100
AcDbEntity
  8
0
100
AcDbLine
 62
7
  6
CONTINUOUS
 10
274.5771125638
 20
285.7181778757
 11
275.2271125638
 21
285.7181778757
  0
LINE
  5
23C
100
AcDbEntity
  8
0
100
AcDbLine
 62
7
  6
CONTINUOUS
 10
258.5159310581
 20
309.3150961451
 11
258.5159310581
 21
303.6187375313
  0
LINE
  5
23D
100
AcDbEntity
  8
0
100
AcDbLine
 62
7
  6
CONTINUOUS
 10
258.6021125638
 20
315.3150961451
 11
258.6021125638
 21
315.5650961451
  0
LINE
  5
23E
100
AcDbEntity
  8
0
100
AcDbLine
 62
7
  6
CONTINUOUS
 10
259.2845842206
 20
301.5950961451
 11
259.2845842206
 21
303.0950961451
  0
LINE
  5
23F
100
AcDbEntity
  8
0
100
AcDbLine
 62
9
  6
CONTINUOUS
 10
259.4554283376
 20
303.0950961451
 11
259.4554283376
 21
301.5950961451
  0
LINE
  5
240
100
AcDbEntity
  8
0
100
AcDbLine
 62
7
  6
CONTINUOUS
 10
259.4771125638
 20
303.4150961451
 11
259.4771125638
 21
303.0950961451
  0
LINE
  5
241
100
AcDbEntity
  8
0
100
AcDbLine
 62
7
  6
CONTINUOUS
 10
259.5755975705
 20
301.4950961454
 11
259.5755975311
 21
301.5150961451
  0
LINE
  5
242
100
AcDbEntity
  8
0
100
AcDbLine
 62
9
  6
CONTINUOUS
 10
260.5920207117
 20
301.5950961451
 11
260.5920207117
 21
303.0950961451
  0
LINE
  5
243
100
AcDbEntity
  8
0
100
AcDbLine
 62
7
  6
CONTINUOUS
 10
260.6303464616
 20
309.6150961451
 11
260.6303464797
 21
312.8226867861
  0
LINE
  5
244
100
AcDbEntity
  8
0
100
AcDbLine
 62
7
  6
CONTINUOUS
 10
260.9771125638
 20
301.4950961454
 11
260.9771125638
 21
301.5950961451
  0
LINE
  5
245
100
AcDbEntity
  8
0
100
AcDbLine
 62
7
  6
CONTINUOUS
 10
260.9771125638
 20
303.0950961451
 11
260.9771125638
 21
303.4148037762
  0
LINE
  5
246
100
AcDbEntity
  8
0
100
AcDbLine
 62
7
  6
CONTINUOUS
 10
261.1021125638
 20
305.1950961451
 11
261.1021125638
 21
303.0950961447
  0
LINE
  5
247
100
AcDbEntity
  8
0
100
AcDbLine
 62
7
  6
CONTINUOUS
 10
261.1021125638
 20
301.5950961451
 11
261.1021125638
 21
301.4950961451
  0
LINE
  5
248
100
AcDbEntity
  8
0
100
AcDbLine
 62
9
  6
CONTINUOUS
 10
261.2826426806
 20
313.8150961443
 11
261.2826426806
 21
309.6150961451
  0
LINE
  5
249
100
AcDbEntity
  8
0
100
AcDbLine
 62
9
  6
CONTINUOUS
 10
256.8555169963
 20
309.6150961451
 11
256.515631167
 21
310.5273222844
  0
LINE
  5
24A
100
AcDbEntity
  8
0
100
AcDbLine
 62
9
  6
CONTINUOUS
 10
263.2145455044
 20
313.8150961451
 11
263.2145455044
 21
309.6150961451
  0
LINE
  5
24B
100
AcDbEntity
  8
0
100
AcDbLine
 62
7
  6
CONTINUOUS
 10
263.4014308543
 20
305.1950961451
 11
263.4014308543
 21
303.1950961451
  0
LINE
  5
24C
100
AcDbEntity
  8
0
100
AcDbLine
 62
7
  6
CONTINUOUS
 10
284.3771125638
 20
292.7950961442
 11
283.3771125638
 21
292.7950961442
  0
LINE
  5
24D
100
AcDbEntity
  8
0
100
AcDbLine
 62
7
  6
CONTINUOUS
 10
274.5771125638
 20
292.7950961451
 11
275.3771125638
 21
292.7950961451
  0
LINE
  5
24E
100
AcDbEntity
  8
0
100
AcDbLine
 62
9
  6
CONTINUOUS
 10
284.3771125638
 20
293.1794346697
 11
283.3771125638
 21
293.1794346697
  0
LINE
  5
24F
100
AcDbEntity
  8
0
100
AcDbLine
 62
9
  6
CONTINUOUS
 10
275.3771125645
 20
293.1794346697
 11
274.5771125638
 21
293.1794346697
  0
LINE
  5
250
100
AcDbEntity
  8
0
100
AcDbLine
 62
7
  6
CONTINUOUS
 10
264.493138246
 20
301.4950961454
 11
264.493138246
 21
299.8950961455
  0
LINE
  5
251
100
AcDbEntity
  8
0
100
AcDbLine
 62
7
  6
CONTINUOUS
 10
264.8727744991
 20
309.3150960944
 11
264.8727817381
 21
305.1950961451
  0
LINE
  5
252
100
AcDbEntity
  8
0
100
AcDbLine
 62
9
  6
CONTINUOUS
 10
265.1614353748
 20
309.6150961451
 11
265.1614353748
 21
310.5273222844
  0
LINE
  5
253
100
AcDbEntity
  8
0
100
AcDbLine
 62
7
  6
CONTINUOUS
 10
265.4833674542
 20
305.1950961451
 11
265.4833674542
 21
303.1950961451
  0
LINE
  5
254
100
AcDbEntity
  8
0
100
AcDbLine
 62
7
  6
CONTINUOUS
 10
283.3771125638
 20
293.1950961451
 11
255.5771125638
 21
293.1950961451
  0
LINE
  5
255
100
AcDbEntity
  8
0
100
AcDbLine
 62
7
  6
CONTINUOUS
 10
254.5771125631
 20
293.3950961451
 11
266.3509500394
 21
293.3950961451
  0
LINE
  5
256
100
AcDbEntity
  8
0
100
AcDbLine
 62
7
  6
CONTINUOUS
 10
272.6032750884
 20
293.3950961451
 11
284.3771125638
 21
293.3950961452
  0
LINE
  5
257
100
AcDbEntity
  8
0
100
AcDbLine
 62
7
  6
CONTINUOUS
 10
266.1248674498
 20
303.0950961451
 11
266.1248674498
 21
301.5950961451
  0
LINE
  5
258
100
AcDbEntity
  8
0
100
AcDbLine
 62
7
  6
CONTINUOUS
 10
266.35095004
 20
293.3950961451
 11
266.35095004
 21
293.1950961458
  0
LINE
  5
259
100
AcDbEntity
  8
0
100
AcDbLine
 62
7
  6
CONTINUOUS
 10
266.8671125638
 20
301.5950961451
 11
266.8671125638
 21
302.7013438737
  0
LINE
  5
25A
100
AcDbEntity
  8
0
100
AcDbLine
 62
7
  6
CONTINUOUS
 10
267.6336358628
 20
302.4950961451
 11
267.6336358628
 21
301.4950961451
  0
LINE
  5
25B
100
AcDbEntity
  8
0
100
AcDbLine
 62
7
  6
CONTINUOUS
 10
284.3771125638
 20
296.4950961451
 11
283.3771125638
 21
296.4950961451
  0
LINE
  5
25C
100
AcDbEntity
  8
0
100
AcDbLine
 62
7
  6
CONTINUOUS
 10
254.5771125638
 20
296.4950961453
 11
255.5771125638
 21
296.4950961453
  0
LINE
  5
25D
100
AcDbEntity
  8
0
100
AcDbLine
 62
9
  6
CONTINUOUS
 10
265.3313782895
 20
309.6150961451
 11
265.1614353748
 21
310.5273222844
  0
LINE
  5
25E
100
AcDbEntity
  8
0
100
AcDbLine
 62
7
  6
CONTINUOUS
 10
271.3205892648
 20
301.4950961451
 11
271.3205892648
 21
302.4950961451
  0
LINE
  5
25F
100
AcDbEntity
  8
0
100
AcDbLine
 62
9
  6
CONTINUOUS
 10
273.7927897531
 20
310.5273222855
 11
273.6228468378
 21
309.615096145
  0
LINE
  5
260
100
AcDbEntity
  8
0
100
AcDbLine
 62
7
  6
CONTINUOUS
 10
283.3771125638
 20
299.8950961458
 11
274.461086882
 21
299.8950961458
  0
LINE
  5
261
100
AcDbEntity
  8
0
100
AcDbLine
 62
7
  6
CONTINUOUS
 10
264.4931382459
 20
299.8950961455
 11
255.5771125638
 21
299.8950961455
  0
LINE
  5
262
100
AcDbEntity
  8
0
100
AcDbLine
 62
7
  6
CONTINUOUS
 10
272.0871125638
 20
301.5950961451
 11
272.0871125638
 21
302.7013438737
  0
LINE
  5
263
100
AcDbEntity
  8
0
100
AcDbLine
 62
7
  6
CONTINUOUS
 10
272.6032750887
 20
293.1950961451
 11
272.6032750887
 21
293.3950961451
  0
LINE
  5
264
100
AcDbEntity
  8
0
100
AcDbLine
 62
7
  6
CONTINUOUS
 10
272.8293576777
 20
303.0950961451
 11
272.8293576777
 21
301.5950961451
  0
LINE
  5
265
100
AcDbEntity
  8
0
100
AcDbLine
 62
7
  6
CONTINUOUS
 10
273.4708576733
 20
303.1950961451
 11
273.4708576733
 21
305.1950961451
  0
LINE
  5
266
100
AcDbEntity
  8
0
100
AcDbLine
 62
7
  6
CONTINUOUS
 10
254.5771125638
 20
301.4950961451
 11
267.6336358627
 21
301.4950961451
  0
LINE
  5
267
100
AcDbEntity
  8
0
100
AcDbLine
 62
7
  6
CONTINUOUS
 10
271.3205892659
 20
301.4950961451
 11
284.3771125638
 21
301.4950961451
  0
LINE
  5
268
100
AcDbEntity
  8
0
100
AcDbLine
 62
7
  6
CONTINUOUS
 10
259.5755975285
 20
301.5150961451
 11
260.9771125638
 21
301.5150961451
  0
LINE
  5
269
100
AcDbEntity
  8
0
100
AcDbLine
 62
7
  6
CONTINUOUS
 10
277.9771125638
 20
301.5150961451
 11
279.3786276016
 21
301.5150961451
  0
LINE
  5
26A
100
AcDbEntity
  8
0
100
AcDbLine
 62
7
  6
CONTINUOUS
 10
266.8671125638
 20
301.5950961451
 11
259.2846330544
 21
301.5950961451
  0
LINE
  5
26B
100
AcDbEntity
  8
0
100
AcDbLine
 62
7
  6
CONTINUOUS
 10
272.0871125638
 20
301.5950961451
 11
279.669592073
 21
301.5950961451
  0
LINE
  5
26C
100
AcDbEntity
  8
0
100
AcDbLine
 62
9
  6
CONTINUOUS
 10
266.8671125638
 20
302.4950961451
 11
267.6336358628
 21
302.4950961451
  0
LINE
  5
26D
100
AcDbEntity
  8
0
100
AcDbLine
 62
9
  6
CONTINUOUS
 10
271.3205892648
 20
302.4950961451
 11
272.0871125638
 21
302.4950961451
  0
LINE
  5
26E
100
AcDbEntity
  8
0
100
AcDbLine
 62
7
  6
CONTINUOUS
 10
259.2846330544
 20
303.0950961451
 11
266.7145187155
 21
303.0950961451
  0
LINE
  5
26F
100
AcDbEntity
  8
0
100
AcDbLine
 62
7
  6
CONTINUOUS
 10
272.2397064119
 20
303.0950961451
 11
279.669592073
 21
303.0950961451
  0
LINE
  5
270
100
AcDbEntity
  8
0
100
AcDbLine
 62
9
  6
CONTINUOUS
 10
273.7927897531
 20
310.5273222855
 11
273.7927897531
 21
309.615096145
  0
LINE
  5
271
100
AcDbEntity
  8
0
100
AcDbLine
 62
7
  6
CONTINUOUS
 10
274.0814613631
 20
305.1950961451
 11
274.0814599686
 21
309.3150961548
  0
LINE
  5
272
100
AcDbEntity
  8
0
100
AcDbLine
 62
7
  6
CONTINUOUS
 10
274.4610868815
 20
299.8950961458
 11
274.4610868815
 21
301.4950961454
  0
LINE
  5
273
100
AcDbEntity
  8
0
100
AcDbLine
 62
7
  6
CONTINUOUS
 10
274.5771125638
 20
272.9950961444
 11
274.5771125638
 21
293.1950961451
  0
LINE
  5
274
100
AcDbEntity
  8
0
100
AcDbLine
 62
7
  6
CONTINUOUS
 10
275.2271125638
 20
277.9950961451
 11
275.2271125638
 21
285.7181778739
  0
LINE
  5
275
100
AcDbEntity
  8
0
100
AcDbLine
 62
7
  6
CONTINUOUS
 10
275.3771125638
 20
292.7950961451
 11
275.3771125638
 21
293.1950961451
  0
LINE
  5
276
100
AcDbEntity
  8
0
100
AcDbLine
 62
7
  6
CONTINUOUS
 10
275.5514308546
 20
305.1950961451
 11
275.5514308546
 21
303.1950961451
  0
LINE
  5
277
100
AcDbEntity
  8
0
100
AcDbLine
 62
7
  6
CONTINUOUS
 10
277.8521125638
 20
303.1950961451
 11
272.2323816324
 21
303.1950961451
  0
LINE
  5
278
100
AcDbEntity
  8
0
100
AcDbLine
 62
7
  6
CONTINUOUS
 10
266.7218434945
 20
303.1950961451
 11
261.1021125638
 21
303.1950961451
  0
LINE
  5
279
100
AcDbEntity
  8
0
100
AcDbLine
 62
7
  6
CONTINUOUS
 10
279.66794668
 20
303.4150961451
 11
277.8521125638
 21
303.4150961451
  0
LINE
  5
27A
100
AcDbEntity
  8
0
100
AcDbLine
 62
7
  6
CONTINUOUS
 10
261.1021125638
 20
303.4150961451
 11
259.2862784476
 21
303.4150961451
  0
LINE
  5
27B
100
AcDbEntity
  8
0
100
AcDbLine
 62
7
  6
CONTINUOUS
 10
280.4382940694
 20
303.6187375021
 11
277.8521125638
 21
303.6187375021
  0
LINE
  5
27C
100
AcDbEntity
  8
0
100
AcDbLine
 62
7
  6
CONTINUOUS
 10
261.1021125638
 20
303.6187375313
 11
258.5159310581
 21
303.6187375313
  0
LINE
  5
27D
100
AcDbEntity
  8
0
100
AcDbLine
 62
9
  6
CONTINUOUS
 10
275.7396796232
 20
313.8150961443
 11
275.7396796232
 21
309.6150961451
  0
LINE
  5
27E
100
AcDbEntity
  8
0
100
AcDbLine
 62
7
  6
CONTINUOUS
 10
275.8771125638
 20
277.2819792877
 11
275.8771125638
 21
283.0176870534
  0
LINE
  5
27F
100
AcDbEntity
  8
0
100
AcDbLine
 62
7
  6
CONTINUOUS
 10
275.9771125638
 20
277.6659617769
 11
275.9771125638
 21
282.9190262435
  0
LINE
  5
280
100
AcDbEntity
  8
0
100
AcDbLine
 62
7
  6
CONTINUOUS
 10
276.1771125638
 20
280.6259464946
 11
276.1771125638
 21
281.3935868331
  0
LINE
  5
281
100
AcDbEntity
  8
0
100
AcDbLine
 62
9
  6
CONTINUOUS
 10
277.671582447
 20
313.8150961451
 11
277.671582447
 21
309.6150961451
  0
LINE
  5
282
100
AcDbEntity
  8
0
100
AcDbLine
 62
9
  6
CONTINUOUS
 10
282.4385939612
 20
310.5273222853
 11
282.0987081308
 21
309.615096145
  0
LINE
  5
283
100
AcDbEntity
  8
0
100
AcDbLine
 62
7
  6
CONTINUOUS
 10
261.1021125638
 20
305.1950961451
 11
277.8521125638
 21
305.1950961451
  0
LINE
  5
284
100
AcDbEntity
  8
0
100
AcDbLine
 62
9
  6
CONTINUOUS
 10
256.8555172418
 20
309.615096516
 11
257.2071725454
 21
309.5124901781
  0
LINE
  5
285
100
AcDbEntity
  8
0
100
AcDbLine
 62
7
  6
CONTINUOUS
 10
277.8521125638
 20
301.5950961451
 11
277.8521125638
 21
301.4950961451
  0
LINE
  5
286
100
AcDbEntity
  8
0
100
AcDbLine
 62
7
  6
CONTINUOUS
 10
277.8521125638
 20
303.0950961447
 11
277.8521125638
 21
305.1950961443
  0
LINE
  5
287
100
AcDbEntity
  8
0
100
AcDbLine
 62
7
  6
CONTINUOUS
 10
277.9771125638
 20
303.4148194216
 11
277.9771125638
 21
303.0950961451
  0
LINE
  5
288
100
AcDbEntity
  8
0
100
AcDbLine
 62
7
  6
CONTINUOUS
 10
277.9771125638
 20
301.5950961451
 11
277.9771125638
 21
301.4950961454
  0
LINE
  5
289
100
AcDbEntity
  8
0
100
AcDbLine
 62
7
  6
CONTINUOUS
 10
278.2771125638
 20
280.716772461
 11
278.2771125638
 21
282.5901972235
  0
LINE
  5
28A
100
AcDbEntity
  8
0
100
AcDbLine
 62
7
  6
CONTINUOUS
 10
278.323878666
 20
309.6150961451
 11
278.3238786499
 21
312.8226532861
  0
LINE
  5
28B
100
AcDbEntity
  8
0
100
AcDbLine
 62
9
  6
CONTINUOUS
 10
278.3622044159
 20
303.0950961451
 11
278.3622044159
 21
301.5950961451
  0
LINE
  5
28C
100
AcDbEntity
  8
0
100
AcDbLine
 62
7
  6
CONTINUOUS
 10
279.3786275972
 20
301.5150961451
 11
279.3786275567
 21
301.4950961454
  0
LINE
  5
28D
100
AcDbEntity
  8
0
100
AcDbLine
 62
7
  6
CONTINUOUS
 10
279.4771125638
 20
303.4150961451
 11
279.4771125638
 21
303.0950961451
  0
LINE
  5
28E
100
AcDbEntity
  8
0
100
AcDbLine
 62
9
  6
CONTINUOUS
 10
279.49879679
 20
301.5950961451
 11
279.49879679
 21
303.0950961451
  0
LINE
  5
28F
100
AcDbEntity
  8
0
100
AcDbLine
 62
7
  6
CONTINUOUS
 10
279.6696409069
 20
301.5950961451
 11
279.6696409069
 21
303.0950961451
  0
LINE
  5
290
100
AcDbEntity
  8
0
100
AcDbLine
 62
7
  6
CONTINUOUS
 10
280.3521125638
 20
315.3150961451
 11
280.3521125638
 21
315.5650961451
  0
LINE
  5
291
100
AcDbEntity
  8
0
100
AcDbLine
 62
7
  6
CONTINUOUS
 10
280.4382940688
 20
303.6187375314
 11
280.4382940688
 21
309.3150961451
  0
LINE
  5
292
100
AcDbEntity
  8
0
100
AcDbLine
 62
7
  6
CONTINUOUS
 10
280.6771125638
 20
280.716851877
 11
280.6771125638
 21
282.5901972235
  0
LINE
  5
293
100
AcDbEntity
  8
0
100
AcDbLine
 62
7
  6
CONTINUOUS
 10
255.2771125638
 20
309.3150961451
 11
283.6771125638
 21
309.3150961451
  0
LINE
  5
294
100
AcDbEntity
  8
0
100
AcDbLine
 62
9
  6
CONTINUOUS
 10
281.7470523211
 20
309.5124901019
 11
278.3041508375
 21
309.5124901019
  0
LINE
  5
295
100
AcDbEntity
  8
0
100
AcDbLine
 62
9
  6
CONTINUOUS
 10
273.2403934475
 20
309.5124901019
 11
265.7138316801
 21
309.5124901019
  0
LINE
  5
296
100
AcDbEntity
  8
0
100
AcDbLine
 62
9
  6
CONTINUOUS
 10
260.65007429
 20
309.5124901019
 11
257.2071728065
 21
309.5124901019
  0
LINE
  5
297
100
AcDbEntity
  8
0
100
AcDbLine
 62
9
  6
CONTINUOUS
 10
283.9771125638
 20
309.6150961451
 11
282.0987081308
 21
309.615096145
  0
LINE
  5
298
100
AcDbEntity
  8
0
100
AcDbLine
 62
9
  6
CONTINUOUS
 10
278.323878666
 20
309.6150961451
 11
273.6228468378
 21
309.615096145
  0
LINE
  5
299
100
AcDbEntity
  8
0
100
AcDbLine
 62
9
  6
CONTINUOUS
 10
265.3313782895
 20
309.6150961451
 11
260.6303464616
 21
309.6150961451
  0
LINE
  5
29A
100
AcDbEntity
  8
0
100
AcDbLine
 62
9
  6
CONTINUOUS
 10
256.8555169963
 20
309.6150961451
 11
254.9771125638
 21
309.6150961451
  0
LINE
  5
29B
100
AcDbEntity
  8
0
100
AcDbLine
 62
7
  6
CONTINUOUS
 10
282.0771125638
 20
315.5650961451
 11
282.0771125638
 21
316.8150961451
  0
LINE
  5
29C
100
AcDbEntity
  8
0
100
AcDbLine
 62
9
  6
CONTINUOUS
 10
282.0987081308
 20
309.3150961451
 11
282.0987081308
 21
309.615096145
  0
LINE
  5
29D
100
AcDbEntity
  8
0
100
AcDbLine
 62
7
  6
CONTINUOUS
 10
282.2771125638
 20
282.9607280591
 11
282.2771125638
 21
282.5902285561
  0
LINE
  5
29E
100
AcDbEntity
  8
0
100
AcDbLine
 62
9
  6
CONTINUOUS
 10
282.4385939612
 20
310.5273222853
 11
282.4385939598
 21
309.3150961451
  0
LINE
  5
29F
100
AcDbEntity
  8
0
100
AcDbLine
 62
7
  6
CONTINUOUS
 10
282.7771125638
 20
281.393586833
 11
282.7771125638
 21
280.6259464946
  0
LINE
  5
2A0
100
AcDbEntity
  8
0
100
AcDbLine
 62
7
  6
CONTINUOUS
 10
282.9771125638
 20
277.2819792862
 11
282.9771125638
 21
283.0176870534
  0
LINE
  5
2A1
100
AcDbEntity
  8
0
100
AcDbLine
 62
7
  6
CONTINUOUS
 10
283.3771125638
 20
292.7950961451
 11
283.3771125638
 21
301.4950961454
  0
LINE
  5
2A2
100
AcDbEntity
  8
0
100
AcDbLine
 62
7
  6
CONTINUOUS
 10
283.7271125638
 20
277.9950961445
 11
283.7271125638
 21
285.7181778763
  0
LINE
  5
2A3
100
AcDbEntity
  8
0
100
AcDbLine
 62
7
  6
CONTINUOUS
 10
283.7271125638
 20
316.8150961451
 11
283.7271125638
 21
323.8150919186
  0
LINE
  5
2A4
100
AcDbEntity
  8
0
100
AcDbLine
 62
9
  6
CONTINUOUS
 10
283.9341495064
 20
313.8150961443
 11
283.9341495064
 21
309.6150961451
  0
LINE
  5
2A5
100
AcDbEntity
  8
0
100
AcDbLine
 62
7
  6
CONTINUOUS
 10
283.9771125638
 20
309.6150961451
 11
283.9771125638
 21
315.3150961447
  0
LINE
  5
2A6
100
AcDbEntity
  8
0
100
AcDbLine
 62
7
  6
CONTINUOUS
 10
284.3771125638
 20
272.9950961444
 11
284.3771125645
 21
301.4950961451
  0
LINE
  5
2A7
100
AcDbEntity
  8
0
100
AcDbLine
 62
7
  6
CONTINUOUS
 10
283.9341495064
 20
313.8150961451
 11
277.6715824472
 21
313.8150961451
  0
LINE
  5
2A8
100
AcDbEntity
  8
0
100
AcDbLine
 62
7
  6
CONTINUOUS
 10
275.7396796238
 20
313.8150961451
 11
263.2145455037
 21
313.8150961451
  0
LINE
  5
2A9
100
AcDbEntity
  8
0
100
AcDbLine
 62
7
  6
CONTINUOUS
 10
261.2826426804
 20
313.8150961451
 11
255.0200756212
 21
313.8150961451
  0
LINE
  5
2AA
100
AcDbEntity
  8
0
100
AcDbLine
 62
9
  6
CONTINUOUS
 10
282.4385928475
 20
310.5273222476
 11
282.162577489
 21
310.6301011169
  0
LINE
  5
2AB
100
AcDbEntity
  8
0
100
AcDbLine
 62
7
  6
CONTINUOUS
 10
254.9771125638
 20
315.3150961451
 11
283.9771125638
 21
315.3150961451
  0
LINE
  5
2AC
100
AcDbEntity
  8
0
100
AcDbLine
 62
7
  6
CONTINUOUS
 10
282.0771125638
 20
315.5650961451
 11
256.8771125638
 21
315.5650961451
  0
LINE
  5
2AD
100
AcDbEntity
  8
0
100
AcDbLine
 62
7
  6
CONTINUOUS
 10
283.7271046831
 20
316.8150961451
 11
255.2271204445
 21
316.8150961451
  0
LINE
  5
2AE
100
AcDbEntity
  8
0
100
AcDbLine
 62
7
  6
CONTINUOUS
 10
255.2271125638
 20
323.8150961451
 11
283.7271125638
 21
323.8150919186
  0
LINE
  5
2AF
100
AcDbEntity
  8
0
100
AcDbLine
 62
7
  6
CONTINUOUS
 10
282.1262489948
 20
324.2877997654
 11
256.8279761327
 21
324.2877997654
  0
LINE
  5
2B0
100
AcDbEntity
  8
0
100
AcDbLine
 62
7
  6
CONTINUOUS
 10
257.5813538582
 20
324.4175913008
 11
281.3728712694
 21
324.4175913008
  0
LINE
  5
2B1
100
AcDbEntity
  8
0
100
AcDbLine
 62
7
  6
CONTINUOUS
 10
260.2870029247
 20
324.7877981977
 11
278.6672222028
 21
324.7877981977
  0
LINE
  5
2B2
100
AcDbEntity
  8
0
100
AcDbLine
 62
7
  6
CONTINUOUS
 10
281.3728712694
 20
324.4175913008
 11
281.8271140606
 21
324.2877993289
  0
ARC
  5
2B3
100
AcDbEntity
  8
0
100
AcDbCircle
 62
7
  6
CONTINUOUS
 10
269.4771125638
 20
278.5029840778
 40
47.5
100
AcDbArc
 50
105.4440712025
 51
107.4576031237
  0
ARC
  5
2B4
100
AcDbEntity
  8
0
100
AcDbCircle
 62
7
  6
CONTINUOUS
 10
269.4771125638
 20
278.5029840778
 40
47.5
100
AcDbArc
 50
72.5423968763
 51
74.5559287975
  0
ARC
  5
2B5
100
AcDbEntity
  8
0
100
AcDbCircle
 62
7
  6
CONTINUOUS
 10
278.677108656
 20
314.7877289666
 40
10.0000692311
100
AcDbArc
 50
74.3610578625
 51
90.0
  0
ARC
  5
2B6
100
AcDbEntity
  8
0
100
AcDbCircle
 62
7
  6
CONTINUOUS
 10
260.2771164715
 20
314.7877289666
 40
10.0000692311
100
AcDbArc
 50
90.0
 51
105.6389421375
  0
ARC
  5
2B7
100
AcDbEntity
  8
0
100
AcDbCircle
 62
7
  6
CONTINUOUS
 10
255.2771125638
 20
309.6150961451
 40
0.3
100
AcDbArc
 50
180.0
 51
270.0
  0
ARC
  5
2B8
100
AcDbEntity
  8
0
100
AcDbCircle
 62
7
  6
CONTINUOUS
 10
260.9303464616
 20
309.6150961451
 40
0.3
100
AcDbArc
 50
180.0
 51
270.0
  0
ARC
  5
2B9
100
AcDbEntity
  8
0
100
AcDbCircle
 62
7
  6
CONTINUOUS
 10
278.023878666
 20
309.6150961451
 40
0.3
100
AcDbArc
 50
270.0
 51
360.0
  0
ARC
  5
2BA
100
AcDbEntity
  8
0
100
AcDbCircle
 62
7
  6
CONTINUOUS
 10
283.6771125638
 20
309.6150961451
 40
0.3
100
AcDbArc
 50
270.0
 51
360.0
  0
ARC
  5
2BB
100
AcDbEntity
  8
0
100
AcDbCircle
 62
9
  6
CONTINUOUS
 10
283.6344214814
 20
309.6147188668
 40
0.2997079093
100
AcDbArc
 50
278.0872372651
 51
0.0721201822
  0
ARC
  5
2BC
100
AcDbEntity
  8
0
100
AcDbCircle
 62
9
  6
CONTINUOUS
 10
283.6349276846
 20
309.6132045876
 40
0.2981084631
100
AcDbArc
 50
270.0212787252
 51
278.0318575567
  0
SPLINE
  5
2BD
100
AcDbEntity
  8
0
100
AcDbSpline
 62
9
  6
CONTINUOUS
 70
0
 71
3
 72
12
 73
8
 74
0
 42
0.0000001
 43
0.0000001
 44
0.0000000001
 40
0.0
 40
0.0
 40
0.0
 40
0.0
 40
0.3663457567
 40
0.6683032283
 40
0.784000846
 40
0.8753115373
 40
1.0
 40
1.0
 40
1.0
 40
1.0
 10
273.2403934476
 20
309.5124901019
 30
0.0
 10
273.2374162252
 20
309.4851639919
 30
0.0
 10
273.2295467238
 20
309.4355617928
 30
0.0
 10
273.2131098143
 20
309.378731605
 30
0.0
 10
273.1954989517
 20
309.3445531358
 30
0.0
 10
273.1809254241
 20
309.3246273867
 30
0.0
 10
273.1653622984
 20
309.315096145
 30
0.0
 10
273.1560066182
 20
309.315096145
 30
0.0
  0
SPLINE
  5
2BE
100
AcDbEntity
  8
0
100
AcDbSpline
 62
9
  6
CONTINUOUS
 70
0
 71
3
 72
11
 73
7
 74
0
 42
0.0000001
 43
0.0000001
 44
0.0000000001
 40
0.0
 40
0.0
 40
0.0
 40
0.0
 40
0.2238794154
 40
0.4766122775
 40
0.7441160524
 40
1.0
 40
1.0
 40
1.0
 40
1.0
 10
273.8826544589
 20
309.315096145
 30
0.0
 10
273.8500124662
 20
309.315096145
 30
0.0
 10
273.7797128015
 20
309.3308743586
 30
0.0
 10
273.6915521512
 20
309.3996649104
 30
0.0
 10
273.6352554174
 20
309.5009012182
 30
0.0
 10
273.6228468378
 20
309.577787838
 30
0.0
 10
273.6228468378
 20
309.615096145
 30
0.0
  0
SPLINE
  5
2BF
100
AcDbEntity
  8
0
100
AcDbSpline
 62
9
  6
CONTINUOUS
 70
0
 71
3
 72
11
 73
7
 74
0
 42
0.0000001
 43
0.0000001
 44
0.0000000001
 40
0.0
 40
0.0
 40
0.0
 40
0.0
 40
0.2558839475
 40
0.5233877224
 40
0.7761205846
 40
1.0
 40
1.0
 40
1.0
 40
1.0
 10
265.3313782894
 20
309.6150961451
 30
0.0
 10
265.3313782894
 20
309.577787838
 30
0.0
 10
265.3189697098
 20
309.5009012182
 30
0.0
 10
265.2626729759
 20
309.3996649104
 30
0.0
 10
265.1745123255
 20
309.3308743585
 30
0.0
 10
265.1042126608
 20
309.3150961451
 30
0.0
 10
265.071570668
 20
309.3150961451
 30
0.0
  0
SPLINE
  5
2C0
100
AcDbEntity
  8
0
100
AcDbSpline
 62
9
  6
CONTINUOUS
 70
0
 71
3
 72
12
 73
8
 74
0
 42
0.0000001
 43
0.0000001
 44
0.0000000001
 40
0.0
 40
0.0
 40
0.0
 40
0.0
 40
0.1379321046
 40
0.2375860069
 40
0.3600874966
 40
0.6611400906
 40
1.0
 40
1.0
 40
1.0
 40
1.0
 10
265.7982185094
 20
309.3150961451
 30
0.0
 10
265.7878757802
 20
309.315096145
 30
0.0
 10
265.7710770813
 20
309.3265869742
 30
0.0
 10
265.7562386868
 20
309.3487468905
 30
0.0
 10
265.7391596598
 20
309.3843819686
 30
0.0
 10
265.7239567202
 20
309.4397443519
 30
0.0
 10
265.7165837596
 20
309.4872304405
 30
0.0
 10
265.7138316799
 20
309.5124901019
 30
0.0
  0
SPLINE
  5
2C1
100
AcDbEntity
  8
0
100
AcDbSpline
 62
9
  6
CONTINUOUS
 70
0
 71
3
 72
11
 73
7
 74
0
 42
0.0000001
 43
0.0000001
 44
0.0000000001
 40
0.0
 40
0.0
 40
0.0
 40
0.0
 40
0.2332466128
 40
0.4766038331
 40
0.7336388487
 40
1.0
 40
1.0
 40
1.0
 40
1.0
 10
264.9016277537
 20
309.3150961451
 30
0.0
 10
264.9356360376
 20
309.3150961451
 30
0.0
 10
265.0060136819
 20
309.3316091574
 30
0.0
 10
265.0921259061
 20
309.3999382453
 30
0.0
 10
265.1485045779
 20
309.4992716979
 30
0.0
 10
265.1614353748
 20
309.5762596297
 30
0.0
 10
265.1614353748
 20
309.6150961451
 30
0.0
  0
SPLINE
  5
2C2
100
AcDbEntity
  8
0
100
AcDbSpline
 62
9
  6
CONTINUOUS
 70
0
 71
3
 72
11
 73
7
 74
0
 42
0.0000001
 43
0.0000001
 44
0.0000000001
 40
0.0
 40
0.0
 40
0.0
 40
0.0
 40
0.3353631076
 40
0.4902400329
 40
0.6305672361
 40
1.0
 40
1.0
 40
1.0
 40
1.0
 10
263.2145455044
 20
309.6150961451
 30
0.0
 10
263.2145455044
 20
309.576682383
 30
0.0
 10
263.2188917692
 20
309.5205804628
 30
0.0
 10
263.2352509142
 20
309.4493866872
 30
0.0
 10
263.2586615189
 20
309.3798875877
 30
0.0
 10
263.3017996277
 20
309.3150961451
 30
0.0
 10
263.3441158573
 20
309.3150961451
 30
0.0
  0
SPLINE
  5
2C3
100
AcDbEntity
  8
0
100
AcDbSpline
 62
9
  6
CONTINUOUS
 70
0
 71
3
 72
13
 73
9
 74
0
 42
0.0000001
 43
0.0000001
 44
0.0000000001
 40
0.0
 40
0.0
 40
0.0
 40
0.0
 40
0.30821605
 40
0.5856827801
 40
0.7065299751
 40
0.8141385755
 40
0.9105080117
 40
1.0
 40
1.0
 40
1.0
 40
1.0
 10
261.2826426806
 20
309.6150961451
 30
0.0
 10
261.2826426806
 20
309.5765822979
 30
0.0
 10
261.2904443052
 20
309.5031934657
 30
0.0
 10
261.3203115658
 20
309.4187450992
 30
0.0
 10
261.3557629443
 20
309.365993204
 30
0.0
 10
261.3851248016
 20
309.337425218
 30
0.0
 10
261.4176218666
 20
309.3193624664
 30
0.0
 10
261.441000759
 20
309.3150961451
 30
0.0
 10
261.4521834368
 20
309.3150961451
 30
0.0
  0
SPLINE
  5
2C4
100
AcDbEntity
  8
0
100
AcDbSpline
 62
9
  6
CONTINUOUS
 70
0
 71
3
 72
11
 73
7
 74
0
 42
0.0000001
 43
0.0000001
 44
0.0000000001
 40
0.0
 40
0.0
 40
0.0
 40
0.0
 40
0.2524408201
 40
0.5109764388
 40
0.7637737725
 40
1.0
 40
1.0
 40
1.0
 40
1.0
 10
257.4823107365
 20
309.3150961451
 30
0.0
 10
257.4520557967
 20
309.315096145
 30
0.0
 10
257.3903813166
 20
309.3249934665
 30
0.0
 10
257.3078588364
 20
309.368068312
 30
0.0
 10
257.244157975
 20
309.4330398572
 30
0.0
 10
257.2166497568
 20
309.4858117281
 30
0.0
 10
257.2071728063
 20
309.5124901019
 30
0.0
  0
SPLINE
  5
2C5
100
AcDbEntity
  8
0
100
AcDbSpline
 62
9
  6
CONTINUOUS
 70
0
 71
3
 72
9
 73
5
 74
0
 42
0.0000001
 43
0.0000001
 44
0.0000000001
 40
0.0
 40
0.0
 40
0.0
 40
0.0
 40
0.5053033821
 40
1.0
 40
1.0
 40
1.0
 40
1.0
 10
278.3238852023
 20
312.8226498072
 30
0.0
 10
278.3238676854
 20
312.9903373596
 30
0.0
 10
278.3151522559
 20
313.3222438058
 30
0.0
 10
278.2818460462
 20
313.6530591572
 30
0.0
 10
278.2554826293
 20
313.8150961451
 30
0.0
  0
SPLINE
  5
2C6
100
AcDbEntity
  8
0
100
AcDbSpline
 62
9
  6
CONTINUOUS
 70
0
 71
3
 72
11
 73
7
 74
0
 42
0.0000001
 43
0.0000001
 44
0.0000000001
 40
0.0
 40
0.0
 40
0.0
 40
0.0
 40
0.2503738047
 40
0.5004845467
 40
0.75031165
 40
1.0
 40
1.0
 40
1.0
 40
1.0
 10
255.0200756212
 20
309.6150961451
 30
0.0
 10
255.0200756212
 20
309.5760779212
 30
0.0
 10
255.0356174905
 20
309.497226338
 30
0.0
 10
255.102177465
 20
309.3975421557
 30
0.0
 10
255.2015695913
 20
309.3307165327
 30
0.0
 10
255.2802753277
 20
309.3150961451
 30
0.0
 10
255.3191867303
 20
309.3150961451
 30
0.0
  0
SPLINE
  5
2C7
100
AcDbEntity
  8
0
100
AcDbSpline
 62
9
  6
CONTINUOUS
 70
0
 71
3
 72
9
 73
5
 74
0
 42
0.0000001
 43
0.0000001
 44
0.0000000001
 40
0.0
 40
0.0
 40
0.0
 40
0.0
 40
0.517066438
 40
1.0
 40
1.0
 40
1.0
 40
1.0
 10
281.7470523213
 20
309.5124901019
 30
0.0
 10
281.7265531626
 20
309.4547833309
 30
0.0
 10
281.6502488701
 20
309.3525799126
 30
0.0
 10
281.5291113957
 20
309.315096145
 30
0.0
 10
281.471914391
 20
309.315096145
 30
0.0
  0
SPLINE
  5
2C8
100
AcDbEntity
  8
0
100
AcDbSpline
 62
9
  6
CONTINUOUS
 70
0
 71
3
 72
10
 73
6
 74
0
 42
0.0000001
 43
0.0000001
 44
0.0000000001
 40
0.0
 40
0.0
 40
0.0
 40
0.0
 40
0.2420070062
 40
0.4904673933
 40
1.0
 40
1.0
 40
1.0
 40
1.0
 10
278.3826427471
 20
313.8151212316
 30
0.0
 10
278.4124088522
 20
313.6253054773
 30
0.0
 10
278.4447867962
 20
313.2361706142
 30
0.0
 10
278.4397170066
 20
312.4418298462
 30
0.0
 10
278.3809215879
 20
311.8415050963
 30
0.0
 10
278.3258660744
 20
311.4407382468
 30
0.0
  0
LINE
  5
2C9
100
AcDbEntity
  8
0
100
AcDbLine
 62
9
  6
CONTINUOUS
 10
281.7475081077
 20
309.5123207021
 11
282.162577489
 21
310.6301011169
  0
SPLINE
  5
2CA
100
AcDbEntity
  8
0
100
AcDbSpline
 62
9
  6
CONTINUOUS
 70
0
 71
3
 72
10
 73
6
 74
0
 42
0.0000001
 43
0.0000001
 44
0.0000000001
 40
0.0
 40
0.0
 40
0.0
 40
0.0
 40
0.5064160611
 40
0.7565274868
 40
1.0
 40
1.0
 40
1.0
 40
1.0
 10
282.1630424077
 20
310.629928324
 30
0.0
 10
282.3650228039
 20
311.1728672601
 30
0.0
 10
282.6757855361
 20
311.9806603621
 30
0.0
 10
283.1069661695
 20
313.0402114871
 30
0.0
 10
283.3276076071
 20
313.5599704987
 30
0.0
 10
283.4392563342
 20
313.8151214215
 30
0.0
  0
SPLINE
  5
2CB
100
AcDbEntity
  8
0
100
AcDbSpline
 62
9
  6
CONTINUOUS
 70
0
 71
3
 72
10
 73
6
 74
0
 42
0.0000001
 43
0.0000001
 44
0.0000000001
 40
0.0
 40
0.0
 40
0.0
 40
0.0
 40
0.3884972785
 40
0.6830913235
 40
1.0
 40
1.0
 40
1.0
 40
1.0
 10
281.7475081077
 20
309.5123207021
 30
0.0
 10
281.7929272444
 20
309.5258366109
 30
0.0
 10
281.8728986437
 20
309.5492269781
 30
0.0
 10
281.9899652432
 20
309.5834808972
 30
0.0
 10
282.0617161266
 20
309.6038782321
 30
0.0
 10
282.0987078858
 20
309.615096516
 30
0.0
  0
SPLINE
  5
2CC
100
AcDbEntity
  8
0
100
AcDbSpline
 62
9
  6
CONTINUOUS
 70
0
 71
3
 72
10
 73
6
 74
0
 42
0.0000001
 43
0.0000001
 44
0.0000000001
 40
0.0
 40
0.0
 40
0.0
 40
0.0
 40
0.2437109743
 40
0.4938780866
 40
1.0
 40
1.0
 40
1.0
 40
1.0
 10
283.542187857
 20
313.8150961451
 30
0.0
 10
283.4445958361
 20
313.550777456
 30
0.0
 10
283.2527228295
 20
313.0129578135
 30
0.0
 10
282.8795611014
 20
311.9186957239
 30
0.0
 10
282.6120069756
 20
311.0861743094
 30
0.0
 10
282.4385939612
 20
310.5273222863
 30
0.0
  0
SPLINE
  5
2CD
100
AcDbEntity
  8
0
100
AcDbSpline
 62
9
  6
CONTINUOUS
 70
0
 71
3
 72
13
 73
9
 74
0
 42
0.0000001
 43
0.0000001
 44
0.0000000001
 40
0.0
 40
0.0
 40
0.0
 40
0.0
 40
0.30821605
 40
0.5856827801
 40
0.7065299751
 40
0.8141385755
 40
0.9105080117
 40
1.0
 40
1.0
 40
1.0
 40
1.0
 10
277.671582447
 20
309.6150961451
 30
0.0
 10
277.671582447
 20
309.5765822979
 30
0.0
 10
277.6637808223
 20
309.5031934657
 30
0.0
 10
277.6339135618
 20
309.4187450992
 30
0.0
 10
277.5984621833
 20
309.365993204
 30
0.0
 10
277.5691003259
 20
309.337425218
 30
0.0
 10
277.5366032609
 20
309.3193624664
 30
0.0
 10
277.5132243685
 20
309.3150961451
 30
0.0
 10
277.5020416908
 20
309.3150961451
 30
0.0
  0
SPLINE
  5
2CE
100
AcDbEntity
  8
0
100
AcDbSpline
 62
9
  6
CONTINUOUS
 70
0
 71
3
 72
10
 73
6
 74
0
 42
0.0000001
 43
0.0000001
 44
0.0000000001
 40
0.0
 40
0.0
 40
0.0
 40
0.0
 40
0.1898593277
 40
0.4461274509
 40
1.0
 40
1.0
 40
1.0
 40
1.0
 10
265.1614358619
 20
310.5273226464
 30
0.0
 10
265.1799147489
 20
310.5410843762
 30
0.0
 10
265.2282127167
 20
310.5666433308
 30
0.0
 10
265.3426910334
 20
310.6071507071
 30
0.0
 10
265.4404328412
 20
310.6249997918
 30
0.0
 10
265.5074668238
 20
310.6299282549
 30
0.0
  0
SPLINE
  5
2CF
100
AcDbEntity
  8
0
100
AcDbSpline
 62
9
  6
CONTINUOUS
 70
0
 71
3
 72
11
 73
7
 74
0
 42
0.0000001
 43
0.0000001
 44
0.0000000001
 40
0.0
 40
0.0
 40
0.0
 40
0.0
 40
0.199699799
 40
0.4474913948
 40
0.7243348129
 40
1.0
 40
1.0
 40
1.0
 40
1.0
 10
265.3313783508
 20
309.6150961094
 30
0.0
 10
265.354288562
 20
309.6017292297
 30
0.0
 10
265.4088210374
 20
309.5773780209
 30
0.0
 10
265.5005192534
 20
309.5479420245
 30
0.0
 10
265.6044415957
 20
309.5249486617
 30
0.0
 10
265.6773153568
 20
309.5151827265
 30
0.0
 10
265.7138306411
 20
309.5124901786
 30
0.0
  0
SPLINE
  5
2D0
100
AcDbEntity
  8
0
100
AcDbSpline
 62
9
  6
CONTINUOUS
 70
0
 71
3
 72
11
 73
7
 74
0
 42
0.0000001
 43
0.0000001
 44
0.0000000001
 40
0.0
 40
0.0
 40
0.0
 40
0.0
 40
0.2543607306
 40
0.5052673639
 40
0.7536142441
 40
1.0
 40
1.0
 40
1.0
 40
1.0
 10
264.4204990603
 20
313.8151212314
 30
0.0
 10
264.5669511443
 20
313.5687327132
 30
0.0
 10
264.817908664
 20
313.0553896377
 30
0.0
 10
265.1111617213
 20
312.2575901284
 30
0.0
 10
265.3405695783
 20
311.4485344847
 30
0.0
 10
265.4570689317
 20
310.9029568701
 30
0.0
 10
265.5074677624
 20
310.629928324
 30
0.0
  0
LINE
  5
2D1
100
AcDbEntity
  8
0
100
AcDbLine
 62
9
  6
CONTINUOUS
 10
265.5076126645
 20
310.6301014532
 11
265.7136912353
 21
309.5123210413
  0
LINE
  5
2D2
100
AcDbEntity
  8
0
100
AcDbLine
 62
9
  6
CONTINUOUS
 10
273.2405338922
 20
309.5123210413
 11
273.4466124631
 21
310.6301014532
  0
SPLINE
  5
2D3
100
AcDbEntity
  8
0
100
AcDbSpline
 62
9
  6
CONTINUOUS
 70
0
 71
3
 72
11
 73
7
 74
0
 42
0.0000001
 43
0.0000001
 44
0.0000000001
 40
0.0
 40
0.0
 40
0.0
 40
0.0
 40
0.2463857552
 40
0.4947326283
 40
0.7456392563
 40
1.0
 40
1.0
 40
1.0
 40
1.0
 10
273.4467573652
 20
310.629928324
 30
0.0
 10
273.4971561991
 20
310.9029568872
 30
0.0
 10
273.6136555564
 20
311.4485345289
 30
0.0
 10
273.8430634229
 20
312.2575902141
 30
0.0
 10
274.136316541
 20
313.0553897566
 30
0.0
 10
274.3872740386
 20
313.5687329002
 30
0.0
 10
274.533726183
 20
313.8151214215
 30
0.0
  0
SPLINE
  5
2D4
100
AcDbEntity
  8
0
100
AcDbSpline
 62
9
  6
CONTINUOUS
 70
0
 71
3
 72
10
 73
6
 74
0
 42
0.0000001
 43
0.0000001
 44
0.0000000001
 40
0.0
 40
0.0
 40
0.0
 40
0.0
 40
0.5696998305
 40
0.8096398204
 40
1.0
 40
1.0
 40
1.0
 40
1.0
 10
273.2405338922
 20
309.5123210413
 30
0.0
 10
273.3159723921
 20
309.5179512136
 30
0.0
 10
273.4227014492
 20
309.537653677
 30
0.0
 10
273.5488671635
 20
309.5788701621
 30
0.0
 10
273.6015021569
 20
309.6019947394
 30
0.0
 10
273.6231188416
 20
309.6150965152
 30
0.0
  0
SPLINE
  5
2D5
100
AcDbEntity
  8
0
100
AcDbSpline
 62
9
  6
CONTINUOUS
 70
0
 71
3
 72
10
 73
6
 74
0
 42
0.0000001
 43
0.0000001
 44
0.0000000001
 40
0.0
 40
0.0
 40
0.0
 40
0.0
 40
0.1898593276
 40
0.4461274509
 40
1.0
 40
1.0
 40
1.0
 40
1.0
 10
273.7927892658
 20
310.5273226463
 30
0.0
 10
273.7743103788
 20
310.5410843762
 30
0.0
 10
273.726012411
 20
310.5666433307
 30
0.0
 10
273.6115340942
 20
310.6071507071
 30
0.0
 10
273.5137922863
 20
310.6249997916
 30
0.0
 10
273.4467583037
 20
310.6299282549
 30
0.0
  0
SPLINE
  5
2D6
100
AcDbEntity
  8
0
100
AcDbSpline
 62
9
  6
CONTINUOUS
 70
0
 71
3
 72
12
 73
8
 74
0
 42
0.0000001
 43
0.0000001
 44
0.0000000001
 40
0.0
 40
0.0
 40
0.0
 40
0.0
 40
0.1267440408
 40
0.2528611252
 40
0.5034661531
 40
0.7524070373
 40
1.0
 40
1.0
 40
1.0
 40
1.0
 10
274.7638177914
 20
313.8150961451
 30
0.0
 10
274.695528424
 20
313.6867136093
 30
0.0
 10
274.5706326471
 20
313.4244818743
 30
0.0
 10
274.3560467752
 20
312.8879325193
 30
0.0
 10
274.1391009447
 20
312.2026561408
 30
0.0
 10
273.9380314015
 20
311.3688963924
 30
0.0
 10
273.8363419224
 20
310.8080301886
 30
0.0
 10
273.7927897531
 20
310.5273222866
 30
0.0
  0
SPLINE
  5
2D7
100
AcDbEntity
  8
0
100
AcDbSpline
 62
9
  6
CONTINUOUS
 70
0
 71
3
 72
11
 73
7
 74
0
 42
0.0000001
 43
0.0000001
 44
0.0000000001
 40
0.0
 40
0.0
 40
0.0
 40
0.0
 40
0.3353631076
 40
0.4902400329
 40
0.6305672361
 40
1.0
 40
1.0
 40
1.0
 40
1.0
 10
275.7396796232
 20
309.6150961451
 30
0.0
 10
275.7396796232
 20
309.576682383
 30
0.0
 10
275.7353333583
 20
309.5205804628
 30
0.0
 10
275.7189742134
 20
309.4493866872
 30
0.0
 10
275.6955636086
 20
309.3798875877
 30
0.0
 10
275.6524254999
 20
309.3150961451
 30
0.0
 10
275.6101092702
 20
309.3150961451
 30
0.0
  0
SPLINE
  5
2D8
100
AcDbEntity
  8
0
100
AcDbSpline
 62
9
  6
CONTINUOUS
 70
0
 71
3
 72
12
 73
8
 74
0
 42
0.0000001
 43
0.0000001
 44
0.0000000001
 40
0.0
 40
0.0
 40
0.0
 40
0.0
 40
0.2475929624
 40
0.4965338504
 40
0.7471388824
 40
0.8732559657
 40
1.0
 40
1.0
 40
1.0
 40
1.0
 10
265.1614353748
 20
310.5273222844
 30
0.0
 10
265.1178832056
 20
310.8080301862
 30
0.0
 10
265.0161937278
 20
311.3688963946
 30
0.0
 10
264.8151241821
 20
312.2026561521
 30
0.0
 10
264.5981783417
 20
312.8879325362
 30
0.0
 10
264.3835924737
 20
313.4244818884
 30
0.0
 10
264.2586967045
 20
313.6867136181
 30
0.0
 10
264.1904073361
 20
313.8150961451
 30
0.0
  0
SPLINE
  5
2D9
100
AcDbEntity
  8
0
100
AcDbSpline
 62
9
  6
CONTINUOUS
 70
0
 71
3
 72
10
 73
6
 74
0
 42
0.0000001
 43
0.0000001
 44
0.0000000001
 40
0.0
 40
0.0
 40
0.0
 40
0.0
 40
0.2434725022
 40
0.4935839335
 40
1.0
 40
1.0
 40
1.0
 40
1.0
 10
255.5149688768
 20
313.8151212317
 30
0.0
 10
255.6266175882
 20
313.5599703342
 30
0.0
 10
255.8472590123
 20
313.0402113607
 30
0.0
 10
256.2784396147
 20
311.9806602977
 30
0.0
 10
256.5892023335
 20
311.172867233
 30
0.0
 10
256.7911827198
 20
310.629928324
 30
0.0
  0
LINE
  5
2DA
100
AcDbEntity
  8
0
100
AcDbLine
 62
9
  6
CONTINUOUS
 10
256.7916476386
 20
310.6301011169
 11
257.2067170198
 21
309.5123207021
  0
SPLINE
  5
2DB
100
AcDbEntity
  8
0
100
AcDbSpline
 62
9
  6
CONTINUOUS
 70
0
 71
3
 72
10
 73
6
 74
0
 42
0.0000001
 43
0.0000001
 44
0.0000000001
 40
0.0
 40
0.0
 40
0.0
 40
0.0
 40
0.509532161
 40
0.7579926084
 40
1.0
 40
1.0
 40
1.0
 40
1.0
 10
260.6283299218
 20
311.4409502906
 30
0.0
 10
260.5732851588
 20
311.841681629
 30
0.0
 10
260.5145028656
 20
312.4419528801
 30
0.0
 10
260.509441445
 20
313.2362224328
 30
0.0
 10
260.5418188897
 20
313.6253223995
 30
0.0
 10
260.5715824126
 20
313.8151214216
 30
0.0
  0
SPLINE
  5
2DC
100
AcDbEntity
  8
0
100
AcDbSpline
 62
9
  6
CONTINUOUS
 70
0
 71
3
 72
9
 73
5
 74
0
 42
0.0000001
 43
0.0000001
 44
0.0000000001
 40
0.0
 40
0.0
 40
0.0
 40
0.0
 40
0.4946967525
 40
1.0
 40
1.0
 40
1.0
 40
1.0
 10
260.6987424982
 20
313.8150961451
 30
0.0
 10
260.672379964
 20
313.6530645562
 30
0.0
 10
260.6390742524
 20
313.3222604149
 30
0.0
 10
260.6303580469
 20
312.9903651488
 30
0.0
 10
260.6303399321
 20
312.8226832747
 30
0.0
  0
SPLINE
  5
2DD
100
AcDbEntity
  8
0
100
AcDbSpline
 62
9
  6
CONTINUOUS
 70
0
 71
3
 72
10
 73
6
 74
0
 42
0.0000001
 43
0.0000001
 44
0.0000000001
 40
0.0
 40
0.0
 40
0.0
 40
0.0
 40
0.5061219169
 40
0.7562890329
 40
1.0
 40
1.0
 40
1.0
 40
1.0
 10
256.515631167
 20
310.5273222844
 30
0.0
 10
256.3422181516
 20
311.0861743118
 30
0.0
 10
256.0746640236
 20
311.9186957349
 30
0.0
 10
255.7015022917
 20
313.0129578238
 30
0.0
 10
255.5096292921
 20
313.5507774649
 30
0.0
 10
255.4120372706
 20
313.8150961451
 30
0.0
  0
SPLINE
  5
2DE
100
AcDbEntity
  8
0
100
AcDbSpline
 62
9
  6
CONTINUOUS
 70
0
 71
3
 72
11
 73
7
 74
0
 42
0.0000001
 43
0.0000001
 44
0.0000000001
 40
0.0
 40
0.0
 40
0.0
 40
0.0
 40
0.2663611513
 40
0.5233961669
 40
0.7667533872
 40
1.0
 40
1.0
 40
1.0
 40
1.0
 10
273.7927897523
 20
309.615096145
 30
0.0
 10
273.7927897523
 20
309.5762596297
 30
0.0
 10
273.8057205492
 20
309.4992716979
 30
0.0
 10
273.8620992211
 20
309.3999382453
 30
0.0
 10
273.9482114453
 20
309.3316091574
 30
0.0
 10
274.0185890895
 20
309.3150961451
 30
0.0
 10
274.0525973734
 20
309.3150961451
 30
0.0
  0
SPLINE
  5
2DF
100
AcDbEntity
  8
0
100
AcDbSpline
 62
7
  6
CONTINUOUS
 70
0
 71
3
 72
13
 73
9
 74
0
 42
0.0000001
 43
0.0000001
 44
0.0000000001
 40
0.0
 40
0.0
 40
0.0
 40
0.0
 40
0.1071835018
 40
0.1949393851
 40
0.3085205352
 40
0.4474978821
 40
0.6105325574
 40
1.0
 40
1.0
 40
1.0
 40
1.0
 10
280.8270948717
 20
280.8205478464
 30
0.0
 10
280.8270959181
 20
280.7970031232
 30
0.0
 10
280.789541951
 20
280.7614734079
 30
0.0
 10
280.7309761052
 20
280.7324183167
 30
0.0
 10
280.6599148553
 20
280.7062375347
 30
0.0
 10
280.5720077851
 20
280.6824552858
 30
0.0
 10
280.4232055603
 20
280.6510498046
 30
0.0
 10
280.302904891
 20
280.6342636442
 30
0.0
 10
280.2179021646
 20
280.6245731854
 30
0.0
  0
SPLINE
  5
2E0
100
AcDbEntity
  8
0
100
AcDbSpline
 62
7
  6
CONTINUOUS
 70
0
 71
3
 72
13
 73
9
 74
0
 42
0.0000001
 43
0.0000001
 44
0.0000000001
 40
0.0
 40
0.0
 40
0.0
 40
0.0
 40
0.3894573824
 40
0.5524909629
 40
0.6914691379
 40
0.8050538174
 40
0.8928117845
 40
1.0
 40
1.0
 40
1.0
 40
1.0
 10
278.7362697551
 20
280.6245790971
 30
0.0
 10
278.6512761662
 20
280.6342691995
 30
0.0
 10
278.530987922
 20
280.6510556316
 30
0.0
 10
278.3822001289
 20
280.6824588672
 30
0.0
 10
278.2942998133
 20
280.7062410487
 30
0.0
 10
278.2232432881
 20
280.7324201347
 30
0.0
 10
278.1646798328
 20
280.7614755322
 30
0.0
 10
278.1271313021
 20
280.7970039896
 30
0.0
 10
278.1271302558
 20
280.8205478467
 30
0.0
  0
SPLINE
  5
2E1
100
AcDbEntity
  8
0
100
AcDbSpline
 62
7
  6
CONTINUOUS
 70
0
 71
3
 72
10
 73
6
 74
0
 42
0.0000001
 43
0.0000001
 44
0.0000000001
 40
0.0
 40
0.0
 40
0.0
 40
0.0
 40
0.3545129539
 40
0.6367120891
 40
1.0
 40
1.0
 40
1.0
 40
1.0
 10
278.1271302558
 20
280.8205478467
 30
0.0
 10
278.1271293003
 20
280.8420487313
 30
0.0
 10
278.1589708934
 20
280.8752357523
 30
0.0
 10
278.2108172708
 20
280.9029682397
 30
0.0
 10
278.2477072303
 20
280.917728783
 30
0.0
 10
278.2685103881
 20
280.9249872356
 30
0.0
  0
SPLINE
  5
2E2
100
AcDbEntity
  8
0
100
AcDbSpline
 62
7
  6
CONTINUOUS
 70
0
 71
3
 72
9
 73
5
 74
0
 42
0.0000001
 43
0.0000001
 44
0.0000000001
 40
0.0
 40
0.0
 40
0.0
 40
0.0
 40
0.4897736347
 40
1.0
 40
1.0
 40
1.0
 40
1.0
 10
275.977112563
 20
277.6659617768
 30
0.0
 10
275.977112563
 20
277.6156674984
 30
0.0
 10
275.9622877158
 20
277.5122614113
 30
0.0
 10
275.9115811636
 20
277.4192182833
 30
0.0
 10
275.8771125634
 20
277.3797581266
 30
0.0
  0
SPLINE
  5
2E3
100
AcDbEntity
  8
0
100
AcDbSpline
 62
7
  6
CONTINUOUS
 70
0
 71
3
 72
9
 73
5
 74
0
 42
0.0000001
 43
0.0000001
 44
0.0000000001
 40
0.0
 40
0.0
 40
0.0
 40
0.0
 40
0.2992178358
 40
1.0
 40
1.0
 40
1.0
 40
1.0
 10
275.9680750364
 20
282.9607292266
 30
0.0
 10
275.9693903055
 20
282.9566750207
 30
0.0
 10
275.9735074723
 20
282.9430873475
 30
0.0
 10
275.9771125644
 20
282.9290085559
 30
0.0
 10
275.9771125644
 20
282.9190262375
 30
0.0
  0
SPLINE
  5
2E4
100
AcDbEntity
  8
0
100
AcDbSpline
 62
7
  6
CONTINUOUS
 70
0
 71
3
 72
9
 73
5
 74
0
 42
0.0000001
 43
0.0000001
 44
0.0000000001
 40
0.0
 40
0.0
 40
0.0
 40
0.0
 40
0.4055937782
 40
1.0
 40
1.0
 40
1.0
 40
1.0
 10
275.968089727
 20
282.9607292266
 30
0.0
 10
275.9593345178
 20
282.9700590917
 30
0.0
 10
275.9308710527
 20
282.9858053985
 30
0.0
 10
275.9008525121
 20
282.9951174911
 30
0.0
 10
275.8826708815
 20
282.9997017525
 30
0.0
  0
SPLINE
  5
2E5
100
AcDbEntity
  8
0
100
AcDbSpline
 62
7
  6
CONTINUOUS
 70
0
 71
3
 72
10
 73
6
 74
0
 42
0.0000001
 43
0.0000001
 44
0.0000000001
 40
0.0
 40
0.0
 40
0.0
 40
0.0
 40
0.3633302568
 40
0.6455554014
 40
1.0
 40
1.0
 40
1.0
 40
1.0
 10
280.6855319678
 20
280.9250514419
 30
0.0
 10
280.7063611335
 20
280.9177897617
 30
0.0
 10
280.7432972996
 20
280.9030202264
 30
0.0
 10
280.7952049314
 20
280.8752767447
 30
0.0
 10
280.8270939154
 20
280.8420670733
 30
0.0
 10
280.8270948717
 20
280.8205478464
 30
0.0
  0
SPLINE
  5
2E6
100
AcDbEntity
  8
0
100
AcDbSpline
 62
7
  6
CONTINUOUS
 70
0
 71
3
 72
8
 73
4
 74
0
 42
0.0000001
 43
0.0000001
 44
0.0000000001
 40
0.0
 40
0.0
 40
0.0
 40
0.0
 40
1.0
 40
1.0
 40
1.0
 40
1.0
 10
266.3509500394
 20
293.3950961451
 30
0.0
 10
266.1520407653
 20
293.8885848109
 30
0.0
 10
265.9721270393
 20
294.3898981097
 30
0.0
 10
265.8051806619
 20
294.8950959616
 30
0.0
  0
SPLINE
  5
2E7
100
AcDbEntity
  8
0
100
AcDbSpline
 62
7
  6
CONTINUOUS
 70
0
 71
3
 72
13
 73
9
 74
0
 42
0.0000001
 43
0.0000001
 44
0.0000000001
 40
0.0
 40
0.0
 40
0.0
 40
0.0
 40
0.2429264413
 40
0.4905791208
 40
0.6165257046
 40
0.7435605344
 40
0.871507219
 40
1.0
 40
1.0
 40
1.0
 40
1.0
 10
272.2323816326
 20
303.1950961451
 30
0.0
 10
272.1303050821
 20
303.1950961451
 30
0.0
 10
271.9233608211
 20
303.164332355
 30
0.0
 10
271.6837203999
 20
303.0558990448
 30
0.0
 10
271.5174975844
 20
302.925359083
 30
0.0
 10
271.4122984402
 20
302.8030320175
 30
0.0
 10
271.3387339134
 20
302.6575498098
 30
0.0
 10
271.3205892651
 20
302.5490882086
 30
0.0
 10
271.3205892651
 20
302.4950961451
 30
0.0
  0
SPLINE
  5
2E8
100
AcDbEntity
  8
0
100
AcDbSpline
 62
7
  6
CONTINUOUS
 70
0
 71
3
 72
8
 73
4
 74
0
 42
0.0000001
 43
0.0000001
 44
0.0000000001
 40
0.0
 40
0.0
 40
0.0
 40
0.0
 40
1.0
 40
1.0
 40
1.0
 40
1.0
 10
273.1490444659
 20
294.8950959617
 30
0.0
 10
272.9820980896
 20
294.3898981093
 30
0.0
 10
272.8021843624
 20
293.8885848109
 30
0.0
 10
272.6032750884
 20
293.3950961451
 30
0.0
  0
SPLINE
  5
2E9
100
AcDbEntity
  8
0
100
AcDbSpline
 62
7
  6
CONTINUOUS
 70
0
 71
3
 72
9
 73
5
 74
0
 42
0.0000001
 43
0.0000001
 44
0.0000000001
 40
0.0
 40
0.0
 40
0.0
 40
0.0
 40
0.4999169811
 40
1.0
 40
1.0
 40
1.0
 40
1.0
 10
274.461086882
 20
299.8950961458
 30
0.0
 10
274.282155308
 20
299.0521637279
 30
0.0
 10
273.8936718844
 20
297.3723627601
 30
0.0
 10
273.4195138887
 20
295.7135647703
 30
0.0
 10
273.1490444659
 20
294.8950959617
 30
0.0
  0
SPLINE
  5
2EA
100
AcDbEntity
  8
0
100
AcDbSpline
 62
7
  6
CONTINUOUS
 70
0
 71
3
 72
13
 73
9
 74
0
 42
0.0000001
 43
0.0000001
 44
0.0000000001
 40
0.0
 40
0.0
 40
0.0
 40
0.0
 40
0.1284915299
 40
0.2564370161
 40
0.3834719869
 40
0.5094192912
 40
0.7570727689
 40
1.0
 40
1.0
 40
1.0
 40
1.0
 10
267.6336358624
 20
302.4950961451
 30
0.0
 10
267.6336358624
 20
302.549087683
 30
0.0
 10
267.6154915939
 20
302.6575482473
 30
0.0
 10
267.5419280753
 20
302.8030298258
 30
0.0
 10
267.4367296252
 20
302.9253573295
 30
0.0
 10
267.2705064564
 20
303.05589802
 30
0.0
 10
267.0308653284
 20
303.1643321567
 30
0.0
 10
266.8239203771
 20
303.1950961451
 30
0.0
 10
266.7218434944
 20
303.1950961451
 30
0.0
  0
SPLINE
  5
2EB
100
AcDbEntity
  8
0
100
AcDbSpline
 62
7
  6
CONTINUOUS
 70
0
 71
3
 72
9
 73
5
 74
0
 42
0.0000001
 43
0.0000001
 44
0.0000000001
 40
0.0
 40
0.0
 40
0.0
 40
0.0
 40
0.4999167214
 40
1.0
 40
1.0
 40
1.0
 40
1.0
 10
264.4931382459
 20
299.8950961455
 30
0.0
 10
264.6720696734
 20
299.0521644174
 30
0.0
 10
265.0606087751
 20
297.3723777954
 30
0.0
 10
265.5347111778
 20
295.7135649502
 30
0.0
 10
265.8051806619
 20
294.8950959616
 30
0.0
  0
LINE
  5
2EC
100
AcDbEntity
  8
0
100
AcDbLine
 62
7
  6
CONTINUOUS
 10
258.5159310581
 20
303.6187375313
 11
259.2862784468
 21
303.4150961451
  0
LINE
  5
2ED
100
AcDbEntity
  8
0
100
AcDbLine
 62
7
  6
CONTINUOUS
 10
279.6679466819
 20
303.4150961451
 11
280.4382940688
 21
303.6187375314
  0
SPLINE
  5
2EE
100
AcDbEntity
  8
0
100
AcDbSpline
 62
7
  6
CONTINUOUS
 70
0
 71
3
 72
9
 73
5
 74
0
 42
0.0000001
 43
0.0000001
 44
0.0000000001
 40
0.0
 40
0.0
 40
0.0
 40
0.0
 40
0.4388191142
 40
1.0
 40
1.0
 40
1.0
 40
1.0
 10
259.9376724977
 20
303.0950770219
 30
0.0
 10
260.0830237599
 20
303.1600332358
 30
0.0
 10
260.4268432126
 20
303.2792285372
 30
0.0
 10
260.7785332211
 20
303.3689527589
 30
0.0
 10
260.9771125638
 20
303.4138816038
 30
0.0
  0
SPLINE
  5
2EF
100
AcDbEntity
  8
0
100
AcDbSpline
 62
7
  6
CONTINUOUS
 70
0
 71
3
 72
9
 73
5
 74
0
 42
0.0000001
 43
0.0000001
 44
0.0000000001
 40
0.0
 40
0.0
 40
0.0
 40
0.0
 40
0.5611824123
 40
1.0
 40
1.0
 40
1.0
 40
1.0
 10
277.9771125638
 20
303.4138834687
 30
0.0
 10
278.1756929719
 20
303.3689543409
 30
0.0
 10
278.5273839471
 20
303.2792292208
 30
0.0
 10
278.8712027672
 20
303.160029558
 30
0.0
 10
279.0165539351
 20
303.0950734408
 30
0.0
  0
ELLIPSE
  5
2F0
100
AcDbEntity
  8
0
100
AcDbEllipse
 62
7
  6
CONTINUOUS
 10
272.4181231012
 20
302.4950961451
 30
0.0
 11
0.0
 21
0.7
 31
0.0
 40
0.4948388632
 41
0.5410995254
 42
1.271717959
  0
ELLIPSE
  5
2F1
100
AcDbEntity
  8
0
100
AcDbEllipse
 62
7
  6
CONTINUOUS
 10
266.5361020263
 20
302.4950961451
 30
0.0
 11
-0.0
 21
0.7
 31
0.0
 40
0.4948388632
 41
-1.2717179591
 42
-0.5410995255
  0
ELLIPSE
  5
2F2
100
AcDbEntity
  8
0
100
AcDbEllipse
 62
7
  6
CONTINUOUS
 10
269.4771125638
 20
301.9367186491
 30
0.0
 11
10.0
 21
-0.0
 31
0.0
 40
0.1405408347
 41
-2.8368999996
 42
-2.8217792587
  0
ELLIPSE
  5
2F3
100
AcDbEntity
  8
0
100
AcDbEllipse
 62
7
  6
CONTINUOUS
 10
269.4771125638
 20
301.9367186491
 30
0.0
 11
10.0
 21
-0.0
 31
0.0
 40
0.1405408347
 41
-0.3198133949
 42
-0.304692654
  0
ENDSEC
  0
SECTION
  2
OBJECTS
  0
DICTIONARY
  5
C
100
AcDbDictionary
280
0
281
1
  3
ACAD_GROUP
350
D
  3
ACAD_MLINESTYLE
350
17
  3
ACAD_LAYOUT
350
1A
  3
ACAD_PLOTSETTINGS
350
19
  3
ACAD_PLOTSTYLENAME
350
E
  0
DICTIONARY
  5
D
102
{ACAD_REACTORS
330
C
102
}
100
AcDbDictionary
280
0
281
1
  0
ACDBDICTIONARYWDFLT
  5
E
102
{ACAD_REACTORS
330
C
102
}
100
AcDbDictionary
281
1
  3
Normal
350
F
100
AcDbDictionaryWithDefault
340
F
  0
DICTIONARY
  5
17
102
{ACAD_REACTORS
330
C
102
}
100
AcDbDictionary
280
0
281
1
  3
Standard
350
18
  0
DICTIONARY
  5
19
102
{ACAD_REACTORS
330
C
102
}
100
AcDbDictionary
281
1
  0
DICTIONARY
  5
1A
102
{ACAD_REACTORS
330
C
102
}
100
AcDbDictionary
281
1
  3
Model
350
2F4
  3
Layout1
350
2F5
  0
ACDBPLACEHOLDER
  5
F
102
{ACAD_REACTORS
330
E
102
}
  0
MLINESTYLE
  5
18
102
{ACAD_REACTORS
330
17
102
}
100
AcDbMlineStyle
  2
STANDARD
 70
0
  3

 62
256
 51
90.0
 52
90.0
 71
2
 49
0.5
 62
256
  6
BYLAYER
 49
-0.5
 62
256
  6
BYLAYER
  0
LAYOUT
  5
2F4
102
{ACAD_REACTORS
330
1A
102
}
100
AcDbPlotSettings
  1

  2
none_device
  4
ANSI_C_(22.00_x_17.00_Inches)
  6

 40
0.0
 41
0.0
 42
0.0
 43
0.0
 44
558.8
 45
431.8
 46
0.0
 47
0.0
 48
0.0
 49
0.0
140
0.0
141
0.0
142
1.0
143
1.0
 70
1024
 72
1
 73
0
 74
0
  7

 75
0
147
1.0
148
0.0
149
0.0
100
AcDbLayout
  1
Model
 70
0
 71
0
 10
0.0
 20
0.0
 11
558.8
 21
431.8
 12
0.0
 22
0.0
 32
0.0
 14
0.0
 24
0.0
 34
0.0
 15
0.0
 25
0.0
 35
0.0
146
0.0
 13
0.0
 23
0.0
 33
0.0
 16
1.0
 26
0.0
 36
0.0
 17
0.0
 27
1.0
 37
0.0
 76
0
330
217
345
0
346
0
  0
LAYOUT
  5
2F5
102
{ACAD_REACTORS
330
1A
102
}
100
AcDbPlotSettings
  1

  2
none_device
  4
ANSI_C_(22.00_x_17.00_Inches)
  6

 40
0.0
 41
0.0
 42
0.0
 43
0.0
 44
558.8
 45
431.8
 46
0.0
 47
0.0
 48
0.0
 49
0.0
140
0.0
141
0.0
142
1.0
143
1.0
 70
0
 72
1
 73
0
 74
0
  7

 75
0
147
1.0
148
0.0
149
0.0
100
AcDbLayout
  1
Layout1
 70
0
 71
1
 10
0.0
 20
0.0
 11
558.8
 21
431.8
 12
0.0
 22
0.0
 32
0.0
 14
0.0
 24
0.0
 34
0.0
 15
0.0
 25
0.0
 35
0.0
146
0.0
 13
0.0
 23
0.0
 33
0.0
 16
1.0
 26
0.0
 36
0.0
 17
0.0
 27
1.0
 37
0.0
 76
0
330
218
345
0
346
0
  0
ENDSEC
  0
EOF
