999
DXF file: Y:\001_SCHNEIDER_PARIS\maxime fuentes - génération CAD 2D\TRAVAIL\XB4BW36B5_2D-Views\xb4bw36b5_2d-views_5.dxf
999
Pro/ENGINEER 2018260 by Parametric Technology Corporation
  0
SECTION
  2
HEADER
  9
$ACADVER
  1
AC1027
  9
$DWGCODEPAGE
  3
ANSI_1252
  9
$EXTMAX
 10
558.8
 20
431.8
 30
0.0
  9
$EXTMIN
 10
0.0
 20
0.0
 30
0.0
  9
$LIMMIN
 10
0.0
 20
0.0
  9
$LIMMAX
 10
558.8
 20
431.8
  9
$VIEWCTR
 10
279.4
 20
215.9
  9
$VIEWSIZE
 40
431.8
  9
$CLAYER
  8
0
  9
$LTSCALE
 40
30.734
  9
$CELTYPE
  6
BYLAYER
  9
$DIMSCALE
 40
1.0
  9
$DIMASZ
 40
3.5
  9
$DIMEXO
 40
1.0
  9
$DIMDLI
 40
21.2344
  9
$DIMEXE
 40
3.0
  9
$DIMCEN
 40
5.0292
  9
$DIMLFAC
 40
1.0
  9
$DIMBLK
  1
_FILLED
  9
$DIMALT
 70
0
  9
$DIMALTF
 40
0.0393700787
  9
$DIMTXT
 40
4.0
  9
$DIMTOL
 70
1
  9
$DIMLIM
 70
0
  9
$DIMTFAC
 40
1.0
  9
$DIMTP
 40
0.0001
  9
$DIMTM
 40
0.0001
  9
$DIMGAP
 40
0.625
  9
$DIMDSEP
 70
46
  9
$AUNITS
 70
0
  9
$PDMODE
 70
0
  9
$PDSIZE
 40
0.01
  9
$HANDSEED
  5
31F
  9
$TILEMODE
 70
1
  9
$MEASUREMENT
 70
1
  9
$INSUNITS
 70
4
  0
ENDSEC
  0
SECTION
  2
CLASSES
  0
CLASS
  1
ACDBDICTIONARYWDFLT
  2
AcDbDictionaryWithDefault
  3
AutoCAD 2000
 90
0
 91
1
280
0
281
0
  0
CLASS
  1
ACDBPLACEHOLDER
  2
AcDbPlaceHolder
  3
AutoCAD 2000
 90
0
 91
1
280
0
281
0
  0
CLASS
  1
LAYOUT
  2
AcDbLayout
  3
AutoCAD 2000
 90
0
 91
0
280
0
281
0
  0
ENDSEC
  0
SECTION
  2
TABLES
  0
TABLE
  2
VPORT
  5
8
100
AcDbSymbolTable
 70
2
  0
VPORT
  5
1F4
100
AcDbSymbolTableRecord
100
AcDbViewportTableRecord
  2
*ACTIVE
 70
0
 10
0.0
 20
0.0
 11
1.0
 21
1.0
 12
279.4
 22
215.9
 13
0.0
 23
0.0
 14
1.0
 24
1.0
 15
0.0
 25
0.0
 16
0.0
 26
0.0
 36
1.0
 17
0.0
 27
0.0
 37
0.0
 40
431.8
 41
1.2941176471
 42
50.0
 43
0.0
 44
0.0
 50
0.0
 51
0.0
 71
0
 72
100
 73
1
 74
1
 75
0
 76
0
 77
0
 78
0
  0
ENDTAB
  0
TABLE
  2
LTYPE
  5
5
100
AcDbSymbolTable
 70
6
  0
LTYPE
  5
14
100
AcDbSymbolTableRecord
100
AcDbLinetypeTableRecord
  2
BYBLOCK
 70
0
  3

 72
65
 73
0
 40
0.0
  0
LTYPE
  5
15
100
AcDbSymbolTableRecord
100
AcDbLinetypeTableRecord
  2
BYLAYER
 70
0
  3

 72
65
 73
0
 40
0.0
  0
LTYPE
  5
16
100
AcDbSymbolTableRecord
100
AcDbLinetypeTableRecord
  2
CONTINUOUS
 70
64
  3
Solid line
 72
65
 73
0
 40
0.0
  0
LTYPE
  5
1F5
100
AcDbSymbolTableRecord
100
AcDbLinetypeTableRecord
  2
CENTER
 70
64
  3
____ _ ____ _ ____ _ ____ _ ____ _ ____ _ ____
 72
65
 73
4
 40
0.6
 49
0.375
 74
0
 49
-0.075
 74
0
 49
0.075
 74
0
 49
-0.075
 74
0
  0
LTYPE
  5
1F6
100
AcDbSymbolTableRecord
100
AcDbLinetypeTableRecord
  2
HIDDEN
 70
64
  3
- - - - - - - - - - - - - - - - - - - -
 72
65
 73
2
 40
0.2
 49
0.1
 74
0
 49
-0.1
 74
0
  0
LTYPE
  5
1F7
100
AcDbSymbolTableRecord
100
AcDbLinetypeTableRecord
  2
PHANTOM
 70
64
  3
_____ _ _ _____ _ _ _____ _ _ _____
 72
65
 73
6
 40
0.8
 49
0.45
 74
0
 49
-0.05
 74
0
 49
0.1
 74
0
 49
-0.05
 74
0
 49
0.1
 74
0
 49
-0.05
 74
0
  0
LTYPE
  5
1F8
100
AcDbSymbolTableRecord
100
AcDbLinetypeTableRecord
  2
DOT
 70
64
  3
. . . . . . . . . . . . . . . . . . . .
 72
65
 73
2
 40
0.2
 49
0.1
 74
0
 49
-0.1
 74
0
  0
LTYPE
  5
1F9
100
AcDbSymbolTableRecord
100
AcDbLinetypeTableRecord
  2
DASHED
 70
64
  3
- - - - - - - - - - - - - - - - - - - -
 72
65
 73
2
 40
0.2
 49
0.1
 74
0
 49
-0.1
 74
0
  0
ENDTAB
  0
TABLE
  2
LAYER
  5
2
100
AcDbSymbolTable
 70
36
  0
LAYER
  5
10
100
AcDbSymbolTableRecord
100
AcDbLayerTableRecord
  2
0
 70
0
 62
7
  6
CONTINUOUS
370
-3
390
F
  0
LAYER
  5
1FA
100
AcDbSymbolTableRecord
100
AcDbLayerTableRecord
  2
DEFAULT_1
 70
0
 62
7
  6
CENTER
370
-3
390
F
  0
LAYER
  5
1FB
100
AcDbSymbolTableRecord
100
AcDbLayerTableRecord
  2
DEFAULT_2
 70
0
 62
8
  6
HIDDEN
370
-3
390
F
  0
LAYER
  5
1FC
100
AcDbSymbolTableRecord
100
AcDbLayerTableRecord
  2
DEFAULT_3
 70
0
 62
7
  6
PHANTOM
370
-3
390
F
  0
LAYER
  5
1FD
100
AcDbSymbolTableRecord
100
AcDbLayerTableRecord
  2
01_ALL_DTM_PLN
 70
0
 62
7
  6
CONTINUOUS
370
-3
390
F
  0
LAYER
  5
1FE
100
AcDbSymbolTableRecord
100
AcDbLayerTableRecord
  2
01__ASM_ALL_DTM_PLN
 70
0
 62
7
  6
CONTINUOUS
370
-3
390
F
  0
LAYER
  5
1FF
100
AcDbSymbolTableRecord
100
AcDbLayerTableRecord
  2
01__ASM_DEF_DTM_PLN
 70
0
 62
7
  6
CONTINUOUS
370
-3
390
F
  0
LAYER
  5
200
100
AcDbSymbolTableRecord
100
AcDbLayerTableRecord
  2
01___PRT_ALL_DTM_PLN
 70
0
 62
7
  6
CONTINUOUS
370
-3
390
F
  0
LAYER
  5
201
100
AcDbSymbolTableRecord
100
AcDbLayerTableRecord
  2
01___PRT_DEF_DTM_PLN
 70
0
 62
7
  6
CONTINUOUS
370
-3
390
F
  0
LAYER
  5
202
100
AcDbSymbolTableRecord
100
AcDbLayerTableRecord
  2
02_ALL_AXES
 70
0
 62
7
  6
CONTINUOUS
370
-3
390
F
  0
LAYER
  5
203
100
AcDbSymbolTableRecord
100
AcDbLayerTableRecord
  2
02__ASM_ALL_AXES
 70
0
 62
7
  6
CONTINUOUS
370
-3
390
F
  0
LAYER
  5
204
100
AcDbSymbolTableRecord
100
AcDbLayerTableRecord
  2
02___PRT_ALL_AXES
 70
0
 62
7
  6
CONTINUOUS
370
-3
390
F
  0
LAYER
  5
205
100
AcDbSymbolTableRecord
100
AcDbLayerTableRecord
  2
03_ALL_CURVES
 70
0
 62
7
  6
CONTINUOUS
370
-3
390
F
  0
LAYER
  5
206
100
AcDbSymbolTableRecord
100
AcDbLayerTableRecord
  2
03__ASM_ALL_CURVES
 70
0
 62
7
  6
CONTINUOUS
370
-3
390
F
  0
LAYER
  5
207
100
AcDbSymbolTableRecord
100
AcDbLayerTableRecord
  2
03___PRT_ALL_CURVES
 70
0
 62
7
  6
CONTINUOUS
370
-3
390
F
  0
LAYER
  5
208
100
AcDbSymbolTableRecord
100
AcDbLayerTableRecord
  2
04_ALL_DTM_PNT
 70
0
 62
7
  6
CONTINUOUS
370
-3
390
F
  0
LAYER
  5
209
100
AcDbSymbolTableRecord
100
AcDbLayerTableRecord
  2
04__ASM_ALL_DTM_PNT
 70
0
 62
7
  6
CONTINUOUS
370
-3
390
F
  0
LAYER
  5
20A
100
AcDbSymbolTableRecord
100
AcDbLayerTableRecord
  2
04___PRT_ALL_DTM_PNT
 70
0
 62
7
  6
CONTINUOUS
370
-3
390
F
  0
LAYER
  5
20B
100
AcDbSymbolTableRecord
100
AcDbLayerTableRecord
  2
05_ALL_DTM_CSYS
 70
0
 62
7
  6
CONTINUOUS
370
-3
390
F
  0
LAYER
  5
20C
100
AcDbSymbolTableRecord
100
AcDbLayerTableRecord
  2
05__ASM_ALL_DTM_CSYS
 70
0
 62
7
  6
CONTINUOUS
370
-3
390
F
  0
LAYER
  5
20D
100
AcDbSymbolTableRecord
100
AcDbLayerTableRecord
  2
05__ASM_DEF_DTM_CSYS
 70
0
 62
7
  6
CONTINUOUS
370
-3
390
F
  0
LAYER
  5
20E
100
AcDbSymbolTableRecord
100
AcDbLayerTableRecord
  2
05___PRT_ALL_DTM_CSYS
 70
0
 62
7
  6
CONTINUOUS
370
-3
390
F
  0
LAYER
  5
20F
100
AcDbSymbolTableRecord
100
AcDbLayerTableRecord
  2
05___PRT_DEF_DTM_CSYS
 70
0
 62
7
  6
CONTINUOUS
370
-3
390
F
  0
LAYER
  5
210
100
AcDbSymbolTableRecord
100
AcDbLayerTableRecord
  2
06_ALL_SURFS
 70
0
 62
7
  6
CONTINUOUS
370
-3
390
F
  0
LAYER
  5
211
100
AcDbSymbolTableRecord
100
AcDbLayerTableRecord
  2
06__ASM_ALL_SURFS
 70
0
 62
7
  6
CONTINUOUS
370
-3
390
F
  0
LAYER
  5
212
100
AcDbSymbolTableRecord
100
AcDbLayerTableRecord
  2
06___PRT_ALL_SURFS
 70
0
 62
7
  6
CONTINUOUS
370
-3
390
F
  0
LAYER
  5
213
100
AcDbSymbolTableRecord
100
AcDbLayerTableRecord
  2
07__ASM_ALL_SKELETONS
 70
0
 62
7
  6
CONTINUOUS
370
-3
390
F
  0
LAYER
  5
214
100
AcDbSymbolTableRecord
100
AcDbLayerTableRecord
  2
CLOSED_SHELL
 70
0
 62
7
  6
CONTINUOUS
370
-3
390
F
  0
LAYER
  5
215
100
AcDbSymbolTableRecord
100
AcDbLayerTableRecord
  2
Colour
 70
0
 62
7
  6
CONTINUOUS
370
-3
390
F
  0
LAYER
  5
216
100
AcDbSymbolTableRecord
100
AcDbLayerTableRecord
  2
ORIENTED_CLOSED_SHE
 70
0
 62
7
  6
CONTINUOUS
370
-3
390
F
  0
ENDTAB
  0
TABLE
  2
STYLE
  5
3
100
AcDbSymbolTable
 70
1
  0
STYLE
  5
11
100
AcDbSymbolTableRecord
100
AcDbTextStyleTableRecord
  2
STANDARD
 70
0
 40
0.0
 41
0.6
 50
0.0
 71
0
 42
0.2
  3
txt
  4

  0
STYLE
  5
217
100
AcDbSymbolTableRecord
100
AcDbTextStyleTableRecord
  2
TEXTSTYLE_1
 70
0
 40
0.0
 41
0.8
 50
0.0
 71
0
 42
0.2
  3
gdt
  4

  0
ENDTAB
  0
TABLE
  2
VIEW
  5
6
100
AcDbSymbolTable
 70
0
  0
ENDTAB
  0
TABLE
  2
UCS
  5
7
100
AcDbSymbolTable
 70
0
  0
ENDTAB
  0
TABLE
  2
APPID
  5
9
100
AcDbSymbolTable
 70
1
  0
APPID
  5
218
100
AcDbSymbolTableRecord
100
AcDbRegAppTableRecord
  2
ACAD
 70
0
  0
ENDTAB
  0
TABLE
  2
BLOCK_RECORD
  5
1
100
AcDbSymbolTable
 70
0
  0
BLOCK_RECORD
  5
219
100
AcDbSymbolTableRecord
100
AcDbBlockTableRecord
  2
*Model_Space
  0
BLOCK_RECORD
  5
21A
100
AcDbSymbolTableRecord
100
AcDbBlockTableRecord
  2
*Paper_Space
  0
BLOCK_RECORD
  5
21B
100
AcDbSymbolTableRecord
100
AcDbBlockTableRecord
  2
_FILLED
  0
ENDTAB
  0
TABLE
  2
DIMSTYLE
  5
A
100
AcDbSymbolTable
 70
1
100
AcDbDimStyleTable
 71
0
  0
DIMSTYLE
105
21C
100
AcDbSymbolTableRecord
100
AcDbDimStyleTableRecord
  2
STANDARD
 70
0
  3

  4

 40
1.0
 41
3.5
 42
1.0
 43
0.38
 44
3.0
 45
0.0
 46
0.0
 47
0.0001
 48
0.0001
140
4.0
141
0.09
142
0.0
143
25.4
144
1.0
145
0.0
146
1.0
147
0.625
 71
1.0
 72
0.0
 73
0
 74
0
 75
0
 76
0
 77
1
 78
8
 79
2
170
0
171
3
172
0
173
0
174
0
175
0
176
0
177
0
178
0
270
2
179
4
271
4
272
4
273
2
274
2
275
0
280
0
281
0
282
0
283
1
284
8
285
0
286
0
287
3
288
0
340
11
278
46
341
21B
342
21B
343
21B
344
21B
  0
ENDTAB
  0
ENDSEC
  0
SECTION
  2
BLOCKS
  0
BLOCK
  5
20
100
AcDbEntity
  8
0
100
AcDbBlockBegin
  2
*Model_Space
 70
0
 10
0.0
 20
0.0
 30
0.0
  3
*Model_Space
  1

  0
ENDBLK
  5
21
100
AcDbEntity
  8
0
100
AcDbBlockEnd
  0
BLOCK
  5
1C
100
AcDbEntity
  8
0
100
AcDbBlockBegin
  2
*Paper_Space
 70
0
 10
0.0
 20
0.0
 30
0.0
  3
*Paper_Space
  1

  0
ENDBLK
  5
1D
100
AcDbEntity
  8
0
100
AcDbBlockEnd
  0
BLOCK
  5
21D
100
AcDbEntity
  8
0
100
AcDbBlockBegin
  2
_FILLED
 70
64
 10
0.0
 20
0.0
  3
_FILLED
  1

  0
SOLID
  5
21E
100
AcDbEntity
  8
0
  6
BYBLOCK
 62
0
100
AcDbTrace
 10
0.0
 20
0.0
 11
-1.0
 21
0.2857142857
 12
-1.0
 22
-0.2857142857
 13
-1.0
 23
-0.2857142857
  0
ENDBLK
  5
21F
100
AcDbEntity
  8
0
  6
BYBLOCK
 62
0
100
AcDbBlockEnd
  0
ENDSEC
  0
SECTION
  2
ENTITIES
  0
LINE
  5
220
100
AcDbEntity
  8
0
100
AcDbLine
 62
7
  6
CONTINUOUS
 10
344.2405079449
 20
181.8955321338
 11
344.2405079449
 21
210.8955321338
  0
LINE
  5
221
100
AcDbEntity
  8
0
100
AcDbLine
 62
7
  6
CONTINUOUS
 10
344.7172093826
 20
208.8955321338
 11
344.2405079442
 21
208.4955321335
  0
LINE
  5
222
100
AcDbEntity
  8
0
100
AcDbLine
 62
7
  6
CONTINUOUS
 10
348.2405079442
 20
212.3514130701
 11
348.2405079442
 21
207.3955321338
  0
LINE
  5
223
100
AcDbEntity
  8
0
100
AcDbLine
 62
7
  6
CONTINUOUS
 10
344.2405079442
 20
181.8955321338
 11
348.8613424374
 21
180.213685921
  0
LINE
  5
224
100
AcDbEntity
  8
0
100
AcDbLine
 62
7
  6
CONTINUOUS
 10
345.5320784083
 20
207.3955321338
 11
345.2405079441
 21
208.8955321338
  0
LINE
  5
225
100
AcDbEntity
  8
0
100
AcDbLine
 62
7
  6
CONTINUOUS
 10
349.2405079449
 20
212.3955321333
 11
349.2405079449
 21
210.2858307644
  0
LINE
  5
226
100
AcDbEntity
  8
0
100
AcDbLine
 62
7
  6
CONTINUOUS
 10
349.2405079442
 20
180.3955321338
 11
349.2405079442
 21
182.5052335028
  0
LINE
  5
227
100
AcDbEntity
  8
0
100
AcDbLine
 62
7
  6
CONTINUOUS
 10
348.8613424389
 20
212.5773783471
 11
344.2405079442
 21
210.8955321338
  0
LINE
  5
228
100
AcDbEntity
  8
0
100
AcDbLine
 62
7
  6
CONTINUOUS
 10
377.0519238499
 20
174.1569993619
 11
380.4519238498
 21
174.8727888356
  0
LINE
  5
229
100
AcDbEntity
  8
0
100
AcDbLine
 62
7
  6
CONTINUOUS
 10
374.5519238506
 20
174.156999362
 11
377.0519238499
 21
174.156999362
  0
LINE
  5
22A
100
AcDbEntity
  8
0
100
AcDbLine
 62
7
  6
CONTINUOUS
 10
374.8519238506
 20
178.3080007051
 11
371.1405079449
 21
177.5553980798
  0
LINE
  5
22B
100
AcDbEntity
  8
0
100
AcDbLine
 62
7
  6
CONTINUOUS
 10
367.3405079449
 20
176.7848323311
 11
364.5202688106
 21
176.2129429417
  0
LINE
  5
22C
100
AcDbEntity
  8
0
100
AcDbLine
 62
7
  6
CONTINUOUS
 10
360.311063669
 20
174.7458431766
 11
362.0067120959
 21
174.9379297245
  0
LWPOLYLINE
  5
22D
100
AcDbEntity
  8
0
100
AcDbPolyline
 62
7
  6
CONTINUOUS
 90
3
 70
0
 10
367.8248027335
 20
176.1626260406
 10
368.5475460477
 20
176.2246812155
 10
369.3386764904
 20
176.2346817981
  0
LINE
  5
22E
100
AcDbEntity
  8
0
100
AcDbLine
 62
7
  6
CONTINUOUS
 10
367.3405079449
 20
176.1459137473
 11
367.824802725
 21
176.1626260378
  0
LINE
  5
22F
100
AcDbEntity
  8
0
100
AcDbLine
 62
7
  6
CONTINUOUS
 10
374.5519238499
 20
176.656999362
 11
374.8519238506
 21
176.656999362
  0
LINE
  5
230
100
AcDbEntity
  8
0
100
AcDbLine
 62
7
  6
CONTINUOUS
 10
367.1724702846
 20
177.1363210644
 11
367.1904446251
 21
177.1363210644
  0
LINE
  5
231
100
AcDbEntity
  8
0
100
AcDbLine
 62
7
  6
CONTINUOUS
 10
380.4519238503
 20
177.656999362
 11
380.8519238506
 21
177.656999362
  0
LINE
  5
232
100
AcDbEntity
  8
0
100
AcDbLine
 62
9
  6
CONTINUOUS
 10
380.8519238506
 20
177.9569993627
 11
374.8519238506
 21
177.9569993627
  0
LINE
  5
233
100
AcDbEntity
  8
0
100
AcDbLine
 62
7
  6
CONTINUOUS
 10
354.8405079449
 20
212.3955321338
 11
354.8405079449
 21
212.5955321331
  0
LINE
  5
234
100
AcDbEntity
  8
0
100
AcDbLine
 62
7
  6
CONTINUOUS
 10
361.9071885223
 20
176.1834959846
 11
364.4227984131
 21
176.6936125159
  0
LINE
  5
235
100
AcDbEntity
  8
0
100
AcDbLine
 62
7
  6
CONTINUOUS
 10
380.8519238506
 20
180.0251181325
 11
381.4871700883
 21
180.1539336569
  0
LINE
  5
236
100
AcDbEntity
  8
0
100
AcDbLine
 62
7
  6
CONTINUOUS
 10
377.2004089186
 20
179.7293861823
 11
378.8003355949
 21
180.05382005
  0
LINE
  5
237
100
AcDbEntity
  8
0
100
AcDbLine
 62
7
  6
CONTINUOUS
 10
378.7058227525
 20
180.5199046141
 11
376.7457164789
 21
180.122433362
  0
LINE
  5
238
100
AcDbEntity
  8
0
100
AcDbLine
 62
7
  6
CONTINUOUS
 10
378.4844541894
 20
179.856999362
 11
379.1480719903
 21
179.856999362
  0
LINE
  5
239
100
AcDbEntity
  8
0
100
AcDbLine
 62
7
  6
CONTINUOUS
 10
365.5795620614
 20
179.8955321338
 11
369.0527661099
 21
179.8955321338
  0
LINE
  5
23A
100
AcDbEntity
  8
0
100
AcDbLine
 62
7
  6
CONTINUOUS
 10
370.2573092594
 20
180.3955321338
 11
366.3993536717
 21
180.3955321338
  0
LINE
  5
23B
100
AcDbEntity
  8
0
100
AcDbLine
 62
7
  6
CONTINUOUS
 10
354.2275302511
 20
180.3955321338
 11
348.3617240741
 21
180.3955321338
  0
LINE
  5
23C
100
AcDbEntity
  8
0
100
AcDbLine
 62
7
  6
CONTINUOUS
 10
349.5926023964
 20
182.8006758292
 11
356.9635896762
 21
181.5009718973
  0
LINE
  5
23D
100
AcDbEntity
  8
0
100
AcDbLine
 62
7
  6
CONTINUOUS
 10
359.4940011561
 20
174.7496908951
 11
358.5261114083
 21
179.5227826757
  0
LINE
  5
23E
100
AcDbEntity
  8
0
100
AcDbLine
 62
7
  6
CONTINUOUS
 10
378.4681046502
 20
181.6921975477
 11
376.5079983783
 21
181.2947262959
  0
LINE
  5
23F
100
AcDbEntity
  8
0
100
AcDbLine
 62
7
  6
CONTINUOUS
 10
376.7223285489
 20
181.7732521823
 11
378.3833666122
 21
182.1100782452
  0
LINE
  5
240
100
AcDbEntity
  8
0
100
AcDbLine
 62
7
  6
CONTINUOUS
 10
361.3072056671
 20
179.1422764046
 11
363.8228155579
 21
179.6523929359
  0
LINE
  5
241
100
AcDbEntity
  8
0
100
AcDbLine
 62
7
  6
CONTINUOUS
 10
380.8519238506
 20
183.1055633519
 11
380.8871872332
 21
183.1127140769
  0
LINE
  5
242
100
AcDbEntity
  8
0
100
AcDbLine
 62
7
  6
CONTINUOUS
 10
374.8519238506
 20
182.3893152571
 11
371.1405079451
 21
181.6367126318
  0
LINE
  5
243
100
AcDbEntity
  8
0
100
AcDbLine
 62
7
  6
CONTINUOUS
 10
365.2624683604
 20
180.4447610599
 11
363.7253451605
 21
180.13306251
  0
LINE
  5
244
100
AcDbEntity
  8
0
100
AcDbLine
 62
7
  6
CONTINUOUS
 10
377.6579641724
 20
182.056999362
 11
376.9858984469
 21
182.056999362
  0
LINE
  5
245
100
AcDbEntity
  8
0
100
AcDbLine
 62
7
  6
CONTINUOUS
 10
387.7405079449
 20
182.3455321338
 11
399.3301558801
 21
182.3455321338
  0
LINE
  5
246
100
AcDbEntity
  8
0
100
AcDbLine
 62
7
  6
CONTINUOUS
 10
370.4905079449
 20
182.6205321338
 11
370.2573092594
 21
182.6205321338
  0
LINE
  5
247
100
AcDbEntity
  8
0
100
AcDbLine
 62
7
  6
CONTINUOUS
 10
370.594423016
 20
182.9272862967
 11
371.0643780375
 21
182.9272862967
  0
LINE
  5
248
100
AcDbEntity
  8
0
100
AcDbLine
 62
7
  6
CONTINUOUS
 10
387.7405079449
 20
183.0205321338
 11
386.4905079449
 21
183.0205321338
  0
LINE
  5
249
100
AcDbEntity
  8
0
100
AcDbLine
 62
7
  6
CONTINUOUS
 10
371.1405079449
 20
182.844487096
 11
371.0785869754
 21
182.8467034024
  0
LINE
  5
24A
100
AcDbEntity
  8
0
100
AcDbLine
 62
7
  6
CONTINUOUS
 10
364.8405079442
 20
181.1756266227
 11
367.1724718788
 21
177.1363183031
  0
LINE
  5
24B
100
AcDbEntity
  8
0
100
AcDbLine
 62
7
  6
CONTINUOUS
 10
360.3110584846
 20
174.7458687434
 11
360.2993761314
 21
174.803479586
  0
LINE
  5
24C
100
AcDbEntity
  8
0
100
AcDbLine
 62
7
  6
CONTINUOUS
 10
359.2888214518
 20
179.7869709867
 11
359.2771390987
 21
179.8445818293
  0
LINE
  5
24D
100
AcDbEntity
  8
0
100
AcDbLine
 62
7
  6
CONTINUOUS
 10
360.913684985
 20
180.3281291054
 11
362.0066924597
 21
174.9380265596
  0
LINE
  5
24E
100
AcDbEntity
  8
0
100
AcDbLine
 62
9
  6
CONTINUOUS
 10
361.9071885223
 20
176.1834959846
 11
361.3072056671
 21
179.1422764046
  0
LINE
  5
24F
100
AcDbEntity
  8
0
100
AcDbLine
 62
9
  6
CONTINUOUS
 10
374.8519238506
 20
183.9569993627
 11
380.8519238506
 21
183.9569993627
  0
LINE
  5
250
100
AcDbEntity
  8
0
100
AcDbLine
 62
7
  6
CONTINUOUS
 10
399.8204639368
 20
184.3455321338
 11
399.8905079445
 21
184.3455321338
  0
LINE
  5
251
100
AcDbEntity
  8
0
100
AcDbLine
 62
7
  6
CONTINUOUS
 10
374.8519238506
 20
184.456999362
 11
380.8519238506
 21
184.456999362
  0
LINE
  5
252
100
AcDbEntity
  8
0
100
AcDbLine
 62
7
  6
CONTINUOUS
 10
364.8405079449
 20
184.5955321338
 11
364.6228950361
 21
184.5955321338
  0
LINE
  5
253
100
AcDbEntity
  8
0
100
AcDbLine
 62
7
  6
CONTINUOUS
 10
372.6405193243
 20
185.1955321338
 11
374.8519238506
 21
185.1955321338
  0
LINE
  5
254
100
AcDbEntity
  8
0
100
AcDbLine
 62
7
  6
CONTINUOUS
 10
370.4508872012
 20
184.0740756175
 11
370.6405079456
 21
183.9955321332
  0
LINE
  5
255
100
AcDbEntity
  8
0
100
AcDbLine
 62
7
  6
CONTINUOUS
 10
364.8405079449
 20
183.0955321338
 11
366.3993536717
 21
180.3955321338
  0
LINE
  5
256
100
AcDbEntity
  8
0
100
AcDbLine
 62
7
  6
CONTINUOUS
 10
364.5202688106
 20
176.2129429412
 11
363.7253451604
 21
180.1330625106
  0
LINE
  5
257
100
AcDbEntity
  8
0
100
AcDbLine
 62
7
  6
CONTINUOUS
 10
374.6405079446
 20
185.5632902267
 11
372.6405079457
 21
185.5632902267
  0
LINE
  5
258
100
AcDbEntity
  8
0
100
AcDbLine
 62
7
  6
CONTINUOUS
 10
386.4905079449
 20
185.7205321338
 11
383.5405079449
 21
185.7205321338
  0
LINE
  5
259
100
AcDbEntity
  8
0
100
AcDbLine
 62
7
  6
CONTINUOUS
 10
374.6405079457
 20
185.868227098
 11
371.051201889
 21
185.868227098
  0
LINE
  5
25A
100
AcDbEntity
  8
0
100
AcDbLine
 62
7
  6
CONTINUOUS
 10
381.9405079449
 20
186.0955321338
 11
383.5405079449
 21
186.0955321338
  0
LINE
  5
25B
100
AcDbEntity
  8
0
100
AcDbLine
 62
7
  6
CONTINUOUS
 10
380.8519238506
 20
186.4955321338
 11
381.9405079449
 21
186.4955321338
  0
LINE
  5
25C
100
AcDbEntity
  8
0
100
AcDbLine
 62
7
  6
CONTINUOUS
 10
364.0405079449
 20
188.7389141646
 11
364.0405079449
 21
184.360232475
  0
LINE
  5
25D
100
AcDbEntity
  8
0
100
AcDbLine
 62
7
  6
CONTINUOUS
 10
364.8405079449
 20
181.175555756
 11
364.8405079449
 21
188.9021282565
  0
LINE
  5
25E
100
AcDbEntity
  8
0
100
AcDbLine
 62
7
  6
CONTINUOUS
 10
378.0533474921
 20
219.9304617074
 11
375.0326919306
 21
215.6152394753
  0
LINE
  5
25F
100
AcDbEntity
  8
0
100
AcDbLine
 62
7
  6
CONTINUOUS
 10
369.4321959306
 20
207.5392224939
 11
371.3868625898
 21
209.6379335152
  0
LINE
  5
260
100
AcDbEntity
  8
0
100
AcDbLine
 62
7
  6
CONTINUOUS
 10
373.1150158218
 20
210.4311734961
 11
369.7625798214
 21
207.2955321338
  0
LINE
  5
261
100
AcDbEntity
  8
0
100
AcDbLine
 62
9
  6
CONTINUOUS
 10
380.8519238506
 20
188.2569993628
 11
374.8519238506
 21
188.2569993628
  0
LINE
  5
262
100
AcDbEntity
  8
0
100
AcDbLine
 62
7
  6
CONTINUOUS
 10
371.9637453889
 20
188.5955321338
 11
374.8519238506
 21
188.5955321338
  0
LINE
  5
263
100
AcDbEntity
  8
0
100
AcDbLine
 62
7
  6
CONTINUOUS
 10
380.8519238506
 20
189.7955321338
 11
383.1405079449
 21
189.7955321338
  0
LINE
  5
264
100
AcDbEntity
  8
0
100
AcDbLine
 62
7
  6
CONTINUOUS
 10
365.4405079453
 20
208.6955321337
 11
365.4405079453
 21
211.8955321334
  0
LINE
  5
265
100
AcDbEntity
  8
0
100
AcDbLine
 62
7
  6
CONTINUOUS
 10
365.5405079449
 20
211.9955321338
 11
365.5405079449
 21
208.6955321338
  0
LINE
  5
266
100
AcDbEntity
  8
0
100
AcDbLine
 62
7
  6
CONTINUOUS
 10
366.3405079449
 20
211.9955321338
 11
366.3405079449
 21
211.8455321338
  0
LINE
  5
267
100
AcDbEntity
  8
0
100
AcDbLine
 62
7
  6
CONTINUOUS
 10
366.3405079449
 20
209.2955321338
 11
366.3405079449
 21
208.6955321338
  0
LINE
  5
268
100
AcDbEntity
  8
0
100
AcDbLine
 62
7
  6
CONTINUOUS
 10
366.6405079446
 20
211.9955321345
 11
366.6405079448
 21
211.8455321342
  0
LINE
  5
269
100
AcDbEntity
  8
0
100
AcDbLine
 62
7
  6
CONTINUOUS
 10
366.6405079448
 20
209.2955321334
 11
366.6405079446
 21
209.1955321338
  0
LINE
  5
26A
100
AcDbEntity
  8
0
100
AcDbLine
 62
9
  6
CONTINUOUS
 10
366.6405079448
 20
209.2955321334
 11
366.6405079448
 21
211.8455321342
  0
LINE
  5
26B
100
AcDbEntity
  8
0
100
AcDbLine
 62
7
  6
CONTINUOUS
 10
366.8405079449
 20
209.1955321338
 11
366.8405079449
 21
209.0709543018
  0
LINE
  5
26C
100
AcDbEntity
  8
0
100
AcDbLine
 62
7
  6
CONTINUOUS
 10
367.3405079449
 20
200.1955321346
 11
367.3405079449
 21
192.5955321338
  0
LINE
  5
26D
100
AcDbEntity
  8
0
100
AcDbLine
 62
7
  6
CONTINUOUS
 10
367.3405079449
 20
176.1455387186
 11
367.3405079449
 21
177.0786899881
  0
LINE
  5
26E
100
AcDbEntity
  8
0
100
AcDbLine
 62
7
  6
CONTINUOUS
 10
387.7405079449
 20
191.5437378981
 11
386.4905079449
 21
191.5437378981
  0
LINE
  5
26F
100
AcDbEntity
  8
0
100
AcDbLine
 62
7
  6
CONTINUOUS
 10
367.8405079449
 20
192.3955321338
 11
368.2623334508
 21
192.3955321338
  0
LINE
  5
270
100
AcDbEntity
  8
0
100
AcDbLine
 62
7
  6
CONTINUOUS
 10
367.8405079457
 20
192.5955321331
 11
367.3405079457
 21
192.5955321331
  0
LINE
  5
271
100
AcDbEntity
  8
0
100
AcDbLine
 62
7
  6
CONTINUOUS
 10
367.8405079449
 20
191.6955321338
 11
367.8405079449
 21
209.1955321338
  0
LINE
  5
272
100
AcDbEntity
  8
0
100
AcDbLine
 62
7
  6
CONTINUOUS
 10
367.8405079449
 20
211.9955321345
 11
367.8405079449
 21
215.0955321338
  0
LINE
  5
273
100
AcDbEntity
  8
0
100
AcDbLine
 62
7
  6
CONTINUOUS
 10
368.8405079456
 20
194.4431223054
 11
368.8405079456
 21
193.0095321346
  0
LINE
  5
274
100
AcDbEntity
  8
0
100
AcDbLine
 62
7
  6
CONTINUOUS
 10
368.8405079449
 20
198.3479419625
 11
368.8405079449
 21
199.9490886993
  0
LINE
  5
275
100
AcDbEntity
  8
0
100
AcDbLine
 62
7
  6
CONTINUOUS
 10
368.8405079449
 20
206.7955321331
 11
368.8405079449
 21
207.0955321338
  0
LINE
  5
276
100
AcDbEntity
  8
0
100
AcDbLine
 62
7
  6
CONTINUOUS
 10
368.8405079449
 20
213.1455321345
 11
368.8405079449
 21
215.0955321338
  0
LINE
  5
277
100
AcDbEntity
  8
0
100
AcDbLine
 62
7
  6
CONTINUOUS
 10
369.0405079449
 20
199.2638649464
 11
369.0405079449
 21
199.7289510884
  0
LINE
  5
278
100
AcDbEntity
  8
0
100
AcDbLine
 62
7
  6
CONTINUOUS
 10
369.3405079449
 20
198.8455321338
 11
369.3405079449
 21
193.0922340729
  0
LINE
  5
279
100
AcDbEntity
  8
0
100
AcDbLine
 62
7
  6
CONTINUOUS
 10
368.570610671
 20
194.3955321338
 11
369.3405079449
 21
194.5312857956
  0
LINE
  5
27A
100
AcDbEntity
  8
0
100
AcDbLine
 62
7
  6
CONTINUOUS
 10
368.8405079456
 20
193.2955321338
 11
368.6405079449
 21
193.2955321338
  0
LINE
  5
27B
100
AcDbEntity
  8
0
100
AcDbLine
 62
7
  6
CONTINUOUS
 10
383.1405079449
 20
193.3955321338
 11
380.8519238506
 21
193.3955321338
  0
LINE
  5
27C
100
AcDbEntity
  8
0
100
AcDbLine
 62
7
  6
CONTINUOUS
 10
368.570610671
 20
194.3955321338
 11
367.8405079449
 21
194.3955321338
  0
LINE
  5
27D
100
AcDbEntity
  8
0
100
AcDbLine
 62
7
  6
CONTINUOUS
 10
349.094094978
 20
212.3955321338
 11
348.8613424389
 21
212.5773783471
  0
LINE
  5
27E
100
AcDbEntity
  8
0
100
AcDbLine
 62
7
  6
CONTINUOUS
 10
382.0413049967
 20
181.8065239984
 11
380.8871872332
 21
183.1127140769
  0
LINE
  5
27F
100
AcDbEntity
  8
0
100
AcDbLine
 62
7
  6
CONTINUOUS
 10
371.1405079453
 20
182.4955321342
 11
371.0113658344
 21
183.2279334375
  0
LINE
  5
280
100
AcDbEntity
  8
0
100
AcDbLine
 62
7
  6
CONTINUOUS
 10
370.2573092594
 20
183.4955321338
 11
370.2573092594
 21
180.3955321342
  0
LINE
  5
281
100
AcDbEntity
  8
0
100
AcDbLine
 62
7
  6
CONTINUOUS
 10
370.4905079449
 20
183.8455321338
 11
370.4905079449
 21
182.6205704454
  0
LINE
  5
282
100
AcDbEntity
  8
0
100
AcDbLine
 62
7
  6
CONTINUOUS
 10
370.6405079449
 20
184.6407922829
 11
370.6405079449
 21
183.9955321331
  0
LINE
  5
283
100
AcDbEntity
  8
0
100
AcDbLine
 62
7
  6
CONTINUOUS
 10
371.1405079449
 20
179.5912938673
 11
371.1405079449
 21
176.945532134
  0
LINE
  5
284
100
AcDbEntity
  8
0
100
AcDbLine
 62
7
  6
CONTINUOUS
 10
371.1405079453
 20
179.595500418
 11
371.1405079449
 21
182.8463889937
  0
LINE
  5
285
100
AcDbEntity
  8
0
100
AcDbLine
 62
7
  6
CONTINUOUS
 10
371.4405079449
 20
210.88006208
 11
371.4405079449
 21
209.7742431557
  0
LINE
  5
286
100
AcDbEntity
  8
0
100
AcDbLine
 62
7
  6
CONTINUOUS
 10
348.8613424374
 20
180.213685921
 11
349.0940949754
 21
180.3955321335
  0
LINE
  5
287
100
AcDbEntity
  8
0
100
AcDbLine
 62
7
  6
CONTINUOUS
 10
369.0403925018
 20
207.2955321338
 11
368.6905079449
 21
209.0955321338
  0
LINE
  5
288
100
AcDbEntity
  8
0
100
AcDbLine
 62
7
  6
CONTINUOUS
 10
368.6642139803
 20
209.4336939325
 11
368.9632023468
 21
207.8955321333
  0
LINE
  5
289
100
AcDbEntity
  8
0
100
AcDbLine
 62
7
  6
CONTINUOUS
 10
372.6405079449
 20
185.5632902267
 11
372.6405079449
 21
185.1955212974
  0
LINE
  5
28A
100
AcDbEntity
  8
0
100
AcDbLine
 62
7
  6
CONTINUOUS
 10
372.7405079449
 20
213.1455321338
 11
372.7405079449
 21
219.5955321338
  0
LINE
  5
28B
100
AcDbEntity
  8
0
100
AcDbLine
 62
7
  6
CONTINUOUS
 10
373.1150158218
 20
210.4311734961
 11
373.1150158218
 21
213.1455321332
  0
LINE
  5
28C
100
AcDbEntity
  8
0
100
AcDbLine
 62
7
  6
CONTINUOUS
 10
374.2405079449
 20
213.1455321345
 11
374.2405079449
 21
219.5955321338
  0
LINE
  5
28D
100
AcDbEntity
  8
0
100
AcDbLine
 62
7
  6
CONTINUOUS
 10
374.5519238506
 20
176.656999362
 11
374.5519238506
 21
174.156999362
  0
LINE
  5
28E
100
AcDbEntity
  8
0
100
AcDbLine
 62
7
  6
CONTINUOUS
 10
374.6405079449
 20
213.1455321345
 11
374.6405079449
 21
196.595532133
  0
LINE
  5
28F
100
AcDbEntity
  8
0
100
AcDbLine
 62
7
  6
CONTINUOUS
 10
374.6405079449
 20
185.5632902212
 11
374.6405079449
 21
185.8682270994
  0
LINE
  5
290
100
AcDbEntity
  8
0
100
AcDbLine
 62
7
  6
CONTINUOUS
 10
374.8519238506
 20
174.1569993613
 11
374.8519238506
 21
215.0417771307
  0
LINE
  5
291
100
AcDbEntity
  8
0
100
AcDbLine
 62
7
  6
CONTINUOUS
 10
368.0786259064
 20
176.9841339582
 11
369.2200637693
 21
180.3955321338
  0
LINE
  5
292
100
AcDbEntity
  8
0
100
AcDbLine
 62
7
  6
CONTINUOUS
 10
370.2573092594
 20
183.4955321339
 11
374.6405079449
 21
196.5955321339
  0
LINE
  5
293
100
AcDbEntity
  8
0
100
AcDbLine
 62
7
  6
CONTINUOUS
 10
369.3405079449
 20
193.5095321339
 11
368.4262943826
 21
192.5953185715
  0
LINE
  5
294
100
AcDbEntity
  8
0
100
AcDbLine
 62
7
  6
CONTINUOUS
 10
364.4248464691
 20
189.5269249182
 11
367.8405079457
 21
192.1955321346
  0
LINE
  5
295
100
AcDbEntity
  8
0
100
AcDbLine
 62
7
  6
CONTINUOUS
 10
369.1447237171
 20
192.6954308925
 11
365.2320764014
 21
189.6957346171
  0
LINE
  5
296
100
AcDbEntity
  8
0
100
AcDbLine
 62
7
  6
CONTINUOUS
 10
368.5706106712
 20
198.3955321338
 11
367.8405079449
 21
198.3955321338
  0
LINE
  5
297
100
AcDbEntity
  8
0
100
AcDbLine
 62
7
  6
CONTINUOUS
 10
369.0405079448
 20
199.2638649464
 11
369.2743336217
 21
199.2638649464
  0
LINE
  5
298
100
AcDbEntity
  8
0
100
AcDbLine
 62
7
  6
CONTINUOUS
 10
368.6405079442
 20
199.4955321338
 11
368.8405079449
 21
199.4955321338
  0
LINE
  5
299
100
AcDbEntity
  8
0
100
AcDbLine
 62
7
  6
CONTINUOUS
 10
369.3405079449
 20
198.2597784721
 11
368.5706106712
 21
198.3955321338
  0
LINE
  5
29A
100
AcDbEntity
  8
0
100
AcDbLine
 62
7
  6
CONTINUOUS
 10
369.0167060853
 20
207.7485318226
 11
369.1109764922
 21
207.5784635136
  0
LINE
  5
29B
100
AcDbEntity
  8
0
100
AcDbLine
 62
7
  6
CONTINUOUS
 10
376.7483514028
 20
180.1094393889
 11
376.5036177807
 21
181.3163289574
  0
LINE
  5
29C
100
AcDbEntity
  8
0
100
AcDbLine
 62
9
  6
CONTINUOUS
 10
370.594423016
 20
182.9272862967
 11
370.2573092594
 21
181.919761374
  0
LINE
  5
29D
100
AcDbEntity
  8
0
100
AcDbLine
 62
9
  6
CONTINUOUS
 10
369.7473083319
 20
180.3955321338
 11
369.4798551559
 21
179.5962003498
  0
LINE
  5
29E
100
AcDbEntity
  8
0
100
AcDbLine
 62
7
  6
CONTINUOUS
 10
371.0113658346
 20
183.2279334375
 11
371.1405027007
 21
183.6138828474
  0
LINE
  5
29F
100
AcDbEntity
  8
0
100
AcDbLine
 62
7
  6
CONTINUOUS
 10
367.8405079449
 20
200.1955321338
 11
367.3405079449
 21
200.1955321338
  0
LINE
  5
2A0
100
AcDbEntity
  8
0
100
AcDbLine
 62
7
  6
CONTINUOUS
 10
386.4905079449
 20
201.6473263696
 11
387.7405079449
 21
201.6473263696
  0
LINE
  5
2A1
100
AcDbEntity
  8
0
100
AcDbLine
 62
9
  6
CONTINUOUS
 10
378.3833666119
 20
182.1100782451
 11
378.4681046519
 21
181.692197548
  0
LINE
  5
2A2
100
AcDbEntity
  8
0
100
AcDbLine
 62
9
  6
CONTINUOUS
 10
378.7058227525
 20
180.5199046141
 11
378.8003355949
 21
180.05382005
  0
LINE
  5
2A3
100
AcDbEntity
  8
0
100
AcDbLine
 62
7
  6
CONTINUOUS
 10
379.3031058093
 20
180.090343317
 11
378.8507717208
 21
182.3210024649
  0
LINE
  5
2A4
100
AcDbEntity
  8
0
100
AcDbLine
 62
7
  6
CONTINUOUS
 10
383.1405079449
 20
204.4217700551
 11
380.8519238506
 21
204.4217682346
  0
LINE
  5
2A5
100
AcDbEntity
  8
0
100
AcDbLine
 62
7
  6
CONTINUOUS
 10
368.0880166303
 20
206.7955321338
 11
367.8405079457
 21
206.8955321336
  0
LINE
  5
2A6
100
AcDbEntity
  8
0
100
AcDbLine
 62
7
  6
CONTINUOUS
 10
365.4405079453
 20
211.8955321334
 11
364.9405079449
 21
212.3955321338
  0
LINE
  5
2A7
100
AcDbEntity
  8
0
100
AcDbLine
 62
7
  6
CONTINUOUS
 10
380.8871872332
 20
183.1127140769
 11
381.4871700886
 21
180.153933657
  0
LINE
  5
2A8
100
AcDbEntity
  8
0
100
AcDbLine
 62
7
  6
CONTINUOUS
 10
380.4519238506
 20
177.656999362
 11
380.4519238506
 21
174.8727888355
  0
LINE
  5
2A9
100
AcDbEntity
  8
0
100
AcDbLine
 62
7
  6
CONTINUOUS
 10
380.8519238506
 20
219.8569993624
 11
380.8519238506
 21
177.6569993613
  0
LINE
  5
2AA
100
AcDbEntity
  8
0
100
AcDbLine
 62
7
  6
CONTINUOUS
 10
381.9405079449
 20
186.0955356614
 11
381.9405079449
 21
186.4955321338
  0
LINE
  5
2AB
100
AcDbEntity
  8
0
100
AcDbLine
 62
7
  6
CONTINUOUS
 10
381.9405079449
 20
206.6955321338
 11
381.9405079449
 21
206.9032961984
  0
LINE
  5
2AC
100
AcDbEntity
  8
0
100
AcDbLine
 62
7
  6
CONTINUOUS
 10
371.1405363383
 20
183.6138715925
 11
372.6405193709
 21
185.1955212974
  0
LINE
  5
2AD
100
AcDbEntity
  8
0
100
AcDbLine
 62
7
  6
CONTINUOUS
 10
370.6405079446
 20
183.9955321335
 11
370.3160421994
 21
183.6710663883
  0
LINE
  5
2AE
100
AcDbEntity
  8
0
100
AcDbLine
 62
7
  6
CONTINUOUS
 10
354.2275302508
 20
180.3955321338
 11
364.8405079449
 21
184.6834534558
  0
LINE
  5
2AF
100
AcDbEntity
  8
0
100
AcDbLine
 62
7
  6
CONTINUOUS
 10
380.8519238506
 20
205.0808135081
 11
383.1405079449
 21
205.0808135081
  0
LINE
  5
2B0
100
AcDbEntity
  8
0
100
AcDbLine
 62
7
  6
CONTINUOUS
 10
383.1405079442
 20
206.6955321338
 11
380.8519238506
 21
206.6955321338
  0
LINE
  5
2B1
100
AcDbEntity
  8
0
100
AcDbLine
 62
7
  6
CONTINUOUS
 10
367.8405079449
 20
206.7955321338
 11
368.8405079449
 21
206.7955321338
  0
LINE
  5
2B2
100
AcDbEntity
  8
0
100
AcDbLine
 62
7
  6
CONTINUOUS
 10
368.8405079449
 20
207.0955321338
 11
367.8405079449
 21
207.0955321338
  0
LINE
  5
2B3
100
AcDbEntity
  8
0
100
AcDbLine
 62
7
  6
CONTINUOUS
 10
380.8519238506
 20
207.0955321338
 11
383.5405079449
 21
207.0955321338
  0
LINE
  5
2B4
100
AcDbEntity
  8
0
100
AcDbLine
 62
7
  6
CONTINUOUS
 10
365.4405079453
 20
208.6955321345
 11
354.2275302511
 21
212.3955321338
  0
LINE
  5
2B5
100
AcDbEntity
  8
0
100
AcDbLine
 62
7
  6
CONTINUOUS
 10
383.1405079449
 20
193.3955321338
 11
383.1405079449
 21
189.7955321338
  0
LINE
  5
2B6
100
AcDbEntity
  8
0
100
AcDbLine
 62
7
  6
CONTINUOUS
 10
383.1405079449
 20
204.4217700551
 11
383.1405079449
 21
206.6955321338
  0
LINE
  5
2B7
100
AcDbEntity
  8
0
100
AcDbLine
 62
7
  6
CONTINUOUS
 10
383.5405079449
 20
185.7205321338
 11
383.5405079449
 21
207.4705321338
  0
LINE
  5
2B8
100
AcDbEntity
  8
0
100
AcDbLine
 62
7
  6
CONTINUOUS
 10
369.0403925018
 20
207.2955321338
 11
369.7625798214
 21
207.2955321338
  0
LINE
  5
2B9
100
AcDbEntity
  8
0
100
AcDbLine
 62
7
  6
CONTINUOUS
 10
345.5320784087
 20
207.3955321338
 11
348.2405079449
 21
207.3955321338
  0
LINE
  5
2BA
100
AcDbEntity
  8
0
100
AcDbLine
 62
7
  6
CONTINUOUS
 10
386.4905079449
 20
207.4705321338
 11
383.5405079449
 21
207.4705321338
  0
LINE
  5
2BB
100
AcDbEntity
  8
0
100
AcDbLine
 62
7
  6
CONTINUOUS
 10
365.4405079454
 20
208.6955321338
 11
367.8405079449
 21
208.6955321338
  0
LINE
  5
2BC
100
AcDbEntity
  8
0
100
AcDbLine
 62
7
  6
CONTINUOUS
 10
399.8204639368
 20
208.8455321338
 11
399.8905079445
 21
208.8455321338
  0
LINE
  5
2BD
100
AcDbEntity
  8
0
100
AcDbLine
 62
7
  6
CONTINUOUS
 10
344.7172093821
 20
208.8955321338
 11
345.2405079449
 21
208.8955321338
  0
LINE
  5
2BE
100
AcDbEntity
  8
0
100
AcDbLine
 62
7
  6
CONTINUOUS
 10
368.6905079449
 20
209.0955321338
 11
367.8405079449
 21
209.0955321338
  0
LINE
  5
2BF
100
AcDbEntity
  8
0
100
AcDbLine
 62
7
  6
CONTINUOUS
 10
367.9178885444
 20
209.1955321338
 11
366.6405079449
 21
209.1955321338
  0
LINE
  5
2C0
100
AcDbEntity
  8
0
100
AcDbLine
 62
7
  6
CONTINUOUS
 10
366.6405079449
 20
209.2955321338
 11
365.5405079449
 21
209.2955321338
  0
LINE
  5
2C1
100
AcDbEntity
  8
0
100
AcDbLine
 62
7
  6
CONTINUOUS
 10
368.3178885455
 20
209.5955321342
 11
368.4678885435
 21
209.5955321342
  0
LINE
  5
2C2
100
AcDbEntity
  8
0
100
AcDbLine
 62
7
  6
CONTINUOUS
 10
365.4405079449
 20
209.3685334875
 11
365.5405079449
 21
209.3472778313
  0
LINE
  5
2C3
100
AcDbEntity
  8
0
100
AcDbLine
 62
7
  6
CONTINUOUS
 10
366.3405079449
 20
209.177232582
 11
367.8405079449
 21
208.8583977399
  0
LINE
  5
2C4
100
AcDbEntity
  8
0
100
AcDbLine
 62
7
  6
CONTINUOUS
 10
365.5405079449
 20
211.0591980946
 11
365.4405079449
 21
211.0859930139
  0
LINE
  5
2C5
100
AcDbEntity
  8
0
100
AcDbLine
 62
7
  6
CONTINUOUS
 10
371.3405079457
 20
211.0532671605
 11
369.7548672991
 21
211.9687372149
  0
LINE
  5
2C6
100
AcDbEntity
  8
0
100
AcDbLine
 62
7
  6
CONTINUOUS
 10
386.4905079449
 20
183.0205321338
 11
386.4905079449
 21
210.1705321338
  0
LINE
  5
2C7
100
AcDbEntity
  8
0
100
AcDbLine
 62
7
  6
CONTINUOUS
 10
382.0413049967
 20
181.8065239984
 11
381.4871700884
 21
180.1539336571
  0
LINE
  5
2C8
100
AcDbEntity
  8
0
100
AcDbLine
 62
7
  6
CONTINUOUS
 10
359.2771339142
 20
179.844607396
 11
360.9136661524
 21
180.3282219768
  0
LINE
  5
2C9
100
AcDbEntity
  8
0
100
AcDbLine
 62
7
  6
CONTINUOUS
 10
387.7405079449
 20
210.1705321338
 11
386.4905079449
 21
210.1705321338
  0
LINE
  5
2CA
100
AcDbEntity
  8
0
100
AcDbLine
 62
7
  6
CONTINUOUS
 10
387.7405079449
 20
210.8455321338
 11
399.3301558801
 21
210.8455321338
  0
LINE
  5
2CB
100
AcDbEntity
  8
0
100
AcDbLine
 62
7
  6
CONTINUOUS
 10
365.5405079449
 20
211.8455321338
 11
366.6405079449
 21
211.8455321338
  0
LINE
  5
2CC
100
AcDbEntity
  8
0
100
AcDbLine
 62
7
  6
CONTINUOUS
 10
369.6548672996
 20
211.9955321345
 11
366.6405079446
 21
211.9955321345
  0
LINE
  5
2CD
100
AcDbEntity
  8
0
100
AcDbLine
 62
7
  6
CONTINUOUS
 10
365.5405079449
 20
211.9955321338
 11
366.3405079449
 21
211.9955321338
  0
LINE
  5
2CE
100
AcDbEntity
  8
0
100
AcDbLine
 62
7
  6
CONTINUOUS
 10
387.7405079449
 20
182.3456464528
 11
387.7405079449
 21
210.8455090357
  0
LINE
  5
2CF
100
AcDbEntity
  8
0
100
AcDbLine
 62
7
  6
CONTINUOUS
 10
377.6579641714
 20
182.0569993624
 11
378.6936825358
 21
182.4339700167
  0
LINE
  5
2D0
100
AcDbEntity
  8
0
100
AcDbLine
 62
7
  6
CONTINUOUS
 10
357.363764294
 20
211.3606539526
 11
349.5926023969
 21
209.9903884386
  0
LINE
  5
2D1
100
AcDbEntity
  8
0
100
AcDbLine
 62
7
  6
CONTINUOUS
 10
348.3617240737
 20
212.3955321338
 11
364.9405079443
 21
212.3955321338
  0
LINE
  5
2D2
100
AcDbEntity
  8
0
100
AcDbLine
 62
7
  6
CONTINUOUS
 10
355.1405079449
 20
212.8955321338
 11
356.0325527942
 21
212.8955321338
  0
LINE
  5
2D3
100
AcDbEntity
  8
0
100
AcDbLine
 62
7
  6
CONTINUOUS
 10
367.8405079449
 20
213.1455321338
 11
374.8519238506
 21
213.1455321338
  0
LINE
  5
2D4
100
AcDbEntity
  8
0
100
AcDbLine
 62
7
  6
CONTINUOUS
 10
356.624160772
 20
213.3955321338
 11
358.662096147
 21
213.3955321338
  0
LINE
  5
2D5
100
AcDbEntity
  8
0
100
AcDbLine
 62
9
  6
CONTINUOUS
 10
374.8519238506
 20
213.6455321345
 11
374.2405079449
 21
213.6455321345
  0
LINE
  5
2D6
100
AcDbEntity
  8
0
100
AcDbLine
 62
9
  6
CONTINUOUS
 10
372.7405079449
 20
213.6455321345
 11
368.8405079449
 21
213.6455321345
  0
LINE
  5
2D7
100
AcDbEntity
  8
0
100
AcDbLine
 62
7
  6
CONTINUOUS
 10
372.7405079449
 20
213.8955321338
 11
374.2405079449
 21
213.8955321338
  0
LINE
  5
2D8
100
AcDbEntity
  8
0
100
AcDbLine
 62
7
  6
CONTINUOUS
 10
371.1405079454
 20
176.945532134
 11
369.3388228473
 21
176.2347395382
  0
LINE
  5
2D9
100
AcDbEntity
  8
0
100
AcDbLine
 62
7
  6
CONTINUOUS
 10
378.4844541898
 20
179.8569993613
 11
377.6869953739
 21
179.5667480909
  0
LINE
  5
2DA
100
AcDbEntity
  8
0
100
AcDbLine
 62
9
  6
CONTINUOUS
 10
368.8405079449
 20
214.5955321338
 11
372.7405079449
 21
214.5955321338
  0
LINE
  5
2DB
100
AcDbEntity
  8
0
100
AcDbLine
 62
9
  6
CONTINUOUS
 10
374.2405079449
 20
214.5955321338
 11
374.8519238506
 21
214.5955321338
  0
LINE
  5
2DC
100
AcDbEntity
  8
0
100
AcDbLine
 62
7
  6
CONTINUOUS
 10
374.8519238506
 20
215.0955321338
 11
374.2405079449
 21
215.0955321338
  0
LINE
  5
2DD
100
AcDbEntity
  8
0
100
AcDbLine
 62
7
  6
CONTINUOUS
 10
372.7405079449
 20
215.0955321338
 11
367.8405079449
 21
215.0955321338
  0
LINE
  5
2DE
100
AcDbEntity
  8
0
100
AcDbLine
 62
9
  6
CONTINUOUS
 10
372.7405079449
 20
217.6327425549
 11
374.2405079449
 21
217.6327425549
  0
LINE
  5
2DF
100
AcDbEntity
  8
0
100
AcDbLine
 62
7
  6
CONTINUOUS
 10
372.7405079449
 20
217.8955321345
 11
374.2405079449
 21
217.8955321345
  0
LINE
  5
2E0
100
AcDbEntity
  8
0
100
AcDbLine
 62
7
  6
CONTINUOUS
 10
395.2405079449
 20
210.845503002
 11
395.2405079449
 21
182.3455612657
  0
LINE
  5
2E1
100
AcDbEntity
  8
0
100
AcDbLine
 62
7
  6
CONTINUOUS
 10
372.7405079449
 20
219.5955321338
 11
374.2405079449
 21
219.5955321338
  0
LINE
  5
2E2
100
AcDbEntity
  8
0
100
AcDbLine
 62
7
  6
CONTINUOUS
 10
378.8725794122
 20
220.356999362
 11
380.3519238506
 21
220.356999362
  0
LINE
  5
2E3
100
AcDbEntity
  8
0
100
AcDbLine
 62
7
  6
CONTINUOUS
 10
399.3301558801
 20
210.8455321338
 11
399.3301558801
 21
182.3455321338
  0
LINE
  5
2E4
100
AcDbEntity
  8
0
100
AcDbLine
 62
7
  6
CONTINUOUS
 10
399.8204639368
 20
184.0955321338
 11
399.8204639368
 21
209.0955321338
  0
LINE
  5
2E5
100
AcDbEntity
  8
0
100
AcDbLine
 62
7
  6
CONTINUOUS
 10
399.8905079449
 20
208.8455321338
 11
399.8905079449
 21
184.3455321338
  0
LINE
  5
2E6
100
AcDbEntity
  8
0
100
AcDbLine
 62
9
  6
CONTINUOUS
 10
400.0333979526
 20
184.8555329601
 11
400.0333979514
 21
208.3355313072
  0
LINE
  5
2E7
100
AcDbEntity
  8
0
100
AcDbLine
 62
7
  6
CONTINUOUS
 10
400.3881709267
 20
205.6955321345
 11
400.3881709267
 21
187.4955321332
  0
LINE
  5
2E8
100
AcDbEntity
  8
0
100
AcDbLine
 62
7
  6
CONTINUOUS
 10
399.8204639368
 20
184.0955321338
 11
399.3301558801
 21
182.3455321338
  0
LINE
  5
2E9
100
AcDbEntity
  8
0
100
AcDbLine
 62
7
  6
CONTINUOUS
 10
399.8204639368
 20
209.0955321338
 11
399.3301558801
 21
210.8455321338
  0
ARC
  5
2EA
100
AcDbEntity
  8
0
100
AcDbCircle
 62
7
  6
CONTINUOUS
 10
357.4979470678
 20
196.6931350302
 40
44.0999996944
100
AcDbArc
 50
15.3075362027
 51
15.9956611934
  0
ARC
  5
2EB
100
AcDbEntity
  8
0
100
AcDbCircle
 62
7
  6
CONTINUOUS
 10
357.4979470678
 20
196.4979292375
 40
44.0999996944
100
AcDbArc
 50
344.0043388066
 51
344.6924637973
  0
ARC
  5
2EC
100
AcDbEntity
  8
0
100
AcDbCircle
 62
7
  6
CONTINUOUS
 10
369.8405079449
 20
191.1811050091
 40
2.0
100
AcDbArc
 50
134.9999999981
 51
162.7430140605
  0
ARC
  5
2ED
100
AcDbEntity
  8
0
100
AcDbCircle
 62
7
  6
CONTINUOUS
 10
365.0405079449
 20
188.7389141646
 40
1.0
100
AcDbArc
 50
128.0000000214
 51
179.9999999989
  0
ARC
  5
2EE
100
AcDbEntity
  8
0
100
AcDbCircle
 62
7
  6
CONTINUOUS
 10
365.8405079449
 20
188.9021282557
 40
1.0
100
AcDbArc
 50
127.4761795541
 51
179.9999999553
  0
ARC
  5
2EF
100
AcDbEntity
  8
0
100
AcDbCircle
 62
7
  6
CONTINUOUS
 10
368.6405079449
 20
192.4955321338
 40
0.8
100
AcDbArc
 50
89.9999998183
 51
172.808468202
  0
ARC
  5
2F0
100
AcDbEntity
  8
0
100
AcDbCircle
 62
7
  6
CONTINUOUS
 10
368.8405079449
 20
193.0922340729
 40
0.5
100
AcDbArc
 50
307.4761796057
 51
359.9999999977
  0
ARC
  5
2F1
100
AcDbEntity
  8
0
100
AcDbCircle
 62
7
  6
CONTINUOUS
 10
349.5405079449
 20
182.5052335023
 40
0.3
100
AcDbArc
 50
80.0000003772
 51
179.9999999045
  0
ARC
  5
2F2
100
AcDbEntity
  8
0
100
AcDbCircle
 62
7
  6
CONTINUOUS
 10
361.9369988662
 20
176.036488014
 40
0.15
100
AcDbArc
 50
101.4630316251
 51
191.4628868654
  0
ARC
  5
2F3
100
AcDbEntity
  8
0
100
AcDbCircle
 62
7
  6
CONTINUOUS
 10
361.2773953232
 20
179.289284375
 40
0.15
100
AcDbArc
 50
191.4631763827
 51
281.4630316251
  0
ARC
  5
2F4
100
AcDbEntity
  8
0
100
AcDbCircle
 62
7
  6
CONTINUOUS
 10
362.7405079449
 20
215.6266499119
 40
4.5
100
AcDbArc
 50
211.8243002303
 51
226.103749222
  0
ARC
  5
2F5
100
AcDbEntity
  8
0
100
AcDbCircle
 62
7
  6
CONTINUOUS
 10
367.8405079449
 20
198.8455321338
 40
1.5
100
AcDbArc
 50
0.0
 51
90.0
  0
ARC
  5
2F6
100
AcDbEntity
  8
0
100
AcDbCircle
 62
7
  6
CONTINUOUS
 10
368.6405079449
 20
200.2955321338
 40
0.8
100
AcDbArc
 50
187.1915925821
 51
270.0000000539
  0
ARC
  5
2F7
100
AcDbEntity
  8
0
100
AcDbCircle
 62
7
  6
CONTINUOUS
 10
369.4540159385
 20
207.9909366315
 40
0.5
100
AcDbArc
 50
191.0000000576
 51
208.999999899
  0
ARC
  5
2F8
100
AcDbEntity
  8
0
100
AcDbCircle
 62
7
  6
CONTINUOUS
 10
349.5405079449
 20
210.2858307653
 40
0.3
100
AcDbArc
 50
180.0000000955
 51
279.9999997245
  0
ARC
  5
2F9
100
AcDbEntity
  8
0
100
AcDbCircle
 62
7
  6
CONTINUOUS
 10
358.662096147
 20
213.0955321338
 40
0.3
100
AcDbArc
 50
31.824300249
 51
90.0000001241
  0
ARC
  5
2FA
100
AcDbEntity
  8
0
100
AcDbCircle
 62
7
  6
CONTINUOUS
 10
356.6241607725
 20
213.0955321338
 40
0.3
100
AcDbArc
 50
90.0000000955
 51
170.4059317572
  0
ARC
  5
2FB
100
AcDbEntity
  8
0
100
AcDbCircle
 62
7
  6
CONTINUOUS
 10
356.0325527942
 20
213.1955321338
 40
0.3
100
AcDbArc
 50
269.9999998717
 51
350.4059317888
  0
ARC
  5
2FC
100
AcDbEntity
  8
0
100
AcDbCircle
 62
7
  6
CONTINUOUS
 10
355.1405079449
 20
212.5955321338
 40
0.3
100
AcDbArc
 50
89.9999998663
 51
180.0000001337
  0
ARC
  5
2FD
100
AcDbEntity
  8
0
100
AcDbCircle
 62
7
  6
CONTINUOUS
 10
367.9178885441
 20
209.3955321338
 40
0.2
100
AcDbArc
 50
270.0000253926
 51
0.0000062596
  0
ARC
  5
2FE
100
AcDbEntity
  8
0
100
AcDbCircle
 62
7
  6
CONTINUOUS
 10
368.3178885441
 20
209.3955321338
 40
0.2
100
AcDbArc
 50
89.9999995967
 51
179.9999937404
  0
ARC
  5
2FF
100
AcDbEntity
  8
0
100
AcDbCircle
 62
7
  6
CONTINUOUS
 10
368.4678885441
 20
209.3955321338
 40
0.2
100
AcDbArc
 50
10.9999999034
 51
90.0000001649
  0
ARC
  5
300
100
AcDbEntity
  8
0
100
AcDbCircle
 62
7
  6
CONTINUOUS
 10
369.2858412861
 20
207.6755321338
 40
0.2
100
AcDbArc
 50
209.0349486637
 51
317.0352563331
  0
ARC
  5
301
100
AcDbEntity
  8
0
100
AcDbCircle
 62
7
  6
CONTINUOUS
 10
369.6548672989
 20
211.7955321338
 40
0.2
100
AcDbArc
 50
59.9999999829
 51
89.9999997937
  0
ARC
  5
302
100
AcDbEntity
  8
0
100
AcDbCircle
 62
7
  6
CONTINUOUS
 10
379.1653666046
 20
196.2862894062
 40
10.5536116557
100
AcDbArc
 50
163.6121475343
 51
168.0488949665
  0
ARC
  5
303
100
AcDbEntity
  8
0
100
AcDbCircle
 62
7
  6
CONTINUOUS
 10
390.3881709268
 20
187.4955321352
 40
9.9999999999
100
AcDbArc
 50
344.6924637938
 51
359.9999999887
  0
ARC
  5
304
100
AcDbEntity
  8
0
100
AcDbCircle
 62
7
  6
CONTINUOUS
 10
377.8519238506
 20
180.956999362
 40
1.7
100
AcDbArc
 50
319.6797849185
 51
60.320215042
  0
ARC
  5
305
100
AcDbEntity
  8
0
100
AcDbCircle
 62
7
  6
CONTINUOUS
 10
377.8519238506
 20
180.956999362
 40
1.4
100
AcDbArc
 50
128.2132106786
 51
263.2344993764
  0
ARC
  5
306
100
AcDbEntity
  8
0
100
AcDbCircle
 62
7
  6
CONTINUOUS
 10
383.150602206
 20
199.3115923608
 40
16.8988175536
100
AcDbArc
 50
205.0314928104
 51
206.080497254
  0
ARC
  5
307
100
AcDbEntity
  8
0
100
AcDbCircle
 62
7
  6
CONTINUOUS
 10
390.3881709268
 20
205.6955321325
 40
9.9999999999
100
AcDbArc
 50
0.0000000113
 51
15.3075362062
  0
ARC
  5
308
100
AcDbEntity
  8
0
100
AcDbCircle
 62
7
  6
CONTINUOUS
 10
378.8725794122
 20
219.356999362
 40
1.0
100
AcDbArc
 50
90.0000000266
 51
145.0079797407
  0
ARC
  5
309
100
AcDbEntity
  8
0
100
AcDbCircle
 62
7
  6
CONTINUOUS
 10
375.8519238506
 20
215.0417771312
 40
1.0
100
AcDbArc
 50
145.0079797988
 51
180.0000000286
  0
ARC
  5
30A
100
AcDbEntity
  8
0
100
AcDbCircle
 62
7
  6
CONTINUOUS
 10
380.3519238506
 20
219.856999362
 40
0.5
100
AcDbArc
 50
0.0000000458
 51
90.0000001955
  0
ARC
  5
30B
100
AcDbEntity
  8
0
100
AcDbCircle
 62
7
  6
CONTINUOUS
 10
371.2405079449
 20
209.7742431557
 40
0.2
100
AcDbArc
 50
317.0352562717
 51
359.9999999427
  0
ARC
  5
30C
100
AcDbEntity
  8
0
100
AcDbCircle
 62
7
  6
CONTINUOUS
 10
371.2405079449
 20
210.88006208
 40
0.2
100
AcDbArc
 50
359.9999997422
 51
59.9999997692
  0
SPLINE
  5
30D
100
AcDbEntity
  8
0
100
AcDbSpline
 62
7
  6
CONTINUOUS
 70
0
 71
3
 72
11
 73
7
 74
0
 42
0.0000001
 43
0.0000001
 44
0.0000000001
 40
0.0
 40
0.0
 40
0.0
 40
0.0
 40
0.1532675971
 40
0.3815434407
 40
0.6744779155
 40
1.0
 40
1.0
 40
1.0
 40
1.0
 10
367.3405082256
 20
177.0784841971
 30
0.0
 10
367.3405075579
 20
177.0871711533
 30
0.0
 10
367.3260552465
 20
177.1070870712
 30
0.0
 10
367.2909720934
 20
177.1224607672
 30
0.0
 10
367.2439760064
 20
177.1335188833
 30
0.0
 10
367.2088919494
 20
177.1362432293
 30
0.0
 10
367.1904420613
 20
177.136322476
 30
0.0
  0
SPLINE
  5
30E
100
AcDbEntity
  8
0
100
AcDbSpline
 62
7
  6
CONTINUOUS
 70
0
 71
3
 72
18
 73
14
 74
0
 42
0.0000001
 43
0.0000001
 44
0.0000000001
 40
0.0
 40
0.0
 40
0.0
 40
0.0
 40
0.2283191236
 40
0.4377445042
 40
0.6200502013
 40
0.7645128839
 40
0.8707243816
 40
0.9109305047
 40
0.9432237457
 40
0.9680698392
 40
0.9857944891
 40
0.99643865
 40
1.0
 40
1.0
 40
1.0
 40
1.0
 10
367.9384475459
 20
176.4466668701
 30
0.0
 10
367.9349320864
 20
176.4238026872
 30
0.0
 10
367.9235552935
 20
176.3806226768
 30
0.0
 10
367.8988404246
 20
176.3227532406
 30
0.0
 10
367.8737076353
 20
176.2745856039
 30
0.0
 10
367.8547484657
 20
176.2349997679
 30
0.0
 10
367.8441919199
 20
176.2074341971
 30
0.0
 10
367.8386212291
 20
176.1902253476
 30
0.0
 10
367.8359514414
 20
176.1806822811
 30
0.0
 10
367.8338543524
 20
176.1735137042
 30
0.0
 10
367.8328030523
 20
176.1679381823
 30
0.0
 10
367.8313713662
 20
176.1654559183
 30
0.0
 10
367.8316100876
 20
176.1634004836
 30
0.0
 10
367.8312566002
 20
176.1633280653
 30
0.0
  0
SPLINE
  5
30F
100
AcDbEntity
  8
0
100
AcDbSpline
 62
7
  6
CONTINUOUS
 70
0
 71
3
 72
8
 73
4
 74
0
 42
0.0000001
 43
0.0000001
 44
0.0000000001
 40
0.0
 40
0.0
 40
0.0
 40
0.0
 40
1.0
 40
1.0
 40
1.0
 40
1.0
 10
368.7181753705
 20
178.8955906694
 30
0.0
 10
367.8644041533
 20
178.8953405739
 30
0.0
 10
367.0106328426
 20
178.8953239883
 30
0.0
 10
366.1568616101
 20
178.8955150175
 30
0.0
  0
SPLINE
  5
310
100
AcDbEntity
  8
0
100
AcDbSpline
 62
9
  6
CONTINUOUS
 70
0
 71
3
 72
21
 73
17
 74
0
 42
0.0000001
 43
0.0000001
 44
0.0000000001
 40
0.0
 40
0.0
 40
0.0
 40
0.0
 40
0.1950103754
 40
0.3829587207
 40
0.5557593912
 40
0.7071537616
 40
0.7730403668
 40
0.8314824367
 40
0.8818935875
 40
0.9238356294
 40
0.9568854552
 40
0.9807131838
 40
0.9891110624
 40
0.9951370189
 40
0.9987709651
 40
1.0
 40
1.0
 40
1.0
 40
1.0
 10
369.4798594708
 20
179.5962101174
 30
0.0
 10
369.4489557125
 20
179.6062793185
 30
0.0
 10
369.3882823857
 20
179.6260994738
 30
0.0
 10
369.3004315672
 20
179.6554727352
 30
0.0
 10
369.2197566195
 20
179.6833637714
 30
0.0
 10
369.1581701437
 20
179.7042046734
 30
0.0
 10
369.1145290142
 20
179.7186013568
 30
0.0
 10
369.0868406816
 20
179.7276414785
 30
0.0
 10
369.0629426133
 20
179.7353999338
 30
0.0
 10
369.0430343189
 20
179.7418344338
 30
0.0
 10
369.0274432152
 20
179.7469712031
 30
0.0
 10
369.0169899149
 20
179.7503797129
 30
0.0
 10
369.0111455062
 20
179.7525139983
 30
0.0
 10
369.0080066353
 20
179.7534298855
 30
0.0
 10
369.0068455397
 20
179.7542304866
 30
0.0
 10
369.0055355501
 20
179.754374872
 30
0.0
 10
369.0056005486
 20
179.7545691321
 30
0.0
  0
SPLINE
  5
311
100
AcDbEntity
  8
0
100
AcDbSpline
 62
7
  6
CONTINUOUS
 70
0
 71
3
 72
10
 73
6
 74
0
 42
0.0000001
 43
0.0000001
 44
0.0000000001
 40
0.0
 40
0.0
 40
0.0
 40
0.0
 40
0.205014925
 40
0.4421810347
 40
1.0
 40
1.0
 40
1.0
 40
1.0
 10
367.9387561543
 20
176.4472385497
 30
0.0
 10
367.9517432137
 20
176.4816284004
 30
0.0
 10
367.9831457562
 20
176.5544899761
 30
0.0
 10
368.0586986381
 20
176.717096225
 30
0.0
 10
368.1244199719
 20
176.8436834331
 30
0.0
 10
368.1718972055
 20
176.9317172672
 30
0.0
  0
SPLINE
  5
312
100
AcDbEntity
  8
0
100
AcDbSpline
 62
7
  6
CONTINUOUS
 70
0
 71
3
 72
13
 73
9
 74
0
 42
0.0000001
 43
0.0000001
 44
0.0000000001
 40
0.0
 40
0.0
 40
0.0
 40
0.0
 40
0.1039833002
 40
0.2175645301
 40
0.4642181837
 40
0.7274770314
 40
0.8631001352
 40
1.0
 40
1.0
 40
1.0
 40
1.0
 10
368.1718972055
 20
176.9317172672
 30
0.0
 10
368.2208056227
 20
177.0224048487
 30
0.0
 10
368.3256396641
 20
177.2107919888
 30
0.0
 10
368.5507257744
 20
177.6119342679
 30
0.0
 10
368.8505856049
 20
178.1521387609
 30
0.0
 10
369.1357370363
 20
178.7252107004
 30
0.0
 10
369.3447221171
 20
179.2134789839
 30
0.0
 10
369.4365464254
 20
179.4675737714
 30
0.0
 10
369.4803544906
 20
179.5959569941
 30
0.0
  0
SPLINE
  5
313
100
AcDbEntity
  8
0
100
AcDbSpline
 62
7
  6
CONTINUOUS
 70
0
 71
3
 72
13
 73
9
 74
0
 42
0.0000001
 43
0.0000001
 44
0.0000000001
 40
0.0
 40
0.0
 40
0.0
 40
0.0
 40
0.2501886922
 40
0.3740645239
 40
0.4971370144
 40
0.6210245233
 40
0.7472394396
 40
1.0
 40
1.0
 40
1.0
 40
1.0
 10
368.0780096896
 20
176.9842717051
 30
0.0
 10
368.0665749233
 20
176.9394034218
 30
0.0
 10
368.0477310773
 20
176.8727695391
 30
0.0
 10
368.0269201639
 20
176.7831245912
 30
0.0
 10
368.0136364192
 20
176.7157912552
 30
0.0
 10
367.9996475228
 20
176.6481480828
 30
0.0
 10
367.9764617509
 20
176.5579783111
 30
0.0
 10
367.9544623521
 20
176.4913014177
 30
0.0
 10
367.9387561543
 20
176.4472385497
 30
0.0
  0
SPLINE
  5
314
100
AcDbEntity
  8
0
100
AcDbSpline
 62
7
  6
CONTINUOUS
 70
0
 71
3
 72
8
 73
4
 74
0
 42
0.0000001
 43
0.0000001
 44
0.0000000001
 40
0.0
 40
0.0
 40
0.0
 40
0.0
 40
1.0
 40
1.0
 40
1.0
 40
1.0
 10
370.5944219106
 20
182.9272861213
 30
0.0
 10
370.5592422137
 20
182.9272860016
 30
0.0
 10
370.523877385
 20
182.9213371464
 30
0.0
 10
370.490036324
 20
182.9117249839
 30
0.0
  0
SPLINE
  5
315
100
AcDbEntity
  8
0
100
AcDbSpline
 62
7
  6
CONTINUOUS
 70
0
 71
3
 72
8
 73
4
 74
0
 42
0.0000001
 43
0.0000001
 44
0.0000000001
 40
0.0
 40
0.0
 40
0.0
 40
0.0
 40
1.0
 40
1.0
 40
1.0
 40
1.0
 10
371.1405079453
 20
179.595500418
 30
0.0
 10
370.5869574804
 20
179.5962548069
 30
0.0
 10
370.033405236
 20
179.5952027744
 30
0.0
 10
369.4798551559
 20
179.5962003498
 30
0.0
  0
ELLIPSE
  5
316
100
AcDbEntity
  8
0
100
AcDbEllipse
 62
7
  6
CONTINUOUS
 10
377.9405079449
 20
196.5955321338
 30
0.0
 11
21.0
 21
0.0
 31
0.0
 40
0.5
 41
1.3791491318
 42
1.4317070746
  0
ELLIPSE
  5
317
100
AcDbEntity
  8
0
100
AcDbEllipse
 62
7
  6
CONTINUOUS
 10
373.3661546222
 20
180.0473730132
 30
0.0
 11
21.1923502607
 21
4.2973945382
 31
0.0
 40
0.153091273
 41
-2.3150444015
 42
-2.265844451
  0
ELLIPSE
  5
318
100
AcDbEntity
  8
0
100
AcDbEllipse
 62
7
  6
CONTINUOUS
 10
373.3661546222
 20
180.0473730132
 30
0.0
 11
21.1923502607
 21
4.2973945382
 31
0.0
 40
0.153091273
 41
2.265844451
 42
2.3150444015
  0
ELLIPSE
  5
319
100
AcDbEntity
  8
0
100
AcDbEllipse
 62
7
  6
CONTINUOUS
 10
378.5709777819
 20
181.184884714
 30
0.0
 11
-0.1028731299
 21
0.507312834
 31
0.0
 40
0.9659258263
 41
-1.5707963263
 42
0.0000000035
  0
ELLIPSE
  5
31A
100
AcDbEntity
  8
0
100
AcDbEllipse
 62
7
  6
CONTINUOUS
 10
378.4838833759
 20
181.614385692
 30
0.0
 11
-0.100516764
 21
0.4956925531
 31
0.0
 40
0.9885695586
 41
-1.5707963281
 42
-0.0000000007
  0
ELLIPSE
  5
31B
100
AcDbEntity
  8
0
100
AcDbEllipse
 62
7
  6
CONTINUOUS
 10
378.6949929687
 20
180.5733110606
 30
0.0
 11
-0.1053426262
 21
0.5194910107
 31
0.0
 40
0.9432820939
 41
-3.1415926521
 42
-1.5707963273
  0
ELLIPSE
  5
31C
100
AcDbEntity
  8
0
100
AcDbEllipse
 62
7
  6
CONTINUOUS
 10
378.6029496226
 20
181.0272174481
 30
0.0
 11
-0.1028731299
 21
0.507312834
 31
0.0
 40
0.9659258263
 41
-3.1415926524
 42
-1.5707963262
  0
ENDSEC
  0
SECTION
  2
OBJECTS
  0
DICTIONARY
  5
C
100
AcDbDictionary
280
0
281
1
  3
ACAD_GROUP
350
D
  3
ACAD_MLINESTYLE
350
17
  3
ACAD_LAYOUT
350
1A
  3
ACAD_PLOTSETTINGS
350
19
  3
ACAD_PLOTSTYLENAME
350
E
  0
DICTIONARY
  5
D
102
{ACAD_REACTORS
330
C
102
}
100
AcDbDictionary
280
0
281
1
  0
ACDBDICTIONARYWDFLT
  5
E
102
{ACAD_REACTORS
330
C
102
}
100
AcDbDictionary
281
1
  3
Normal
350
F
100
AcDbDictionaryWithDefault
340
F
  0
DICTIONARY
  5
17
102
{ACAD_REACTORS
330
C
102
}
100
AcDbDictionary
280
0
281
1
  3
Standard
350
18
  0
DICTIONARY
  5
19
102
{ACAD_REACTORS
330
C
102
}
100
AcDbDictionary
281
1
  0
DICTIONARY
  5
1A
102
{ACAD_REACTORS
330
C
102
}
100
AcDbDictionary
281
1
  3
Model
350
31D
  3
Layout1
350
31E
  0
ACDBPLACEHOLDER
  5
F
102
{ACAD_REACTORS
330
E
102
}
  0
MLINESTYLE
  5
18
102
{ACAD_REACTORS
330
17
102
}
100
AcDbMlineStyle
  2
STANDARD
 70
0
  3

 62
256
 51
90.0
 52
90.0
 71
2
 49
0.5
 62
256
  6
BYLAYER
 49
-0.5
 62
256
  6
BYLAYER
  0
LAYOUT
  5
31D
102
{ACAD_REACTORS
330
1A
102
}
100
AcDbPlotSettings
  1

  2
none_device
  4
ANSI_C_(22.00_x_17.00_Inches)
  6

 40
0.0
 41
0.0
 42
0.0
 43
0.0
 44
558.8
 45
431.8
 46
0.0
 47
0.0
 48
0.0
 49
0.0
140
0.0
141
0.0
142
1.0
143
1.0
 70
1024
 72
1
 73
0
 74
0
  7

 75
0
147
1.0
148
0.0
149
0.0
100
AcDbLayout
  1
Model
 70
0
 71
0
 10
0.0
 20
0.0
 11
558.8
 21
431.8
 12
0.0
 22
0.0
 32
0.0
 14
0.0
 24
0.0
 34
0.0
 15
0.0
 25
0.0
 35
0.0
146
0.0
 13
0.0
 23
0.0
 33
0.0
 16
1.0
 26
0.0
 36
0.0
 17
0.0
 27
1.0
 37
0.0
 76
0
330
219
345
0
346
0
  0
LAYOUT
  5
31E
102
{ACAD_REACTORS
330
1A
102
}
100
AcDbPlotSettings
  1

  2
none_device
  4
ANSI_C_(22.00_x_17.00_Inches)
  6

 40
0.0
 41
0.0
 42
0.0
 43
0.0
 44
558.8
 45
431.8
 46
0.0
 47
0.0
 48
0.0
 49
0.0
140
0.0
141
0.0
142
1.0
143
1.0
 70
0
 72
1
 73
0
 74
0
  7

 75
0
147
1.0
148
0.0
149
0.0
100
AcDbLayout
  1
Layout1
 70
0
 71
1
 10
0.0
 20
0.0
 11
558.8
 21
431.8
 12
0.0
 22
0.0
 32
0.0
 14
0.0
 24
0.0
 34
0.0
 15
0.0
 25
0.0
 35
0.0
146
0.0
 13
0.0
 23
0.0
 33
0.0
 16
1.0
 26
0.0
 36
0.0
 17
0.0
 27
1.0
 37
0.0
 76
0
330
21A
345
0
346
0
  0
ENDSEC
  0
EOF
