999
DXF file: Y:\001_SCHNEIDER_PARIS\maxime fuentes - génération CAD 2D\TRAVAIL\XB4BV63_2D-Views\xb4bv63_2d-views_2.dxf
999
Pro/ENGINEER 2018260 by Parametric Technology Corporation
  0
SECTION
  2
HEADER
  9
$ACADVER
  1
AC1027
  9
$DWGCODEPAGE
  3
ANSI_1252
  9
$EXTMAX
 10
558.8
 20
431.8
 30
0.0
  9
$EXTMIN
 10
0.0
 20
0.0
 30
0.0
  9
$LIMMIN
 10
0.0
 20
0.0
  9
$LIMMAX
 10
558.8
 20
431.8
  9
$VIEWCTR
 10
279.4
 20
215.9
  9
$VIEWSIZE
 40
431.8
  9
$CLAYER
  8
0
  9
$LTSCALE
 40
30.734
  9
$CELTYPE
  6
BYLAYER
  9
$DIMSCALE
 40
1.0
  9
$DIMASZ
 40
3.5
  9
$DIMEXO
 40
1.0
  9
$DIMDLI
 40
21.2344
  9
$DIMEXE
 40
3.0
  9
$DIMCEN
 40
5.0292
  9
$DIMLFAC
 40
1.0
  9
$DIMBLK
  1
_FILLED
  9
$DIMALT
 70
0
  9
$DIMALTF
 40
0.0393700787
  9
$DIMTXT
 40
4.0
  9
$DIMTOL
 70
1
  9
$DIMLIM
 70
0
  9
$DIMTFAC
 40
1.0
  9
$DIMTP
 40
0.0001
  9
$DIMTM
 40
0.0001
  9
$DIMGAP
 40
0.625
  9
$DIMDSEP
 70
46
  9
$AUNITS
 70
0
  9
$PDMODE
 70
0
  9
$PDSIZE
 40
0.01
  9
$HANDSEED
  5
2CB
  9
$TILEMODE
 70
1
  9
$MEASUREMENT
 70
1
  9
$INSUNITS
 70
4
  0
ENDSEC
  0
SECTION
  2
CLASSES
  0
CLASS
  1
ACDBDICTIONARYWDFLT
  2
AcDbDictionaryWithDefault
  3
AutoCAD 2000
 90
0
 91
1
280
0
281
0
  0
CLASS
  1
ACDBPLACEHOLDER
  2
AcDbPlaceHolder
  3
AutoCAD 2000
 90
0
 91
1
280
0
281
0
  0
CLASS
  1
LAYOUT
  2
AcDbLayout
  3
AutoCAD 2000
 90
0
 91
0
280
0
281
0
  0
ENDSEC
  0
SECTION
  2
TABLES
  0
TABLE
  2
VPORT
  5
8
100
AcDbSymbolTable
 70
2
  0
VPORT
  5
1F4
100
AcDbSymbolTableRecord
100
AcDbViewportTableRecord
  2
*ACTIVE
 70
0
 10
0.0
 20
0.0
 11
1.0
 21
1.0
 12
279.4
 22
215.9
 13
0.0
 23
0.0
 14
1.0
 24
1.0
 15
0.0
 25
0.0
 16
0.0
 26
0.0
 36
1.0
 17
0.0
 27
0.0
 37
0.0
 40
431.8
 41
1.2941176471
 42
50.0
 43
0.0
 44
0.0
 50
0.0
 51
0.0
 71
0
 72
100
 73
1
 74
1
 75
0
 76
0
 77
0
 78
0
  0
ENDTAB
  0
TABLE
  2
LTYPE
  5
5
100
AcDbSymbolTable
 70
6
  0
LTYPE
  5
14
100
AcDbSymbolTableRecord
100
AcDbLinetypeTableRecord
  2
BYBLOCK
 70
0
  3

 72
65
 73
0
 40
0.0
  0
LTYPE
  5
15
100
AcDbSymbolTableRecord
100
AcDbLinetypeTableRecord
  2
BYLAYER
 70
0
  3

 72
65
 73
0
 40
0.0
  0
LTYPE
  5
16
100
AcDbSymbolTableRecord
100
AcDbLinetypeTableRecord
  2
CONTINUOUS
 70
64
  3
Solid line
 72
65
 73
0
 40
0.0
  0
LTYPE
  5
1F5
100
AcDbSymbolTableRecord
100
AcDbLinetypeTableRecord
  2
CENTER
 70
64
  3
____ _ ____ _ ____ _ ____ _ ____ _ ____ _ ____
 72
65
 73
4
 40
0.6
 49
0.375
 74
0
 49
-0.075
 74
0
 49
0.075
 74
0
 49
-0.075
 74
0
  0
LTYPE
  5
1F6
100
AcDbSymbolTableRecord
100
AcDbLinetypeTableRecord
  2
HIDDEN
 70
64
  3
- - - - - - - - - - - - - - - - - - - -
 72
65
 73
2
 40
0.2
 49
0.1
 74
0
 49
-0.1
 74
0
  0
LTYPE
  5
1F7
100
AcDbSymbolTableRecord
100
AcDbLinetypeTableRecord
  2
PHANTOM
 70
64
  3
_____ _ _ _____ _ _ _____ _ _ _____
 72
65
 73
6
 40
0.8
 49
0.45
 74
0
 49
-0.05
 74
0
 49
0.1
 74
0
 49
-0.05
 74
0
 49
0.1
 74
0
 49
-0.05
 74
0
  0
LTYPE
  5
1F8
100
AcDbSymbolTableRecord
100
AcDbLinetypeTableRecord
  2
DOT
 70
64
  3
. . . . . . . . . . . . . . . . . . . .
 72
65
 73
2
 40
0.2
 49
0.1
 74
0
 49
-0.1
 74
0
  0
LTYPE
  5
1F9
100
AcDbSymbolTableRecord
100
AcDbLinetypeTableRecord
  2
DASHED
 70
64
  3
- - - - - - - - - - - - - - - - - - - -
 72
65
 73
2
 40
0.2
 49
0.1
 74
0
 49
-0.1
 74
0
  0
ENDTAB
  0
TABLE
  2
LAYER
  5
2
100
AcDbSymbolTable
 70
36
  0
LAYER
  5
10
100
AcDbSymbolTableRecord
100
AcDbLayerTableRecord
  2
0
 70
0
 62
7
  6
CONTINUOUS
370
-3
390
F
  0
LAYER
  5
1FA
100
AcDbSymbolTableRecord
100
AcDbLayerTableRecord
  2
DEFAULT_1
 70
0
 62
7
  6
CENTER
370
-3
390
F
  0
LAYER
  5
1FB
100
AcDbSymbolTableRecord
100
AcDbLayerTableRecord
  2
DEFAULT_2
 70
0
 62
8
  6
HIDDEN
370
-3
390
F
  0
LAYER
  5
1FC
100
AcDbSymbolTableRecord
100
AcDbLayerTableRecord
  2
DEFAULT_3
 70
0
 62
7
  6
PHANTOM
370
-3
390
F
  0
LAYER
  5
1FD
100
AcDbSymbolTableRecord
100
AcDbLayerTableRecord
  2
01_ALL_DTM_PLN
 70
0
 62
7
  6
CONTINUOUS
370
-3
390
F
  0
LAYER
  5
1FE
100
AcDbSymbolTableRecord
100
AcDbLayerTableRecord
  2
01__ASM_ALL_DTM_PLN
 70
0
 62
7
  6
CONTINUOUS
370
-3
390
F
  0
LAYER
  5
1FF
100
AcDbSymbolTableRecord
100
AcDbLayerTableRecord
  2
01__ASM_DEF_DTM_PLN
 70
0
 62
7
  6
CONTINUOUS
370
-3
390
F
  0
LAYER
  5
200
100
AcDbSymbolTableRecord
100
AcDbLayerTableRecord
  2
01___PRT_ALL_DTM_PLN
 70
0
 62
7
  6
CONTINUOUS
370
-3
390
F
  0
LAYER
  5
201
100
AcDbSymbolTableRecord
100
AcDbLayerTableRecord
  2
01___PRT_DEF_DTM_PLN
 70
0
 62
7
  6
CONTINUOUS
370
-3
390
F
  0
LAYER
  5
202
100
AcDbSymbolTableRecord
100
AcDbLayerTableRecord
  2
02_ALL_AXES
 70
0
 62
7
  6
CONTINUOUS
370
-3
390
F
  0
LAYER
  5
203
100
AcDbSymbolTableRecord
100
AcDbLayerTableRecord
  2
02__ASM_ALL_AXES
 70
0
 62
7
  6
CONTINUOUS
370
-3
390
F
  0
LAYER
  5
204
100
AcDbSymbolTableRecord
100
AcDbLayerTableRecord
  2
02___PRT_ALL_AXES
 70
0
 62
7
  6
CONTINUOUS
370
-3
390
F
  0
LAYER
  5
205
100
AcDbSymbolTableRecord
100
AcDbLayerTableRecord
  2
03_ALL_CURVES
 70
0
 62
7
  6
CONTINUOUS
370
-3
390
F
  0
LAYER
  5
206
100
AcDbSymbolTableRecord
100
AcDbLayerTableRecord
  2
03__ASM_ALL_CURVES
 70
0
 62
7
  6
CONTINUOUS
370
-3
390
F
  0
LAYER
  5
207
100
AcDbSymbolTableRecord
100
AcDbLayerTableRecord
  2
03___PRT_ALL_CURVES
 70
0
 62
7
  6
CONTINUOUS
370
-3
390
F
  0
LAYER
  5
208
100
AcDbSymbolTableRecord
100
AcDbLayerTableRecord
  2
04_ALL_DTM_PNT
 70
0
 62
7
  6
CONTINUOUS
370
-3
390
F
  0
LAYER
  5
209
100
AcDbSymbolTableRecord
100
AcDbLayerTableRecord
  2
04__ASM_ALL_DTM_PNT
 70
0
 62
7
  6
CONTINUOUS
370
-3
390
F
  0
LAYER
  5
20A
100
AcDbSymbolTableRecord
100
AcDbLayerTableRecord
  2
04___PRT_ALL_DTM_PNT
 70
0
 62
7
  6
CONTINUOUS
370
-3
390
F
  0
LAYER
  5
20B
100
AcDbSymbolTableRecord
100
AcDbLayerTableRecord
  2
05_ALL_DTM_CSYS
 70
0
 62
7
  6
CONTINUOUS
370
-3
390
F
  0
LAYER
  5
20C
100
AcDbSymbolTableRecord
100
AcDbLayerTableRecord
  2
05__ASM_ALL_DTM_CSYS
 70
0
 62
7
  6
CONTINUOUS
370
-3
390
F
  0
LAYER
  5
20D
100
AcDbSymbolTableRecord
100
AcDbLayerTableRecord
  2
05__ASM_DEF_DTM_CSYS
 70
0
 62
7
  6
CONTINUOUS
370
-3
390
F
  0
LAYER
  5
20E
100
AcDbSymbolTableRecord
100
AcDbLayerTableRecord
  2
05___PRT_ALL_DTM_CSYS
 70
0
 62
7
  6
CONTINUOUS
370
-3
390
F
  0
LAYER
  5
20F
100
AcDbSymbolTableRecord
100
AcDbLayerTableRecord
  2
05___PRT_DEF_DTM_CSYS
 70
0
 62
7
  6
CONTINUOUS
370
-3
390
F
  0
LAYER
  5
210
100
AcDbSymbolTableRecord
100
AcDbLayerTableRecord
  2
06_ALL_SURFS
 70
0
 62
7
  6
CONTINUOUS
370
-3
390
F
  0
LAYER
  5
211
100
AcDbSymbolTableRecord
100
AcDbLayerTableRecord
  2
06__ASM_ALL_SURFS
 70
0
 62
7
  6
CONTINUOUS
370
-3
390
F
  0
LAYER
  5
212
100
AcDbSymbolTableRecord
100
AcDbLayerTableRecord
  2
06___PRT_ALL_SURFS
 70
0
 62
7
  6
CONTINUOUS
370
-3
390
F
  0
LAYER
  5
213
100
AcDbSymbolTableRecord
100
AcDbLayerTableRecord
  2
07__ASM_ALL_SKELETONS
 70
0
 62
7
  6
CONTINUOUS
370
-3
390
F
  0
LAYER
  5
214
100
AcDbSymbolTableRecord
100
AcDbLayerTableRecord
  2
AXIS_1
 70
0
 62
7
  6
CONTINUOUS
370
-3
390
F
  0
LAYER
  5
215
100
AcDbSymbolTableRecord
100
AcDbLayerTableRecord
  2
CLOSED_SHELL
 70
0
 62
7
  6
CONTINUOUS
370
-3
390
F
  0
LAYER
  5
216
100
AcDbSymbolTableRecord
100
AcDbLayerTableRecord
  2
ORIENTED_CLOSED_SHE
 70
0
 62
7
  6
CONTINUOUS
370
-3
390
F
  0
ENDTAB
  0
TABLE
  2
STYLE
  5
3
100
AcDbSymbolTable
 70
1
  0
STYLE
  5
11
100
AcDbSymbolTableRecord
100
AcDbTextStyleTableRecord
  2
STANDARD
 70
0
 40
0.0
 41
0.6
 50
0.0
 71
0
 42
0.2
  3
txt
  4

  0
STYLE
  5
217
100
AcDbSymbolTableRecord
100
AcDbTextStyleTableRecord
  2
TEXTSTYLE_1
 70
0
 40
0.0
 41
0.8
 50
0.0
 71
0
 42
0.2
  3
gdt
  4

  0
ENDTAB
  0
TABLE
  2
VIEW
  5
6
100
AcDbSymbolTable
 70
0
  0
ENDTAB
  0
TABLE
  2
UCS
  5
7
100
AcDbSymbolTable
 70
0
  0
ENDTAB
  0
TABLE
  2
APPID
  5
9
100
AcDbSymbolTable
 70
1
  0
APPID
  5
218
100
AcDbSymbolTableRecord
100
AcDbRegAppTableRecord
  2
ACAD
 70
0
  0
ENDTAB
  0
TABLE
  2
BLOCK_RECORD
  5
1
100
AcDbSymbolTable
 70
0
  0
BLOCK_RECORD
  5
219
100
AcDbSymbolTableRecord
100
AcDbBlockTableRecord
  2
*Model_Space
  0
BLOCK_RECORD
  5
21A
100
AcDbSymbolTableRecord
100
AcDbBlockTableRecord
  2
*Paper_Space
  0
BLOCK_RECORD
  5
21B
100
AcDbSymbolTableRecord
100
AcDbBlockTableRecord
  2
_FILLED
  0
ENDTAB
  0
TABLE
  2
DIMSTYLE
  5
A
100
AcDbSymbolTable
 70
1
100
AcDbDimStyleTable
 71
0
  0
DIMSTYLE
105
21C
100
AcDbSymbolTableRecord
100
AcDbDimStyleTableRecord
  2
STANDARD
 70
0
  3

  4

 40
1.0
 41
3.5
 42
1.0
 43
0.38
 44
3.0
 45
0.0
 46
0.0
 47
0.0001
 48
0.0001
140
4.0
141
0.09
142
0.0
143
25.4
144
1.0
145
0.0
146
1.0
147
0.625
 71
1.0
 72
0.0
 73
0
 74
0
 75
0
 76
0
 77
1
 78
8
 79
2
170
0
171
3
172
0
173
0
174
0
175
0
176
0
177
0
178
0
270
2
179
4
271
4
272
4
273
2
274
2
275
0
280
0
281
0
282
0
283
1
284
8
285
0
286
0
287
3
288
0
340
11
278
46
341
21B
342
21B
343
21B
344
21B
  0
ENDTAB
  0
ENDSEC
  0
SECTION
  2
BLOCKS
  0
BLOCK
  5
20
100
AcDbEntity
  8
0
100
AcDbBlockBegin
  2
*Model_Space
 70
0
 10
0.0
 20
0.0
 30
0.0
  3
*Model_Space
  1

  0
ENDBLK
  5
21
100
AcDbEntity
  8
0
100
AcDbBlockEnd
  0
BLOCK
  5
1C
100
AcDbEntity
  8
0
100
AcDbBlockBegin
  2
*Paper_Space
 70
0
 10
0.0
 20
0.0
 30
0.0
  3
*Paper_Space
  1

  0
ENDBLK
  5
1D
100
AcDbEntity
  8
0
100
AcDbBlockEnd
  0
BLOCK
  5
21D
100
AcDbEntity
  8
0
100
AcDbBlockBegin
  2
_FILLED
 70
64
 10
0.0
 20
0.0
  3
_FILLED
  1

  0
SOLID
  5
21E
100
AcDbEntity
  8
0
  6
BYBLOCK
 62
0
100
AcDbTrace
 10
0.0
 20
0.0
 11
-1.0
 21
0.2857142857
 12
-1.0
 22
-0.2857142857
 13
-1.0
 23
-0.2857142857
  0
ENDBLK
  5
21F
100
AcDbEntity
  8
0
  6
BYBLOCK
 62
0
100
AcDbBlockEnd
  0
ENDSEC
  0
SECTION
  2
ENTITIES
  0
LINE
  5
220
100
AcDbEntity
  8
0
100
AcDbLine
 62
7
  6
CONTINUOUS
 10
151.4504534038
 20
199.2198074777
 11
158.4504534038
 21
199.2198074777
  0
LINE
  5
221
100
AcDbEntity
  8
0
100
AcDbLine
 62
7
  6
CONTINUOUS
 10
149.7806233591
 20
199.9355969515
 11
160.1202834485
 21
199.9355969515
  0
LINE
  5
222
100
AcDbEntity
  8
0
100
AcDbLine
 62
7
  6
CONTINUOUS
 10
158.7004534038
 20
201.719807477
 11
151.2004534038
 21
201.719807477
  0
LINE
  5
223
100
AcDbEntity
  8
0
100
AcDbLine
 62
7
  6
CONTINUOUS
 10
156.8324044771
 20
202.0083402494
 11
153.0685004822
 21
202.0083402494
  0
LINE
  5
224
100
AcDbEntity
  8
0
100
AcDbLine
 62
7
  6
CONTINUOUS
 10
158.437074372
 20
202.047186024
 11
151.4638324356
 21
202.047186024
  0
LINE
  5
225
100
AcDbEntity
  8
0
100
AcDbLine
 62
7
  6
CONTINUOUS
 10
158.437074372
 20
202.5440250899
 11
151.4638324363
 21
202.5440250899
  0
LINE
  5
226
100
AcDbEntity
  8
0
100
AcDbLine
 62
7
  6
CONTINUOUS
 10
148.2123140189
 20
202.7198074777
 11
150.7004534038
 21
202.7198074777
  0
LINE
  5
227
100
AcDbEntity
  8
0
100
AcDbLine
 62
7
  6
CONTINUOUS
 10
159.2004534038
 20
202.7198074777
 11
161.6885927888
 21
202.7198074777
  0
LINE
  5
228
100
AcDbEntity
  8
0
100
AcDbLine
 62
7
  6
CONTINUOUS
 10
161.7004534038
 20
203.9583402493
 11
163.6004534038
 21
203.9583402493
  0
LINE
  5
229
100
AcDbEntity
  8
0
100
AcDbLine
 62
7
  6
CONTINUOUS
 10
150.7485798091
 20
202.8236346599
 11
150.7004376251
 21
202.8459487311
  0
LINE
  5
22A
100
AcDbEntity
  8
0
100
AcDbLine
 62
7
  6
CONTINUOUS
 10
159.2004534038
 20
204.8569859196
 11
158.6755993584
 21
204.7191569129
  0
LINE
  5
22B
100
AcDbEntity
  8
0
100
AcDbLine
 62
9
  6
CONTINUOUS
 10
158.6755993588
 20
205.1166281656
 11
159.2004534038
 21
205.2544571716
  0
LINE
  5
22C
100
AcDbEntity
  8
0
100
AcDbLine
 62
9
  6
CONTINUOUS
 10
158.7219739608
 20
205.7354869898
 11
159.2004534038
 21
205.8611378192
  0
LINE
  5
22D
100
AcDbEntity
  8
0
100
AcDbLine
 62
7
  6
CONTINUOUS
 10
146.3004534042
 20
204.9583402492
 11
148.2004534038
 21
204.9583402492
  0
LINE
  5
22E
100
AcDbEntity
  8
0
100
AcDbLine
 62
7
  6
CONTINUOUS
 10
140.9204534038
 20
205.4583402495
 11
140.0004534038
 21
205.4583402495
  0
LINE
  5
22F
100
AcDbEntity
  8
0
100
AcDbLine
 62
7
  6
CONTINUOUS
 10
141.0004534044
 20
205.4583402495
 11
147.0004534044
 21
205.4583402495
  0
LINE
  5
230
100
AcDbEntity
  8
0
100
AcDbLine
 62
7
  6
CONTINUOUS
 10
162.9004534038
 20
205.4583402495
 11
168.900453379
 21
205.4583402495
  0
LINE
  5
231
100
AcDbEntity
  8
0
100
AcDbLine
 62
7
  6
CONTINUOUS
 10
168.9804534034
 20
205.4599428174
 11
169.9004534038
 21
205.4583402495
  0
LINE
  5
232
100
AcDbEntity
  8
0
100
AcDbLine
 62
7
  6
CONTINUOUS
 10
151.2253074492
 20
204.7191569129
 11
150.7004534038
 21
204.8569859196
  0
LINE
  5
233
100
AcDbEntity
  8
0
100
AcDbLine
 62
9
  6
CONTINUOUS
 10
150.7004534038
 20
205.2544571715
 11
151.2253074488
 21
205.1166281655
  0
LINE
  5
234
100
AcDbEntity
  8
0
100
AcDbLine
 62
9
  6
CONTINUOUS
 10
150.7004534038
 20
205.8611378192
 11
151.1789328468
 21
205.7354869898
  0
LINE
  5
235
100
AcDbEntity
  8
0
100
AcDbLine
 62
7
  6
CONTINUOUS
 10
140.0004534038
 20
205.4583402495
 11
140.0004534038
 21
238.2083402495
  0
LINE
  5
236
100
AcDbEntity
  8
0
100
AcDbLine
 62
7
  6
CONTINUOUS
 10
140.2854534038
 20
213.3198074777
 11
140.2854534038
 21
245.4198074777
  0
LINE
  5
237
100
AcDbEntity
  8
0
100
AcDbLine
 62
7
  6
CONTINUOUS
 10
154.2820629728
 20
205.2016941984
 11
154.1778556853
 21
205.2550861755
  0
LINE
  5
238
100
AcDbEntity
  8
0
100
AcDbLine
 62
9
  6
CONTINUOUS
 10
151.0859968369
 20
206.7765616209
 11
150.7004534038
 21
206.6753162012
  0
LINE
  5
239
100
AcDbEntity
  8
0
100
AcDbLine
 62
7
  6
CONTINUOUS
 10
151.0425718747
 20
207.1827430934
 11
150.707063272
 21
207.0946370424
  0
LINE
  5
23A
100
AcDbEntity
  8
0
100
AcDbLine
 62
7
  6
CONTINUOUS
 10
169.9004534038
 20
208.5583402497
 11
162.2504534038
 21
208.5583402496
  0
LINE
  5
23B
100
AcDbEntity
  8
0
100
AcDbLine
 62
7
  6
CONTINUOUS
 10
140.0004534038
 20
208.5583402497
 11
147.6504534037
 21
208.5583402495
  0
LINE
  5
23C
100
AcDbEntity
  8
0
100
AcDbLine
 62
7
  6
CONTINUOUS
 10
144.085453404
 20
209.5198074777
 11
147.5337860637
 21
209.5198074777
  0
LINE
  5
23D
100
AcDbEntity
  8
0
100
AcDbLine
 62
7
  6
CONTINUOUS
 10
162.3554797656
 20
209.5198074777
 11
165.8154534036
 21
209.5198074777
  0
LINE
  5
23E
100
AcDbEntity
  8
0
100
AcDbLine
 62
7
  6
CONTINUOUS
 10
142.4004534038
 20
209.5583402495
 11
143.6949751743
 21
209.5583402495
  0
LINE
  5
23F
100
AcDbEntity
  8
0
100
AcDbLine
 62
7
  6
CONTINUOUS
 10
166.2059174055
 20
209.5583402495
 11
167.5004534038
 21
209.5583402495
  0
LINE
  5
240
100
AcDbEntity
  8
0
100
AcDbLine
 62
9
  6
CONTINUOUS
 10
159.2004534038
 20
206.6753162016
 11
158.8149099708
 21
206.7765616214
  0
LINE
  5
241
100
AcDbEntity
  8
0
100
AcDbLine
 62
7
  6
CONTINUOUS
 10
159.2004534038
 20
207.0929012617
 11
158.8583349329
 21
207.1827430934
  0
LINE
  5
242
100
AcDbEntity
  8
0
100
AcDbLine
 62
7
  6
CONTINUOUS
 10
142.4004534038
 20
209.9323596488
 11
142.4004534038
 21
208.5583402495
  0
LINE
  5
243
100
AcDbEntity
  8
0
100
AcDbLine
 62
7
  6
CONTINUOUS
 10
142.7854534038
 20
213.0198074777
 11
142.7854534038
 21
214.2945607017
  0
LINE
  5
244
100
AcDbEntity
  8
0
100
AcDbLine
 62
7
  6
CONTINUOUS
 10
142.7854534038
 20
229.0774715592
 11
142.7854534038
 21
245.4198074777
  0
LINE
  5
245
100
AcDbEntity
  8
0
100
AcDbLine
 62
7
  6
CONTINUOUS
 10
142.8254534038
 20
213.6583402487
 11
142.8254534038
 21
214.2320778629
  0
LINE
  5
246
100
AcDbEntity
  8
0
100
AcDbLine
 62
7
  6
CONTINUOUS
 10
142.8254534038
 20
229.1377303939
 11
142.8254534038
 21
238.2083402495
  0
LINE
  5
247
100
AcDbEntity
  8
0
100
AcDbLine
 62
7
  6
CONTINUOUS
 10
143.1254534038
 20
213.4441974066
 11
143.1254534038
 21
213.6583402495
  0
LINE
  5
248
100
AcDbEntity
  8
0
100
AcDbLine
 62
7
  6
CONTINUOUS
 10
166.1154534029
 20
212.0198074777
 11
165.4042003192
 21
212.0198074777
  0
LINE
  5
249
100
AcDbEntity
  8
0
100
AcDbLine
 62
7
  6
CONTINUOUS
 10
144.4887125393
 20
212.0198074777
 11
143.7854534047
 21
212.0198074777
  0
LINE
  5
24A
100
AcDbEntity
  8
0
100
AcDbLine
 62
7
  6
CONTINUOUS
 10
146.3004534038
 20
204.9583402495
 11
146.3004534038
 21
205.4583402495
  0
LINE
  5
24B
100
AcDbEntity
  8
0
100
AcDbLine
 62
7
  6
CONTINUOUS
 10
146.3504534038
 20
238.9583402495
 11
146.3504534038
 21
238.2083402495
  0
LINE
  5
24C
100
AcDbEntity
  8
0
100
AcDbLine
 62
7
  6
CONTINUOUS
 10
147.0004534044
 20
205.4583402495
 11
147.0004534044
 21
208.5583402495
  0
LINE
  5
24D
100
AcDbEntity
  8
0
100
AcDbLine
 62
7
  6
CONTINUOUS
 10
147.6504534037
 20
208.5583402496
 11
147.6504534036
 21
209.4425793571
  0
LINE
  5
24E
100
AcDbEntity
  8
0
100
AcDbLine
 62
7
  6
CONTINUOUS
 10
143.1927463275
 20
213.6583402495
 11
142.7854534038
 21
213.6583402495
  0
LINE
  5
24F
100
AcDbEntity
  8
0
100
AcDbLine
 62
7
  6
CONTINUOUS
 10
166.7094059249
 20
213.6583402495
 11
167.1154534038
 21
213.6583402495
  0
LINE
  5
250
100
AcDbEntity
  8
0
100
AcDbLine
 62
7
  6
CONTINUOUS
 10
151.4638324356
 20
202.047186024
 11
151.2253074492
 21
204.7191569129
  0
LINE
  5
251
100
AcDbEntity
  8
0
100
AcDbLine
 62
7
  6
CONTINUOUS
 10
151.0056788214
 20
207.1794496761
 11
150.9504534038
 21
207.7980880374
  0
LINE
  5
252
100
AcDbEntity
  8
0
100
AcDbLine
 62
7
  6
CONTINUOUS
 10
147.9504534038
 20
244.6583402495
 11
147.9504534038
 21
240.672441863
  0
LINE
  5
253
100
AcDbEntity
  8
0
100
AcDbLine
 62
7
  6
CONTINUOUS
 10
148.2004534038
 20
209.0198074777
 11
148.2004534038
 21
203.0198074777
  0
LINE
  5
254
100
AcDbEntity
  8
0
100
AcDbLine
 62
7
  6
CONTINUOUS
 10
145.8833021013
 20
242.6955506693
 11
146.3504534038
 21
238.9583402495
  0
LINE
  5
255
100
AcDbEntity
  8
0
100
AcDbLine
 62
7
  6
CONTINUOUS
 10
150.9763063042
 20
208.0053213973
 11
151.0859968369
 21
206.7765616209
  0
LINE
  5
256
100
AcDbEntity
  8
0
100
AcDbLine
 62
7
  6
CONTINUOUS
 10
151.1789328468
 20
205.7354869898
 11
151.4638324363
 21
202.5440250899
  0
LINE
  5
257
100
AcDbEntity
  8
0
100
AcDbLine
 62
7
  6
CONTINUOUS
 10
150.7004534038
 20
202.219807477
 11
150.7004534038
 21
208.0927668804
  0
LINE
  5
258
100
AcDbEntity
  8
0
100
AcDbLine
 62
7
  6
CONTINUOUS
 10
150.9504534038
 20
208.0135167773
 11
150.9504534038
 21
207.7980880373
  0
LINE
  5
259
100
AcDbEntity
  8
0
100
AcDbLine
 62
7
  6
CONTINUOUS
 10
151.2253074488
 20
204.7191569133
 11
151.2253074488
 21
205.1166281655
  0
LINE
  5
25A
100
AcDbEntity
  8
0
100
AcDbLine
 62
7
  6
CONTINUOUS
 10
151.4504534038
 20
199.2598207756
 11
151.4504534038
 21
199.2198074777
  0
LINE
  5
25B
100
AcDbEntity
  8
0
100
AcDbLine
 62
7
  6
CONTINUOUS
 10
151.4638324363
 20
202.5440250899
 11
151.4638324363
 21
202.0471860247
  0
LINE
  5
25C
100
AcDbEntity
  8
0
100
AcDbLine
 62
7
  6
CONTINUOUS
 10
151.6504534038
 20
238.2083402495
 11
151.6504534038
 21
238.4583402495
  0
LINE
  5
25D
100
AcDbEntity
  8
0
100
AcDbLine
 62
7
  6
CONTINUOUS
 10
152.9505008394
 20
206.5248854531
 11
152.9505008394
 21
206.2682270097
  0
LINE
  5
25E
100
AcDbEntity
  8
0
100
AcDbLine
 62
7
  6
CONTINUOUS
 10
169.6154534038
 20
221.6583402487
 11
169.9004534038
 21
221.6583402487
  0
LINE
  5
25F
100
AcDbEntity
  8
0
100
AcDbLine
 62
7
  6
CONTINUOUS
 10
140.2854534038
 20
221.6583402495
 11
140.0004534038
 21
221.6583402495
  0
LINE
  5
260
100
AcDbEntity
  8
0
100
AcDbLine
 62
7
  6
CONTINUOUS
 10
156.9504059682
 20
206.5248854531
 11
156.9504059682
 21
206.2682270097
  0
LINE
  5
261
100
AcDbEntity
  8
0
100
AcDbLine
 62
7
  6
CONTINUOUS
 10
158.2504534038
 20
238.4583402495
 11
158.2504534038
 21
238.2083402495
  0
LINE
  5
262
100
AcDbEntity
  8
0
100
AcDbLine
 62
7
  6
CONTINUOUS
 10
158.4370743713
 20
202.5440250899
 11
158.4370743713
 21
202.0471860247
  0
LINE
  5
263
100
AcDbEntity
  8
0
100
AcDbLine
 62
7
  6
CONTINUOUS
 10
158.4504534038
 20
199.2198074777
 11
158.4504534038
 21
199.2598207754
  0
LINE
  5
264
100
AcDbEntity
  8
0
100
AcDbLine
 62
7
  6
CONTINUOUS
 10
158.6755993587
 20
204.7191569138
 11
158.6755993587
 21
205.1166281659
  0
LINE
  5
265
100
AcDbEntity
  8
0
100
AcDbLine
 62
7
  6
CONTINUOUS
 10
149.3731031346
 20
238.2083402495
 11
147.9504534038
 21
240.6724418646
  0
LINE
  5
266
100
AcDbEntity
  8
0
100
AcDbLine
 62
7
  6
CONTINUOUS
 10
158.9504534038
 20
208.0071630258
 11
158.9504534038
 21
207.7980880372
  0
LINE
  5
267
100
AcDbEntity
  8
0
100
AcDbLine
 62
7
  6
CONTINUOUS
 10
159.2004534038
 20
208.0706054468
 11
159.2004534038
 21
202.219807477
  0
LINE
  5
268
100
AcDbEntity
  8
0
100
AcDbLine
 62
7
  6
CONTINUOUS
 10
158.4370743713
 20
202.5440250899
 11
158.7219739608
 21
205.7354869898
  0
LINE
  5
269
100
AcDbEntity
  8
0
100
AcDbLine
 62
7
  6
CONTINUOUS
 10
158.8149099708
 20
206.7765616214
 11
158.9241694723
 21
208.0004929608
  0
LINE
  5
26A
100
AcDbEntity
  8
0
100
AcDbLine
 62
7
  6
CONTINUOUS
 10
158.9504534038
 20
207.7980880374
 11
158.8952279863
 21
207.1794496761
  0
LINE
  5
26B
100
AcDbEntity
  8
0
100
AcDbLine
 62
7
  6
CONTINUOUS
 10
158.6755993584
 20
204.7191569129
 11
158.437074372
 21
202.047186024
  0
LINE
  5
26C
100
AcDbEntity
  8
0
100
AcDbLine
 62
7
  6
CONTINUOUS
 10
161.1004534038
 20
238.2083402495
 11
161.1004534038
 21
240.1583402495
  0
LINE
  5
26D
100
AcDbEntity
  8
0
100
AcDbLine
 62
7
  6
CONTINUOUS
 10
161.7004534038
 20
203.0198074777
 11
161.7004534038
 21
209.0198074777
  0
LINE
  5
26E
100
AcDbEntity
  8
0
100
AcDbLine
 62
7
  6
CONTINUOUS
 10
161.9504534038
 20
238.7083402495
 11
161.9504534038
 21
239.6583402495
  0
LINE
  5
26F
100
AcDbEntity
  8
0
100
AcDbLine
 62
7
  6
CONTINUOUS
 10
162.2504534038
 20
209.4587951371
 11
162.2504534038
 21
208.5583402495
  0
LINE
  5
270
100
AcDbEntity
  8
0
100
AcDbLine
 62
7
  6
CONTINUOUS
 10
162.9004534038
 20
208.5583402495
 11
162.9004534038
 21
205.4583402495
  0
LINE
  5
271
100
AcDbEntity
  8
0
100
AcDbLine
 62
7
  6
CONTINUOUS
 10
163.6004534038
 20
205.4583402495
 11
163.6004534038
 21
203.9583402495
  0
LINE
  5
272
100
AcDbEntity
  8
0
100
AcDbLine
 62
7
  6
CONTINUOUS
 10
166.7754534038
 20
213.65834025
 11
166.7754534038
 21
213.4441974064
  0
LINE
  5
273
100
AcDbEntity
  8
0
100
AcDbLine
 62
7
  6
CONTINUOUS
 10
167.0754534038
 20
214.1826483605
 11
167.0754534038
 21
213.6583402495
  0
LINE
  5
274
100
AcDbEntity
  8
0
100
AcDbLine
 62
7
  6
CONTINUOUS
 10
167.0754534038
 20
229.1331455366
 11
167.0754534038
 21
240.1583402495
  0
LINE
  5
275
100
AcDbEntity
  8
0
100
AcDbLine
 62
7
  6
CONTINUOUS
 10
167.1154534038
 20
214.2578182724
 11
167.1154534038
 21
213.0198074777
  0
LINE
  5
276
100
AcDbEntity
  8
0
100
AcDbLine
 62
7
  6
CONTINUOUS
 10
167.1154534038
 20
229.0764088945
 11
167.1154534038
 21
245.4198074777
  0
LINE
  5
277
100
AcDbEntity
  8
0
100
AcDbLine
 62
7
  6
CONTINUOUS
 10
167.5004534038
 20
208.5583402495
 11
167.5004534038
 21
209.93235855
  0
LINE
  5
278
100
AcDbEntity
  8
0
100
AcDbLine
 62
7
  6
CONTINUOUS
 10
169.6154534038
 20
213.3198074777
 11
169.6154534038
 21
245.4198074777
  0
LINE
  5
279
100
AcDbEntity
  8
0
100
AcDbLine
 62
7
  6
CONTINUOUS
 10
169.9004534038
 20
205.4583402495
 11
169.9004534038
 21
240.1583402495
  0
LINE
  5
27A
100
AcDbEntity
  8
0
100
AcDbLine
 62
7
  6
CONTINUOUS
 10
140.2854534038
 20
238.2083402495
 11
140.0004534038
 21
238.2083402495
  0
LINE
  5
27B
100
AcDbEntity
  8
0
100
AcDbLine
 62
7
  6
CONTINUOUS
 10
142.7854534038
 20
238.2083402495
 11
167.0754534038
 21
238.2083402495
  0
LINE
  5
27C
100
AcDbEntity
  8
0
100
AcDbLine
 62
9
  6
CONTINUOUS
 10
151.6504534038
 20
238.3165351106
 11
158.2504534038
 21
238.3165351106
  0
LINE
  5
27D
100
AcDbEntity
  8
0
100
AcDbLine
 62
7
  6
CONTINUOUS
 10
158.2504534038
 20
238.4583402495
 11
151.6504534038
 21
238.4583402495
  0
LINE
  5
27E
100
AcDbEntity
  8
0
100
AcDbLine
 62
7
  6
CONTINUOUS
 10
161.1004534031
 20
240.1583402495
 11
167.1154534038
 21
240.1583402495
  0
LINE
  5
27F
100
AcDbEntity
  8
0
100
AcDbLine
 62
7
  6
CONTINUOUS
 10
169.6154534038
 20
240.1583402495
 11
169.9004534038
 21
240.1583402495
  0
LINE
  5
280
100
AcDbEntity
  8
0
100
AcDbLine
 62
7
  6
CONTINUOUS
 10
159.2004534038
 20
202.84596682
 11
159.1523147829
 21
202.8236513254
  0
LINE
  5
281
100
AcDbEntity
  8
0
100
AcDbLine
 62
7
  6
CONTINUOUS
 10
145.5856187383
 20
242.9583402495
 11
142.7854534038
 21
242.9583402495
  0
LINE
  5
282
100
AcDbEntity
  8
0
100
AcDbLine
 62
7
  6
CONTINUOUS
 10
142.7854534038
 20
244.6583402495
 11
147.9504534038
 21
244.6583402495
  0
LINE
  5
283
100
AcDbEntity
  8
0
100
AcDbLine
 62
9
  6
CONTINUOUS
 10
140.2854534038
 20
244.9198074777
 11
142.7854534038
 21
244.9198074777
  0
LINE
  5
284
100
AcDbEntity
  8
0
100
AcDbLine
 62
9
  6
CONTINUOUS
 10
167.1154534038
 20
244.9198074777
 11
169.6154534038
 21
244.9198074777
  0
LINE
  5
285
100
AcDbEntity
  8
0
100
AcDbLine
 62
7
  6
CONTINUOUS
 10
169.6154534038
 20
245.4198074777
 11
167.1154534038
 21
245.4198074777
  0
LINE
  5
286
100
AcDbEntity
  8
0
100
AcDbLine
 62
7
  6
CONTINUOUS
 10
142.7854534037
 20
245.4198074777
 11
140.2854534037
 21
245.4198074777
  0
ARC
  5
287
100
AcDbEntity
  8
0
100
AcDbCircle
 62
7
  6
CONTINUOUS
 10
144.0854534038
 20
213.3198074777
 40
3.8
100
AcDbArc
 50
180.0
 51
270.0000000031
  0
ARC
  5
288
100
AcDbEntity
  8
0
100
AcDbCircle
 62
7
  6
CONTINUOUS
 10
152.0004534038
 20
203.0198074777
 40
3.8
100
AcDbArc
 50
180.0
 51
270.0000000113
  0
ARC
  5
289
100
AcDbEntity
  8
0
100
AcDbCircle
 62
7
  6
CONTINUOUS
 10
154.7647758888
 20
204.8595812843
 40
3.5223292014
100
AcDbArc
 50
305.9552309595
 51
306.9160725186
  0
ARC
  5
28A
100
AcDbEntity
  8
0
100
AcDbCircle
 62
7
  6
CONTINUOUS
 10
154.8596688352
 20
202.699975313
 40
2.6597260917
100
AcDbArc
 50
194.2519217341
 51
201.7056588967
  0
ARC
  5
28B
100
AcDbEntity
  8
0
100
AcDbCircle
 62
7
  6
CONTINUOUS
 10
149.9504534038
 20
208.9583402495
 40
2.0
100
AcDbArc
 50
171.9821908076
 51
208.5679905712
  0
ARC
  5
28C
100
AcDbEntity
  8
0
100
AcDbCircle
 62
7
  6
CONTINUOUS
 10
149.9504534038
 20
208.9583402495
 40
2.0
100
AcDbArc
 50
292.2172992836
 51
301.4640699216
  0
ARC
  5
28D
100
AcDbEntity
  8
0
100
AcDbCircle
 62
7
  6
CONTINUOUS
 10
154.9430594731
 20
206.567191847
 40
1.5170809682
100
AcDbArc
 50
239.7569104887
 51
244.1685097499
  0
ARC
  5
28E
100
AcDbEntity
  8
0
100
AcDbCircle
 62
7
  6
CONTINUOUS
 10
154.937670382
 20
206.5589429844
 40
1.5072405675
100
AcDbArc
 50
223.5425343625
 51
239.7759520335
  0
ARC
  5
28F
100
AcDbEntity
  8
0
100
AcDbCircle
 62
7
  6
CONTINUOUS
 10
154.8977294631
 20
206.5238001422
 40
1.4851819799
100
AcDbArc
 50
164.0345275815
 51
173.2526369209
  0
ARC
  5
290
100
AcDbEntity
  8
0
100
AcDbCircle
 62
7
  6
CONTINUOUS
 10
154.8897328985
 20
206.5245595585
 40
1.477151587
100
AcDbArc
 50
173.2454466543
 51
179.9873591957
  0
ARC
  5
291
100
AcDbEntity
  8
0
100
AcDbCircle
 62
7
  6
CONTINUOUS
 10
149.9504534038
 20
208.9583402495
 40
1.45
100
AcDbArc
 50
301.2329283031
 51
313.7393674284
  0
ARC
  5
292
100
AcDbEntity
  8
0
100
AcDbCircle
 62
7
  6
CONTINUOUS
 10
149.9504534038
 20
208.9583402495
 40
1.275
100
AcDbArc
 50
306.3903888713
 51
314.373921843
  0
ARC
  5
293
100
AcDbEntity
  8
0
100
AcDbCircle
 62
7
  6
CONTINUOUS
 10
143.8254534038
 20
214.1583402495
 40
1.0
100
AcDbArc
 50
225.5729959851
 51
248.6168911816
  0
ARC
  5
294
100
AcDbEntity
  8
0
100
AcDbCircle
 62
7
  6
CONTINUOUS
 10
143.7854534038
 20
213.0198074777
 40
1.0
100
AcDbArc
 50
180.0
 51
270.0000000516
  0
ARC
  5
295
100
AcDbEntity
  8
0
100
AcDbCircle
 62
7
  6
CONTINUOUS
 10
141.0004534038
 20
206.4583402495
 40
1.0
100
AcDbArc
 50
265.4187681831
 51
270.0000000344
  0
ARC
  5
296
100
AcDbEntity
  8
0
100
AcDbCircle
 62
7
  6
CONTINUOUS
 10
151.2004534038
 20
202.2198074777
 40
0.5
100
AcDbArc
 50
180.0000000802
 51
270.0
  0
ARC
  5
297
100
AcDbEntity
  8
0
100
AcDbCircle
 62
7
  6
CONTINUOUS
 10
147.7004534038
 20
209.0198074777
 40
0.5
100
AcDbArc
 50
0.0
 51
13.7927683441
  0
ARC
  5
298
100
AcDbEntity
  8
0
100
AcDbCircle
 62
7
  6
CONTINUOUS
 10
145.5856187383
 20
242.6583402495
 40
0.3
100
AcDbArc
 50
7.1250162385
 51
90.0
  0
CIRCLE
  5
299
100
AcDbEntity
  8
0
100
AcDbCircle
 62
7
  6
CONTINUOUS
 10
154.9504534038
 20
221.6583402495
 40
14.25
  0
CIRCLE
  5
29A
100
AcDbEntity
  8
0
100
AcDbCircle
 62
9
  6
CONTINUOUS
 10
154.9504534038
 20
221.6583402495
 40
13.6015738564
  0
ARC
  5
29B
100
AcDbEntity
  8
0
100
AcDbCircle
 62
7
  6
CONTINUOUS
 10
165.8154534038
 20
213.3198074777
 40
3.8
100
AcDbArc
 50
269.9999999969
 51
360.0
  0
ARC
  5
29C
100
AcDbEntity
  8
0
100
AcDbCircle
 62
7
  6
CONTINUOUS
 10
157.9004534038
 20
203.0198074777
 40
3.8
100
AcDbArc
 50
270.0
 51
360.0
  0
ARC
  5
29D
100
AcDbEntity
  8
0
100
AcDbCircle
 62
7
  6
CONTINUOUS
 10
155.2041568464
 20
204.9533772219
 40
3.6381988569
100
AcDbArc
 50
233.113691338
 51
234.0448288405
  0
ARC
  5
29E
100
AcDbEntity
  8
0
100
AcDbCircle
 62
7
  6
CONTINUOUS
 10
155.0392490284
 20
202.7005078739
 40
2.6617669249
100
AcDbArc
 50
338.3221383357
 51
345.7148378224
  0
ARC
  5
29F
100
AcDbEntity
  8
0
100
AcDbCircle
 62
7
  6
CONTINUOUS
 10
155.4499274192
 20
207.4280474828
 40
2.519313704
100
AcDbArc
 50
237.6976737736
 51
239.65282123
  0
ARC
  5
2A0
100
AcDbEntity
  8
0
100
AcDbCircle
 62
7
  6
CONTINUOUS
 10
159.9504534038
 20
208.9583402495
 40
2.0
100
AcDbArc
 50
238.5359312406
 51
247.7827015581
  0
ARC
  5
2A1
100
AcDbEntity
  8
0
100
AcDbCircle
 62
7
  6
CONTINUOUS
 10
159.9504534038
 20
208.9583402495
 40
2.0
100
AcDbArc
 50
331.4904175192
 51
8.9982040003
  0
ARC
  5
2A2
100
AcDbEntity
  8
0
100
AcDbCircle
 62
7
  6
CONTINUOUS
 10
155.0077965022
 20
206.5245161956
 40
1.4805219088
100
AcDbArc
 50
0.2472801315
 51
6.7363783132
  0
ARC
  5
2A3
100
AcDbEntity
  8
0
100
AcDbCircle
 62
7
  6
CONTINUOUS
 10
155.0176092721
 20
206.5247192203
 40
1.4707083629
100
AcDbArc
 50
358.9763286381
 51
0.2410206634
  0
ARC
  5
2A4
100
AcDbEntity
  8
0
100
AcDbCircle
 62
7
  6
CONTINUOUS
 10
159.9504534038
 20
208.9583402495
 40
1.45
100
AcDbArc
 50
226.2879409349
 51
238.7330538124
  0
ARC
  5
2A5
100
AcDbEntity
  8
0
100
AcDbCircle
 62
7
  6
CONTINUOUS
 10
159.9504534038
 20
208.9583402495
 40
1.275
100
AcDbArc
 50
226.3587615644
 51
233.6156523162
  0
ARC
  5
2A6
100
AcDbEntity
  8
0
100
AcDbCircle
 62
7
  6
CONTINUOUS
 10
166.1154534038
 20
213.0198074777
 40
1.0
100
AcDbArc
 50
269.9999999484
 51
360.0
  0
ARC
  5
2A7
100
AcDbEntity
  8
0
100
AcDbCircle
 62
7
  6
CONTINUOUS
 10
168.9004534038
 20
206.4583402495
 40
1.0
100
AcDbArc
 50
269.9999985807
 51
274.5812317967
  0
ARC
  5
2A8
100
AcDbEntity
  8
0
100
AcDbCircle
 62
7
  6
CONTINUOUS
 10
166.0754534038
 20
214.1583402495
 40
1.0
100
AcDbArc
 50
288.2795627137
 51
314.4270040071
  0
ARC
  5
2A9
100
AcDbEntity
  8
0
100
AcDbCircle
 62
7
  6
CONTINUOUS
 10
158.7004534038
 20
202.2198074777
 40
0.5
100
AcDbArc
 50
270.0
 51
359.9999999198
  0
ARC
  5
2AA
100
AcDbEntity
  8
0
100
AcDbCircle
 62
7
  6
CONTINUOUS
 10
162.2004534038
 20
209.0198074777
 40
0.5
100
AcDbArc
 50
164.6133589221
 51
180.0
  0
ARC
  5
2AB
100
AcDbEntity
  8
0
100
AcDbCircle
 62
7
  6
CONTINUOUS
 10
162.4504534038
 20
239.6583402495
 40
0.5
100
AcDbArc
 50
90.0
 51
180.0
  0
ARC
  5
2AC
100
AcDbEntity
  8
0
100
AcDbCircle
 62
7
  6
CONTINUOUS
 10
161.4504534038
 20
238.7083402495
 40
0.5
100
AcDbArc
 50
270.0
 51
360.0
  0
SPLINE
  5
2AD
100
AcDbEntity
  8
0
100
AcDbSpline
 62
7
  6
CONTINUOUS
 70
0
 71
3
 72
9
 73
5
 74
0
 42
0.0000001
 43
0.0000001
 44
0.0000000001
 40
0.0
 40
0.0
 40
0.0
 40
0.0
 40
0.2512174687
 40
1.0
 40
1.0
 40
1.0
 40
1.0
 10
154.1779540992
 20
205.2552848364
 30
0.0
 10
154.146350588
 20
205.27254921
 30
0.0
 10
154.0221985709
 20
205.3442450185
 30
0.0
 10
153.9055475963
 20
205.4289613109
 30
0.0
 10
153.8239864755
 20
205.498739526
 30
0.0
  0
SPLINE
  5
2AE
100
AcDbEntity
  8
0
100
AcDbSpline
 62
7
  6
CONTINUOUS
 70
0
 71
3
 72
9
 73
5
 74
0
 42
0.0000001
 43
0.0000001
 44
0.0000000001
 40
0.0
 40
0.0
 40
0.0
 40
0.0
 40
0.499271
 40
1.0
 40
1.0
 40
1.0
 40
1.0
 10
156.950379735
 20
206.5248854532
 30
0.0
 10
156.9503810505
 20
206.7038922139
 30
0.0
 10
156.8997215092
 20
207.0642184444
 30
0.0
 10
156.751099837
 20
207.3962587556
 30
0.0
 10
156.6559829666
 20
207.5485204536
 30
0.0
  0
SPLINE
  5
2AF
100
AcDbEntity
  8
0
100
AcDbSpline
 62
7
  6
CONTINUOUS
 70
0
 71
3
 72
9
 73
5
 74
0
 42
0.0000001
 43
0.0000001
 44
0.0000000001
 40
0.0
 40
0.0
 40
0.0
 40
0.0
 40
0.499244626
 40
1.0
 40
1.0
 40
1.0
 40
1.0
 10
156.4599534038
 20
206.6961319823
 30
0.0
 10
156.4599534038
 20
206.8373300478
 30
0.0
 10
156.418141893
 20
207.1216901902
 30
0.0
 10
156.295794321
 20
207.3816968853
 30
0.0
 10
156.2177330067
 20
207.4998669672
 30
0.0
  0
SPLINE
  5
2B0
100
AcDbEntity
  8
0
100
AcDbSpline
 62
7
  6
CONTINUOUS
 70
0
 71
3
 72
9
 73
5
 74
0
 42
0.0000001
 43
0.0000001
 44
0.0000000001
 40
0.0
 40
0.0
 40
0.0
 40
0.0
 40
0.5007183732
 40
1.0
 40
1.0
 40
1.0
 40
1.0
 10
153.6682769278
 20
207.4768540281
 30
0.0
 10
153.5948559459
 20
207.36108722
 30
0.0
 10
153.4801094571
 20
207.1079948836
 30
0.0
 10
153.4409534038
 20
206.8328247159
 30
0.0
 10
153.4409534038
 20
206.6961319826
 30
0.0
  0
SPLINE
  5
2B1
100
AcDbEntity
  8
0
100
AcDbSpline
 62
7
  6
CONTINUOUS
 70
0
 71
3
 72
9
 73
5
 74
0
 42
0.0000001
 43
0.0000001
 44
0.0000000001
 40
0.0
 40
0.0
 40
0.0
 40
0.0
 40
0.5007075713
 40
1.0
 40
1.0
 40
1.0
 40
1.0
 10
153.2362077269
 20
207.5344342174
 30
0.0
 10
153.1438198282
 20
207.3837132214
 30
0.0
 10
152.9996369693
 20
207.0559445696
 30
0.0
 10
152.9505283682
 20
206.7011691335
 30
0.0
 10
152.9505270726
 20
206.524885453
 30
0.0
  0
SPLINE
  5
2B2
100
AcDbEntity
  8
0
100
AcDbSpline
 62
7
  6
CONTINUOUS
 70
0
 71
3
 72
11
 73
7
 74
0
 42
0.0000001
 43
0.0000001
 44
0.0000000001
 40
0.0
 40
0.0
 40
0.0
 40
0.0
 40
0.252340247
 40
0.5032968981
 40
0.7523332189
 40
1.0
 40
1.0
 40
1.0
 40
1.0
 10
154.9507168792
 20
204.3081987577
 30
0.0
 10
154.6907919196
 20
204.3081987577
 30
0.0
 10
154.1668569555
 20
204.4095617177
 30
0.0
 10
153.5022689828
 20
204.8442360931
 30
0.0
 10
153.05568356
 20
205.4957284331
 30
0.0
 10
152.9508991135
 20
206.0131159879
 30
0.0
 10
152.9508994802
 20
206.268227009
 30
0.0
  0
SPLINE
  5
2B3
100
AcDbEntity
  8
0
100
AcDbSpline
 62
7
  6
CONTINUOUS
 70
0
 71
3
 72
9
 73
5
 74
0
 42
0.0000001
 43
0.0000001
 44
0.0000000001
 40
0.0
 40
0.0
 40
0.0
 40
0.0
 40
0.5167868973
 40
1.0
 40
1.0
 40
1.0
 40
1.0
 10
156.4295557833
 20
201.7187344743
 30
0.0
 10
156.5027170767
 20
201.7630186226
 30
0.0
 10
156.6404362398
 20
201.8553003409
 30
0.0
 10
156.769890845
 20
201.9584775376
 30
0.0
 10
156.8324044771
 20
202.0083402494
 30
0.0
  0
LINE
  5
2B4
100
AcDbEntity
  8
0
100
AcDbLine
 62
7
  6
CONTINUOUS
 10
159.1523382048
 20
202.8236058801
 11
158.4784768996
 21
202.5114310168
  0
LINE
  5
2B5
100
AcDbEntity
  8
0
100
AcDbLine
 62
7
  6
CONTINUOUS
 10
151.4224221715
 20
202.5114162289
 11
150.7485798091
 21
202.8236346599
  0
SPLINE
  5
2B6
100
AcDbEntity
  8
0
100
AcDbSpline
 62
7
  6
CONTINUOUS
 70
0
 71
3
 72
12
 73
8
 74
0
 42
0.0000001
 43
0.0000001
 44
0.0000000001
 40
0.0
 40
0.0
 40
0.0
 40
0.0
 40
0.2500228149
 40
0.4997074393
 40
0.6244801349
 40
0.7497881794
 40
1.0
 40
1.0
 40
1.0
 40
1.0
 10
158.6165197714
 20
204.0382044841
 30
0.0
 10
158.6286241304
 20
204.0941357991
 30
0.0
 10
158.6522391467
 20
204.2060213444
 30
0.0
 10
158.6770496792
 20
204.3469569727
 30
0.0
 10
158.6861343619
 20
204.4611313925
 30
0.0
 10
158.6855121811
 20
204.5756591038
 30
0.0
 10
158.6819853488
 20
204.6617492346
 30
0.0
 10
158.6858626543
 20
204.7188872002
 30
0.0
  0
SPLINE
  5
2B7
100
AcDbEntity
  8
0
100
AcDbSpline
 62
7
  6
CONTINUOUS
 70
0
 71
3
 72
9
 73
5
 74
0
 42
0.0000001
 43
0.0000001
 44
0.0000000001
 40
0.0
 40
0.0
 40
0.0
 40
0.0
 40
0.5004920225
 40
1.0
 40
1.0
 40
1.0
 40
1.0
 10
156.7695170221
 20
201.7200028921
 30
0.0
 10
156.8872323717
 20
201.774788652
 30
0.0
 10
157.1231580113
 20
201.8826847221
 30
0.0
 10
157.3582909352
 20
201.9922927731
 30
0.0
 10
157.475835443
 20
202.0468404083
 30
0.0
  0
SPLINE
  5
2B8
100
AcDbEntity
  8
0
100
AcDbSpline
 62
7
  6
CONTINUOUS
 70
0
 71
3
 72
19
 73
15
 74
0
 42
0.0000001
 43
0.0000001
 44
0.0000000001
 40
0.0
 40
0.0
 40
0.0
 40
0.0
 40
0.0620083788
 40
0.1241587314
 40
0.1864451532
 40
0.2489738424
 40
0.3741492335
 40
0.5
 40
0.6258507665
 40
0.7510261576
 40
0.8135548468
 40
0.8758412686
 40
0.9379916212
 40
1.0
 40
1.0
 40
1.0
 40
1.0
 10
153.4409534038
 20
206.6961319826
 30
0.0
 10
153.4409534038
 20
206.5994728823
 30
0.0
 10
153.4605047578
 20
206.4053839456
 30
0.0
 10
153.5469758186
 20
206.1259923527
 30
0.0
 10
153.6876669255
 20
205.8684582294
 30
0.0
 10
153.9391073703
 20
205.5679746651
 30
0.0
 10
154.3595280176
 20
205.2930040101
 30
0.0
 10
154.9504534037
 20
205.1785080637
 30
0.0
 10
155.5413787898
 20
205.29300401
 30
0.0
 10
155.9617994372
 20
205.567974665
 30
0.0
 10
156.213239882
 20
205.8684582292
 30
0.0
 10
156.353930989
 20
206.1259923525
 30
0.0
 10
156.4404020498
 20
206.4053839453
 30
0.0
 10
156.4599534038
 20
206.5994728821
 30
0.0
 10
156.4599534038
 20
206.6961319823
 30
0.0
  0
SPLINE
  5
2B9
100
AcDbEntity
  8
0
100
AcDbSpline
 62
7
  6
CONTINUOUS
 70
0
 71
3
 72
9
 73
5
 74
0
 42
0.0000001
 43
0.0000001
 44
0.0000000001
 40
0.0
 40
0.0
 40
0.0
 40
0.0
 40
0.2532143697
 40
1.0
 40
1.0
 40
1.0
 40
1.0
 10
156.6905904932
 20
201.7172615631
 30
0.0
 10
156.7277782333
 20
201.7417161011
 30
0.0
 10
156.872402827
 20
201.8416674232
 30
0.0
 10
157.0078828171
 20
201.9547442217
 30
0.0
 10
157.1030976681
 20
202.0451006831
 30
0.0
  0
SPLINE
  5
2BA
100
AcDbEntity
  8
0
100
AcDbSpline
 62
7
  6
CONTINUOUS
 70
0
 71
3
 72
9
 73
5
 74
0
 42
0.0000001
 43
0.0000001
 44
0.0000000001
 40
0.0
 40
0.0
 40
0.0
 40
0.0
 40
0.5012484677
 40
1.0
 40
1.0
 40
1.0
 40
1.0
 10
153.8451272197
 20
205.5206156916
 30
0.0
 10
153.7179816867
 20
205.6545917448
 30
0.0
 10
153.5124937703
 20
205.9724390688
 30
0.0
 10
153.4409534038
 20
206.3443569505
 30
0.0
 10
153.4409534038
 20
206.5281408648
 30
0.0
  0
SPLINE
  5
2BB
100
AcDbEntity
  8
0
100
AcDbSpline
 62
7
  6
CONTINUOUS
 70
0
 71
3
 72
10
 73
6
 74
0
 42
0.0000001
 43
0.0000001
 44
0.0000000001
 40
0.0
 40
0.0
 40
0.0
 40
0.0
 40
0.2501865678
 40
0.5006000025
 40
1.0
 40
1.0
 40
1.0
 40
1.0
 10
154.6063305357
 20
205.0559071146
 30
0.0
 10
154.5813042955
 20
205.0699598911
 30
0.0
 10
154.5287752478
 20
205.0935164524
 30
0.0
 10
154.4227673816
 20
205.1372013161
 30
0.0
 10
154.3440058157
 20
205.1719535065
 30
0.0
 10
154.2923565721
 20
205.1967471336
 30
0.0
  0
SPLINE
  5
2BC
100
AcDbEntity
  8
0
100
AcDbSpline
 62
9
  6
CONTINUOUS
 70
0
 71
3
 72
8
 73
4
 74
0
 42
0.0000001
 43
0.0000001
 44
0.0000000001
 40
0.0
 40
0.0
 40
0.0
 40
0.0
 40
1.0
 40
1.0
 40
1.0
 40
1.0
 10
154.292356572
 20
205.1967471336
 30
0.0
 10
154.2888463531
 20
205.1982489486
 30
0.0
 10
154.2853354423
 20
205.1997910256
 30
0.0
 10
154.2820280688
 20
205.2016984758
 30
0.0
  0
SPLINE
  5
2BD
100
AcDbEntity
  8
0
100
AcDbSpline
 62
7
  6
CONTINUOUS
 70
0
 71
3
 72
15
 73
11
 74
0
 42
0.0000001
 43
0.0000001
 44
0.0000000001
 40
0.0
 40
0.0
 40
0.0
 40
0.0
 40
0.1235343463
 40
0.2473756469
 40
0.3717522602
 40
0.4967567546
 40
0.6223244634
 40
0.748251514
 40
0.8742461088
 40
1.0
 40
1.0
 40
1.0
 40
1.0
 10
156.4599534038
 20
206.5281408646
 30
0.0
 10
156.4599534038
 20
206.403798513
 30
0.0
 10
156.4275436195
 20
206.1536236755
 30
0.0
 10
156.2849190428
 20
205.8034264666
 30
0.0
 10
156.0574997282
 20
205.4992695625
 30
0.0
 10
155.7599002796
 20
205.2607354534
 30
0.0
 10
155.4111250763
 20
205.1027229584
 30
0.0
 10
155.0332076855
 20
205.0351646596
 30
0.0
 10
154.6502880835
 20
205.0621280448
 30
0.0
 10
154.406700425
 20
205.1424601938
 30
0.0
 10
154.292356572
 20
205.1967471336
 30
0.0
  0
SPLINE
  5
2BE
100
AcDbEntity
  8
0
100
AcDbSpline
 62
7
  6
CONTINUOUS
 70
0
 71
3
 72
10
 73
6
 74
0
 42
0.0000001
 43
0.0000001
 44
0.0000000001
 40
0.0
 40
0.0
 40
0.0
 40
0.0
 40
0.5000414515
 40
0.7501863865
 40
1.0
 40
1.0
 40
1.0
 40
1.0
 10
151.2172593613
 20
204.718860516
 30
0.0
 10
151.2308943781
 20
204.6120338208
 30
0.0
 10
151.232207877
 20
204.4500056611
 30
0.0
 10
151.2432380689
 20
204.2348538514
 30
0.0
 10
151.2596687779
 20
204.1282096892
 30
0.0
 10
151.2699254905
 20
204.0753943293
 30
0.0
  0
SPLINE
  5
2BF
100
AcDbEntity
  8
0
100
AcDbSpline
 62
7
  6
CONTINUOUS
 70
0
 71
3
 72
13
 73
9
 74
0
 42
0.0000001
 43
0.0000001
 44
0.0000000001
 40
0.0
 40
0.0
 40
0.0
 40
0.0
 40
0.1239927323
 40
0.2482428781
 40
0.4966264092
 40
0.7470996079
 40
0.8735688448
 40
1.0
 40
1.0
 40
1.0
 40
1.0
 10
156.4880829092
 20
206.4984443017
 30
0.0
 10
156.4860893807
 20
206.3869096678
 30
0.0
 10
156.4564501162
 20
206.1631798695
 30
0.0
 10
156.2990704559
 20
205.7417206661
 30
0.0
 10
155.9272802388
 20
205.2954244495
 30
0.0
 10
155.3981008044
 20
205.0528681097
 30
0.0
 10
154.9448739596
 20
205.0052673482
 30
0.0
 10
154.7166078691
 20
205.0312368911
 30
0.0
 10
154.605636128
 20
205.0562063877
 30
0.0
  0
SPLINE
  5
2C0
100
AcDbEntity
  8
0
100
AcDbSpline
 62
7
  6
CONTINUOUS
 70
0
 71
3
 72
9
 73
5
 74
0
 42
0.0000001
 43
0.0000001
 44
0.0000000001
 40
0.0
 40
0.0
 40
0.0
 40
0.0
 40
0.5004323888
 40
1.0
 40
1.0
 40
1.0
 40
1.0
 10
154.605636128
 20
205.0562063877
 30
0.0
 10
154.5318302543
 20
205.083847563
 30
0.0
 10
154.3851857255
 20
205.141674432
 30
0.0
 10
154.2449775546
 20
205.2141949764
 30
0.0
 10
154.1770734093
 20
205.2539306026
 30
0.0
  0
SPLINE
  5
2C1
100
AcDbEntity
  8
0
100
AcDbSpline
 62
7
  6
CONTINUOUS
 70
0
 71
3
 72
9
 73
5
 74
0
 42
0.0000001
 43
0.0000001
 44
0.0000000001
 40
0.0
 40
0.0
 40
0.0
 40
0.0
 40
0.5012745552
 40
1.0
 40
1.0
 40
1.0
 40
1.0
 10
153.8242520927
 20
205.4984577292
 30
0.0
 10
153.6947640015
 20
205.634991663
 30
0.0
 10
153.4854424129
 20
205.9587829187
 30
0.0
 10
153.4125813474
 20
206.3376704111
 30
0.0
 10
153.4125813474
 20
206.5248854531
 30
0.0
  0
SPLINE
  5
2C2
100
AcDbEntity
  8
0
100
AcDbSpline
 62
7
  6
CONTINUOUS
 70
0
 71
3
 72
11
 73
7
 74
0
 42
0.0000001
 43
0.0000001
 44
0.0000000001
 40
0.0
 40
0.0
 40
0.0
 40
0.0
 40
0.2523391525
 40
0.5032964835
 40
0.7523330704
 40
1.0
 40
1.0
 40
1.0
 40
1.0
 10
154.9504534036
 20
204.5648256689
 30
0.0
 10
155.2103883045
 20
204.5648256689
 30
0.0
 10
155.7343566242
 20
204.6661315387
 30
0.0
 10
156.3989710329
 20
205.1008431174
 30
0.0
 10
156.845584376
 20
205.7523527777
 30
0.0
 10
156.9503778601
 20
206.2697634155
 30
0.0
 10
156.950379735
 20
206.5248854532
 30
0.0
  0
SPLINE
  5
2C3
100
AcDbEntity
  8
0
100
AcDbSpline
 62
7
  6
CONTINUOUS
 70
0
 71
3
 72
9
 73
5
 74
0
 42
0.0000001
 43
0.0000001
 44
0.0000000001
 40
0.0
 40
0.0
 40
0.0
 40
0.0
 40
0.2531754573
 40
1.0
 40
1.0
 40
1.0
 40
1.0
 10
153.2105949328
 20
201.7172636455
 30
0.0
 10
153.1733870414
 20
201.7416888251
 30
0.0
 10
153.0286470418
 20
201.8415387004
 30
0.0
 10
152.8933651262
 20
201.9548870897
 30
0.0
 10
152.7980085581
 20
202.045136378
 30
0.0
  0
SPLINE
  5
2C4
100
AcDbEntity
  8
0
100
AcDbSpline
 62
7
  6
CONTINUOUS
 70
0
 71
3
 72
9
 73
5
 74
0
 42
0.0000001
 43
0.0000001
 44
0.0000000001
 40
0.0
 40
0.0
 40
0.0
 40
0.0
 40
0.4994869127
 40
1.0
 40
1.0
 40
1.0
 40
1.0
 10
152.4253205329
 20
202.0466087424
 30
0.0
 10
152.5428032008
 20
201.9921101172
 30
0.0
 10
152.7778853254
 20
201.8827320476
 30
0.0
 10
153.013639209
 20
201.7748034565
 30
0.0
 10
153.1312573298
 20
201.7199651332
 30
0.0
  0
SPLINE
  5
2C5
100
AcDbEntity
  8
0
100
AcDbSpline
 62
7
  6
CONTINUOUS
 70
0
 71
3
 72
11
 73
7
 74
0
 42
0.0000001
 43
0.0000001
 44
0.0000000001
 40
0.0
 40
0.0
 40
0.0
 40
0.0
 40
0.2476604286
 40
0.4966959134
 40
0.747658857
 40
1.0
 40
1.0
 40
1.0
 40
1.0
 10
152.9505270726
 20
206.524885453
 30
0.0
 10
152.9505251978
 20
206.269770223
 30
0.0
 10
153.0553234549
 20
205.7523692135
 30
0.0
 10
153.5019213998
 20
205.1008540566
 30
0.0
 10
154.1665412641
 20
204.6661353107
 30
0.0
 10
154.6905165656
 20
204.5648256689
 30
0.0
 10
154.9504534036
 20
204.5648256689
 30
0.0
  0
SPLINE
  5
2C6
100
AcDbEntity
  8
0
100
AcDbSpline
 62
7
  6
CONTINUOUS
 70
0
 71
3
 72
9
 73
5
 74
0
 42
0.0000001
 43
0.0000001
 44
0.0000000001
 40
0.0
 40
0.0
 40
0.0
 40
0.0
 40
0.4828767224
 40
1.0
 40
1.0
 40
1.0
 40
1.0
 10
153.0685004822
 20
202.0083402494
 30
0.0
 10
153.131082455
 20
201.9584364784
 30
0.0
 10
153.2606646627
 20
201.8549659702
 30
0.0
 10
153.3987736529
 20
201.7627412692
 30
0.0
 10
153.4721916811
 20
201.7184955112
 30
0.0
  0
SPLINE
  5
2C7
100
AcDbEntity
  8
0
100
AcDbSpline
 62
7
  6
CONTINUOUS
 70
0
 71
3
 72
11
 73
7
 74
0
 42
0.0000001
 43
0.0000001
 44
0.0000000001
 40
0.0
 40
0.0
 40
0.0
 40
0.0
 40
0.1305759965
 40
0.3702076874
 40
0.6752829235
 40
1.0
 40
1.0
 40
1.0
 40
1.0
 10
151.2253074489
 20
205.116628166
 30
0.0
 10
151.2253074489
 20
205.1436418735
 30
0.0
 10
151.219972344
 20
205.2201253281
 30
0.0
 10
151.2106048054
 20
205.3594624535
 30
0.0
 10
151.1960156142
 20
205.5387631942
 30
0.0
 10
151.1849060124
 20
205.6685752396
 30
0.0
 10
151.1789328469
 20
205.7354869887
 30
0.0
  0
SPLINE
  5
2C8
100
AcDbEntity
  8
0
100
AcDbSpline
 62
7
  6
CONTINUOUS
 70
0
 71
3
 72
11
 73
7
 74
0
 42
0.0000001
 43
0.0000001
 44
0.0000000001
 40
0.0
 40
0.0
 40
0.0
 40
0.0
 40
0.2476608524
 40
0.4966965845
 40
0.7476597205
 40
1.0
 40
1.0
 40
1.0
 40
1.0
 10
156.9503797334
 20
206.2682270095
 30
0.0
 10
156.9503816085
 20
206.0131331446
 30
0.0
 10
156.8456017132
 20
205.495776581
 30
0.0
 10
156.399075214
 20
204.8442964745
 30
0.0
 10
155.7345556299
 20
204.4095616206
 30
0.0
 10
155.2106306142
 20
204.3081987577
 30
0.0
 10
154.9507168792
 20
204.3081987577
 30
0.0
  0
ENDSEC
  0
SECTION
  2
OBJECTS
  0
DICTIONARY
  5
C
100
AcDbDictionary
280
0
281
1
  3
ACAD_GROUP
350
D
  3
ACAD_MLINESTYLE
350
17
  3
ACAD_LAYOUT
350
1A
  3
ACAD_PLOTSETTINGS
350
19
  3
ACAD_PLOTSTYLENAME
350
E
  0
DICTIONARY
  5
D
102
{ACAD_REACTORS
330
C
102
}
100
AcDbDictionary
280
0
281
1
  0
ACDBDICTIONARYWDFLT
  5
E
102
{ACAD_REACTORS
330
C
102
}
100
AcDbDictionary
281
1
  3
Normal
350
F
100
AcDbDictionaryWithDefault
340
F
  0
DICTIONARY
  5
17
102
{ACAD_REACTORS
330
C
102
}
100
AcDbDictionary
280
0
281
1
  3
Standard
350
18
  0
DICTIONARY
  5
19
102
{ACAD_REACTORS
330
C
102
}
100
AcDbDictionary
281
1
  0
DICTIONARY
  5
1A
102
{ACAD_REACTORS
330
C
102
}
100
AcDbDictionary
281
1
  3
Model
350
2C9
  3
Layout1
350
2CA
  0
ACDBPLACEHOLDER
  5
F
102
{ACAD_REACTORS
330
E
102
}
  0
MLINESTYLE
  5
18
102
{ACAD_REACTORS
330
17
102
}
100
AcDbMlineStyle
  2
STANDARD
 70
0
  3

 62
256
 51
90.0
 52
90.0
 71
2
 49
0.5
 62
256
  6
BYLAYER
 49
-0.5
 62
256
  6
BYLAYER
  0
LAYOUT
  5
2C9
102
{ACAD_REACTORS
330
1A
102
}
100
AcDbPlotSettings
  1

  2
none_device
  4
ANSI_C_(22.00_x_17.00_Inches)
  6

 40
0.0
 41
0.0
 42
0.0
 43
0.0
 44
558.8
 45
431.8
 46
0.0
 47
0.0
 48
0.0
 49
0.0
140
0.0
141
0.0
142
1.0
143
1.0
 70
1024
 72
1
 73
0
 74
0
  7

 75
0
147
1.0
148
0.0
149
0.0
100
AcDbLayout
  1
Model
 70
0
 71
0
 10
0.0
 20
0.0
 11
558.8
 21
431.8
 12
0.0
 22
0.0
 32
0.0
 14
0.0
 24
0.0
 34
0.0
 15
0.0
 25
0.0
 35
0.0
146
0.0
 13
0.0
 23
0.0
 33
0.0
 16
1.0
 26
0.0
 36
0.0
 17
0.0
 27
1.0
 37
0.0
 76
0
330
219
345
0
346
0
  0
LAYOUT
  5
2CA
102
{ACAD_REACTORS
330
1A
102
}
100
AcDbPlotSettings
  1

  2
none_device
  4
ANSI_C_(22.00_x_17.00_Inches)
  6

 40
0.0
 41
0.0
 42
0.0
 43
0.0
 44
558.8
 45
431.8
 46
0.0
 47
0.0
 48
0.0
 49
0.0
140
0.0
141
0.0
142
1.0
143
1.0
 70
0
 72
1
 73
0
 74
0
  7

 75
0
147
1.0
148
0.0
149
0.0
100
AcDbLayout
  1
Layout1
 70
0
 71
1
 10
0.0
 20
0.0
 11
558.8
 21
431.8
 12
0.0
 22
0.0
 32
0.0
 14
0.0
 24
0.0
 34
0.0
 15
0.0
 25
0.0
 35
0.0
146
0.0
 13
0.0
 23
0.0
 33
0.0
 16
1.0
 26
0.0
 36
0.0
 17
0.0
 27
1.0
 37
0.0
 76
0
330
21A
345
0
346
0
  0
ENDSEC
  0
EOF
