999
DXF file: Y:\001_SCHNEIDER_PARIS\maxime fuentes - génération CAD 2D\TRAVAIL\XACB08_2D-Views\xacb08_2d-views_3.dxf
999
Pro/ENGINEER 2018260 by Parametric Technology Corporation
  0
SECTION
  2
HEADER
  9
$ACADVER
  1
AC1027
  9
$DWGCODEPAGE
  3
ANSI_1252
  9
$EXTMAX
 10
558.8
 20
431.8
 30
0.0
  9
$EXTMIN
 10
0.0
 20
0.0
 30
0.0
  9
$LIMMIN
 10
0.0
 20
0.0
  9
$LIMMAX
 10
558.8
 20
431.8
  9
$VIEWCTR
 10
279.4
 20
215.9
  9
$VIEWSIZE
 40
431.8
  9
$CLAYER
  8
0
  9
$LTSCALE
 40
30.734
  9
$CELTYPE
  6
BYLAYER
  9
$DIMSCALE
 40
1.0
  9
$DIMASZ
 40
3.5
  9
$DIMEXO
 40
1.0
  9
$DIMDLI
 40
21.2344
  9
$DIMEXE
 40
3.0
  9
$DIMCEN
 40
5.0292
  9
$DIMLFAC
 40
1.0
  9
$DIMBLK
  1
_FILLED
  9
$DIMALT
 70
0
  9
$DIMALTF
 40
0.0393700787
  9
$DIMTXT
 40
4.0
  9
$DIMTOL
 70
1
  9
$DIMLIM
 70
0
  9
$DIMTFAC
 40
1.0
  9
$DIMTP
 40
0.0001
  9
$DIMTM
 40
0.0001
  9
$DIMGAP
 40
0.625
  9
$DIMDSEP
 70
46
  9
$AUNITS
 70
0
  9
$PDMODE
 70
0
  9
$PDSIZE
 40
0.01
  9
$HANDSEED
  5
3D3
  9
$TILEMODE
 70
1
  9
$MEASUREMENT
 70
1
  9
$INSUNITS
 70
4
  0
ENDSEC
  0
SECTION
  2
CLASSES
  0
CLASS
  1
ACDBDICTIONARYWDFLT
  2
AcDbDictionaryWithDefault
  3
AutoCAD 2000
 90
0
 91
1
280
0
281
0
  0
CLASS
  1
ACDBPLACEHOLDER
  2
AcDbPlaceHolder
  3
AutoCAD 2000
 90
0
 91
1
280
0
281
0
  0
CLASS
  1
LAYOUT
  2
AcDbLayout
  3
AutoCAD 2000
 90
0
 91
0
280
0
281
0
  0
ENDSEC
  0
SECTION
  2
TABLES
  0
TABLE
  2
VPORT
  5
8
100
AcDbSymbolTable
 70
2
  0
VPORT
  5
1F4
100
AcDbSymbolTableRecord
100
AcDbViewportTableRecord
  2
*ACTIVE
 70
0
 10
0.0
 20
0.0
 11
1.0
 21
1.0
 12
279.4
 22
215.9
 13
0.0
 23
0.0
 14
1.0
 24
1.0
 15
0.0
 25
0.0
 16
0.0
 26
0.0
 36
1.0
 17
0.0
 27
0.0
 37
0.0
 40
431.8
 41
1.2941176471
 42
50.0
 43
0.0
 44
0.0
 50
0.0
 51
0.0
 71
0
 72
100
 73
1
 74
1
 75
0
 76
0
 77
0
 78
0
  0
ENDTAB
  0
TABLE
  2
LTYPE
  5
5
100
AcDbSymbolTable
 70
6
  0
LTYPE
  5
14
100
AcDbSymbolTableRecord
100
AcDbLinetypeTableRecord
  2
BYBLOCK
 70
0
  3

 72
65
 73
0
 40
0.0
  0
LTYPE
  5
15
100
AcDbSymbolTableRecord
100
AcDbLinetypeTableRecord
  2
BYLAYER
 70
0
  3

 72
65
 73
0
 40
0.0
  0
LTYPE
  5
16
100
AcDbSymbolTableRecord
100
AcDbLinetypeTableRecord
  2
CONTINUOUS
 70
64
  3
Solid line
 72
65
 73
0
 40
0.0
  0
LTYPE
  5
1F5
100
AcDbSymbolTableRecord
100
AcDbLinetypeTableRecord
  2
CENTER
 70
64
  3
____ _ ____ _ ____ _ ____ _ ____ _ ____ _ ____
 72
65
 73
4
 40
0.6
 49
0.375
 74
0
 49
-0.075
 74
0
 49
0.075
 74
0
 49
-0.075
 74
0
  0
LTYPE
  5
1F6
100
AcDbSymbolTableRecord
100
AcDbLinetypeTableRecord
  2
HIDDEN
 70
64
  3
- - - - - - - - - - - - - - - - - - - -
 72
65
 73
2
 40
0.2
 49
0.1
 74
0
 49
-0.1
 74
0
  0
LTYPE
  5
1F7
100
AcDbSymbolTableRecord
100
AcDbLinetypeTableRecord
  2
PHANTOM
 70
64
  3
_____ _ _ _____ _ _ _____ _ _ _____
 72
65
 73
6
 40
0.8
 49
0.45
 74
0
 49
-0.05
 74
0
 49
0.1
 74
0
 49
-0.05
 74
0
 49
0.1
 74
0
 49
-0.05
 74
0
  0
LTYPE
  5
1F8
100
AcDbSymbolTableRecord
100
AcDbLinetypeTableRecord
  2
DOT
 70
64
  3
. . . . . . . . . . . . . . . . . . . .
 72
65
 73
2
 40
0.2
 49
0.1
 74
0
 49
-0.1
 74
0
  0
LTYPE
  5
1F9
100
AcDbSymbolTableRecord
100
AcDbLinetypeTableRecord
  2
DASHED
 70
64
  3
- - - - - - - - - - - - - - - - - - - -
 72
65
 73
2
 40
0.2
 49
0.1
 74
0
 49
-0.1
 74
0
  0
ENDTAB
  0
TABLE
  2
LAYER
  5
2
100
AcDbSymbolTable
 70
36
  0
LAYER
  5
10
100
AcDbSymbolTableRecord
100
AcDbLayerTableRecord
  2
0
 70
0
 62
7
  6
CONTINUOUS
370
-3
390
F
  0
LAYER
  5
1FA
100
AcDbSymbolTableRecord
100
AcDbLayerTableRecord
  2
DEFAULT_1
 70
0
 62
7
  6
CENTER
370
-3
390
F
  0
LAYER
  5
1FB
100
AcDbSymbolTableRecord
100
AcDbLayerTableRecord
  2
DEFAULT_2
 70
0
 62
8
  6
HIDDEN
370
-3
390
F
  0
LAYER
  5
1FC
100
AcDbSymbolTableRecord
100
AcDbLayerTableRecord
  2
DEFAULT_3
 70
0
 62
7
  6
PHANTOM
370
-3
390
F
  0
LAYER
  5
1FD
100
AcDbSymbolTableRecord
100
AcDbLayerTableRecord
  2
01_ALL_DTM_PLN
 70
0
 62
7
  6
CONTINUOUS
370
-3
390
F
  0
LAYER
  5
1FE
100
AcDbSymbolTableRecord
100
AcDbLayerTableRecord
  2
01__ASM_ALL_DTM_PLN
 70
0
 62
7
  6
CONTINUOUS
370
-3
390
F
  0
LAYER
  5
1FF
100
AcDbSymbolTableRecord
100
AcDbLayerTableRecord
  2
01__ASM_DEF_DTM_PLN
 70
0
 62
7
  6
CONTINUOUS
370
-3
390
F
  0
LAYER
  5
200
100
AcDbSymbolTableRecord
100
AcDbLayerTableRecord
  2
01___PRT_ALL_DTM_PLN
 70
0
 62
7
  6
CONTINUOUS
370
-3
390
F
  0
LAYER
  5
201
100
AcDbSymbolTableRecord
100
AcDbLayerTableRecord
  2
01___PRT_DEF_DTM_PLN
 70
0
 62
7
  6
CONTINUOUS
370
-3
390
F
  0
LAYER
  5
202
100
AcDbSymbolTableRecord
100
AcDbLayerTableRecord
  2
02_ALL_AXES
 70
0
 62
7
  6
CONTINUOUS
370
-3
390
F
  0
LAYER
  5
203
100
AcDbSymbolTableRecord
100
AcDbLayerTableRecord
  2
02__ASM_ALL_AXES
 70
0
 62
7
  6
CONTINUOUS
370
-3
390
F
  0
LAYER
  5
204
100
AcDbSymbolTableRecord
100
AcDbLayerTableRecord
  2
02___PRT_ALL_AXES
 70
0
 62
7
  6
CONTINUOUS
370
-3
390
F
  0
LAYER
  5
205
100
AcDbSymbolTableRecord
100
AcDbLayerTableRecord
  2
03_ALL_CURVES
 70
0
 62
7
  6
CONTINUOUS
370
-3
390
F
  0
LAYER
  5
206
100
AcDbSymbolTableRecord
100
AcDbLayerTableRecord
  2
03__ASM_ALL_CURVES
 70
0
 62
7
  6
CONTINUOUS
370
-3
390
F
  0
LAYER
  5
207
100
AcDbSymbolTableRecord
100
AcDbLayerTableRecord
  2
03___PRT_ALL_CURVES
 70
0
 62
7
  6
CONTINUOUS
370
-3
390
F
  0
LAYER
  5
208
100
AcDbSymbolTableRecord
100
AcDbLayerTableRecord
  2
04_ALL_DTM_PNT
 70
0
 62
7
  6
CONTINUOUS
370
-3
390
F
  0
LAYER
  5
209
100
AcDbSymbolTableRecord
100
AcDbLayerTableRecord
  2
04__ASM_ALL_DTM_PNT
 70
0
 62
7
  6
CONTINUOUS
370
-3
390
F
  0
LAYER
  5
20A
100
AcDbSymbolTableRecord
100
AcDbLayerTableRecord
  2
04___PRT_ALL_DTM_PNT
 70
0
 62
7
  6
CONTINUOUS
370
-3
390
F
  0
LAYER
  5
20B
100
AcDbSymbolTableRecord
100
AcDbLayerTableRecord
  2
05_ALL_DTM_CSYS
 70
0
 62
7
  6
CONTINUOUS
370
-3
390
F
  0
LAYER
  5
20C
100
AcDbSymbolTableRecord
100
AcDbLayerTableRecord
  2
05__ASM_ALL_DTM_CSYS
 70
0
 62
7
  6
CONTINUOUS
370
-3
390
F
  0
LAYER
  5
20D
100
AcDbSymbolTableRecord
100
AcDbLayerTableRecord
  2
05__ASM_DEF_DTM_CSYS
 70
0
 62
7
  6
CONTINUOUS
370
-3
390
F
  0
LAYER
  5
20E
100
AcDbSymbolTableRecord
100
AcDbLayerTableRecord
  2
05___PRT_ALL_DTM_CSYS
 70
0
 62
7
  6
CONTINUOUS
370
-3
390
F
  0
LAYER
  5
20F
100
AcDbSymbolTableRecord
100
AcDbLayerTableRecord
  2
05___PRT_DEF_DTM_CSYS
 70
0
 62
7
  6
CONTINUOUS
370
-3
390
F
  0
LAYER
  5
210
100
AcDbSymbolTableRecord
100
AcDbLayerTableRecord
  2
06_ALL_SURFS
 70
0
 62
7
  6
CONTINUOUS
370
-3
390
F
  0
LAYER
  5
211
100
AcDbSymbolTableRecord
100
AcDbLayerTableRecord
  2
06__ASM_ALL_SURFS
 70
0
 62
7
  6
CONTINUOUS
370
-3
390
F
  0
LAYER
  5
212
100
AcDbSymbolTableRecord
100
AcDbLayerTableRecord
  2
06___PRT_ALL_SURFS
 70
0
 62
7
  6
CONTINUOUS
370
-3
390
F
  0
LAYER
  5
213
100
AcDbSymbolTableRecord
100
AcDbLayerTableRecord
  2
07__ASM_ALL_SKELETONS
 70
0
 62
7
  6
CONTINUOUS
370
-3
390
F
  0
LAYER
  5
214
100
AcDbSymbolTableRecord
100
AcDbLayerTableRecord
  2
CLOSED_SHELL
 70
0
 62
7
  6
CONTINUOUS
370
-3
390
F
  0
LAYER
  5
215
100
AcDbSymbolTableRecord
100
AcDbLayerTableRecord
  2
ORIENTED_CLOSED_SHE
 70
0
 62
7
  6
CONTINUOUS
370
-3
390
F
  0
ENDTAB
  0
TABLE
  2
STYLE
  5
3
100
AcDbSymbolTable
 70
1
  0
STYLE
  5
11
100
AcDbSymbolTableRecord
100
AcDbTextStyleTableRecord
  2
STANDARD
 70
0
 40
0.0
 41
0.6
 50
0.0
 71
0
 42
0.2
  3
txt
  4

  0
STYLE
  5
216
100
AcDbSymbolTableRecord
100
AcDbTextStyleTableRecord
  2
TEXTSTYLE_1
 70
0
 40
0.0
 41
0.8
 50
0.0
 71
0
 42
0.2
  3
gdt
  4

  0
ENDTAB
  0
TABLE
  2
VIEW
  5
6
100
AcDbSymbolTable
 70
0
  0
ENDTAB
  0
TABLE
  2
UCS
  5
7
100
AcDbSymbolTable
 70
0
  0
ENDTAB
  0
TABLE
  2
APPID
  5
9
100
AcDbSymbolTable
 70
1
  0
APPID
  5
217
100
AcDbSymbolTableRecord
100
AcDbRegAppTableRecord
  2
ACAD
 70
0
  0
ENDTAB
  0
TABLE
  2
BLOCK_RECORD
  5
1
100
AcDbSymbolTable
 70
0
  0
BLOCK_RECORD
  5
218
100
AcDbSymbolTableRecord
100
AcDbBlockTableRecord
  2
*Model_Space
  0
BLOCK_RECORD
  5
219
100
AcDbSymbolTableRecord
100
AcDbBlockTableRecord
  2
*Paper_Space
  0
BLOCK_RECORD
  5
21A
100
AcDbSymbolTableRecord
100
AcDbBlockTableRecord
  2
_FILLED
  0
ENDTAB
  0
TABLE
  2
DIMSTYLE
  5
A
100
AcDbSymbolTable
 70
1
100
AcDbDimStyleTable
 71
0
  0
DIMSTYLE
105
21B
100
AcDbSymbolTableRecord
100
AcDbDimStyleTableRecord
  2
STANDARD
 70
0
  3

  4

 40
1.0
 41
3.5
 42
1.0
 43
0.38
 44
3.0
 45
0.0
 46
0.0
 47
0.0001
 48
0.0001
140
4.0
141
0.09
142
0.0
143
25.4
144
1.0
145
0.0
146
1.0
147
0.625
 71
1.0
 72
0.0
 73
0
 74
0
 75
0
 76
0
 77
1
 78
8
 79
2
170
0
171
3
172
0
173
0
174
0
175
0
176
0
177
0
178
0
270
2
179
4
271
4
272
4
273
2
274
2
275
0
280
0
281
0
282
0
283
1
284
8
285
0
286
0
287
3
288
0
340
11
278
46
341
21A
342
21A
343
21A
344
21A
  0
ENDTAB
  0
ENDSEC
  0
SECTION
  2
BLOCKS
  0
BLOCK
  5
20
100
AcDbEntity
  8
0
100
AcDbBlockBegin
  2
*Model_Space
 70
0
 10
0.0
 20
0.0
 30
0.0
  3
*Model_Space
  1

  0
ENDBLK
  5
21
100
AcDbEntity
  8
0
100
AcDbBlockEnd
  0
BLOCK
  5
1C
100
AcDbEntity
  8
0
100
AcDbBlockBegin
  2
*Paper_Space
 70
0
 10
0.0
 20
0.0
 30
0.0
  3
*Paper_Space
  1

  0
ENDBLK
  5
1D
100
AcDbEntity
  8
0
100
AcDbBlockEnd
  0
BLOCK
  5
21C
100
AcDbEntity
  8
0
100
AcDbBlockBegin
  2
_FILLED
 70
64
 10
0.0
 20
0.0
  3
_FILLED
  1

  0
SOLID
  5
21D
100
AcDbEntity
  8
0
  6
BYBLOCK
 62
0
100
AcDbTrace
 10
0.0
 20
0.0
 11
-1.0
 21
0.2857142857
 12
-1.0
 22
-0.2857142857
 13
-1.0
 23
-0.2857142857
  0
ENDBLK
  5
21E
100
AcDbEntity
  8
0
  6
BYBLOCK
 62
0
100
AcDbBlockEnd
  0
ENDSEC
  0
SECTION
  2
ENTITIES
  0
LINE
  5
21F
100
AcDbEntity
  8
0
100
AcDbLine
 62
6
  6
CONTINUOUS
 10
205.5588181212
 20
517.5816126806
 11
205.4424346549
 21
520.9143990993
  0
LINE
  5
220
100
AcDbEntity
  8
0
100
AcDbLine
 62
9
  6
CONTINUOUS
 10
206.5861625752
 20
520.914399099
 11
206.6235534211
 21
519.4153718658
  0
LINE
  5
221
100
AcDbEntity
  8
0
100
AcDbLine
 62
9
  6
CONTINUOUS
 10
210.6575858614
 20
554.3203345864
 11
210.6414692155
 21
554.2380598354
  0
LINE
  5
222
100
AcDbEntity
  8
0
100
AcDbLine
 62
9
  6
CONTINUOUS
 10
210.6579162339
 20
554.3202681739
 11
210.6388698386
 21
554.2387397118
  0
LINE
  5
223
100
AcDbEntity
  8
0
100
AcDbLine
 62
9
  6
CONTINUOUS
 10
209.2224347387
 20
519.4153718658
 11
209.2337491905
 21
520.914399099
  0
LINE
  5
224
100
AcDbEntity
  8
0
100
AcDbLine
 62
9
  6
CONTINUOUS
 10
211.1344462475
 20
519.3462972
 11
211.1510017075
 21
520.914399099
  0
LINE
  5
225
100
AcDbEntity
  8
0
100
AcDbLine
 62
9
  6
CONTINUOUS
 10
215.6716559616
 20
555.573614063
 11
215.6716559616
 21
556.0042174983
  0
LINE
  5
226
100
AcDbEntity
  8
0
100
AcDbLine
 62
6
  6
CONTINUOUS
 10
289.7763395572
 20
507.2854007938
 11
289.6931381679
 21
507.264522093
  0
LINE
  5
227
100
AcDbEntity
  8
0
100
AcDbLine
 62
6
  6
CONTINUOUS
 10
233.3535734027
 20
498.9143990997
 11
235.4537606077
 21
498.9143990997
  0
LINE
  5
228
100
AcDbEntity
  8
0
100
AcDbLine
 62
6
  6
CONTINUOUS
 10
273.4311087033
 20
498.9143990997
 11
275.5312959058
 21
498.9143990997
  0
LINE
  5
229
100
AcDbEntity
  8
0
100
AcDbLine
 62
6
  6
CONTINUOUS
 10
220.3424346549
 20
522.8643990989
 11
220.3424346549
 21
520.9143990996
  0
LINE
  5
22A
100
AcDbEntity
  8
0
100
AcDbLine
 62
6
  6
CONTINUOUS
 10
220.9424346545
 20
520.914399099
 11
220.9424346545
 21
522.8643991023
  0
LINE
  5
22B
100
AcDbEntity
  8
0
100
AcDbLine
 62
6
  6
CONTINUOUS
 10
224.5424346549
 20
520.9143990993
 11
224.5424346549
 21
522.8643990994
  0
LINE
  5
22C
100
AcDbEntity
  8
0
100
AcDbLine
 62
9
  6
CONTINUOUS
 10
213.323031787
 20
508.8669442228
 11
214.3832696902
 21
512.4521977125
  0
LINE
  5
22D
100
AcDbEntity
  8
0
100
AcDbLine
 62
9
  6
CONTINUOUS
 10
231.3757887157
 20
500.6171319932
 11
231.3758053549
 21
500.6170212819
  0
LINE
  5
22E
100
AcDbEntity
  8
0
100
AcDbLine
 62
9
  6
CONTINUOUS
 10
230.9679612273
 20
557.8129279896
 11
230.9682644223
 21
555.573614063
  0
LINE
  5
22F
100
AcDbEntity
  8
0
100
AcDbLine
 62
9
  6
CONTINUOUS
 10
226.8145327108
 20
506.7351243934
 11
226.5949069753
 21
505.6136078085
  0
LINE
  5
230
100
AcDbEntity
  8
0
100
AcDbLine
 62
9
  6
CONTINUOUS
 10
234.1282616475
 20
542.8135237789
 11
234.8135478892
 21
529.7577837749
  0
LINE
  5
231
100
AcDbEntity
  8
0
100
AcDbLine
 62
9
  6
CONTINUOUS
 10
236.8113151973
 20
525.473300166
 11
236.8109971523
 21
527.8619092255
  0
LINE
  5
232
100
AcDbEntity
  8
0
100
AcDbLine
 62
6
  6
CONTINUOUS
 10
235.5703735383
 20
565.7209821985
 11
235.5272158368
 21
564.0086863726
  0
LINE
  5
233
100
AcDbEntity
  8
0
100
AcDbLine
 62
9
  6
CONTINUOUS
 10
302.2613158884
 20
519.4153718789
 11
299.6624345708
 21
519.4153718789
  0
LINE
  5
234
100
AcDbEntity
  8
0
100
AcDbLine
 62
9
  6
CONTINUOUS
 10
209.2224347387
 20
519.4153718658
 11
206.6235534211
 21
519.4153718658
  0
LINE
  5
235
100
AcDbEntity
  8
0
100
AcDbLine
 62
6
  6
CONTINUOUS
 10
205.4435263417
 20
520.9143990997
 11
209.2430650254
 21
520.9143990997
  0
LINE
  5
236
100
AcDbEntity
  8
0
100
AcDbLine
 62
6
  6
CONTINUOUS
 10
299.6418042903
 20
520.9143990997
 11
303.4413428951
 21
520.9143990997
  0
LINE
  5
237
100
AcDbEntity
  8
0
100
AcDbLine
 62
6
  6
CONTINUOUS
 10
209.2523818651
 20
520.9143990858
 11
299.6324874663
 21
520.9143986159
  0
LINE
  5
238
100
AcDbEntity
  8
0
100
AcDbLine
 62
9
  6
CONTINUOUS
 10
220.9424346546
 20
522.864399099
 11
224.5424346549
 21
522.864399099
  0
LINE
  5
239
100
AcDbEntity
  8
0
100
AcDbLine
 62
9
  6
CONTINUOUS
 10
284.3424346546
 20
522.864399099
 11
287.9424346551
 21
522.864399099
  0
LINE
  5
23A
100
AcDbEntity
  8
0
100
AcDbLine
 62
9
  6
CONTINUOUS
 10
236.8113151973
 20
525.473300166
 11
272.0735538605
 21
525.473300166
  0
LINE
  5
23B
100
AcDbEntity
  8
0
100
AcDbLine
 62
9
  6
CONTINUOUS
 10
240.7263488001
 20
503.5645844522
 11
240.8343258688
 21
504.7023263739
  0
LINE
  5
23C
100
AcDbEntity
  8
0
100
AcDbLine
 62
9
  6
CONTINUOUS
 10
236.8109971523
 20
525.9578488605
 11
272.073873632
 21
525.9578488605
  0
LINE
  5
23D
100
AcDbEntity
  8
0
100
AcDbLine
 62
9
  6
CONTINUOUS
 10
272.0738725729
 20
527.8619092255
 11
236.8109960615
 21
527.8619092255
  0
LINE
  5
23E
100
AcDbEntity
  8
0
100
AcDbLine
 62
9
  6
CONTINUOUS
 10
268.0506596127
 20
504.7023374126
 11
268.158768368
 21
503.5646080038
  0
LINE
  5
23F
100
AcDbEntity
  8
0
100
AcDbLine
 62
9
  6
CONTINUOUS
 10
238.1451613582
 20
502.5074411259
 11
238.1452585804
 21
502.5075568644
  0
LINE
  5
240
100
AcDbEntity
  8
0
100
AcDbLine
 62
9
  6
CONTINUOUS
 10
238.108410588
 20
502.4650092365
 11
238.1451613582
 21
502.5074411259
  0
LINE
  5
241
100
AcDbEntity
  8
0
100
AcDbLine
 62
6
  6
CONTINUOUS
 10
243.8015472952
 20
550.9143990993
 11
265.0833221572
 21
550.9143990993
  0
LINE
  5
242
100
AcDbEntity
  8
0
100
AcDbLine
 62
9
  6
CONTINUOUS
 10
264.6646981707
 20
552.0859674901
 11
244.2201711664
 21
552.0859674901
  0
LINE
  5
243
100
AcDbEntity
  8
0
100
AcDbLine
 62
6
  6
CONTINUOUS
 10
273.3575227434
 20
564.0138733316
 11
273.3144958796
 21
565.7209820197
  0
LINE
  5
244
100
AcDbEntity
  8
0
100
AcDbLine
 62
9
  6
CONTINUOUS
 10
272.0735538605
 20
525.473300166
 11
272.073873632
 21
527.8619092255
  0
LINE
  5
245
100
AcDbEntity
  8
0
100
AcDbLine
 62
9
  6
CONTINUOUS
 10
274.071321492
 20
529.7577837731
 11
274.7566077077
 21
542.8135246193
  0
LINE
  5
246
100
AcDbEntity
  8
0
100
AcDbLine
 62
9
  6
CONTINUOUS
 10
277.9166069407
 20
555.5736113411
 11
293.2132081207
 21
555.5736113411
  0
LINE
  5
247
100
AcDbEntity
  8
0
100
AcDbLine
 62
9
  6
CONTINUOUS
 10
215.6716559616
 20
555.573614063
 11
230.9682644223
 21
555.573614063
  0
LINE
  5
248
100
AcDbEntity
  8
0
100
AcDbLine
 62
9
  6
CONTINUOUS
 10
277.9168331696
 20
556.0042172594
 11
293.2132088688
 21
556.0042281428
  0
LINE
  5
249
100
AcDbEntity
  8
0
100
AcDbLine
 62
9
  6
CONTINUOUS
 10
215.6716300161
 20
556.0042174985
 11
230.9679612273
 21
556.0042174985
  0
LINE
  5
24A
100
AcDbEntity
  8
0
100
AcDbLine
 62
9
  6
CONTINUOUS
 10
292.6923134465
 20
557.8129261007
 11
277.9168947581
 21
557.8129261007
  0
LINE
  5
24B
100
AcDbEntity
  8
0
100
AcDbLine
 62
9
  6
CONTINUOUS
 10
230.9680649966
 20
557.8129279896
 11
216.1925568319
 21
557.8129279896
  0
LINE
  5
24C
100
AcDbEntity
  8
0
100
AcDbLine
 62
9
  6
CONTINUOUS
 10
282.2899892063
 20
505.6136130672
 11
282.0705015762
 21
506.7351931409
  0
LINE
  5
24D
100
AcDbEntity
  8
0
100
AcDbLine
 62
9
  6
CONTINUOUS
 10
277.9168331696
 20
557.8129261008
 11
277.9166069407
 21
555.5736113411
  0
LINE
  5
24E
100
AcDbEntity
  8
0
100
AcDbLine
 62
6
  6
CONTINUOUS
 10
284.3424346549
 20
522.8643990989
 11
284.3424346549
 21
520.9143990993
  0
LINE
  5
24F
100
AcDbEntity
  8
0
100
AcDbLine
 62
6
  6
CONTINUOUS
 10
287.9424346548
 20
522.8643990968
 11
287.9424346548
 21
520.9143990989
  0
LINE
  5
250
100
AcDbEntity
  8
0
100
AcDbLine
 62
9
  6
CONTINUOUS
 10
295.5618385913
 20
508.8669445388
 11
294.5015989382
 21
512.4521980609
  0
LINE
  5
251
100
AcDbEntity
  8
0
100
AcDbLine
 62
6
  6
CONTINUOUS
 10
288.5424346549
 20
520.9143990992
 11
288.5424346549
 21
522.8643990989
  0
LINE
  5
252
100
AcDbEntity
  8
0
100
AcDbLine
 62
9
  6
CONTINUOUS
 10
293.2132081207
 20
556.004217259
 11
293.2132081207
 21
555.5736113411
  0
LINE
  5
253
100
AcDbEntity
  8
0
100
AcDbLine
 62
9
  6
CONTINUOUS
 10
220.3185276016
 20
572.665362177
 11
220.8714599833
 21
572.7379621413
  0
LINE
  5
254
100
AcDbEntity
  8
0
100
AcDbLine
 62
9
  6
CONTINUOUS
 10
288.0130190494
 20
572.7380129586
 11
288.5663384816
 21
572.6653626042
  0
LINE
  5
255
100
AcDbEntity
  8
0
100
AcDbLine
 62
9
  6
CONTINUOUS
 10
297.7338676023
 20
520.914399099
 11
297.7504224306
 21
519.3463370254
  0
LINE
  5
256
100
AcDbEntity
  8
0
100
AcDbLine
 62
9
  6
CONTINUOUS
 10
299.6511201192
 20
520.9143990997
 11
299.6624345708
 21
519.4153718789
  0
LINE
  5
257
100
AcDbEntity
  8
0
100
AcDbLine
 62
9
  6
CONTINUOUS
 10
298.2426773189
 20
554.237838091
 11
298.2264037142
 21
554.3208844558
  0
LINE
  5
258
100
AcDbEntity
  8
0
100
AcDbLine
 62
9
  6
CONTINUOUS
 10
302.2613158884
 20
519.4153718789
 11
302.2987067344
 21
520.9143990997
  0
LINE
  5
259
100
AcDbEntity
  8
0
100
AcDbLine
 62
6
  6
CONTINUOUS
 10
303.4424346549
 20
520.9143990994
 11
303.3260511938
 21
517.581612828
  0
LINE
  5
25A
100
AcDbEntity
  8
0
100
AcDbLine
 62
9
  6
CONTINUOUS
 10
298.2459032108
 20
554.2386447882
 11
298.2266777292
 21
554.3209392364
  0
ARC
  5
25B
100
AcDbEntity
  8
0
100
AcDbCircle
 62
9
  6
CONTINUOUS
 10
-1262.2866813569
 20
464.2910254419
 40
1498.4737116119
100
AcDbArc
 50
3.0037692759
 51
3.4904813574
  0
ARC
  5
25C
100
AcDbEntity
  8
0
100
AcDbCircle
 62
6
  6
CONTINUOUS
 10
-2657.4600397934
 20
686.1573979701
 40
2938.1463997121
100
AcDbArc
 50
357.1983805708
 51
357.4500781172
  0
ARC
  5
25D
100
AcDbEntity
  8
0
100
AcDbCircle
 62
9
  6
CONTINUOUS
 10
-240.2075461514
 20
509.7392862208
 40
464.807997822
100
AcDbArc
 50
7.5405393622
 51
7.6961345126
  0
ARC
  5
25E
100
AcDbEntity
  8
0
100
AcDbCircle
 62
6
  6
CONTINUOUS
 10
254.4424346549
 20
314.9143990994
 40
260.0
100
AcDbArc
 50
82.5813933518
 51
97.4186933789
  0
ARC
  5
25F
100
AcDbEntity
  8
0
100
AcDbCircle
 62
9
  6
CONTINUOUS
 10
254.4424585103
 20
314.9762805347
 40
257.9905007374
100
AcDbArc
 50
82.4581337721
 51
97.5418776114
  0
ARC
  5
260
100
AcDbEntity
  8
0
100
AcDbCircle
 62
9
  6
CONTINUOUS
 10
134.4875063456
 20
516.1098518862
 40
165.4603707688
100
AcDbArc
 50
12.1442636456
 51
13.6390005079
  0
ARC
  5
261
100
AcDbEntity
  8
0
100
AcDbCircle
 62
6
  6
CONTINUOUS
 10
146.4551740249
 20
518.9143990989
 40
157.0
100
AcDbArc
 50
0.729902284
 51
13.0856568042
  0
ARC
  5
262
100
AcDbEntity
  8
0
100
AcDbCircle
 62
9
  6
CONTINUOUS
 10
146.6518972377
 20
518.8961216883
 40
155.6593607402
100
AcDbArc
 50
0.7429189024
 51
13.1234795398
  0
ARC
  5
263
100
AcDbEntity
  8
0
100
AcDbCircle
 62
6
  6
CONTINUOUS
 10
146.4551740249
 20
518.9143990989
 40
153.0
100
AcDbArc
 50
15.7137528502
 51
20.0497640647
  0
ARC
  5
264
100
AcDbEntity
  8
0
100
AcDbCircle
 62
9
  6
CONTINUOUS
 10
147.2492871764
 20
518.919025674
 40
152.3966553416
100
AcDbArc
 50
0.7502131002
 51
1.1564153592
  0
ARC
  5
265
100
AcDbEntity
  8
0
100
AcDbCircle
 62
9
  6
CONTINUOUS
 10
147.2710034924
 20
518.9142427538
 40
152.3753262309
100
AcDbArc
 50
4.0015521405
 51
5.6265326276
  0
ARC
  5
266
100
AcDbEntity
  8
0
100
AcDbCircle
 62
9
  6
CONTINUOUS
 10
147.3070074493
 20
518.9136711397
 40
152.3403823362
100
AcDbArc
 50
8.8782613102
 51
10.5028971232
  0
ARC
  5
267
100
AcDbEntity
  8
0
100
AcDbCircle
 62
9
  6
CONTINUOUS
 10
147.3345154464
 20
518.9182912825
 40
152.3119245833
100
AcDbArc
 50
7.2528923065
 51
8.8781739612
  0
ARC
  5
268
100
AcDbEntity
  8
0
100
AcDbCircle
 62
9
  6
CONTINUOUS
 10
147.3410050121
 20
518.920653572
 40
152.3037123537
100
AcDbArc
 50
11.3152895884
 51
12.1277225555
  0
ARC
  5
269
100
AcDbEntity
  8
0
100
AcDbCircle
 62
9
  6
CONTINUOUS
 10
147.3506764974
 20
518.9209769746
 40
152.296294289
100
AcDbArc
 50
1.1564482579
 51
1.5629024619
  0
ARC
  5
26A
100
AcDbEntity
  8
0
100
AcDbCircle
 62
9
  6
CONTINUOUS
 10
147.3537061431
 20
518.922495466
 40
152.2922426404
100
AcDbArc
 50
10.5028784323
 51
11.3154449627
  0
ARC
  5
26B
100
AcDbEntity
  8
0
100
AcDbCircle
 62
9
  6
CONTINUOUS
 10
147.3584104785
 20
518.9197938282
 40
152.2884836207
100
AcDbArc
 50
2.3762187733
 51
4.0017467175
  0
ARC
  5
26C
100
AcDbEntity
  8
0
100
AcDbCircle
 62
9
  6
CONTINUOUS
 10
147.3841941683
 20
518.9248255829
 40
152.2618384051
100
AcDbArc
 50
5.6267388231
 51
7.2528123154
  0
ARC
  5
26D
100
AcDbEntity
  8
0
100
AcDbCircle
 62
9
  6
CONTINUOUS
 10
147.4157704127
 20
518.922723926
 40
152.2317510287
100
AcDbArc
 50
1.5629101566
 51
2.3760040454
  0
ARC
  5
26E
100
AcDbEntity
  8
0
100
AcDbCircle
 62
9
  6
CONTINUOUS
 10
146.3722838849
 20
518.9122416497
 40
151.3501116734
100
AcDbArc
 50
0.757971602
 51
3.1224878616
  0
ARC
  5
26F
100
AcDbEntity
  8
0
100
AcDbCircle
 62
9
  6
CONTINUOUS
 10
146.3863272627
 20
518.9107484045
 40
151.3351907873
100
AcDbArc
 50
5.1370729937
 51
7.2324118145
  0
ARC
  5
270
100
AcDbEntity
  8
0
100
AcDbCircle
 62
9
  6
CONTINUOUS
 10
146.4024809947
 20
518.9100328317
 40
151.3189090789
100
AcDbArc
 50
9.250384128
 51
11.25948108
  0
ARC
  5
271
100
AcDbEntity
  8
0
100
AcDbCircle
 62
9
  6
CONTINUOUS
 10
146.430756396
 20
518.9150150965
 40
151.2906170555
100
AcDbArc
 50
3.1226452999
 51
5.1369702006
  0
ARC
  5
272
100
AcDbEntity
  8
0
100
AcDbCircle
 62
9
  6
CONTINUOUS
 10
146.4335748446
 20
518.9149933836
 40
151.289212914
100
AcDbArc
 50
11.2599374524
 51
14.0229102498
  0
ARC
  5
273
100
AcDbEntity
  8
0
100
AcDbCircle
 62
9
  6
CONTINUOUS
 10
146.4549991787
 20
518.9187313085
 40
151.2654413436
100
AcDbArc
 50
7.232686846
 51
9.2503299513
  0
ARC
  5
274
100
AcDbEntity
  8
0
100
AcDbCircle
 62
9
  6
CONTINUOUS
 10
146.4040902831
 20
518.9502613391
 40
151.0536410095
100
AcDbArc
 50
15.7143764279
 51
20.0489757383
  0
ARC
  5
275
100
AcDbEntity
  8
0
100
AcDbCircle
 62
9
  6
CONTINUOUS
 10
194.8359116457
 20
500.1917841349
 40
75.094228125
100
AcDbArc
 50
69.9502498126
 51
70.5184321209
  0
ARC
  5
276
100
AcDbEntity
  8
0
100
AcDbCircle
 62
9
  6
CONTINUOUS
 10
108.6577746569
 20
556.9461263214
 40
112.7631992562
100
AcDbArc
 50
7.7640169548
 51
7.8997238663
  0
ARC
  5
277
100
AcDbEntity
  8
0
100
AcDbCircle
 62
9
  6
CONTINUOUS
 10
184.0568539201
 20
585.7516971138
 40
95.1690305577
100
AcDbArc
 50
300.2488191197
 51
300.4782834058
  0
ARC
  5
278
100
AcDbEntity
  8
0
100
AcDbCircle
 62
9
  6
CONTINUOUS
 10
189.8676100404
 20
575.7794910665
 40
83.6274267692
100
AcDbArc
 50
299.9861649108
 51
300.2515341501
  0
ARC
  5
279
100
AcDbEntity
  8
0
100
AcDbCircle
 62
9
  6
CONTINUOUS
 10
204.3526404187
 20
563.3483467579
 40
11.208166938
100
AcDbArc
 50
325.7823087782
 51
327.1867817755
  0
ARC
  5
27A
100
AcDbEntity
  8
0
100
AcDbCircle
 62
9
  6
CONTINUOUS
 10
205.2139168024
 20
562.7510709332
 40
10.1601046563
100
AcDbArc
 50
320.724178049
 51
325.8362343974
  0
ARC
  5
27B
100
AcDbEntity
  8
0
100
AcDbCircle
 62
9
  6
CONTINUOUS
 10
205.916490714
 20
562.1877472301
 40
9.2596265873
100
AcDbArc
 50
318.5123017623
 51
320.6703799978
  0
ARC
  5
27C
100
AcDbEntity
  8
0
100
AcDbCircle
 62
9
  6
CONTINUOUS
 10
210.2552878
 20
482.4242692935
 40
73.3495940372
100
AcDbArc
 50
85.7652422336
 51
85.9104195871
  0
ARC
  5
27D
100
AcDbEntity
  8
0
100
AcDbCircle
 62
9
  6
CONTINUOUS
 10
225.1075815879
 20
496.6895849299
 40
10.1598510763
100
AcDbArc
 50
62.629244513
 51
63.2124661363
  0
ARC
  5
27E
100
AcDbEntity
  8
0
100
AcDbCircle
 62
9
  6
CONTINUOUS
 10
225.3768367043
 20
497.1910736658
 40
9.5913542516
100
AcDbArc
 50
56.8218269388
 51
62.6802090486
  0
ARC
  5
27F
100
AcDbEntity
  8
0
100
AcDbCircle
 62
9
  6
CONTINUOUS
 10
225.1485082109
 20
497.6842756295
 40
8.2979264204
100
AcDbArc
 50
15.0342678756
 51
21.7332097097
  0
ARC
  5
280
100
AcDbEntity
  8
0
100
AcDbCircle
 62
9
  6
CONTINUOUS
 10
225.2519113788
 20
497.7172210622
 40
8.1896777442
100
AcDbArc
 50
21.7869751263
 51
30.1203291
  0
ARC
  5
281
100
AcDbEntity
  8
0
100
AcDbCircle
 62
6
  6
CONTINUOUS
 10
225.4424346549
 20
499.7253306763
 40
6.0
100
AcDbArc
 50
8.5477472492
 51
78.927374303
  0
ARC
  5
282
100
AcDbEntity
  8
0
100
AcDbCircle
 62
9
  6
CONTINUOUS
 10
240.1631151147
 20
497.837016807
 40
6.898042909
100
AcDbArc
 50
84.4167690711
 51
94.3822328318
  0
ARC
  5
283
100
AcDbEntity
  8
0
100
AcDbCircle
 62
9
  6
CONTINUOUS
 10
240.5632506516
 20
498.5787190042
 40
5.1201675753
100
AcDbArc
 50
153.4713564177
 51
164.5407481581
  0
ARC
  5
284
100
AcDbEntity
  8
0
100
AcDbCircle
 62
9
  6
CONTINUOUS
 10
240.5066424575
 20
498.6100858722
 40
5.0555104959
100
AcDbArc
 50
140.3552887389
 51
153.502868883
  0
ARC
  5
285
100
AcDbEntity
  8
0
100
AcDbCircle
 62
6
  6
CONTINUOUS
 10
240.4424346549
 20
500.578049206
 40
3.0
100
AcDbArc
 50
84.5745108615
 51
176.1429707664
  0
ARC
  5
286
100
AcDbEntity
  8
0
100
AcDbCircle
 62
6
  6
CONTINUOUS
 10
233.3535734026
 20
500.9143990994
 40
2.0
100
AcDbArc
 50
188.5477472638
 51
270.0000000029
  0
ARC
  5
287
100
AcDbEntity
  8
0
100
AcDbCircle
 62
6
  6
CONTINUOUS
 10
235.4537606077
 20
500.9143990993
 40
2.0
100
AcDbArc
 50
270.0
 51
356.1428012667
  0
ARC
  5
288
100
AcDbEntity
  8
0
100
AcDbCircle
 62
6
  6
CONTINUOUS
 10
236.6138114595
 20
503.7938965223
 40
2.0
100
AcDbArc
 50
318.2406525737
 51
319.9669045854
  0
ARC
  5
289
100
AcDbEntity
  8
0
100
AcDbCircle
 62
9
  6
CONTINUOUS
 10
236.6823321075
 20
503.8056479844
 40
1.9712110914
100
AcDbArc
 50
268.010068423
 51
280.7709905232
  0
ARC
  5
28A
100
AcDbEntity
  8
0
100
AcDbCircle
 62
9
  6
CONTINUOUS
 10
236.6881672479
 20
503.7674389793
 40
1.932587441
100
AcDbArc
 50
280.8126641093
 51
287.2583964002
  0
ARC
  5
28B
100
AcDbEntity
  8
0
100
AcDbCircle
 62
9
  6
CONTINUOUS
 10
236.6929262429
 20
503.7512686364
 40
1.9157340722
100
AcDbArc
 50
287.2659164835
 51
290.4836132109
  0
ARC
  5
28C
100
AcDbEntity
  8
0
100
AcDbCircle
 62
9
  6
CONTINUOUS
 10
236.6962538742
 20
503.7422882792
 40
1.9061575113
100
AcDbArc
 50
290.4843507806
 51
293.6880777215
  0
ARC
  5
28D
100
AcDbEntity
  8
0
100
AcDbCircle
 62
9
  6
CONTINUOUS
 10
236.7004376952
 20
503.7280494294
 40
1.8914378992
100
AcDbArc
 50
293.7453378982
 51
318.1059173878
  0
ARC
  5
28E
100
AcDbEntity
  8
0
100
AcDbCircle
 62
9
  6
CONTINUOUS
 10
235.2584666977
 20
520.0772358655
 40
28.6425613783
100
AcDbArc
 50
181.3240921073
 51
185.1870412462
  0
ARC
  5
28F
100
AcDbEntity
  8
0
100
AcDbCircle
 62
9
  6
CONTINUOUS
 10
249.3001062168
 20
518.8734212704
 40
19.8936491225
100
AcDbArc
 50
230.2765541254
 51
231.8365601806
  0
ARC
  5
290
100
AcDbEntity
  8
0
100
AcDbCircle
 62
6
  6
CONTINUOUS
 10
214.5533355342
 20
517.895709015
 40
9.0
100
AcDbArc
 50
182.0000055045
 51
252.9442387819
  0
ARC
  5
291
100
AcDbEntity
  8
0
100
AcDbCircle
 62
9
  6
CONTINUOUS
 10
216.4446554112
 20
519.3740466077
 40
7.2223389019
100
AcDbArc
 50
179.6721594169
 51
216.5548816276
  0
ARC
  5
292
100
AcDbEntity
  8
0
100
AcDbCircle
 62
9
  6
CONTINUOUS
 10
216.4426038601
 20
519.3712219376
 40
7.2190086418
100
AcDbArc
 50
216.5465707604
 51
253.4252265591
  0
ARC
  5
293
100
AcDbEntity
  8
0
100
AcDbCircle
 62
9
  6
CONTINUOUS
 10
216.4444478158
 20
519.287324007
 40
5.3103448736
100
AcDbArc
 50
179.3636958282
 51
253.3000166503
  0
ARC
  5
294
100
AcDbEntity
  8
0
100
AcDbCircle
 62
6
  6
CONTINUOUS
 10
218.5613252037
 20
522.86426568
 40
2.3811094545
100
AcDbArc
 50
0.0032104944
 51
2.4541249948
  0
ARC
  5
295
100
AcDbEntity
  8
0
100
AcDbCircle
 62
6
  6
CONTINUOUS
 10
218.6847121235
 20
522.9093112013
 40
2.2509930351
100
AcDbArc
 50
19.8123006383
 51
21.7568159121
  0
ARC
  5
296
100
AcDbEntity
  8
0
100
AcDbCircle
 62
6
  6
CONTINUOUS
 10
218.7144824026
 20
522.9216680993
 40
2.2187631662
100
AcDbArc
 50
21.7454078903
 51
28.0493162383
  0
ARC
  5
297
100
AcDbEntity
  8
0
100
AcDbCircle
 62
6
  6
CONTINUOUS
 10
222.4424346549
 20
522.8643990994
 40
2.1
100
AcDbArc
 50
0.0
 51
179.999654337
  0
CIRCLE
  5
298
100
AcDbEntity
  8
0
100
AcDbCircle
 62
6
  6
CONTINUOUS
 10
237.4427816126
 20
530.8630059724
 40
2.0996206342
  0
ARC
  5
299
100
AcDbEntity
  8
0
100
AcDbCircle
 62
6
  6
CONTINUOUS
 10
237.4418113245
 20
530.7811302468
 40
2.0994372841
100
AcDbArc
 50
111.5879284322
 51
158.3912948473
  0
ARC
  5
29A
100
AcDbEntity
  8
0
100
AcDbCircle
 62
9
  6
CONTINUOUS
 10
268.7234196932
 20
497.610300556
 40
7.1238748683
100
AcDbArc
 50
85.7058266649
 51
95.4181277343
  0
ARC
  5
29B
100
AcDbEntity
  8
0
100
AcDbCircle
 62
9
  6
CONTINUOUS
 10
267.2016814881
 20
497.7015491029
 40
6.5424165982
100
AcDbArc
 50
38.7456059082
 51
39.189192682
  0
ARC
  5
29C
100
AcDbEntity
  8
0
100
AcDbCircle
 62
9
  6
CONTINUOUS
 10
268.3155186976
 20
498.5773059861
 40
5.126432949
100
AcDbArc
 50
13.4336285379
 51
23.1636605285
  0
ARC
  5
29D
100
AcDbEntity
  8
0
100
AcDbCircle
 62
6
  6
CONTINUOUS
 10
268.4424346549
 20
500.578049206
 40
3.0
100
AcDbArc
 50
3.857239503
 51
95.4250862695
  0
ARC
  5
29E
100
AcDbEntity
  8
0
100
AcDbCircle
 62
9
  6
CONTINUOUS
 10
276.5975696592
 20
503.8298476117
 40
2.0034897681
100
AcDbArc
 50
268.6159302366
 51
283.4142839101
  0
ARC
  5
29F
100
AcDbEntity
  8
0
100
AcDbCircle
 62
6
  6
CONTINUOUS
 10
275.5312959072
 20
500.9143990995
 40
2.0
100
AcDbArc
 50
269.9999999599
 51
351.4522527649
  0
ARC
  5
2A0
100
AcDbEntity
  8
0
100
AcDbCircle
 62
6
  6
CONTINUOUS
 10
273.4311087021
 20
500.9143990994
 40
2.0
100
AcDbArc
 50
183.857094711
 51
270.0000000344
  0
ARC
  5
2A1
100
AcDbEntity
  8
0
100
AcDbCircle
 62
6
  6
CONTINUOUS
 10
272.2718268477
 20
503.7939300832
 40
2.0
100
AcDbArc
 50
246.0339555405
 51
252.3855643841
  0
ARC
  5
2A2
100
AcDbEntity
  8
0
100
AcDbCircle
 62
9
  6
CONTINUOUS
 10
276.6053339032
 20
503.7879863829
 40
1.9609705021
100
AcDbArc
 50
283.4773238885
 51
298.6369906588
  0
ARC
  5
2A3
100
AcDbEntity
  8
0
100
AcDbCircle
 62
6
  6
CONTINUOUS
 10
272.2063528994
 20
503.7884429127
 40
1.9545309229
100
AcDbArc
 50
263.3838237361
 51
271.9385722513
  0
ARC
  5
2A4
100
AcDbEntity
  8
0
100
AcDbCircle
 62
9
  6
CONTINUOUS
 10
298.5718319716
 20
483.2660066237
 40
72.5058921536
100
AcDbArc
 50
94.0914563828
 51
94.2383689394
  0
ARC
  5
2A5
100
AcDbEntity
  8
0
100
AcDbCircle
 62
9
  6
CONTINUOUS
 10
283.706444376
 20
497.6938869716
 40
8.2665397132
100
AcDbArc
 50
158.170480537
 51
164.8976881912
  0
ARC
  5
2A6
100
AcDbEntity
  8
0
100
AcDbCircle
 62
9
  6
CONTINUOUS
 10
283.6402723632
 20
497.7134367274
 40
8.1978456483
100
AcDbArc
 50
149.882120168
 51
158.1253455912
  0
ARC
  5
2A7
100
AcDbEntity
  8
0
100
AcDbCircle
 62
6
  6
CONTINUOUS
 10
283.4424346549
 20
499.7253306771
 40
6.0
100
AcDbArc
 50
101.0738176148
 51
171.4522527475
  0
ARC
  5
2A8
100
AcDbEntity
  8
0
100
AcDbCircle
 62
9
  6
CONTINUOUS
 10
273.6211120299
 20
520.0773776023
 40
28.6478537078
100
AcDbArc
 50
354.8136364834
 51
358.675869027
  0
ARC
  5
2A9
100
AcDbEntity
  8
0
100
AcDbCircle
 62
6
  6
CONTINUOUS
 10
264.6386973715
 20
512.2785338386
 40
11.5848627647
100
AcDbArc
 50
306.0815244784
 51
306.3004701752
  0
ARC
  5
2AA
100
AcDbEntity
  8
0
100
AcDbCircle
 62
6
  6
CONTINUOUS
 10
294.3315337756
 20
517.8957090149
 40
9.0
100
AcDbArc
 50
287.0557474015
 51
357.9999954355
  0
ARC
  5
2AB
100
AcDbEntity
  8
0
100
AcDbCircle
 62
9
  6
CONTINUOUS
 10
292.4406904984
 20
519.373891892
 40
7.2218631969
100
AcDbArc
 50
323.4437555288
 51
0.3290897507
  0
ARC
  5
2AC
100
AcDbEntity
  8
0
100
AcDbCircle
 62
9
  6
CONTINUOUS
 10
292.4425536496
 20
519.3708085878
 40
7.2185302563
100
AcDbArc
 50
286.5735130179
 51
323.4546059962
  0
ARC
  5
2AD
100
AcDbEntity
  8
0
100
AcDbCircle
 62
9
  6
CONTINUOUS
 10
292.4403779322
 20
519.2873441789
 40
5.3103851173
100
AcDbArc
 50
286.7011692349
 51
0.6365110646
  0
ARC
  5
2AE
100
AcDbEntity
  8
0
100
AcDbCircle
 62
6
  6
CONTINUOUS
 10
290.3233119471
 20
522.8642642029
 40
2.380877296
100
AcDbArc
 50
177.5333647611
 51
179.9967537793
  0
ARC
  5
2AF
100
AcDbEntity
  8
0
100
AcDbCircle
 62
6
  6
CONTINUOUS
 10
290.1787471168
 20
522.9177337176
 40
2.2279902898
100
AcDbArc
 50
152.2398373553
 51
160.0937364386
  0
ARC
  5
2B0
100
AcDbEntity
  8
0
100
AcDbCircle
 62
6
  6
CONTINUOUS
 10
286.4424346549
 20
522.864399099
 40
2.1
100
AcDbArc
 50
0.0
 51
180.0
  0
CIRCLE
  5
2B1
100
AcDbEntity
  8
0
100
AcDbCircle
 62
6
  6
CONTINUOUS
 10
271.4427816126
 20
530.8630059724
 40
2.0996206342
  0
ARC
  5
2B2
100
AcDbEntity
  8
0
100
AcDbCircle
 62
6
  6
CONTINUOUS
 10
271.4418113245
 20
530.7811302468
 40
2.0994372841
100
AcDbArc
 50
111.5879284348
 51
158.3912948474
  0
ARC
  5
2B3
100
AcDbEntity
  8
0
100
AcDbCircle
 62
9
  6
CONTINUOUS
 10
220.9672800181
 20
534.6915305548
 40
25.7893502161
100
AcDbArc
 50
249.9904187394
 51
253.5102320507
  0
ARC
  5
2B4
100
AcDbEntity
  8
0
100
AcDbCircle
 62
6
  6
CONTINUOUS
 10
254.414435965
 20
547.8990958081
 40
12.2970244978
100
AcDbArc
 50
303.5221456928
 51
314.9802605426
  0
ARC
  5
2B5
100
AcDbEntity
  8
0
100
AcDbCircle
 62
6
  6
CONTINUOUS
 10
254.469059293
 20
547.8977423776
 40
12.2951378096
100
AcDbArc
 50
225.3677400086
 51
236.5043241651
  0
ARC
  5
2B6
100
AcDbEntity
  8
0
100
AcDbCircle
 62
6
  6
CONTINUOUS
 10
254.4477360775
 20
547.9065182865
 40
12.2947761808
100
AcDbArc
 50
259.5235651743
 51
269.9752944547
  0
ARC
  5
2B7
100
AcDbEntity
  8
0
100
AcDbCircle
 62
6
  6
CONTINUOUS
 10
254.4371218262
 20
547.9063974344
 40
12.2946553337
100
AcDbArc
 50
270.0247589432
 51
280.4765541556
  0
ARC
  5
2B8
100
AcDbEntity
  8
0
100
AcDbCircle
 62
6
  6
CONTINUOUS
 10
254.4661177959
 20
547.8815832553
 40
12.2816326389
100
AcDbArc
 50
213.6829852354
 51
224.582167006
  0
ARC
  5
2B9
100
AcDbEntity
  8
0
100
AcDbCircle
 62
6
  6
CONTINUOUS
 10
254.4197696933
 20
547.8805089585
 40
12.2801640882
100
AcDbArc
 50
315.7408837756
 51
326.3557612089
  0
ARC
  5
2BA
100
AcDbEntity
  8
0
100
AcDbCircle
 62
6
  6
CONTINUOUS
 10
254.4142271301
 20
547.8614328419
 40
12.2781366604
100
AcDbArc
 50
349.3821261808
 51
359.9818596928
  0
ARC
  5
2BB
100
AcDbEntity
  8
0
100
AcDbCircle
 62
6
  6
CONTINUOUS
 10
254.467293505
 20
547.8611735527
 40
12.2747879065
100
AcDbArc
 50
180.0169350029
 51
190.6201975975
  0
ARC
  5
2BC
100
AcDbEntity
  8
0
100
AcDbCircle
 62
6
  6
CONTINUOUS
 10
254.4567472567
 20
547.8669156371
 40
12.2659723193
100
AcDbArc
 50
201.7134115894
 51
210.0793672262
  0
ARC
  5
2BD
100
AcDbEntity
  8
0
100
AcDbCircle
 62
6
  6
CONTINUOUS
 10
254.437278126
 20
547.8755169963
 40
12.2649597301
100
AcDbArc
 50
291.5403248162
 51
300.2517402075
  0
ARC
  5
2BE
100
AcDbEntity
  8
0
100
AcDbCircle
 62
6
  6
CONTINUOUS
 10
254.4470883798
 20
547.8745159532
 40
12.2638506532
100
AcDbArc
 50
239.9459649072
 51
248.4585956252
  0
ARC
  5
2BF
100
AcDbEntity
  8
0
100
AcDbCircle
 62
6
  6
CONTINUOUS
 10
254.4498806808
 20
547.8714542609
 40
12.2626313385
100
AcDbArc
 50
236.5112665973
 51
236.9204278441
  0
ARC
  5
2C0
100
AcDbEntity
  8
0
100
AcDbCircle
 62
6
  6
CONTINUOUS
 10
254.4315392951
 20
547.8651071691
 40
12.2621190139
100
AcDbArc
 50
330.3746717612
 51
338.2842752659
  0
ARC
  5
2C1
100
AcDbEntity
  8
0
100
AcDbCircle
 62
6
  6
CONTINUOUS
 10
254.4369158787
 20
547.868295964
 40
12.2589328989
100
AcDbArc
 50
303.0790941604
 51
303.5140535466
  0
ARC
  5
2C2
100
AcDbEntity
  8
0
100
AcDbCircle
 62
6
  6
CONTINUOUS
 10
254.4407037271
 20
547.8650618379
 40
12.254178464
100
AcDbArc
 50
326.3616592778
 51
326.7343373099
  0
ARC
  5
2C3
100
AcDbEntity
  8
0
100
AcDbCircle
 62
6
  6
CONTINUOUS
 10
254.4460641602
 20
547.8655122603
 40
12.2528258026
100
AcDbArc
 50
280.4701993927
 51
285.0729202397
  0
ARC
  5
2C4
100
AcDbEntity
  8
0
100
AcDbCircle
 62
6
  6
CONTINUOUS
 10
254.4387858862
 20
547.8654528659
 40
12.2527679795
100
AcDbArc
 50
254.9821750177
 51
259.5298032457
  0
ARC
  5
2C5
100
AcDbEntity
  8
0
100
AcDbCircle
 62
6
  6
CONTINUOUS
 10
254.440815422
 20
547.8620328923
 40
12.2523637296
100
AcDbArc
 50
338.2815813198
 51
345.3054738966
  0
ARC
  5
2C6
100
AcDbEntity
  8
0
100
AcDbCircle
 62
6
  6
CONTINUOUS
 10
254.4400621945
 20
547.8607986277
 40
12.2482080642
100
AcDbArc
 50
195.1564998884
 51
201.7157032565
  0
ARC
  5
2C7
100
AcDbEntity
  8
0
100
AcDbCircle
 62
6
  6
CONTINUOUS
 10
254.4403411205
 20
547.8552886221
 40
12.2479215444
100
AcDbArc
 50
89.9902065558
 51
179.9894423695
  0
ARC
  5
2C8
100
AcDbEntity
  8
0
100
AcDbCircle
 62
6
  6
CONTINUOUS
 10
254.4445614108
 20
547.8553225579
 40
12.2478864803
100
AcDbArc
 50
0.0103989532
 51
90.0099488803
  0
ARC
  5
2C9
100
AcDbEntity
  8
0
100
AcDbCircle
 62
6
  6
CONTINUOUS
 10
254.4388543086
 20
547.8615408572
 40
12.2478308153
100
AcDbArc
 50
213.265181281
 51
213.6756996653
  0
ARC
  5
2CA
100
AcDbEntity
  8
0
100
AcDbCircle
 62
6
  6
CONTINUOUS
 10
254.4371072599
 20
547.8492734839
 40
12.2367065053
100
AcDbArc
 50
248.4586686585
 51
254.9701363847
  0
ARC
  5
2CB
100
AcDbEntity
  8
0
100
AcDbCircle
 62
6
  6
CONTINUOUS
 10
254.4479215859
 20
547.8486612965
 40
12.236071839
100
AcDbArc
 50
285.0850411576
 51
291.5401380588
  0
ARC
  5
2CC
100
AcDbEntity
  8
0
100
AcDbCircle
 62
6
  6
CONTINUOUS
 10
254.432681267
 20
547.8446205768
 40
12.2307595422
100
AcDbArc
 50
236.9193302821
 51
239.9342442592
  0
ARC
  5
2CD
100
AcDbEntity
  8
0
100
AcDbCircle
 62
6
  6
CONTINUOUS
 10
254.4540632722
 20
547.8415780458
 40
12.2271864951
100
AcDbArc
 50
300.2639194263
 51
303.0800989726
  0
ARC
  5
2CE
100
AcDbEntity
  8
0
100
AcDbCircle
 62
6
  6
CONTINUOUS
 10
254.4199176185
 20
547.8528931495
 40
12.2266975019
100
AcDbArc
 50
190.6229751078
 51
195.1454239651
  0
ARC
  5
2CF
100
AcDbEntity
  8
0
100
AcDbCircle
 62
6
  6
CONTINUOUS
 10
254.4696607253
 20
547.8519570582
 40
12.2219062483
100
AcDbArc
 50
345.316861951
 51
349.3779044709
  0
ARC
  5
2D0
100
AcDbEntity
  8
0
100
AcDbCircle
 62
6
  6
CONTINUOUS
 10
254.4685230448
 20
547.8471649795
 40
12.2211009105
100
AcDbArc
 50
326.7329529073
 51
330.3620823007
  0
ARC
  5
2D1
100
AcDbEntity
  8
0
100
AcDbCircle
 62
6
  6
CONTINUOUS
 10
254.4122971049
 20
547.844409391
 40
12.2162283922
100
AcDbArc
 50
210.0925137001
 51
213.2663195794
  0
ARC
  5
2D2
100
AcDbEntity
  8
0
100
AcDbCircle
 62
6
  6
CONTINUOUS
 10
254.3902634412
 20
547.8120409481
 40
12.1787924247
100
AcDbArc
 50
224.5996370091
 51
225.3482804223
  0
ARC
  5
2D3
100
AcDbEntity
  8
0
100
AcDbCircle
 62
6
  6
CONTINUOUS
 10
254.4960211971
 20
547.8112416614
 40
12.1772120358
100
AcDbArc
 50
315.0009233379
 51
315.723909176
  0
ARC
  5
2D4
100
AcDbEntity
  8
0
100
AcDbCircle
 62
6
  6
CONTINUOUS
 10
254.4303557139
 20
547.8012400644
 40
11.129193381
100
AcDbArc
 50
56.8479572361
 51
68.3936333773
  0
ARC
  5
2D5
100
AcDbEntity
  8
0
100
AcDbCircle
 62
6
  6
CONTINUOUS
 10
254.4545135774
 20
547.8614969629
 40
11.1291933424
100
AcDbArc
 50
236.8479572115
 51
248.3936333518
  0
ARC
  5
2D6
100
AcDbEntity
  8
0
100
AcDbCircle
 62
6
  6
CONTINUOUS
 10
254.4495192374
 20
547.8633092577
 40
11.1290405093
100
AcDbArc
 50
248.4209747697
 51
259.5059062013
  0
ARC
  5
2D7
100
AcDbEntity
  8
0
100
AcDbCircle
 62
6
  6
CONTINUOUS
 10
254.4353500757
 20
547.7994278555
 40
11.12904046
100
AcDbArc
 50
68.4209747371
 51
79.5059061715
  0
ARC
  5
2D8
100
AcDbEntity
  8
0
100
AcDbCircle
 62
6
  6
CONTINUOUS
 10
254.4544911716
 20
547.8014159223
 40
11.1290184515
100
AcDbArc
 50
111.6065787908
 51
123.1525578313
  0
ARC
  5
2D9
100
AcDbEntity
  8
0
100
AcDbCircle
 62
6
  6
CONTINUOUS
 10
254.4303781468
 20
547.8613211209
 40
11.1290184293
100
AcDbArc
 50
291.6065787878
 51
303.1525578291
  0
ARC
  5
2DA
100
AcDbEntity
  8
0
100
AcDbCircle
 62
6
  6
CONTINUOUS
 10
254.435422274
 20
547.8632247974
 40
11.1289322425
100
AcDbArc
 50
280.493845773
 51
291.578825555
  0
ARC
  5
2DB
100
AcDbEntity
  8
0
100
AcDbCircle
 62
6
  6
CONTINUOUS
 10
254.4494470314
 20
547.7995122639
 40
11.128932243
100
AcDbArc
 50
100.4938457496
 51
111.5788255298
  0
ARC
  5
2DC
100
AcDbEntity
  8
0
100
AcDbCircle
 62
6
  6
CONTINUOUS
 10
254.4353739771
 20
547.7437730514
 40
11.1289179413
100
AcDbArc
 50
68.4209168791
 51
79.5058966594
  0
ARC
  5
2DD
100
AcDbEntity
  8
0
100
AcDbCircle
 62
6
  6
CONTINUOUS
 10
254.4494952437
 20
547.7437732574
 40
11.1289177209
100
AcDbArc
 50
100.4940648089
 51
111.5789962449
  0
ARC
  5
2DE
100
AcDbEntity
  8
0
100
AcDbCircle
 62
6
  6
CONTINUOUS
 10
254.4403733763
 20
547.8007229608
 40
11.1268530965
100
AcDbArc
 50
79.5301254871
 51
89.989385807
  0
ARC
  5
2DF
100
AcDbEntity
  8
0
100
AcDbCircle
 62
6
  6
CONTINUOUS
 10
254.444495933
 20
547.8620141017
 40
11.1268530952
100
AcDbArc
 50
259.5301254889
 51
269.9893858097
  0
ARC
  5
2E0
100
AcDbEntity
  8
0
100
AcDbCircle
 62
6
  6
CONTINUOUS
 10
254.4445618986
 20
547.8007288617
 40
11.126847208
100
AcDbArc
 50
90.0109538741
 51
100.4702523155
  0
ARC
  5
2E1
100
AcDbEntity
  8
0
100
AcDbCircle
 62
6
  6
CONTINUOUS
 10
254.4403074177
 20
547.8620082014
 40
11.1268472073
100
AcDbArc
 50
270.0109538405
 51
280.4702522819
  0
ARC
  5
2E2
100
AcDbEntity
  8
0
100
AcDbCircle
 62
6
  6
CONTINUOUS
 10
254.4403163343
 20
547.744974922
 40
11.1268369684
100
AcDbArc
 50
79.529793618
 51
89.9890920637
  0
ARC
  5
2E3
100
AcDbEntity
  8
0
100
AcDbCircle
 62
6
  6
CONTINUOUS
 10
254.4445529522
 20
547.7449750902
 40
11.1268368003
100
AcDbArc
 50
90.0109078167
 51
100.4701681404
  0
ARC
  5
2E4
100
AcDbEntity
  8
0
100
AcDbCircle
 62
6
  6
CONTINUOUS
 10
254.4228900935
 20
547.8449355795
 40
11.1226739561
100
AcDbArc
 50
326.8296595036
 51
338.379847247
  0
ARC
  5
2E5
100
AcDbEntity
  8
0
100
AcDbCircle
 62
6
  6
CONTINUOUS
 10
254.4619790157
 20
547.8178015941
 40
11.1226737267
100
AcDbArc
 50
146.8296593712
 51
158.3798471055
  0
ARC
  5
2E6
100
AcDbEntity
  8
0
100
AcDbCircle
 62
6
  6
CONTINUOUS
 10
254.4230623817
 20
547.8178220931
 40
11.1225030331
100
AcDbArc
 50
21.6203697895
 51
33.1708604809
  0
ARC
  5
2E7
100
AcDbEntity
  8
0
100
AcDbCircle
 62
6
  6
CONTINUOUS
 10
254.461806751
 20
547.8449148636
 40
11.1225028301
100
AcDbArc
 50
201.6203696243
 51
213.1708603152
  0
ARC
  5
2E8
100
AcDbEntity
  8
0
100
AcDbCircle
 62
6
  6
CONTINUOUS
 10
254.460937548
 20
547.8239612632
 40
11.1194372732
100
AcDbArc
 50
158.4073761705
 51
169.4986747199
  0
ARC
  5
2E9
100
AcDbEntity
  8
0
100
AcDbCircle
 62
6
  6
CONTINUOUS
 10
254.423932037
 20
547.8387757088
 40
11.119436986
100
AcDbArc
 50
338.4073763751
 51
349.4986749147
  0
ARC
  5
2EA
100
AcDbEntity
  8
0
100
AcDbCircle
 62
6
  6
CONTINUOUS
 10
254.4240146616
 20
547.824029911
 40
11.1193317693
100
AcDbArc
 50
10.5010889618
 51
21.5924405503
  0
ARC
  5
2EB
100
AcDbEntity
  8
0
100
AcDbCircle
 62
6
  6
CONTINUOUS
 10
254.4608546524
 20
547.8387071371
 40
11.1193317685
100
AcDbArc
 50
190.5010888801
 51
201.5924404784
  0
ARC
  5
2EC
100
AcDbEntity
  8
0
100
AcDbCircle
 62
6
  6
CONTINUOUS
 10
254.4267430149
 20
547.8334411907
 40
11.1157018376
100
AcDbArc
 50
349.5230703182
 51
359.9893164944
  0
ARC
  5
2ED
100
AcDbEntity
  8
0
100
AcDbCircle
 62
6
  6
CONTINUOUS
 10
254.4581262944
 20
547.8292958672
 40
11.115701838
100
AcDbArc
 50
169.5230702998
 51
179.9893164702
  0
ARC
  5
2EE
100
AcDbEntity
  8
0
100
AcDbCircle
 62
6
  6
CONTINUOUS
 10
254.4267486234
 20
547.8292331689
 40
11.115696241
100
AcDbArc
 50
0.0110067128
 51
10.4772863637
  0
ARC
  5
2EF
100
AcDbEntity
  8
0
100
AcDbCircle
 62
6
  6
CONTINUOUS
 10
254.4581206848
 20
547.8335039111
 40
11.1156962403
100
AcDbArc
 50
180.0110067981
 51
190.4772864491
  0
ARC
  5
2F0
100
AcDbEntity
  8
0
100
AcDbCircle
 62
7
  6
CONTINUOUS
 10
254.4424346549
 20
547.9143990998
 40
5.5
100
AcDbArc
 50
146.7285618176
 51
33.2881868077
  0
ARC
  5
2F1
100
AcDbEntity
  8
0
100
AcDbCircle
 62
9
  6
CONTINUOUS
 10
225.3939597484
 20
555.3289334866
 40
11.7914415202
100
AcDbArc
 50
176.1896455673
 51
178.7590966586
  0
ARC
  5
2F2
100
AcDbEntity
  8
0
100
AcDbCircle
 62
9
  6
CONTINUOUS
 10
223.8251372097
 20
555.4412939578
 40
10.218623096
100
AcDbArc
 50
169.663066816
 51
176.2337009509
  0
ARC
  5
2F3
100
AcDbEntity
  8
0
100
AcDbCircle
 62
9
  6
CONTINUOUS
 10
208.8517183448
 20
562.1806578789
 40
8.5419537624
100
AcDbArc
 50
329.2477522516
 51
344.2483200476
  0
ARC
  5
2F4
100
AcDbEntity
  8
0
100
AcDbCircle
 62
6
  6
CONTINUOUS
 10
208.8906126447
 20
562.1116224142
 40
6.5
100
AcDbArc
 50
287.5568875005
 51
344.2863983093
  0
ARC
  5
2F5
100
AcDbEntity
  8
0
100
AcDbCircle
 62
9
  6
CONTINUOUS
 10
215.6705059134
 20
560.8524521911
 40
4.8482367386
100
AcDbArc
 50
268.3482789866
 51
270.0132844861
  0
ARC
  5
2F6
100
AcDbEntity
  8
0
100
AcDbCircle
 62
9
  6
CONTINUOUS
 10
214.3748177644
 20
555.1987048128
 40
3.8149337155
100
AcDbArc
 50
184.5970347956
 51
186.4793077482
  0
ARC
  5
2F7
100
AcDbEntity
  8
0
100
AcDbCircle
 62
9
  6
CONTINUOUS
 10
215.4916555464
 20
553.4177581919
 40
2.5887933439
100
AcDbArc
 50
89.1344934766
 51
103.8018511889
  0
ARC
  5
2F8
100
AcDbEntity
  8
0
100
AcDbCircle
 62
9
  6
CONTINUOUS
 10
214.4187122154
 20
555.0238971526
 40
2.3465112922
100
AcDbArc
 50
97.2719314545
 51
100.4983296187
  0
ARC
  5
2F9
100
AcDbEntity
  8
0
100
AcDbCircle
 62
6
  6
CONTINUOUS
 10
237.4422704725
 20
564.7689573606
 40
2.1001129352
100
AcDbArc
 50
89.9955207366
 51
137.8471742533
  0
CIRCLE
  5
2FA
100
AcDbEntity
  8
0
100
AcDbCircle
 62
6
  6
CONTINUOUS
 10
237.4427816126
 20
564.8513550213
 40
2.0996206342
  0
ARC
  5
2FB
100
AcDbEntity
  8
0
100
AcDbCircle
 62
6
  6
CONTINUOUS
 10
211.454631195
 20
554.0075611565
 40
2.0
100
AcDbArc
 50
107.556036787
 51
166.9144050043
  0
ARC
  5
2FC
100
AcDbEntity
  8
0
100
AcDbCircle
 62
6
  6
CONTINUOUS
 10
220.5810191944
 20
570.6826624611
 40
2.0
100
AcDbArc
 50
97.5415880474
 51
159.9515535551
  0
ARC
  5
2FD
100
AcDbEntity
  8
0
100
AcDbCircle
 62
9
  6
CONTINUOUS
 10
215.0574118765
 20
557.4635136016
 40
1.2988130231
100
AcDbArc
 50
185.683396058
 51
188.3506359544
  0
ARC
  5
2FE
100
AcDbEntity
  8
0
100
AcDbCircle
 62
9
  6
CONTINUOUS
 10
214.5370107221
 20
557.5380460078
 40
0.766313219
100
AcDbArc
 50
141.0145891331
 51
149.7570763879
  0
ARC
  5
2FF
100
AcDbEntity
  8
0
100
AcDbCircle
 62
9
  6
CONTINUOUS
 10
287.9189889879
 20
534.687838773
 40
25.7854129682
100
AcDbArc
 50
286.4891126792
 51
290.0094640819
  0
ARC
  5
300
100
AcDbEntity
  8
0
100
AcDbCircle
 62
9
  6
CONTINUOUS
 10
293.7102913475
 20
551.9846279008
 40
3.6159384434
100
AcDbArc
 50
86.3703954712
 51
94.945037598
  0
ARC
  5
301
100
AcDbEntity
  8
0
100
AcDbCircle
 62
9
  6
CONTINUOUS
 10
304.5406485147
 20
563.3527065167
 40
11.2173991777
100
AcDbArc
 50
212.807675467
 51
214.2713400707
  0
ARC
  5
302
100
AcDbEntity
  8
0
100
AcDbCircle
 62
9
  6
CONTINUOUS
 10
285.2708746459
 20
555.4734016195
 40
10.0052997317
100
AcDbArc
 50
7.0400518685
 51
8.1541858808
  0
ARC
  5
303
100
AcDbEntity
  8
0
100
AcDbCircle
 62
9
  6
CONTINUOUS
 10
285.3808225247
 20
555.4874165642
 40
9.8944757358
100
AcDbArc
 50
8.1641543942
 51
10.4078336412
  0
ARC
  5
304
100
AcDbEntity
  8
0
100
AcDbCircle
 62
9
  6
CONTINUOUS
 10
300.0353746545
 20
562.1816404278
 40
8.5443673128
100
AcDbArc
 50
195.7529480001
 51
210.7502995855
  0
ARC
  5
305
100
AcDbEntity
  8
0
100
AcDbCircle
 62
6
  6
CONTINUOUS
 10
299.9942566651
 20
562.1116224142
 40
6.5
100
AcDbArc
 50
195.7100588664
 51
252.4435833164
  0
ARC
  5
306
100
AcDbEntity
  8
0
100
AcDbCircle
 62
9
  6
CONTINUOUS
 10
293.2145687309
 20
560.8377951644
 40
4.8335571497
100
AcDbArc
 50
269.9838806342
 51
271.6548199344
  0
ARC
  5
307
100
AcDbEntity
  8
0
100
AcDbCircle
 62
9
  6
CONTINUOUS
 10
293.3823805447
 20
553.3767506893
 40
2.6311580994
100
AcDbArc
 50
65.8475033464
 51
78.6117592265
  0
ARC
  5
308
100
AcDbEntity
  8
0
100
AcDbCircle
 62
9
  6
CONTINUOUS
 10
293.3934318722
 20
553.4210870254
 40
2.585513353
100
AcDbArc
 50
78.6578363628
 51
90.8704787572
  0
ARC
  5
309
100
AcDbEntity
  8
0
100
AcDbCircle
 62
6
  6
CONTINUOUS
 10
271.4362994775
 20
564.7613571782
 40
2.1098839872
100
AcDbArc
 50
42.1887793345
 51
58.0228150091
  0
CIRCLE
  5
30A
100
AcDbEntity
  8
0
100
AcDbCircle
 62
6
  6
CONTINUOUS
 10
271.4427816126
 20
564.8513550213
 40
2.0996206342
  0
ARC
  5
30B
100
AcDbEntity
  8
0
100
AcDbCircle
 62
6
  6
CONTINUOUS
 10
297.4302381148
 20
554.0075611565
 40
2.0
100
AcDbArc
 50
13.0855745329
 51
72.4424330581
  0
ARC
  5
30C
100
AcDbEntity
  8
0
100
AcDbCircle
 62
6
  6
CONTINUOUS
 10
288.3038501154
 20
570.6826624608
 40
2.0
100
AcDbArc
 50
20.0497641222
 51
82.4585051963
  0
ARC
  5
30D
100
AcDbEntity
  8
0
100
AcDbCircle
 62
9
  6
CONTINUOUS
 10
257.5913296042
 20
950.3462140432
 40
447.0157623004
100
AcDbArc
 50
271.8855432297
 51
272.4316629701
  0
ARC
  5
30E
100
AcDbEntity
  8
0
100
AcDbCircle
 62
9
  6
CONTINUOUS
 10
251.2936512803
 20
950.3370861686
 40
447.0066354091
100
AcDbArc
 50
267.5682788603
 51
268.1145373315
  0
ARC
  5
30F
100
AcDbEntity
  8
0
100
AcDbCircle
 62
6
  6
CONTINUOUS
 10
254.4424346549
 20
647.9143990999
 40
145.0
100
AcDbArc
 50
252.9442420759
 51
258.9273822407
  0
ARC
  5
310
100
AcDbEntity
  8
0
100
AcDbCircle
 62
6
  6
CONTINUOUS
 10
254.4424346549
 20
647.9143990999
 40
145.0
100
AcDbArc
 50
281.0725684386
 51
287.0557570665
  0
ARC
  5
311
100
AcDbEntity
  8
0
100
AcDbCircle
 62
6
  6
CONTINUOUS
 10
254.4424346549
 20
647.9143990999
 40
145.0
100
AcDbArc
 50
264.5719616108
 51
275.4280467244
  0
ARC
  5
312
100
AcDbEntity
  8
0
100
AcDbCircle
 62
9
  6
CONTINUOUS
 10
254.4424346549
 20
647.9143990994
 40
143.857181164
100
AcDbArc
 50
253.5258878774
 51
258.9276794669
  0
ARC
  5
313
100
AcDbEntity
  8
0
100
AcDbCircle
 62
9
  6
CONTINUOUS
 10
254.4424346549
 20
647.9143990994
 40
143.8571458048
100
AcDbArc
 50
264.5719775159
 51
275.4280735024
  0
ARC
  5
314
100
AcDbEntity
  8
0
100
AcDbCircle
 62
9
  6
CONTINUOUS
 10
254.4424346549
 20
647.9143990994
 40
143.8571453801
100
AcDbArc
 50
281.0725864619
 51
286.4741118976
  0
ARC
  5
315
100
AcDbEntity
  8
0
100
AcDbCircle
 62
9
  6
CONTINUOUS
 10
254.4424337305
 20
646.6762964513
 40
140.0742621939
100
AcDbArc
 50
253.3822732782
 51
286.6177272201
  0
ARC
  5
316
100
AcDbEntity
  8
0
100
AcDbCircle
 62
9
  6
CONTINUOUS
 10
254.4424430806
 20
646.1299135614
 40
137.7221554033
100
AcDbArc
 50
253.322556592
 51
286.6774674723
  0
ARC
  5
317
100
AcDbEntity
  8
0
100
AcDbCircle
 62
9
  6
CONTINUOUS
 10
230.4215836752
 20
2498.9906825876
 40
1997.1646538472
100
AcDbArc
 50
270.0549151153
 51
270.1776466489
  0
ARC
  5
318
100
AcDbEntity
  8
0
100
AcDbCircle
 62
9
  6
CONTINUOUS
 10
276.7244079451
 20
1647.0539329964
 40
1145.2269889998
100
AcDbArc
 50
269.7963603311
 51
269.9912332287
  0
ARC
  5
319
100
AcDbEntity
  8
0
100
AcDbCircle
 62
6
  6
CONTINUOUS
 10
3276.323798629
 20
691.2989300195
 40
3048.2451483095
100
AcDbArc
 50
182.5544986697
 51
182.7971054952
  0
ARC
  5
31A
100
AcDbEntity
  8
0
100
AcDbCircle
 62
9
  6
CONTINUOUS
 10
1804.2758381812
 20
462.4129091754
 40
1531.6309396692
100
AcDbArc
 50
176.5147833315
 51
176.9909629788
  0
ARC
  5
31B
100
AcDbEntity
  8
0
100
AcDbCircle
 62
9
  6
CONTINUOUS
 10
740.0124413812
 20
510.9816688543
 40
455.6435846863
100
AcDbArc
 50
172.32588579
 51
172.4644930376
  0
ARC
  5
31C
100
AcDbEntity
  8
0
100
AcDbCircle
 62
9
  6
CONTINUOUS
 10
477.6317428697
 20
546.3757343237
 40
190.8863993954
100
AcDbArc
 50
172.2014549932
 51
172.3376370879
  0
ARC
  5
31D
100
AcDbEntity
  8
0
100
AcDbCircle
 62
6
  6
CONTINUOUS
 10
362.4296952849
 20
518.9143990989
 40
157.0
100
AcDbArc
 50
166.9143429351
 51
179.2700977161
  0
ARC
  5
31E
100
AcDbEntity
  8
0
100
AcDbCircle
 62
9
  6
CONTINUOUS
 10
362.1608089343
 20
518.898391178
 40
155.5872887921
100
AcDbArc
 50
173.5927259469
 51
179.2575753247
  0
ARC
  5
31F
100
AcDbEntity
  8
0
100
AcDbCircle
 62
9
  6
CONTINUOUS
 10
361.9153916171
 20
518.9526875033
 40
155.3373474792
100
AcDbArc
 50
166.8702172717
 51
173.6025261521
  0
ARC
  5
320
100
AcDbEntity
  8
0
100
AcDbCircle
 62
6
  6
CONTINUOUS
 10
362.4296952849
 20
518.9143990989
 40
153.0
100
AcDbArc
 50
159.9502531597
 51
164.2863976619
  0
ARC
  5
321
100
AcDbEntity
  8
0
100
AcDbCircle
 62
9
  6
CONTINUOUS
 10
361.5798844847
 20
518.9164835906
 40
152.3414305771
100
AcDbArc
 50
172.7477462199
 51
175.9983239671
  0
ARC
  5
322
100
AcDbEntity
  8
0
100
AcDbCircle
 62
9
  6
CONTINUOUS
 10
361.5781357596
 20
518.913670275
 40
152.3405564857
100
AcDbArc
 50
169.4971141681
 51
171.1217485742
  0
ARC
  5
323
100
AcDbEntity
  8
0
100
AcDbCircle
 62
9
  6
CONTINUOUS
 10
361.5711118086
 20
518.914122322
 40
152.3324841736
100
AcDbArc
 50
166.6541002111
 51
167.0600080456
  0
ARC
  5
324
100
AcDbEntity
  8
0
100
AcDbCircle
 62
9
  6
CONTINUOUS
 10
361.5700705365
 20
518.9170559664
 40
152.3316235148
100
AcDbArc
 50
175.9982816527
 51
176.8109434909
  0
ARC
  5
325
100
AcDbEntity
  8
0
100
AcDbCircle
 62
9
  6
CONTINUOUS
 10
361.5620170197
 20
518.9150079202
 40
152.3252826102
100
AcDbArc
 50
166.2478942989
 51
166.653804593
  0
ARC
  5
326
100
AcDbEntity
  8
0
100
AcDbCircle
 62
9
  6
CONTINUOUS
 10
361.5627453458
 20
518.9168746702
 40
152.3224705152
100
AcDbArc
 50
167.0602016935
 51
167.8723285177
  0
ARC
  5
327
100
AcDbEntity
  8
0
100
AcDbCircle
 62
9
  6
CONTINUOUS
 10
361.5503253895
 20
518.918291347
 40
152.31190652
100
AcDbArc
 50
171.1218248861
 51
172.7470183573
  0
ARC
  5
328
100
AcDbEntity
  8
0
100
AcDbCircle
 62
9
  6
CONTINUOUS
 10
361.5437595937
 20
518.9206537192
 40
152.3036460288
100
AcDbArc
 50
167.8722618906
 51
168.6847054966
  0
ARC
  5
329
100
AcDbEntity
  8
0
100
AcDbCircle
 62
9
  6
CONTINUOUS
 10
361.5329626081
 20
518.9207021044
 40
152.295259124
100
AcDbArc
 50
177.6242338556
 51
179.2499115554
  0
ARC
  5
32A
100
AcDbEntity
  8
0
100
AcDbCircle
 62
9
  6
CONTINUOUS
 10
361.5311107008
 20
518.9224956217
 40
152.2922092867
100
AcDbArc
 50
168.6845525803
 51
169.4971187988
  0
ARC
  5
32B
100
AcDbEntity
  8
0
100
AcDbCircle
 62
9
  6
CONTINUOUS
 10
361.4722454812
 20
518.9224871906
 40
152.2344470793
100
AcDbArc
 50
176.8109499101
 51
177.6239570131
  0
ARC
  5
32C
100
AcDbEntity
  8
0
100
AcDbCircle
 62
9
  6
CONTINUOUS
 10
362.5124968558
 20
518.9122586446
 40
151.3502335217
100
AcDbArc
 50
176.7100237993
 51
179.2420348104
  0
ARC
  5
32D
100
AcDbEntity
  8
0
100
AcDbCircle
 62
9
  6
CONTINUOUS
 10
362.5003734973
 20
518.9105579473
 40
151.3365803118
100
AcDbArc
 50
172.7696418445
 51
174.8329083614
  0
ARC
  5
32E
100
AcDbEntity
  8
0
100
AcDbCircle
 62
9
  6
CONTINUOUS
 10
362.4655882187
 20
518.9133584985
 40
151.3011089345
100
AcDbArc
 50
169.6876337762
 51
172.7690360094
  0
ARC
  5
32F
100
AcDbEntity
  8
0
100
AcDbCircle
 62
9
  6
CONTINUOUS
 10
362.4531140007
 20
518.9143190241
 40
151.2908974533
100
AcDbArc
 50
165.977008345
 51
167.7939335873
  0
ARC
  5
330
100
AcDbEntity
  8
0
100
AcDbCircle
 62
9
  6
CONTINUOUS
 10
362.4501028521
 20
518.9152152951
 40
151.2863498461
100
AcDbArc
 50
174.8329504109
 51
176.7097855864
  0
ARC
  5
331
100
AcDbEntity
  8
0
100
AcDbCircle
 62
9
  6
CONTINUOUS
 10
362.442379973
 20
518.9175204319
 40
151.2794685727
100
AcDbArc
 50
167.794259062
 51
169.6876114017
  0
ARC
  5
332
100
AcDbEntity
  8
0
100
AcDbCircle
 62
9
  6
CONTINUOUS
 10
362.4881972567
 20
518.9477828645
 40
151.0614599822
100
AcDbArc
 50
159.9511085572
 51
164.2855386928
  0
ARC
  5
333
100
AcDbEntity
  8
0
100
AcDbCircle
 62
9
  6
CONTINUOUS
 10
325.411089314
 20
586.7473285244
 40
96.3228173671
100
AcDbArc
 50
239.5232272042
 51
239.6742467666
  0
ARC
  5
334
100
AcDbEntity
  8
0
100
AcDbCircle
 62
9
  6
CONTINUOUS
 10
320.0792489676
 20
577.6145380228
 40
85.7475763316
100
AcDbArc
 50
239.6682254968
 51
240.0120149264
  0
SPLINE
  5
335
100
AcDbEntity
  8
0
100
AcDbSpline
 62
7
  6
CONTINUOUS
 70
0
 71
3
 72
15
 73
11
 74
0
 42
0.0000001
 43
0.0000001
 44
0.0000000001
 40
0.0
 40
0.0
 40
0.0
 40
0.0
 40
0.1132355084
 40
0.2360087737
 40
0.3660687861
 40
0.5000357584
 40
0.6339974482
 40
0.7640422789
 40
0.8867932123
 40
1.0
 40
1.0
 40
1.0
 40
1.0
 10
262.5083657883
 20
574.7685783062
 30
0.0
 10
261.9373149415
 20
575.0167042046
 30
0.0
 10
260.7075106381
 20
575.4442703513
 30
0.0
 10
258.7412079619
 20
575.888747099
 30
0.0
 10
256.6286718187
 20
576.1592856155
 30
0.0
 10
254.439663318
 20
576.250121001
 30
0.0
 10
252.2507573627
 20
576.1588275
 30
0.0
 10
250.1385136216
 20
575.887847362
 30
0.0
 10
248.172679782
 20
575.4429414059
 30
0.0
 10
246.9432685044
 20
575.0150879361
 30
0.0
 10
246.3724517522
 20
574.7668196565
 30
0.0
  0
SPLINE
  5
336
100
AcDbEntity
  8
0
100
AcDbSpline
 62
6
  6
CONTINUOUS
 70
0
 71
3
 72
9
 73
5
 74
0
 42
0.0000001
 43
0.0000001
 44
0.0000000001
 40
0.0
 40
0.0
 40
0.0
 40
0.0
 40
0.7589975943
 40
1.0
 40
1.0
 40
1.0
 40
1.0
 10
272.2995788734
 20
503.5724151346
 30
0.0
 10
272.1009068157
 20
503.4075219294
 30
0.0
 10
271.8352642213
 20
503.1948319563
 30
0.0
 10
271.5632873897
 20
502.990496021
 30
0.0
 10
271.4972150548
 20
502.9419637654
 30
0.0
  0
SPLINE
  5
337
100
AcDbEntity
  8
0
100
AcDbSpline
 62
6
  6
CONTINUOUS
 70
0
 71
3
 72
9
 73
5
 74
0
 42
0.0000001
 43
0.0000001
 44
0.0000000001
 40
0.0
 40
0.0
 40
0.0
 40
0.0
 40
0.3522704538
 40
1.0
 40
1.0
 40
1.0
 40
1.0
 10
272.2724708484
 20
501.8356283621
 30
0.0
 10
272.2868203027
 20
502.0390938869
 30
0.0
 10
272.2891518915
 20
502.6186512397
 30
0.0
 10
272.2979506701
 20
503.197360709
 30
0.0
 10
272.2995967186
 20
503.5724040949
 30
0.0
  0
SPLINE
  5
338
100
AcDbEntity
  8
0
100
AcDbSpline
 62
6
  6
CONTINUOUS
 70
0
 71
3
 72
8
 73
4
 74
0
 42
0.0000001
 43
0.0000001
 44
0.0000000001
 40
0.0
 40
0.0
 40
0.0
 40
0.0
 40
1.0
 40
1.0
 40
1.0
 40
1.0
 10
271.423857415
 20
501.9963577818
 30
0.0
 10
271.5999662833
 20
501.9190543577
 30
0.0
 10
271.7900985538
 20
501.8689967637
 30
0.0
 10
271.9811565297
 20
501.8469286265
 30
0.0
  0
SPLINE
  5
339
100
AcDbEntity
  8
0
100
AcDbSpline
 62
6
  6
CONTINUOUS
 70
0
 71
3
 72
9
 73
5
 74
0
 42
0.0000001
 43
0.0000001
 44
0.0000000001
 40
0.0
 40
0.0
 40
0.0
 40
0.0
 40
0.2387498131
 40
1.0
 40
1.0
 40
1.0
 40
1.0
 10
270.7440788478
 20
502.5031451999
 30
0.0
 10
270.7878434213
 20
502.4513699162
 30
0.0
 10
270.9832190091
 20
502.2450399144
 30
0.0
 10
271.2259199704
 20
502.0832327896
 30
0.0
 10
271.4238493777
 20
501.9963473884
 30
0.0
  0
SPLINE
  5
33A
100
AcDbEntity
  8
0
100
AcDbSpline
 62
6
  6
CONTINUOUS
 70
0
 71
3
 72
9
 73
5
 74
0
 42
0.0000001
 43
0.0000001
 44
0.0000000001
 40
0.0
 40
0.0
 40
0.0
 40
0.0
 40
0.2771374367
 40
1.0
 40
1.0
 40
1.0
 40
1.0
 10
271.4613941175
 20
502.9159331515
 30
0.0
 10
271.4288779874
 20
502.8922382333
 30
0.0
 10
271.3110489129
 20
502.8074386377
 30
0.0
 10
271.191319007
 20
502.7252062983
 30
0.0
 10
271.1029998332
 20
502.6685266037
 30
0.0
  0
SPLINE
  5
33B
100
AcDbEntity
  8
0
100
AcDbSpline
 62
6
  6
CONTINUOUS
 70
0
 71
3
 72
10
 73
6
 74
0
 42
0.0000001
 43
0.0000001
 44
0.0000000001
 40
0.0
 40
0.0
 40
0.0
 40
0.0
 40
0.7238226638
 40
0.9097721003
 40
1.0
 40
1.0
 40
1.0
 40
1.0
 10
271.1029998332
 20
502.6685266037
 30
0.0
 10
271.0209283488
 20
502.615856425
 30
0.0
 10
270.9125855185
 20
502.5497124161
 30
0.0
 10
270.7934332346
 20
502.5006990108
 30
0.0
 10
270.749726434
 20
502.4974456861
 30
0.0
 10
270.7410492885
 20
502.5059591558
 30
0.0
  0
SPLINE
  5
33C
100
AcDbEntity
  8
0
100
AcDbSpline
 62
6
  6
CONTINUOUS
 70
0
 71
3
 72
8
 73
4
 74
0
 42
0.0000001
 43
0.0000001
 44
0.0000000001
 40
0.0
 40
0.0
 40
0.0
 40
0.0
 40
1.0
 40
1.0
 40
1.0
 40
1.0
 10
270.6576361878
 20
566.7169651766
 30
0.0
 10
270.4027923399
 20
566.6143221239
 30
0.0
 10
270.1641062176
 20
566.4578150907
 30
0.0
 10
269.968390937
 20
566.2650029749
 30
0.0
  0
SPLINE
  5
33D
100
AcDbEntity
  8
0
100
AcDbSpline
 62
6
  6
CONTINUOUS
 70
0
 71
3
 72
8
 73
4
 74
0
 42
0.0000001
 43
0.0000001
 44
0.0000000001
 40
0.0
 40
0.0
 40
0.0
 40
0.0
 40
1.0
 40
1.0
 40
1.0
 40
1.0
 10
271.4424346832
 20
566.8690702912
 30
0.0
 10
271.1759671233
 20
566.8690702912
 30
0.0
 10
270.9048084457
 20
566.8165183553
 30
0.0
 10
270.6576361878
 20
566.7169651766
 30
0.0
  0
SPLINE
  5
33E
100
AcDbEntity
  8
0
100
AcDbSpline
 62
6
  6
CONTINUOUS
 70
0
 71
3
 72
8
 73
4
 74
0
 42
0.0000001
 43
0.0000001
 44
0.0000000001
 40
0.0
 40
0.0
 40
0.0
 40
0.0
 40
1.0
 40
1.0
 40
1.0
 40
1.0
 10
272.5536550718
 20
566.5510853462
 30
0.0
 10
272.2267083489
 20
566.7549038223
 30
0.0
 10
271.8277087815
 20
566.8690702912
 30
0.0
 10
271.4424346832
 20
566.8690702912
 30
0.0
  0
SPLINE
  5
33F
100
AcDbEntity
  8
0
100
AcDbSpline
 62
6
  6
CONTINUOUS
 70
0
 71
3
 72
9
 73
5
 74
0
 42
0.0000001
 43
0.0000001
 44
0.0000000001
 40
0.0
 40
0.0
 40
0.0
 40
0.0
 40
0.4999551476
 40
1.0
 40
1.0
 40
1.0
 40
1.0
 10
239.3871412866
 20
565.5620560939
 30
0.0
 10
239.2330288074
 20
565.9400833257
 30
0.0
 10
238.6863075514
 20
566.6195080305
 30
0.0
 10
237.8507422034
 20
566.8690702894
 30
0.0
 10
237.4424346549
 20
566.8690702894
 30
0.0
  0
SPLINE
  5
340
100
AcDbEntity
  8
0
100
AcDbSpline
 62
6
  6
CONTINUOUS
 70
0
 71
3
 72
8
 73
4
 74
0
 42
0.0000001
 43
0.0000001
 44
0.0000000001
 40
0.0
 40
0.0
 40
0.0
 40
0.0
 40
1.0
 40
1.0
 40
1.0
 40
1.0
 10
271.4424346549
 20
532.8807212396
 30
0.0
 10
271.1801022455
 20
532.8807212396
 30
0.0
 10
270.9132897853
 20
532.8298434581
 30
0.0
 10
270.6693681962
 20
532.7333004554
 30
0.0
  0
SPLINE
  5
341
100
AcDbEntity
  8
0
100
AcDbSpline
 62
6
  6
CONTINUOUS
 70
0
 71
3
 72
8
 73
4
 74
0
 42
0.0000001
 43
0.0000001
 44
0.0000000001
 40
0.0
 40
0.0
 40
0.0
 40
0.0
 40
1.0
 40
1.0
 40
1.0
 40
1.0
 10
272.215540793
 20
532.73328475
 30
0.0
 10
271.9716081731
 20
532.8298378511
 30
0.0
 10
271.7047810373
 20
532.8807212396
 30
0.0
 10
271.4424346549
 20
532.8807212396
 30
0.0
  0
SPLINE
  5
342
100
AcDbEntity
  8
0
100
AcDbSpline
 62
6
  6
CONTINUOUS
 70
0
 71
3
 72
8
 73
4
 74
0
 42
0.0000001
 43
0.0000001
 44
0.0000000001
 40
0.0
 40
0.0
 40
0.0
 40
0.0
 40
1.0
 40
1.0
 40
1.0
 40
1.0
 10
237.4424346549
 20
532.8807212396
 30
0.0
 10
237.1801022455
 20
532.8807212396
 30
0.0
 10
236.9132897854
 20
532.8298434582
 30
0.0
 10
236.6693681963
 20
532.7333004555
 30
0.0
  0
SPLINE
  5
343
100
AcDbEntity
  8
0
100
AcDbSpline
 62
6
  6
CONTINUOUS
 70
0
 71
3
 72
8
 73
4
 74
0
 42
0.0000001
 43
0.0000001
 44
0.0000000001
 40
0.0
 40
0.0
 40
0.0
 40
0.0
 40
1.0
 40
1.0
 40
1.0
 40
1.0
 10
238.215540793
 20
532.73328475
 30
0.0
 10
237.9716081731
 20
532.8298378511
 30
0.0
 10
237.7047810373
 20
532.8807212396
 30
0.0
 10
237.4424346549
 20
532.8807212396
 30
0.0
  0
SPLINE
  5
344
100
AcDbEntity
  8
0
100
AcDbSpline
 62
6
  6
CONTINUOUS
 70
0
 71
3
 72
9
 73
5
 74
0
 42
0.0000001
 43
0.0000001
 44
0.0000000001
 40
0.0
 40
0.0
 40
0.0
 40
0.0
 40
0.2506610307
 40
1.0
 40
1.0
 40
1.0
 40
1.0
 10
248.3683734068
 20
538.5438877054
 30
0.0
 10
248.0489952747
 20
538.752622257
 30
0.0
 10
246.8180390628
 20
539.6498420129
 30
0.0
 10
245.7761051554
 20
540.8048103165
 30
0.0
 10
245.1517970979
 20
541.7593754902
 30
0.0
  0
SPLINE
  5
345
100
AcDbEntity
  8
0
100
AcDbSpline
 62
6
  6
CONTINUOUS
 70
0
 71
3
 72
9
 73
5
 74
0
 42
0.0000001
 43
0.0000001
 44
0.0000000001
 40
0.0
 40
0.0
 40
0.0
 40
0.0
 40
0.2506347807
 40
1.0
 40
1.0
 40
1.0
 40
1.0
 10
263.7330981982
 20
541.7593870437
 30
0.0
 10
263.5242851408
 20
541.4401077232
 30
0.0
 10
262.6266563103
 20
540.2094448105
 30
0.0
 10
261.4713015266
 20
539.1679435529
 30
0.0
 10
260.5165064199
 20
538.5439130133
 30
0.0
  0
SPLINE
  5
346
100
AcDbEntity
  8
0
100
AcDbSpline
 62
9
  6
CONTINUOUS
 70
0
 71
3
 72
9
 73
5
 74
0
 42
0.0000001
 43
0.0000001
 44
0.0000000001
 40
0.0
 40
0.0
 40
0.0
 40
0.0
 40
0.6213914958
 40
1.0
 40
1.0
 40
1.0
 40
1.0
 10
297.7503057757
 20
519.3455712197
 30
0.0
 10
298.1466447872
 20
519.3498144714
 30
0.0
 10
298.7837030901
 20
519.3675723847
 30
0.0
 10
299.4226470024
 20
519.3855282036
 30
0.0
 10
299.6622956985
 20
519.4153720352
 30
0.0
  0
SPLINE
  5
347
100
AcDbEntity
  8
0
100
AcDbSpline
 62
9
  6
CONTINUOUS
 70
0
 71
3
 72
15
 73
11
 74
0
 42
0.0000001
 43
0.0000001
 44
0.0000000001
 40
0.0
 40
0.0
 40
0.0
 40
0.0
 40
0.0154256387
 40
0.0347225451
 40
0.0617491488
 40
0.1390179699
 40
0.2473488272
 40
0.3870332257
 40
0.5585161435
 40
1.0
 40
1.0
 40
1.0
 40
1.0
 10
235.4537606077
 20
498.914399099
 30
0.0
 10
235.44848069
 20
498.9133872836
 30
0.0
 10
235.4579933486
 20
498.9355351339
 30
0.0
 10
235.4549391022
 20
498.9517906779
 30
0.0
 10
235.4607848053
 20
498.9977177397
 30
0.0
 10
235.4651616233
 20
499.0693363968
 30
0.0
 10
235.4776590841
 20
499.1831911525
 30
0.0
 10
235.4964337581
 20
499.327741975
 30
0.0
 10
235.5391513891
 20
499.586812356
 30
0.0
 10
235.5873126059
 20
499.7952212248
 30
0.0
 10
235.628329374
 20
499.9435149534
 30
0.0
  0
SPLINE
  5
348
100
AcDbEntity
  8
0
100
AcDbSpline
 62
9
  6
CONTINUOUS
 70
0
 71
3
 72
9
 73
5
 74
0
 42
0.0000001
 43
0.0000001
 44
0.0000000001
 40
0.0
 40
0.0
 40
0.0
 40
0.0
 40
0.1514298323
 40
1.0
 40
1.0
 40
1.0
 40
1.0
 10
214.3832529616
 20
512.4521387487
 30
0.0
 10
214.412344716
 20
512.5397318288
 30
0.0
 10
214.5960151763
 20
513.1209390452
 30
0.0
 10
214.772221118
 20
513.7044314046
 30
0.0
 10
214.920733146
 20
514.1998616241
 30
0.0
  0
LINE
  5
349
100
AcDbEntity
  8
0
100
AcDbLine
 62
9
  6
CONTINUOUS
 10
272.2724710405
 20
501.8355917078
 11
272.654070552
 21
501.8341773656
  0
SPLINE
  5
34A
100
AcDbEntity
  8
0
100
AcDbSpline
 62
9
  6
CONTINUOUS
 70
0
 71
3
 72
11
 73
7
 74
0
 42
0.0000001
 43
0.0000001
 44
0.0000000001
 40
0.0
 40
0.0
 40
0.0
 40
0.0
 40
0.1275238752
 40
0.3454305256
 40
0.6478541478
 40
1.0
 40
1.0
 40
1.0
 40
1.0
 10
277.5451458265
 20
502.0668940382
 30
0.0
 10
277.5740453059
 20
502.1159719301
 30
0.0
 10
277.5766729882
 20
502.2810647625
 30
0.0
 10
277.5224491003
 20
502.5606398914
 30
0.0
 10
277.3977518907
 20
502.933119482
 30
0.0
 10
277.285797412
 20
503.2026326227
 30
0.0
 10
277.2210266346
 20
503.3459509378
 30
0.0
  0
SPLINE
  5
34B
100
AcDbEntity
  8
0
100
AcDbSpline
 62
9
  6
CONTINUOUS
 70
0
 71
3
 72
9
 73
5
 74
0
 42
0.0000001
 43
0.0000001
 44
0.0000000001
 40
0.0
 40
0.0
 40
0.0
 40
0.0
 40
0.3349456587
 40
1.0
 40
1.0
 40
1.0
 40
1.0
 10
276.557214083
 20
503.7329758573
 30
0.0
 10
276.5570134567
 20
503.520168901
 30
0.0
 10
276.5549306924
 20
502.8848395386
 30
0.0
 10
276.5577688596
 20
502.2494057155
 30
0.0
 10
276.5491841047
 20
501.8269519942
 30
0.0
  0
SPLINE
  5
34C
100
AcDbEntity
  8
0
100
AcDbSpline
 62
9
  6
CONTINUOUS
 70
0
 71
3
 72
9
 73
5
 74
0
 42
0.0000001
 43
0.0000001
 44
0.0000000001
 40
0.0
 40
0.0
 40
0.0
 40
0.0
 40
0.3784105376
 40
1.0
 40
1.0
 40
1.0
 40
1.0
 10
209.2225633267
 20
519.415372008
 30
0.0
 10
209.4620677211
 20
519.3855418728
 30
0.0
 10
210.1009620495
 20
519.3675777973
 30
0.0
 10
210.7379709414
 20
519.3498203669
 30
0.0
 10
211.1344056168
 20
519.3455731133
 30
0.0
  0
SPLINE
  5
34D
100
AcDbEntity
  8
0
100
AcDbSpline
 62
9
  6
CONTINUOUS
 70
0
 71
3
 72
9
 73
5
 74
0
 42
0.0000001
 43
0.0000001
 44
0.0000000001
 40
0.0
 40
0.0
 40
0.0
 40
0.0
 40
0.5000460182
 40
1.0
 40
1.0
 40
1.0
 40
1.0
 10
206.7332254769
 20
517.4877418148
 30
0.0
 10
206.8720545871
 20
515.9543630148
 30
0.0
 10
208.047445981
 20
512.9029408138
 30
0.0
 10
210.6962655298
 20
510.9855652051
 30
0.0
 10
212.1427547516
 20
510.4589529576
 30
0.0
  0
SPLINE
  5
34E
100
AcDbEntity
  8
0
100
AcDbSpline
 62
9
  6
CONTINUOUS
 70
0
 71
3
 72
9
 73
5
 74
0
 42
0.0000001
 43
0.0000001
 44
0.0000000001
 40
0.0
 40
0.0
 40
0.0
 40
0.0
 40
0.2531981406
 40
1.0
 40
1.0
 40
1.0
 40
1.0
 10
226.8148946066
 20
506.7346675624
 30
0.0
 10
227.0665241014
 20
506.6853962537
 30
0.0
 10
228.0534520117
 20
506.4578564841
 30
0.0
 10
229.0115198437
 20
506.1002708721
 30
0.0
 10
229.6866285204
 20
505.759431481
 30
0.0
  0
SPLINE
  5
34F
100
AcDbEntity
  8
0
100
AcDbSpline
 62
9
  6
CONTINUOUS
 70
0
 71
3
 72
9
 73
5
 74
0
 42
0.0000001
 43
0.0000001
 44
0.0000000001
 40
0.0
 40
0.0
 40
0.0
 40
0.0
 40
0.4995645716
 40
1.0
 40
1.0
 40
1.0
 40
1.0
 10
280.1844923925
 20
506.1948666579
 30
0.0
 10
280.4910621834
 20
506.3087181408
 30
0.0
 10
281.1101084089
 20
506.5247217821
 30
0.0
 10
281.7495724544
 20
506.6696767272
 30
0.0
 10
282.0705502431
 20
506.7352026646
 30
0.0
  0
SPLINE
  5
350
100
AcDbEntity
  8
0
100
AcDbSpline
 62
9
  6
CONTINUOUS
 70
0
 71
3
 72
10
 73
6
 74
0
 42
0.0000001
 43
0.0000001
 44
0.0000000001
 40
0.0
 40
0.0
 40
0.0
 40
0.0
 40
0.2509180838
 40
0.5006744274
 40
1.0
 40
1.0
 40
1.0
 40
1.0
 10
276.5572184789
 20
503.7329755845
 30
0.0
 10
276.8109372024
 20
504.0022324959
 30
0.0
 10
277.3230577526
 20
504.5351009451
 30
0.0
 10
278.4904542484
 20
505.4487412521
 30
0.0
 10
279.5112778955
 20
505.8968601829
 30
0.0
 10
280.1844923925
 20
506.1948666579
 30
0.0
  0
SPLINE
  5
351
100
AcDbEntity
  8
0
100
AcDbSpline
 62
9
  6
CONTINUOUS
 70
0
 71
3
 72
8
 73
4
 74
0
 42
0.0000001
 43
0.0000001
 44
0.0000000001
 40
0.0
 40
0.0
 40
0.0
 40
0.0
 40
1.0
 40
1.0
 40
1.0
 40
1.0
 10
271.4991746783
 20
504.1070962449
 30
0.0
 10
271.7839648546
 20
503.9593889107
 30
0.0
 10
272.056042205
 20
503.781432004
 30
0.0
 10
272.2994883684
 20
503.5724897473
 30
0.0
  0
SPLINE
  5
352
100
AcDbEntity
  8
0
100
AcDbSpline
 62
9
  6
CONTINUOUS
 70
0
 71
3
 72
8
 73
4
 74
0
 42
0.0000001
 43
0.0000001
 44
0.0000000001
 40
0.0
 40
0.0
 40
0.0
 40
0.0
 40
1.0
 40
1.0
 40
1.0
 40
1.0
 10
270.4590633954
 20
504.5090472187
 30
0.0
 10
270.8175678058
 20
504.4109161522
 30
0.0
 10
271.1692213719
 20
504.2782275807
 30
0.0
 10
271.4991746783
 20
504.1070962449
 30
0.0
  0
SPLINE
  5
353
100
AcDbEntity
  8
0
100
AcDbSpline
 62
9
  6
CONTINUOUS
 70
0
 71
3
 72
8
 73
4
 74
0
 42
0.0000001
 43
0.0000001
 44
0.0000000001
 40
0.0
 40
0.0
 40
0.0
 40
0.0
 40
1.0
 40
1.0
 40
1.0
 40
1.0
 10
269.2568363386
 20
504.71417695
 30
0.0
 10
269.6622235495
 20
504.6836646832
 30
0.0
 10
270.0669535477
 20
504.6163768816
 30
0.0
 10
270.4590633954
 20
504.5090472187
 30
0.0
  0
SPLINE
  5
354
100
AcDbEntity
  8
0
100
AcDbSpline
 62
9
  6
CONTINUOUS
 70
0
 71
3
 72
8
 73
4
 74
0
 42
0.0000001
 43
0.0000001
 44
0.0000000001
 40
0.0
 40
0.0
 40
0.0
 40
0.0
 40
1.0
 40
1.0
 40
1.0
 40
1.0
 10
238.4424186715
 20
504.5136398771
 30
0.0
 10
238.8319132439
 20
504.6189820799
 30
0.0
 10
239.2336945592
 20
504.6844996516
 30
0.0
 10
239.6360367405
 20
504.7148932497
 30
0.0
  0
SPLINE
  5
355
100
AcDbEntity
  8
0
100
AcDbSpline
 62
9
  6
CONTINUOUS
 70
0
 71
3
 72
8
 73
4
 74
0
 42
0.0000001
 43
0.0000001
 44
0.0000000001
 40
0.0
 40
0.0
 40
0.0
 40
0.0
 40
1.0
 40
1.0
 40
1.0
 40
1.0
 10
237.390577314
 20
504.1093141731
 30
0.0
 10
237.7241876301
 20
504.2819367315
 30
0.0
 10
238.0798209419
 20
504.41557216
 30
0.0
 10
238.4424186715
 20
504.5136398771
 30
0.0
  0
SPLINE
  5
356
100
AcDbEntity
  8
0
100
AcDbSpline
 62
9
  6
CONTINUOUS
 70
0
 71
3
 72
8
 73
4
 74
0
 42
0.0000001
 43
0.0000001
 44
0.0000000001
 40
0.0
 40
0.0
 40
0.0
 40
0.0
 40
1.0
 40
1.0
 40
1.0
 40
1.0
 10
236.5864205839
 20
503.5724595295
 30
0.0
 10
236.8306337723
 20
503.7827820919
 30
0.0
 10
237.1046166665
 20
503.9606461882
 30
0.0
 10
237.390577314
 20
504.1093141731
 30
0.0
  0
SPLINE
  5
357
100
AcDbEntity
  8
0
100
AcDbSpline
 62
9
  6
CONTINUOUS
 70
0
 71
3
 72
9
 73
5
 74
0
 42
0.0000001
 43
0.0000001
 44
0.0000000001
 40
0.0
 40
0.0
 40
0.0
 40
0.0
 40
0.2557339208
 40
1.0
 40
1.0
 40
1.0
 40
1.0
 10
230.6256368672
 20
505.2187553284
 30
0.0
 10
230.7870372948
 20
505.1130056612
 30
0.0
 10
231.4046007016
 20
504.6796302367
 30
0.0
 10
231.9659911552
 20
504.1625572774
 30
0.0
 10
232.3276357955
 20
503.7329355954
 30
0.0
  0
SPLINE
  5
358
100
AcDbEntity
  8
0
100
AcDbSpline
 62
9
  6
CONTINUOUS
 70
0
 71
3
 72
9
 73
5
 74
0
 42
0.0000001
 43
0.0000001
 44
0.0000000001
 40
0.0
 40
0.0
 40
0.0
 40
0.0
 40
0.3243766731
 40
1.0
 40
1.0
 40
1.0
 40
1.0
 10
293.9640799008
 20
514.2000474839
 30
0.0
 10
294.020857036
 20
514.0106394434
 30
0.0
 10
294.1976719745
 20
513.4272905568
 30
0.0
 10
294.3718189886
 20
512.8429558656
 30
0.0
 10
294.5016283248
 20
512.4520988404
 30
0.0
  0
LINE
  5
359
100
AcDbEntity
  8
0
100
AcDbLine
 62
9
  6
CONTINUOUS
 10
220.3976650719
 20
572.1032798408
 11
220.3872598557
 21
572.1796828233
  0
LINE
  5
35A
100
AcDbEntity
  8
0
100
AcDbLine
 62
9
  6
CONTINUOUS
 10
220.4135713403
 20
571.986060917
 11
220.3976650719
 21
572.1032798408
  0
SPLINE
  5
35B
100
AcDbEntity
  8
0
100
AcDbSpline
 62
9
  6
CONTINUOUS
 70
0
 71
3
 72
9
 73
5
 74
0
 42
0.0000001
 43
0.0000001
 44
0.0000000001
 40
0.0
 40
0.0
 40
0.0
 40
0.0
 40
0.1746956854
 40
1.0
 40
1.0
 40
1.0
 40
1.0
 10
218.8685233074
 20
571.3286494594
 30
0.0
 10
218.9280340138
 20
571.3106194518
 30
0.0
 10
219.2670747941
 20
571.2021445691
 30
0.0
 10
219.6031467708
 20
571.0847077073
 30
0.0
 10
219.8801065441
 20
570.9867797177
 30
0.0
  0
SPLINE
  5
35C
100
AcDbEntity
  8
0
100
AcDbSpline
 62
9
  6
CONTINUOUS
 70
0
 71
3
 72
11
 73
7
 74
0
 42
0.0000001
 43
0.0000001
 44
0.0000000001
 40
0.0
 40
0.0
 40
0.0
 40
0.0
 40
0.0693007577
 40
0.2588177383
 40
0.5700471098
 40
1.0
 40
1.0
 40
1.0
 40
1.0
 10
218.7022130145
 20
571.3682916175
 30
0.0
 10
218.7035730571
 20
571.3720183066
 30
0.0
 10
218.7243380373
 20
571.3665703584
 30
0.0
 10
218.75075992
 20
571.3631660046
 30
0.0
 10
218.8052999735
 20
571.347186875
 30
0.0
 10
218.8449679786
 20
571.3357855812
 30
0.0
 10
218.8685233074
 20
571.3286494594
 30
0.0
  0
SPLINE
  5
35D
100
AcDbEntity
  8
0
100
AcDbSpline
 62
9
  6
CONTINUOUS
 70
0
 71
3
 72
9
 73
5
 74
0
 42
0.0000001
 43
0.0000001
 44
0.0000000001
 40
0.0
 40
0.0
 40
0.0
 40
0.0
 40
0.4999539776
 40
1.0
 40
1.0
 40
1.0
 40
1.0
 10
296.742120909
 20
510.4589326226
 30
0.0
 10
298.1886144869
 20
510.9855459541
 30
0.0
 10
300.8374422642
 20
512.9029268367
 30
0.0
 10
302.0128363777
 20
515.9543585035
 30
0.0
 10
302.151665183
 20
517.4877418398
 30
0.0
  0
SPLINE
  5
35E
100
AcDbEntity
  8
0
100
AcDbSpline
 62
9
  6
CONTINUOUS
 70
0
 71
3
 72
11
 73
7
 74
0
 42
0.0000001
 43
0.0000001
 44
0.0000000001
 40
0.0
 40
0.0
 40
0.0
 40
0.0
 40
0.4328001776
 40
0.7463106062
 40
0.9361754169
 40
1.0
 40
1.0
 40
1.0
 40
1.0
 10
220.3508653189
 20
572.4442747547
 30
0.0
 10
220.3464253152
 20
572.4761972619
 30
0.0
 10
220.3371821265
 20
572.5289539006
 30
0.0
 10
220.3320786506
 20
572.6049857818
 30
0.0
 10
220.3175974567
 20
572.6345753086
 30
0.0
 10
220.3231328726
 20
572.6659128338
 30
0.0
 10
220.3184204801
 20
572.6652936694
 30
0.0
  0
SPLINE
  5
35F
100
AcDbEntity
  8
0
100
AcDbSpline
 62
9
  6
CONTINUOUS
 70
0
 71
3
 72
16
 73
12
 74
0
 42
0.0000001
 43
0.0000001
 44
0.0000000001
 40
0.0
 40
0.0
 40
0.0
 40
0.0
 40
0.3682996975
 40
0.5470998749
 40
0.7067065186
 40
0.8359815991
 40
0.928934619
 40
0.9605222143
 40
0.9824451023
 40
0.9953181589
 40
1.0
 40
1.0
 40
1.0
 40
1.0
 10
217.0730694097
 20
559.8623660989
 30
0.0
 10
216.8380677441
 20
559.9284238843
 30
0.0
 10
216.4885164239
 20
560.0250566629
 30
0.0
 10
216.0360795113
 20
560.1459770357
 30
0.0
 10
215.7358716373
 20
560.224109784
 30
0.0
 10
215.4908536421
 20
560.2850088114
 30
0.0
 10
215.325858778
 20
560.3239246246
 30
0.0
 10
215.2323417461
 20
560.3428712278
 30
0.0
 10
215.1865426849
 20
560.3515480073
 30
0.0
 10
215.1648112275
 20
560.3528500807
 30
0.0
 10
215.1485185127
 20
560.354586473
 30
0.0
 10
215.1476781344
 20
560.3515993046
 30
0.0
  0
SPLINE
  5
360
100
AcDbEntity
  8
0
100
AcDbSpline
 62
9
  6
CONTINUOUS
 70
0
 71
3
 72
13
 73
9
 74
0
 42
0.0000001
 43
0.0000001
 44
0.0000000001
 40
0.0
 40
0.0
 40
0.0
 40
0.0
 40
0.3952390904
 40
0.7188874666
 40
0.8372575593
 40
0.9232219185
 40
0.9767457564
 40
1.0
 40
1.0
 40
1.0
 40
1.0
 10
296.7421193906
 20
510.4589320698
 30
0.0
 10
296.783819752
 20
510.3067542316
 30
0.0
 10
296.8564487788
 20
510.0295632263
 30
0.0
 10
296.9326137937
 20
509.7025278133
 30
0.0
 10
296.9705150886
 20
509.4971663306
 30
0.0
 10
296.9834681934
 20
509.3914599351
 30
0.0
 10
296.9863180735
 20
509.333061162
 30
0.0
 10
296.9801064099
 20
509.2943283059
 30
0.0
 10
296.9712309473
 20
509.2916059517
 30
0.0
  0
SPLINE
  5
361
100
AcDbEntity
  8
0
100
AcDbSpline
 62
9
  6
CONTINUOUS
 70
0
 71
3
 72
9
 73
5
 74
0
 42
0.0000001
 43
0.0000001
 44
0.0000000001
 40
0.0
 40
0.0
 40
0.0
 40
0.0
 40
0.2440162921
 40
1.0
 40
1.0
 40
1.0
 40
1.0
 10
277.5451458016
 20
502.066893996
 30
0.0
 10
277.6177944486
 20
502.1066658459
 30
0.0
 10
277.9039873665
 20
502.2897250372
 30
0.0
 10
278.1421362769
 20
502.5490863125
 30
0.0
 10
278.2723844243
 20
502.770163431
 30
0.0
  0
SPLINE
  5
362
100
AcDbEntity
  8
0
100
AcDbSpline
 62
9
  6
CONTINUOUS
 70
0
 71
3
 72
14
 73
10
 74
0
 42
0.0000001
 43
0.0000001
 44
0.0000000001
 40
0.0
 40
0.0
 40
0.0
 40
0.0
 40
0.0159417239
 40
0.0629746744
 40
0.1428683824
 40
0.2571133858
 40
0.405814535
 40
0.5836504927
 40
1.0
 40
1.0
 40
1.0
 40
1.0
 10
278.2725078268
 20
502.7701916126
 30
0.0
 10
278.2692612984
 20
502.7647049751
 30
0.0
 10
278.2374147173
 20
502.7867987599
 30
0.0
 10
278.1939748299
 20
502.7991175966
 30
0.0
 10
278.1036681214
 20
502.8507685213
 30
0.0
 10
277.9851634625
 20
502.9126534867
 30
0.0
 10
277.8301265308
 20
502.9993428376
 30
0.0
 10
277.5715658635
 20
503.1443810881
 30
0.0
 10
277.365168702
 20
503.2626745477
 30
0.0
 10
277.2209464785
 20
503.3458759611
 30
0.0
  0
SPLINE
  5
363
100
AcDbEntity
  8
0
100
AcDbSpline
 62
6
  6
CONTINUOUS
 70
0
 71
3
 72
9
 73
5
 74
0
 42
0.0000001
 43
0.0000001
 44
0.0000000001
 40
0.0
 40
0.0
 40
0.0
 40
0.0
 40
0.2506610307
 40
1.0
 40
1.0
 40
1.0
 40
1.0
 10
260.5164959016
 20
557.1188493569
 30
0.0
 10
260.8358740309
 20
556.9101148071
 30
0.0
 10
262.0668302328
 20
556.0128950603
 30
0.0
 10
263.1087641352
 20
554.85792677
 30
0.0
 10
263.7330721871
 20
553.9033616045
 30
0.0
  0
SPLINE
  5
364
100
AcDbEntity
  8
0
100
AcDbSpline
 62
6
  6
CONTINUOUS
 70
0
 71
3
 72
9
 73
5
 74
0
 42
0.0000001
 43
0.0000001
 44
0.0000000001
 40
0.0
 40
0.0
 40
0.0
 40
0.0
 40
0.2506347807
 40
1.0
 40
1.0
 40
1.0
 40
1.0
 10
245.1517711171
 20
553.9033500259
 30
0.0
 10
245.3605841738
 20
554.2226293455
 30
0.0
 10
246.2582130068
 20
555.453292251
 30
0.0
 10
247.413567782
 20
556.4947935104
 30
0.0
 10
248.3683628861
 20
557.1188240482
 30
0.0
  0
SPLINE
  5
365
100
AcDbEntity
  8
0
100
AcDbSpline
 62
9
  6
CONTINUOUS
 70
0
 71
3
 72
14
 73
10
 74
0
 42
0.0000001
 43
0.0000001
 44
0.0000000001
 40
0.0
 40
0.0
 40
0.0
 40
0.0
 40
0.4400409234
 40
0.6117500476
 40
0.7518486294
 40
0.8605672166
 40
0.9380929221
 40
0.9845415044
 40
1.0
 40
1.0
 40
1.0
 40
1.0
 10
275.7254134271
 20
499.8476798635
 30
0.0
 10
275.6890498147
 20
499.7125965313
 30
0.0
 10
275.6433248033
 20
499.5230978881
 30
0.0
 10
275.5960575247
 20
499.2895379168
 30
0.0
 10
275.5699791257
 20
499.1569096748
 30
0.0
 10
275.5555685729
 20
499.0579025938
 30
0.0
 10
275.5362861367
 20
498.9776143874
 30
0.0
 10
275.5426626722
 20
498.9465081574
 30
0.0
 10
275.5264092604
 20
498.9138778611
 30
0.0
 10
275.5312959066
 20
498.914399099
 30
0.0
  0
SPLINE
  5
366
100
AcDbEntity
  8
0
100
AcDbSpline
 62
9
  6
CONTINUOUS
 70
0
 71
3
 72
14
 73
10
 74
0
 42
0.0000001
 43
0.0000001
 44
0.0000000001
 40
0.0
 40
0.0
 40
0.0
 40
0.0
 40
0.4403279539
 40
0.6119105084
 40
0.7518763707
 40
0.860539585
 40
0.9380570839
 40
0.9845272617
 40
1.0
 40
1.0
 40
1.0
 40
1.0
 10
273.3016908579
 20
499.768272807
 30
0.0
 10
273.3312059938
 20
499.6448608139
 30
0.0
 10
273.3659352941
 20
499.4714248414
 30
0.0
 10
273.3967839239
 20
499.2576211617
 30
0.0
 10
273.4123244766
 20
499.1361563678
 30
0.0
 10
273.4191633595
 20
499.0458075953
 30
0.0
 10
273.4310668317
 20
498.9718834964
 30
0.0
 10
273.4231835072
 20
498.944275802
 30
0.0
 10
273.4354876794
 20
498.913558731
 30
0.0
 10
273.4311087025
 20
498.914399099
 30
0.0
  0
SPLINE
  5
367
100
AcDbEntity
  8
0
100
AcDbSpline
 62
9
  6
CONTINUOUS
 70
0
 71
3
 72
9
 73
5
 74
0
 42
0.0000001
 43
0.0000001
 44
0.0000000001
 40
0.0
 40
0.0
 40
0.0
 40
0.0
 40
0.2920431249
 40
1.0
 40
1.0
 40
1.0
 40
1.0
 10
272.3043247151
 20
501.7962098999
 30
0.0
 10
272.3900193449
 20
501.6894155656
 30
0.0
 10
272.6716537006
 20
501.3144497885
 30
0.0
 10
272.9014861612
 20
500.900423191
 30
0.0
 10
273.0286843028
 20
500.5938338829
 30
0.0
  0
SPLINE
  5
368
100
AcDbEntity
  8
0
100
AcDbSpline
 62
9
  6
CONTINUOUS
 70
0
 71
3
 72
13
 73
9
 74
0
 42
0.0000001
 43
0.0000001
 44
0.0000000001
 40
0.0
 40
0.0
 40
0.0
 40
0.0
 40
0.3945470453
 40
0.7174671456
 40
0.8357074252
 40
0.9217636785
 40
0.9756764134
 40
1.0
 40
1.0
 40
1.0
 40
1.0
 10
206.7332247071
 20
517.487746868
 30
0.0
 10
206.5770533804
 20
517.4875680217
 30
0.0
 10
206.2934438293
 20
517.4906997385
 30
0.0
 10
205.9616204755
 20
517.5044620551
 30
0.0
 10
205.7554047621
 20
517.5234168303
 30
0.0
 10
205.6515367533
 20
517.5402303149
 30
0.0
 10
205.5936174903
 20
517.5538324218
 30
0.0
 10
205.5592663211
 20
517.5719996637
 30
0.0
 10
205.5589314745
 20
517.5816217132
 30
0.0
  0
SPLINE
  5
369
100
AcDbEntity
  8
0
100
AcDbSpline
 62
9
  6
CONTINUOUS
 70
0
 71
3
 72
13
 73
9
 74
0
 42
0.0000001
 43
0.0000001
 44
0.0000000001
 40
0.0
 40
0.0
 40
0.0
 40
0.0
 40
0.02325405
 40
0.0767778947
 40
0.1627424226
 40
0.2811127859
 40
0.6047616277
 40
1.0
 40
1.0
 40
1.0
 40
1.0
 10
211.9136374422
 20
509.291606189
 30
0.0
 10
211.9047618423
 20
509.2943284003
 30
0.0
 10
211.8985500879
 20
509.3330621567
 30
0.0
 10
211.9014002256
 20
509.3914617081
 30
0.0
 10
211.9143537274
 20
509.4971703015
 30
0.0
 10
211.9522560937
 20
509.7025356871
 30
0.0
 10
212.0284228654
 20
510.0295769446
 30
0.0
 10
212.1010534704
 20
510.3067727371
 30
0.0
 10
212.1427546699
 20
510.4589529874
 30
0.0
  0
SPLINE
  5
36A
100
AcDbEntity
  8
0
100
AcDbSpline
 62
9
  6
CONTINUOUS
 70
0
 71
3
 72
14
 73
10
 74
0
 42
0.0000001
 43
0.0000001
 44
0.0000000001
 40
0.0
 40
0.0
 40
0.0
 40
0.0
 40
0.0174160941
 40
0.0682757996
 40
0.1526269031
 40
0.2703124383
 40
0.4200476178
 40
0.5961210598
 40
1.0
 40
1.0
 40
1.0
 40
1.0
 10
205.4972189164
 20
519.3455831148
 30
0.0
 10
205.4969948538
 20
519.3521341899
 30
0.0
 10
205.5372861968
 20
519.348245098
 30
0.0
 10
205.5802545507
 20
519.3618478826
 30
0.0
 10
205.6831673209
 20
519.3650265844
 30
0.0
 10
205.8117567873
 20
519.3756227019
 30
0.0
 10
205.9797441285
 20
519.3844307717
 30
0.0
 10
206.2534116488
 20
519.3989741336
 30
0.0
 10
206.4717162503
 20
519.408823403
 30
0.0
 10
206.623583258
 20
519.4153725751
 30
0.0
  0
SPLINE
  5
36B
100
AcDbEntity
  8
0
100
AcDbSpline
 62
9
  6
CONTINUOUS
 70
0
 71
3
 72
16
 73
12
 74
0
 42
0.0000001
 43
0.0000001
 44
0.0000000001
 40
0.0
 40
0.0
 40
0.0
 40
0.0
 40
0.3829547681
 40
0.5557548401
 40
0.7069657003
 40
0.8309531091
 40
0.9232208966
 40
0.9562108633
 40
0.9800495567
 40
0.9946080435
 40
1.0
 40
1.0
 40
1.0
 40
1.0
 10
288.3038939456
 20
570.735032269
 30
0.0
 10
288.5418634467
 20
570.8218205384
 30
0.0
 10
288.8878049515
 20
570.9462672229
 30
0.0
 10
289.3290559535
 20
571.1007952508
 30
0.0
 10
289.6095578968
 20
571.1970002296
 30
0.0
 10
289.8397005386
 20
571.2733244912
 30
0.0
 10
289.9979531522
 20
571.3239611643
 30
0.0
 10
290.0910872664
 20
571.3505923653
 30
0.0
 10
290.1393682864
 20
571.364247132
 30
0.0
 10
290.162971632
 20
571.3673076761
 30
0.0
 10
290.1814178138
 20
571.3716851355
 30
0.0
 10
290.1826405264
 20
571.3683348254
 30
0.0
  0
SPLINE
  5
36C
100
AcDbEntity
  8
0
100
AcDbSpline
 62
9
  6
CONTINUOUS
 70
0
 71
3
 72
13
 73
9
 74
0
 42
0.0000001
 43
0.0000001
 44
0.0000000001
 40
0.0
 40
0.0
 40
0.0
 40
0.0
 40
0.0163343477
 40
0.0648026674
 40
0.1450051827
 40
0.2565143549
 40
0.5708538369
 40
1.0
 40
1.0
 40
1.0
 40
1.0
 10
288.5663394567
 20
572.6653624748
 30
0.0
 10
288.5642151961
 20
572.6655781376
 30
0.0
 10
288.5663116225
 20
572.6517610975
 30
0.0
 10
288.5599336967
 20
572.638280808
 30
0.0
 10
288.5572516395
 20
572.6042809348
 30
0.0
 10
288.5466542021
 20
572.5405765304
 30
0.0
 10
288.5320006629
 20
572.4285739984
 30
0.0
 10
288.5184172994
 20
572.3327654801
 30
0.0
 10
288.5107970798
 20
572.2771886788
 30
0.0
  0
SPLINE
  5
36D
100
AcDbEntity
  8
0
100
AcDbSpline
 62
9
  6
CONTINUOUS
 70
0
 71
3
 72
11
 73
7
 74
0
 42
0.0000001
 43
0.0000001
 44
0.0000000001
 40
0.0
 40
0.0
 40
0.0
 40
0.0
 40
0.2500608584
 40
0.5000540812
 40
0.7500156124
 40
1.0
 40
1.0
 40
1.0
 40
1.0
 10
230.9680649966
 20
557.8129279896
 30
0.0
 10
231.2734392081
 20
557.8076162704
 30
0.0
 10
231.8906355577
 20
557.6984050656
 30
0.0
 10
232.6807677697
 20
557.1923552629
 30
0.0
 10
233.2353187363
 20
556.4355660915
 30
0.0
 10
233.3828524162
 20
555.8265267625
 30
0.0
 10
233.4072517456
 20
555.5221762208
 30
0.0
  0
SPLINE
  5
36E
100
AcDbEntity
  8
0
100
AcDbSpline
 62
9
  6
CONTINUOUS
 70
0
 71
3
 72
11
 73
7
 74
0
 42
0.0000001
 43
0.0000001
 44
0.0000000001
 40
0.0
 40
0.0
 40
0.0
 40
0.0
 40
0.2499837911
 40
0.4999454749
 40
0.7499386056
 40
1.0
 40
1.0
 40
1.0
 40
1.0
 10
275.4776241918
 20
555.5222870864
 30
0.0
 10
275.5020272205
 20
555.8266285947
 30
0.0
 10
275.64963943
 20
556.4356378846
 30
0.0
 10
276.2042306582
 20
557.192353729
 30
0.0
 10
276.9943611034
 20
557.6983598666
 30
0.0
 10
277.6115286166
 20
557.8075719571
 30
0.0
 10
277.9168947581
 20
557.8129261007
 30
0.0
  0
SPLINE
  5
36F
100
AcDbEntity
  8
0
100
AcDbSpline
 62
9
  6
CONTINUOUS
 70
0
 71
3
 72
8
 73
4
 74
0
 42
0.0000001
 43
0.0000001
 44
0.0000000001
 40
0.0
 40
0.0
 40
0.0
 40
0.0
 40
1.0
 40
1.0
 40
1.0
 40
1.0
 10
273.8910798656
 20
529.0272013927
 30
0.0
 10
273.9957641857
 20
529.2551410525
 30
0.0
 10
274.0589070024
 20
529.507261966
 30
0.0
 10
274.071321492
 20
529.7577837731
 30
0.0
  0
SPLINE
  5
370
100
AcDbEntity
  8
0
100
AcDbSpline
 62
9
  6
CONTINUOUS
 70
0
 71
3
 72
8
 73
4
 74
0
 42
0.0000001
 43
0.0000001
 44
0.0000000001
 40
0.0
 40
0.0
 40
0.0
 40
0.0
 40
1.0
 40
1.0
 40
1.0
 40
1.0
 10
273.4506680892
 20
528.411225005
 30
0.0
 10
273.6337551076
 20
528.5849750606
 30
0.0
 10
273.7857365196
 20
528.79782677
 30
0.0
 10
273.8910798656
 20
529.0272013927
 30
0.0
  0
SPLINE
  5
371
100
AcDbEntity
  8
0
100
AcDbSpline
 62
9
  6
CONTINUOUS
 70
0
 71
3
 72
8
 73
4
 74
0
 42
0.0000001
 43
0.0000001
 44
0.0000000001
 40
0.0
 40
0.0
 40
0.0
 40
0.0
 40
1.0
 40
1.0
 40
1.0
 40
1.0
 10
272.8126740757
 20
528.0037028098
 30
0.0
 10
273.0471813838
 20
528.0968977088
 30
0.0
 10
273.2676255783
 20
528.2375171872
 30
0.0
 10
273.4506680892
 20
528.411225005
 30
0.0
  0
SPLINE
  5
372
100
AcDbEntity
  8
0
100
AcDbSpline
 62
9
  6
CONTINUOUS
 70
0
 71
3
 72
8
 73
4
 74
0
 42
0.0000001
 43
0.0000001
 44
0.0000000001
 40
0.0
 40
0.0
 40
0.0
 40
0.0
 40
1.0
 40
1.0
 40
1.0
 40
1.0
 10
272.0738725729
 20
527.8619092255
 30
0.0
 10
272.3246333659
 20
527.8612177451
 30
0.0
 10
272.5796398754
 20
527.9110933344
 30
0.0
 10
272.8126740757
 20
528.0037028098
 30
0.0
  0
SPLINE
  5
373
100
AcDbEntity
  8
0
100
AcDbSpline
 62
9
  6
CONTINUOUS
 70
0
 71
3
 72
8
 73
4
 74
0
 42
0.0000001
 43
0.0000001
 44
0.0000000001
 40
0.0
 40
0.0
 40
0.0
 40
0.0
 40
1.0
 40
1.0
 40
1.0
 40
1.0
 10
236.0722084854
 20
528.0036973404
 30
0.0
 10
236.3052388158
 20
527.9110914021
 30
0.0
 10
236.5602401703
 20
527.8612180822
 30
0.0
 10
236.8109960615
 20
527.8619092255
 30
0.0
  0
SPLINE
  5
374
100
AcDbEntity
  8
0
100
AcDbSpline
 62
9
  6
CONTINUOUS
 70
0
 71
3
 72
8
 73
4
 74
0
 42
0.0000001
 43
0.0000001
 44
0.0000000001
 40
0.0
 40
0.0
 40
0.0
 40
0.0
 40
1.0
 40
1.0
 40
1.0
 40
1.0
 10
235.4342130459
 20
528.4112137829
 30
0.0
 10
235.6172564916
 20
528.2375078678
 30
0.0
 10
235.8377010739
 20
528.0968902689
 30
0.0
 10
236.0722084854
 20
528.0036973404
 30
0.0
  0
SPLINE
  5
375
100
AcDbEntity
  8
0
100
AcDbSpline
 62
9
  6
CONTINUOUS
 70
0
 71
3
 72
8
 73
4
 74
0
 42
0.0000001
 43
0.0000001
 44
0.0000000001
 40
0.0
 40
0.0
 40
0.0
 40
0.0
 40
1.0
 40
1.0
 40
1.0
 40
1.0
 10
234.9937957301
 20
529.0271881706
 30
0.0
 10
235.0991410318
 20
528.797813861
 30
0.0
 10
235.2511242485
 20
528.5849627362
 30
0.0
 10
235.4342130459
 20
528.4112137829
 30
0.0
  0
SPLINE
  5
376
100
AcDbEntity
  8
0
100
AcDbSpline
 62
9
  6
CONTINUOUS
 70
0
 71
3
 72
8
 73
4
 74
0
 42
0.0000001
 43
0.0000001
 44
0.0000000001
 40
0.0
 40
0.0
 40
0.0
 40
0.0
 40
1.0
 40
1.0
 40
1.0
 40
1.0
 10
234.8135478892
 20
529.7577837749
 30
0.0
 10
234.8259621704
 20
529.5072571758
 30
0.0
 10
234.8891076937
 20
529.255131379
 30
0.0
 10
234.9937957301
 20
529.0271881706
 30
0.0
  0
SPLINE
  5
377
100
AcDbEntity
  8
0
100
AcDbSpline
 62
9
  6
CONTINUOUS
 70
0
 71
3
 72
9
 73
5
 74
0
 42
0.0000001
 43
0.0000001
 44
0.0000000001
 40
0.0
 40
0.0
 40
0.0
 40
0.0
 40
0.5002530144
 40
1.0
 40
1.0
 40
1.0
 40
1.0
 10
230.9679615556
 20
556.0042238975
 30
0.0
 10
231.1158312677
 20
556.004595657
 30
0.0
 10
231.4229253217
 20
555.8857990996
 30
0.0
 10
231.5589595605
 20
555.5864187686
 30
0.0
 10
231.5676648245
 20
555.438954893
 30
0.0
  0
SPLINE
  5
378
100
AcDbEntity
  8
0
100
AcDbSpline
 62
9
  6
CONTINUOUS
 70
0
 71
3
 72
9
 73
5
 74
0
 42
0.0000001
 43
0.0000001
 44
0.0000000001
 40
0.0
 40
0.0
 40
0.0
 40
0.0
 40
0.2448496757
 40
1.0
 40
1.0
 40
1.0
 40
1.0
 10
216.1921354762
 20
557.8129217099
 30
0.0
 10
216.1385376328
 20
557.7679564167
 30
0.0
 10
215.9158042362
 20
557.5888961679
 30
0.0
 10
215.67938283
 20
557.4271359933
 30
0.0
 10
215.4957820167
 20
557.3137878567
 30
0.0
  0
SPLINE
  5
379
100
AcDbEntity
  8
0
100
AcDbSpline
 62
9
  6
CONTINUOUS
 70
0
 71
3
 72
9
 73
5
 74
0
 42
0.0000001
 43
0.0000001
 44
0.0000000001
 40
0.0
 40
0.0
 40
0.0
 40
0.0
 40
0.5878622836
 40
1.0
 40
1.0
 40
1.0
 40
1.0
 10
215.4958178278
 20
557.3137911542
 30
0.0
 10
215.4200091947
 20
557.0662099618
 30
0.0
 10
215.3775944574
 20
556.6104401752
 30
0.0
 10
215.491594709
 20
556.183513704
 30
0.0
 10
215.53076037
 20
556.0062606672
 30
0.0
  0
SPLINE
  5
37A
100
AcDbEntity
  8
0
100
AcDbSpline
 62
9
  6
CONTINUOUS
 70
0
 71
3
 72
16
 73
12
 74
0
 42
0.0000001
 43
0.0000001
 44
0.0000000001
 40
0.0
 40
0.0
 40
0.0
 40
0.0
 40
0.3690034556
 40
0.5477968207
 40
0.7072653948
 40
0.8363716197
 40
0.9291830968
 40
0.9607212966
 40
0.9826032506
 40
0.9954291534
 40
1.0
 40
1.0
 40
1.0
 40
1.0
 10
216.1923168153
 20
557.8130738495
 30
0.0
 10
215.9836014306
 20
557.937354764
 30
0.0
 10
215.6730163
 20
558.1206919403
 30
0.0
 10
215.2703468462
 20
558.3542421714
 30
0.0
 10
215.0031101563
 20
558.5071942552
 30
0.0
 10
214.7845170716
 20
558.6293662595
 30
0.0
 10
214.6368894239
 20
558.7100250134
 30
0.0
 10
214.5525873487
 20
558.7527135086
 30
0.0
 10
214.5111406022
 20
558.7735577947
 30
0.0
 10
214.4909823354
 20
558.7802099604
 30
0.0
 10
214.4759883974
 20
558.7869342534
 30
0.0
 10
214.4744479887
 20
558.7843494558
 30
0.0
  0
SPLINE
  5
37B
100
AcDbEntity
  8
0
100
AcDbSpline
 62
9
  6
CONTINUOUS
 70
0
 71
3
 72
9
 73
5
 74
0
 42
0.0000001
 43
0.0000001
 44
0.0000000001
 40
0.0
 40
0.0
 40
0.0
 40
0.0
 40
0.6658126239
 40
1.0
 40
1.0
 40
1.0
 40
1.0
 10
214.4811492523
 20
557.9432589188
 30
0.0
 10
214.3676245754
 20
557.9948981714
 30
0.0
 10
214.2082629252
 20
558.0644436748
 30
0.0
 10
213.9808155126
 20
558.0688732956
 30
0.0
 10
213.9414037329
 20
558.0202388107
 30
0.0
  0
SPLINE
  5
37C
100
AcDbEntity
  8
0
100
AcDbSpline
 62
9
  6
CONTINUOUS
 70
0
 71
3
 72
9
 73
5
 74
0
 42
0.0000001
 43
0.0000001
 44
0.0000000001
 40
0.0
 40
0.0
 40
0.0
 40
0.0
 40
0.2821586095
 40
1.0
 40
1.0
 40
1.0
 40
1.0
 10
215.4954668832
 20
557.3135937863
 30
0.0
 10
215.405480851
 20
557.3809229526
 30
0.0
 10
215.0819427282
 20
557.6127526711
 30
0.0
 10
214.7413564779
 20
557.8247932255
 30
0.0
 10
214.4811034633
 20
557.9432004671
 30
0.0
  0
SPLINE
  5
37D
100
AcDbEntity
  8
0
100
AcDbSpline
 62
9
  6
CONTINUOUS
 70
0
 71
3
 72
9
 73
5
 74
0
 42
0.0000001
 43
0.0000001
 44
0.0000000001
 40
0.0
 40
0.0
 40
0.0
 40
0.0
 40
0.2219902397
 40
1.0
 40
1.0
 40
1.0
 40
1.0
 10
214.1217208051
 20
557.3517099407
 30
0.0
 10
214.2227451998
 20
557.3647174594
 30
0.0
 10
214.6809858823
 20
557.3976046086
 30
0.0
 10
215.1419402883
 20
557.3631670959
 30
0.0
 10
215.4954543574
 20
557.3135200722
 30
0.0
  0
SPLINE
  5
37E
100
AcDbEntity
  8
0
100
AcDbSpline
 62
9
  6
CONTINUOUS
 70
0
 71
3
 72
9
 73
5
 74
0
 42
0.0000001
 43
0.0000001
 44
0.0000000001
 40
0.0
 40
0.0
 40
0.0
 40
0.0
 40
0.2248033178
 40
1.0
 40
1.0
 40
1.0
 40
1.0
 10
213.7729359181
 20
557.2747757848
 30
0.0
 10
213.788867899
 20
557.2804099308
 30
0.0
 10
213.8603850512
 20
557.3036436802
 30
0.0
 10
213.9338773197
 20
557.320440758
 30
0.0
 10
213.9911617611
 20
557.331128362
 30
0.0
  0
SPLINE
  5
37F
100
AcDbEntity
  8
0
100
AcDbSpline
 62
9
  6
CONTINUOUS
 70
0
 71
3
 72
9
 73
5
 74
0
 42
0.0000001
 43
0.0000001
 44
0.0000000001
 40
0.0
 40
0.0
 40
0.0
 40
0.0
 40
0.7423662061
 40
1.0
 40
1.0
 40
1.0
 40
1.0
 10
213.8749944814
 20
557.9240129054
 30
0.0
 10
213.8215937593
 20
557.8324526446
 30
0.0
 10
213.7762375432
 20
557.692302108
 30
0.0
 10
213.7621754504
 20
557.5502929411
 30
0.0
 10
213.7603266022
 20
557.5135545315
 30
0.0
  0
SPLINE
  5
380
100
AcDbEntity
  8
0
100
AcDbSpline
 62
9
  6
CONTINUOUS
 70
0
 71
3
 72
8
 73
4
 74
0
 42
0.0000001
 43
0.0000001
 44
0.0000000001
 40
0.0
 40
0.0
 40
0.0
 40
0.0
 40
1.0
 40
1.0
 40
1.0
 40
1.0
 10
213.7603266022
 20
557.5135545315
 30
0.0
 10
213.7573323018
 20
557.4540548737
 30
0.0
 10
213.7590915207
 20
557.3941732361
 30
0.0
 10
213.7649834151
 20
557.3348903491
 30
0.0
  0
SPLINE
  5
381
100
AcDbEntity
  8
0
100
AcDbSpline
 62
9
  6
CONTINUOUS
 70
0
 71
3
 72
9
 73
5
 74
0
 42
0.0000001
 43
0.0000001
 44
0.0000000001
 40
0.0
 40
0.0
 40
0.0
 40
0.0
 40
0.603706192
 40
1.0
 40
1.0
 40
1.0
 40
1.0
 10
215.4862976482
 20
555.5870918681
 30
0.0
 10
215.4901242125
 20
555.6719021924
 30
0.0
 10
215.5006628425
 20
555.8118426757
 30
0.0
 10
215.5161670984
 20
555.9524716689
 30
0.0
 10
215.5307602122
 20
556.0062561738
 30
0.0
  0
SPLINE
  5
382
100
AcDbEntity
  8
0
100
AcDbSpline
 62
9
  6
CONTINUOUS
 70
0
 71
3
 72
9
 73
5
 74
0
 42
0.0000001
 43
0.0000001
 44
0.0000000001
 40
0.0
 40
0.0
 40
0.0
 40
0.0
 40
0.2302198598
 40
1.0
 40
1.0
 40
1.0
 40
1.0
 10
213.8447015413
 20
555.3072942518
 30
0.0
 10
213.8727539384
 20
555.3232244797
 30
0.0
 10
213.9969805084
 20
555.388263044
 30
0.0
 10
214.1293864628
 20
555.4366590079
 30
0.0
 10
214.2326289842
 20
555.4679043532
 30
0.0
  0
SPLINE
  5
383
100
AcDbEntity
  8
0
100
AcDbSpline
 62
9
  6
CONTINUOUS
 70
0
 71
3
 72
9
 73
5
 74
0
 42
0.0000001
 43
0.0000001
 44
0.0000000001
 40
0.0
 40
0.0
 40
0.0
 40
0.0
 40
0.2649461596
 40
1.0
 40
1.0
 40
1.0
 40
1.0
 10
213.8555345489
 20
555.4146932645
 30
0.0
 10
213.8301611246
 20
555.3921557391
 30
0.0
 10
213.7372045425
 20
555.3042054147
 30
0.0
 10
213.6521018265
 20
555.2062649166
 30
0.0
 10
213.6028642886
 20
555.1260108085
 30
0.0
  0
SPLINE
  5
384
100
AcDbEntity
  8
0
100
AcDbSpline
 62
9
  6
CONTINUOUS
 70
0
 71
3
 72
9
 73
5
 74
0
 42
0.0000001
 43
0.0000001
 44
0.0000000001
 40
0.0
 40
0.0
 40
0.0
 40
0.0
 40
0.2633293188
 40
1.0
 40
1.0
 40
1.0
 40
1.0
 10
214.255243827
 20
555.6929191211
 30
0.0
 10
214.2177125282
 20
555.6723516726
 30
0.0
 10
214.0772557487
 20
555.5905946314
 30
0.0
 10
213.9449956886
 20
555.4942622911
 30
0.0
 10
213.8555345489
 20
555.4146932645
 30
0.0
  0
SPLINE
  5
385
100
AcDbEntity
  8
0
100
AcDbSpline
 62
9
  6
CONTINUOUS
 70
0
 71
3
 72
9
 73
5
 74
0
 42
0.0000001
 43
0.0000001
 44
0.0000000001
 40
0.0
 40
0.0
 40
0.0
 40
0.0
 40
0.2590408351
 40
1.0
 40
1.0
 40
1.0
 40
1.0
 10
214.8740604916
 20
555.931804199
 30
0.0
 10
214.8183360744
 20
555.9181691629
 30
0.0
 10
214.604976105
 20
555.8586361179
 30
0.0
 10
214.3991456474
 20
555.7717847767
 30
0.0
 10
214.255243827
 20
555.6929191211
 30
0.0
  0
SPLINE
  5
386
100
AcDbEntity
  8
0
100
AcDbSpline
 62
9
  6
CONTINUOUS
 70
0
 71
3
 72
9
 73
5
 74
0
 42
0.0000001
 43
0.0000001
 44
0.0000000001
 40
0.0
 40
0.0
 40
0.0
 40
0.0
 40
0.3138798668
 40
1.0
 40
1.0
 40
1.0
 40
1.0
 10
231.1077533919
 20
555.439730774
 30
0.0
 10
231.1558363584
 20
555.4418733657
 30
0.0
 10
231.3089457016
 20
555.446096725
 30
0.0
 10
231.4631664535
 20
555.4515560574
 30
0.0
 10
231.5676454811
 20
555.4391720908
 30
0.0
  0
SPLINE
  5
387
100
AcDbEntity
  8
0
100
AcDbSpline
 62
9
  6
CONTINUOUS
 70
0
 71
3
 72
8
 73
4
 74
0
 42
0.0000001
 43
0.0000001
 44
0.0000000001
 40
0.0
 40
0.0
 40
0.0
 40
0.0
 40
1.0
 40
1.0
 40
1.0
 40
1.0
 10
231.0511076112
 20
555.5461199634
 30
0.0
 10
231.0827359781
 20
555.5213449212
 30
0.0
 10
231.1051354601
 20
555.4798219417
 30
0.0
 10
231.1077533919
 20
555.4397307613
 30
0.0
  0
SPLINE
  5
388
100
AcDbEntity
  8
0
100
AcDbSpline
 62
9
  6
CONTINUOUS
 70
0
 71
3
 72
8
 73
4
 74
0
 42
0.0000001
 43
0.0000001
 44
0.0000000001
 40
0.0
 40
0.0
 40
0.0
 40
0.0
 40
1.0
 40
1.0
 40
1.0
 40
1.0
 10
230.9682644223
 20
555.573614063
 30
0.0
 10
230.997359815
 20
555.5736828441
 30
0.0
 10
231.0277417267
 20
555.5634572656
 30
0.0
 10
231.0511076112
 20
555.5461199634
 30
0.0
  0
SPLINE
  5
389
100
AcDbEntity
  8
0
100
AcDbSpline
 62
9
  6
CONTINUOUS
 70
0
 71
3
 72
9
 73
5
 74
0
 42
0.0000001
 43
0.0000001
 44
0.0000000001
 40
0.0
 40
0.0
 40
0.0
 40
0.0
 40
0.6425612867
 40
1.0
 40
1.0
 40
1.0
 40
1.0
 10
232.3734511089
 20
529.677817253
 30
0.0
 10
232.4779341943
 20
529.6833363142
 30
0.0
 10
232.6405414584
 20
529.689668932
 30
0.0
 10
232.8033721612
 20
529.6983321018
 30
0.0
 10
232.8615509883
 20
529.6966891377
 30
0.0
  0
SPLINE
  5
38A
100
AcDbEntity
  8
0
100
AcDbSpline
 62
9
  6
CONTINUOUS
 70
0
 71
3
 72
9
 73
5
 74
0
 42
0.0000001
 43
0.0000001
 44
0.0000000001
 40
0.0
 40
0.0
 40
0.0
 40
0.0
 40
0.6100402268
 40
1.0
 40
1.0
 40
1.0
 40
1.0
 10
233.4072409799
 20
555.5223588821
 30
0.0
 10
233.0335065626
 20
555.4989062136
 30
0.0
 10
232.4206390125
 20
555.4660715172
 30
0.0
 10
231.8070983382
 20
555.4390716114
 30
0.0
 10
231.5677238903
 20
555.4389544259
 30
0.0
  0
SPLINE
  5
38B
100
AcDbEntity
  8
0
100
AcDbSpline
 62
9
  6
CONTINUOUS
 70
0
 71
3
 72
10
 73
6
 74
0
 42
0.0000001
 43
0.0000001
 44
0.0000000001
 40
0.0
 40
0.0
 40
0.0
 40
0.0
 40
0.124303612
 40
0.3587081732
 40
1.0
 40
1.0
 40
1.0
 40
1.0
 10
232.8614833049
 20
529.6970088283
 30
0.0
 10
232.9422288852
 20
529.6914517342
 30
0.0
 10
233.1761196467
 20
529.6942777045
 30
0.0
 10
233.8267769524
 20
529.708755447
 30
0.0
 10
234.3965594902
 20
529.7359816713
 30
0.0
 10
234.8135480607
 20
529.7577810864
 30
0.0
  0
SPLINE
  5
38C
100
AcDbEntity
  8
0
100
AcDbSpline
 62
9
  6
CONTINUOUS
 70
0
 71
3
 72
9
 73
5
 74
0
 42
0.0000001
 43
0.0000001
 44
0.0000000001
 40
0.0
 40
0.0
 40
0.0
 40
0.0
 40
0.24985415
 40
1.0
 40
1.0
 40
1.0
 40
1.0
 10
231.5675737722
 20
555.4389687108
 30
0.0
 10
231.6712906009
 20
553.2948565434
 30
0.0
 10
232.0869430415
 20
544.7134338663
 30
0.0
 10
232.5152913877
 20
536.1325775288
 30
0.0
 10
232.861445074
 20
529.6970101954
 30
0.0
  0
SPLINE
  5
38D
100
AcDbEntity
  8
0
100
AcDbSpline
 62
9
  6
CONTINUOUS
 70
0
 71
3
 72
9
 73
5
 74
0
 42
0.0000001
 43
0.0000001
 44
0.0000000001
 40
0.0
 40
0.0
 40
0.0
 40
0.0
 40
0.4998790109
 40
1.0
 40
1.0
 40
1.0
 40
1.0
 10
232.8615765016
 20
529.6970117178
 30
0.0
 10
232.9130089631
 20
528.7228364563
 30
0.0
 10
233.808035223
 20
526.7415502131
 30
0.0
 10
235.8349933759
 20
525.9567932006
 30
0.0
 10
236.8109969567
 20
525.9579423525
 30
0.0
  0
SPLINE
  5
38E
100
AcDbEntity
  8
0
100
AcDbSpline
 62
9
  6
CONTINUOUS
 70
0
 71
3
 72
10
 73
6
 74
0
 42
0.0000001
 43
0.0000001
 44
0.0000000001
 40
0.0
 40
0.0
 40
0.0
 40
0.0
 40
0.1236840073
 40
0.3574233474
 40
1.0
 40
1.0
 40
1.0
 40
1.0
 10
276.0233911473
 20
529.6970096557
 30
0.0
 10
275.9430478047
 20
529.691480836
 30
0.0
 10
275.7099952192
 20
529.6942521045
 30
0.0
 10
275.0593339583
 20
529.7087014391
 30
0.0
 10
274.4891466311
 20
529.7359417419
 30
0.0
 10
274.0713215847
 20
529.7577855451
 30
0.0
  0
SPLINE
  5
38F
100
AcDbEntity
  8
0
100
AcDbSpline
 62
9
  6
CONTINUOUS
 70
0
 71
3
 72
9
 73
5
 74
0
 42
0.0000001
 43
0.0000001
 44
0.0000000001
 40
0.0
 40
0.0
 40
0.0
 40
0.0
 40
0.500103899
 40
1.0
 40
1.0
 40
1.0
 40
1.0
 10
272.0738741825
 20
525.9579375795
 30
0.0
 10
273.0498448875
 20
525.9567698775
 30
0.0
 10
275.0768074027
 20
526.7415238936
 30
0.0
 10
275.9718364879
 20
528.7228085946
 30
0.0
 10
276.0232885499
 20
529.6970167179
 30
0.0
  0
SPLINE
  5
390
100
AcDbEntity
  8
0
100
AcDbSpline
 62
9
  6
CONTINUOUS
 70
0
 71
3
 72
9
 73
5
 74
0
 42
0.0000001
 43
0.0000001
 44
0.0000000001
 40
0.0
 40
0.0
 40
0.0
 40
0.0
 40
0.3899632139
 40
1.0
 40
1.0
 40
1.0
 40
1.0
 10
277.3171300753
 20
555.4388724998
 30
0.0
 10
277.077754888
 20
555.4389902048
 30
0.0
 10
276.4642177507
 20
555.46598972
 30
0.0
 10
275.8513537063
 20
555.4988243514
 30
0.0
 10
275.4776235367
 20
555.5222767067
 30
0.0
  0
SPLINE
  5
391
100
AcDbEntity
  8
0
100
AcDbSpline
 62
9
  6
CONTINUOUS
 70
0
 71
3
 72
9
 73
5
 74
0
 42
0.0000001
 43
0.0000001
 44
0.0000000001
 40
0.0
 40
0.0
 40
0.0
 40
0.0
 40
0.2501269427
 40
1.0
 40
1.0
 40
1.0
 40
1.0
 10
276.0233638372
 20
529.6970120152
 30
0.0
 10
276.1387860901
 20
531.8428654204
 30
0.0
 10
276.5892018236
 20
540.4225193444
 30
0.0
 10
277.005933723
 20
549.003890775
 30
0.0
 10
277.3171795377
 20
555.4388716186
 30
0.0
  0
SPLINE
  5
392
100
AcDbEntity
  8
0
100
AcDbSpline
 62
9
  6
CONTINUOUS
 70
0
 71
3
 72
9
 73
5
 74
0
 42
0.0000001
 43
0.0000001
 44
0.0000000001
 40
0.0
 40
0.0
 40
0.0
 40
0.0
 40
0.4997284404
 40
1.0
 40
1.0
 40
1.0
 40
1.0
 10
277.3172001369
 20
555.4388673118
 30
0.0
 10
277.3259848246
 20
555.5863211143
 30
0.0
 10
277.461840396
 20
555.885675589
 30
0.0
 10
277.7689580177
 20
556.0046564273
 30
0.0
 10
277.9168331762
 20
556.0042243994
 30
0.0
  0
SPLINE
  5
393
100
AcDbEntity
  8
0
100
AcDbSpline
 62
9
  6
CONTINUOUS
 70
0
 71
3
 72
9
 73
5
 74
0
 42
0.0000001
 43
0.0000001
 44
0.0000000001
 40
0.0
 40
0.0
 40
0.0
 40
0.0
 40
0.254613438
 40
1.0
 40
1.0
 40
1.0
 40
1.0
 10
293.3894551557
 20
557.3132585555
 30
0.0
 10
293.327480237
 20
557.3515106987
 30
0.0
 10
293.0865304957
 20
557.5056466009
 30
0.0
 10
292.855647408
 20
557.6758824203
 30
0.0
 10
292.6923152851
 20
557.8129260537
 30
0.0
  0
SPLINE
  5
394
100
AcDbEntity
  8
0
100
AcDbSpline
 62
9
  6
CONTINUOUS
 70
0
 71
3
 72
11
 73
7
 74
0
 42
0.0000001
 43
0.0000001
 44
0.0000000001
 40
0.0
 40
0.0
 40
0.0
 40
0.0
 40
0.1679344916
 40
0.398406455
 40
0.6794674671
 40
1.0
 40
1.0
 40
1.0
 40
1.0
 10
293.3541524014
 20
556.006280712
 30
0.0
 10
293.3799571036
 20
556.0758105766
 30
0.0
 10
293.4178180797
 20
556.2485929604
 30
0.0
 10
293.4671652906
 20
556.5442517128
 30
0.0
 10
293.4805834215
 20
556.9142429608
 30
0.0
 10
293.4253679356
 20
557.1763355595
 30
0.0
 10
293.3894551799
 20
557.3132590911
 30
0.0
  0
SPLINE
  5
395
100
AcDbEntity
  8
0
100
AcDbSpline
 62
9
  6
CONTINUOUS
 70
0
 71
3
 72
16
 73
12
 74
0
 42
0.0000001
 43
0.0000001
 44
0.0000000001
 40
0.0
 40
0.0
 40
0.0
 40
0.0
 40
0.0045710035
 40
0.0173976441
 40
0.0392809547
 40
0.0708211774
 40
0.1636384419
 40
0.2927509858
 40
0.4522240116
 40
0.6310172861
 40
1.0
 40
1.0
 40
1.0
 40
1.0
 10
294.4104204338
 20
558.7843487952
 30
0.0
 10
294.4088798497
 20
558.7869341046
 30
0.0
 10
294.3938828344
 20
558.7802078986
 30
0.0
 10
294.3737209378
 20
558.7735545451
 30
0.0
 10
294.3322657429
 20
558.7527054486
 30
0.0
 10
294.2479468371
 20
558.7100078093
 30
0.0
 10
294.1002903879
 20
558.6293322424
 30
0.0
 10
293.8816574326
 20
558.5071366948
 30
0.0
 10
293.6143774169
 20
558.3541582929
 30
0.0
 10
293.2116612123
 20
558.1205787378
 30
0.0
 10
292.9010446413
 20
557.9372212976
 30
0.0
 10
292.6923119827
 20
557.8129288245
 30
0.0
  0
SPLINE
  5
396
100
AcDbEntity
  8
0
100
AcDbSpline
 62
9
  6
CONTINUOUS
 70
0
 71
3
 72
16
 73
12
 74
0
 42
0.0000001
 43
0.0000001
 44
0.0000000001
 40
0.0
 40
0.0
 40
0.0
 40
0.0
 40
0.0046816677
 40
0.017554542
 40
0.039477254
 40
0.0710646837
 40
0.1640174288
 40
0.2932923526
 40
0.4528990051
 40
0.6316993793
 40
1.0
 40
1.0
 40
1.0
 40
1.0
 10
293.737282489
 20
560.3512638395
 30
0.0
 10
293.7364422278
 20
560.3542509122
 30
0.0
 10
293.7201495037
 20
560.3525138139
 30
0.0
 10
293.6984189508
 20
560.3512105037
 30
0.0
 10
293.6526205707
 20
560.3425313932
 30
0.0
 10
293.5591054086
 20
560.323579846
 30
0.0
 10
293.3941133705
 20
560.2846553711
 30
0.0
 10
293.1490996983
 20
560.2237434086
 30
0.0
 10
292.8488968326
 20
560.1455947785
 30
0.0
 10
292.3964669993
 20
560.0246503278
 30
0.0
 10
292.0469211417
 20
559.9279989461
 30
0.0
 10
291.811923097
 20
559.8619286404
 30
0.0
  0
SPLINE
  5
397
100
AcDbEntity
  8
0
100
AcDbSpline
 62
9
  6
CONTINUOUS
 70
0
 71
3
 72
9
 73
5
 74
0
 42
0.0000001
 43
0.0000001
 44
0.0000000001
 40
0.0
 40
0.0
 40
0.0
 40
0.0
 40
0.6046285029
 40
1.0
 40
1.0
 40
1.0
 40
1.0
 10
293.3986281483
 20
555.587112593
 30
0.0
 10
293.3947959978
 20
555.6720483189
 30
0.0
 10
293.3842547474
 20
555.8119816774
 30
0.0
 10
293.3687217478
 20
555.9526001028
 30
0.0
 10
293.354152614
 20
556.0062538945
 30
0.0
  0
SPLINE
  5
398
100
AcDbEntity
  8
0
100
AcDbSpline
 62
9
  6
CONTINUOUS
 70
0
 71
3
 72
8
 73
4
 74
0
 42
0.0000001
 43
0.0000001
 44
0.0000000001
 40
0.0
 40
0.0
 40
0.0
 40
0.0
 40
1.0
 40
1.0
 40
1.0
 40
1.0
 10
277.8079001458
 20
555.5212183544
 30
0.0
 10
277.8339269894
 20
555.5518814138
 30
0.0
 10
277.8763836181
 20
555.5725909371
 30
0.0
 10
277.9165903162
 20
555.5736113411
 30
0.0
  0
SPLINE
  5
399
100
AcDbEntity
  8
0
100
AcDbSpline
 62
9
  6
CONTINUOUS
 70
0
 71
3
 72
9
 73
5
 74
0
 42
0.0000001
 43
0.0000001
 44
0.0000000001
 40
0.0
 40
0.0
 40
0.0
 40
0.0
 40
0.307216035
 40
1.0
 40
1.0
 40
1.0
 40
1.0
 10
277.7771155231
 20
555.4397319393
 30
0.0
 10
277.7300406044
 20
555.4417293982
 30
0.0
 10
277.5768946042
 20
555.4456853282
 30
0.0
 10
277.4226268445
 20
555.4509248615
 30
0.0
 10
277.3171412719
 20
555.4381919706
 30
0.0
  0
SPLINE
  5
39A
100
AcDbEntity
  8
0
100
AcDbSpline
 62
9
  6
CONTINUOUS
 70
0
 71
3
 72
9
 73
5
 74
0
 42
0.0000001
 43
0.0000001
 44
0.0000000001
 40
0.0
 40
0.0
 40
0.0
 40
0.0
 40
0.6431825566
 40
1.0
 40
1.0
 40
1.0
 40
1.0
 10
276.5114184656
 20
529.6778163357
 30
0.0
 10
276.4068534509
 20
529.6834772867
 30
0.0
 10
276.2442732488
 20
529.6900147838
 30
0.0
 10
276.0814715492
 20
529.6988982161
 30
0.0
 10
276.023398568
 20
529.6973234635
 30
0.0
  0
SPLINE
  5
39B
100
AcDbEntity
  8
0
100
AcDbSpline
 62
9
  6
CONTINUOUS
 70
0
 71
3
 72
8
 73
4
 74
0
 42
0.0000001
 43
0.0000001
 44
0.0000000001
 40
0.0
 40
0.0
 40
0.0
 40
0.0
 40
1.0
 40
1.0
 40
1.0
 40
1.0
 10
276.1083013567
 20
528.0557606129
 30
0.0
 10
276.3440266886
 20
528.5605675345
 30
0.0
 10
276.4809730844
 20
529.1215164623
 30
0.0
 10
276.511418465
 20
529.6778163265
 30
0.0
  0
SPLINE
  5
39C
100
AcDbEntity
  8
0
100
AcDbSpline
 62
9
  6
CONTINUOUS
 70
0
 71
3
 72
8
 73
4
 74
0
 42
0.0000001
 43
0.0000001
 44
0.0000000001
 40
0.0
 40
0.0
 40
0.0
 40
0.0
 40
1.0
 40
1.0
 40
1.0
 40
1.0
 10
275.1242820164
 20
526.6856409586
 30
0.0
 10
275.533822051
 20
527.0709279469
 30
0.0
 10
275.8732675603
 20
527.5449492801
 30
0.0
 10
276.1083013567
 20
528.0557606129
 30
0.0
  0
SPLINE
  5
39D
100
AcDbEntity
  8
0
100
AcDbSpline
 62
9
  6
CONTINUOUS
 70
0
 71
3
 72
14
 73
10
 74
0
 42
0.0000001
 43
0.0000001
 44
0.0000000001
 40
0.0
 40
0.0
 40
0.0
 40
0.0
 40
0.403882074
 40
0.5799560387
 40
0.7296910958
 40
0.8473760331
 40
0.9317262685
 40
0.9825849344
 40
1.0
 40
1.0
 40
1.0
 40
1.0
 10
302.2613095295
 20
519.4153691741
 30
0.0
 10
302.4131745774
 20
519.4088198734
 30
0.0
 10
302.631476119
 20
519.3989703364
 30
0.0
 10
302.905139105
 20
519.3844265401
 30
0.0
 10
303.0731232868
 20
519.3756179294
 30
0.0
 10
303.2017084118
 20
519.3650218227
 30
0.0
 10
303.3046204083
 20
519.3618416639
 30
0.0
 10
303.3475827767
 20
519.3482403818
 30
0.0
 10
303.3878762266
 20
519.3521269252
 30
0.0
 10
303.3876501604
 20
519.3455764415
 30
0.0
  0
SPLINE
  5
39E
100
AcDbEntity
  8
0
100
AcDbSpline
 62
9
  6
CONTINUOUS
 70
0
 71
3
 72
13
 73
9
 74
0
 42
0.0000001
 43
0.0000001
 44
0.0000000001
 40
0.0
 40
0.0
 40
0.0
 40
0.0
 40
0.3965058887
 40
0.7194646782
 40
0.8371776768
 40
0.9225735861
 40
0.9759240684
 40
1.0
 40
1.0
 40
1.0
 40
1.0
 10
302.1516753629
 20
517.4877459196
 30
0.0
 10
302.3086357358
 20
517.4875649449
 30
0.0
 10
302.5930633226
 20
517.4907274961
 30
0.0
 10
302.9254831675
 20
517.5045900869
 30
0.0
 10
303.1312816773
 20
517.5235957765
 30
0.0
 10
303.2343991388
 20
517.5404059377
 30
0.0
 10
303.2918673329
 20
517.5539619907
 30
0.0
 10
303.3257177454
 20
517.5720843108
 30
0.0
 10
303.3260510656
 20
517.5816091578
 30
0.0
  0
SPLINE
  5
39F
100
AcDbEntity
  8
0
100
AcDbSpline
 62
9
  6
CONTINUOUS
 70
0
 71
3
 72
9
 73
5
 74
0
 42
0.0000001
 43
0.0000001
 44
0.0000000001
 40
0.0
 40
0.0
 40
0.0
 40
0.0
 40
0.2709018323
 40
1.0
 40
1.0
 40
1.0
 40
1.0
 10
294.4855984537
 20
555.512989518
 30
0.0
 10
294.5297683322
 20
555.5022499799
 30
0.0
 10
294.6918698735
 20
555.4590603035
 30
0.0
 10
294.8506849714
 20
555.4017764284
 30
0.0
 10
294.960931363
 20
555.3487379479
 30
0.0
  0
SPLINE
  5
3A0
100
AcDbEntity
  8
0
100
AcDbSpline
 62
9
  6
CONTINUOUS
 70
0
 71
3
 72
9
 73
5
 74
0
 42
0.0000001
 43
0.0000001
 44
0.0000000001
 40
0.0
 40
0.0
 40
0.0
 40
0.0
 40
0.2223678944
 40
1.0
 40
1.0
 40
1.0
 40
1.0
 10
295.2820037706
 20
555.1260103818
 30
0.0
 10
295.2622416628
 20
555.1473205776
 30
0.0
 10
295.1668084685
 20
555.2370976836
 30
0.0
 10
295.0523384374
 20
555.3043059046
 30
0.0
 10
294.960929653
 20
555.3487374469
 30
0.0
  0
SPLINE
  5
3A1
100
AcDbEntity
  8
0
100
AcDbSpline
 62
9
  6
CONTINUOUS
 70
0
 71
3
 72
9
 73
5
 74
0
 42
0.0000001
 43
0.0000001
 44
0.0000000001
 40
0.0
 40
0.0
 40
0.0
 40
0.0
 40
0.2374150024
 40
1.0
 40
1.0
 40
1.0
 40
1.0
 10
294.4855984716
 20
555.5129900393
 30
0.0
 10
294.4430474427
 20
555.5230967017
 30
0.0
 10
294.2628790231
 20
555.5616292082
 30
0.0
 10
294.079394304
 20
555.5843739198
 30
0.0
 10
293.9392027288
 20
555.5933356909
 30
0.0
  0
SPLINE
  5
3A2
100
AcDbEntity
  8
0
100
AcDbSpline
 62
9
  6
CONTINUOUS
 70
0
 71
3
 72
8
 73
4
 74
0
 42
0.0000001
 43
0.0000001
 44
0.0000000001
 40
0.0
 40
0.0
 40
0.0
 40
0.0
 40
1.0
 40
1.0
 40
1.0
 40
1.0
 10
232.3720104732
 20
529.6760263417
 30
0.0
 10
232.1471090942
 20
533.9660096942
 30
0.0
 10
231.9224889291
 20
538.2560078211
 30
0.0
 10
231.6970448873
 20
542.5459626902
 30
0.0
  0
SPLINE
  5
3A3
100
AcDbEntity
  8
0
100
AcDbSpline
 62
9
  6
CONTINUOUS
 70
0
 71
3
 72
8
 73
4
 74
0
 42
0.0000001
 43
0.0000001
 44
0.0000000001
 40
0.0
 40
0.0
 40
0.0
 40
0.0
 40
1.0
 40
1.0
 40
1.0
 40
1.0
 10
236.8113135187
 20
525.473300166
 30
0.0
 10
236.2542552177
 20
525.4725723068
 30
0.0
 10
235.687234416
 20
525.5811546746
 30
0.0
 10
235.1700659815
 20
525.7881602079
 30
0.0
  0
SPLINE
  5
3A4
100
AcDbEntity
  8
0
100
AcDbSpline
 62
9
  6
CONTINUOUS
 70
0
 71
3
 72
9
 73
5
 74
0
 42
0.0000001
 43
0.0000001
 44
0.0000000001
 40
0.0
 40
0.0
 40
0.0
 40
0.0
 40
0.4999976689
 40
1.0
 40
1.0
 40
1.0
 40
1.0
 10
275.1242820164
 20
526.6856409586
 30
0.0
 10
274.7176630786
 20
526.3048371443
 30
0.0
 10
273.7560255551
 20
525.6841388828
 30
0.0
 10
272.6306460396
 20
525.4753431754
 30
0.0
 10
272.0735538946
 20
525.4731901981
 30
0.0
  0
SPLINE
  5
3A5
100
AcDbEntity
  8
0
100
AcDbSpline
 62
9
  6
CONTINUOUS
 70
0
 71
3
 72
8
 73
4
 74
0
 42
0.0000001
 43
0.0000001
 44
0.0000000001
 40
0.0
 40
0.0
 40
0.0
 40
0.0
 40
1.0
 40
1.0
 40
1.0
 40
1.0
 10
277.1878460477
 20
542.5459731787
 30
0.0
 10
276.9624316633
 20
538.2565843675
 30
0.0
 10
276.7378409227
 20
533.9671523107
 30
0.0
 10
276.5129695008
 20
529.6777350003
 30
0.0
  0
SPLINE
  5
3A6
100
AcDbEntity
  8
0
100
AcDbSpline
 62
9
  6
CONTINUOUS
 70
0
 71
3
 72
8
 73
4
 74
0
 42
0.0000001
 43
0.0000001
 44
0.0000000001
 40
0.0
 40
0.0
 40
0.0
 40
0.0
 40
1.0
 40
1.0
 40
1.0
 40
1.0
 10
277.8079001458
 20
555.5212183544
 30
0.0
 10
277.7897246282
 20
555.4985727721
 30
0.0
 10
277.7783479334
 20
555.4687382534
 30
0.0
 10
277.7771152997
 20
555.4397270064
 30
0.0
  0
SPLINE
  5
3A7
100
AcDbEntity
  8
0
100
AcDbSpline
 62
9
  6
CONTINUOUS
 70
0
 71
3
 72
9
 73
5
 74
0
 42
0.0000001
 43
0.0000001
 44
0.0000000001
 40
0.0
 40
0.0
 40
0.0
 40
0.0
 40
0.2731501269
 40
1.0
 40
1.0
 40
1.0
 40
1.0
 10
213.8447000289
 20
555.3072583741
 30
0.0
 10
213.8206005515
 20
555.293836542
 30
0.0
 10
213.7334885676
 20
555.2431725168
 30
0.0
 10
213.6509490819
 20
555.1814161833
 30
0.0
 10
213.6028579353
 20
555.1259608787
 30
0.0
  0
SPLINE
  5
3A8
100
AcDbEntity
  8
0
100
AcDbSpline
 62
9
  6
CONTINUOUS
 70
0
 71
3
 72
9
 73
5
 74
0
 42
0.0000001
 43
0.0000001
 44
0.0000000001
 40
0.0
 40
0.0
 40
0.0
 40
0.0
 40
0.2658988276
 40
1.0
 40
1.0
 40
1.0
 40
1.0
 10
214.8385265962
 20
555.5848153635
 30
0.0
 10
214.7840508897
 20
555.5794179782
 30
0.0
 10
214.5796522687
 20
555.5550156682
 30
0.0
 10
214.3770724202
 20
555.5123759311
 30
0.0
 10
214.2326289446
 20
555.4679043659
 30
0.0
  0
SPLINE
  5
3A9
100
AcDbEntity
  8
0
100
AcDbSpline
 62
9
  6
CONTINUOUS
 70
0
 71
3
 72
9
 73
5
 74
0
 42
0.0000001
 43
0.0000001
 44
0.0000000001
 40
0.0
 40
0.0
 40
0.0
 40
0.0
 40
0.2568012622
 40
1.0
 40
1.0
 40
1.0
 40
1.0
 10
215.4863169365
 20
555.5871755747
 30
0.0
 10
215.4310284937
 20
555.591947468
 30
0.0
 10
215.2153325728
 20
555.6055120898
 30
0.0
 10
214.9984090196
 20
555.6000892672
 30
0.0
 10
214.8385253597
 20
555.5849053535
 30
0.0
  0
SPLINE
  5
3AA
100
AcDbEntity
  8
0
100
AcDbSpline
 62
9
  6
CONTINUOUS
 70
0
 71
3
 72
10
 73
6
 74
0
 42
0.0000001
 43
0.0000001
 44
0.0000000001
 40
0.0
 40
0.0
 40
0.0
 40
0.0
 40
0.3539981254
 40
0.6449264813
 40
1.0
 40
1.0
 40
1.0
 40
1.0
 10
298.0335296593
 20
555.914401159
 30
0.0
 10
298.1611980219
 20
555.8740083368
 30
0.0
 10
298.292344079
 20
555.6081544346
 30
0.0
 10
298.3276414705
 20
555.2440385053
 30
0.0
 10
298.3219839929
 20
554.9956941931
 30
0.0
 10
298.3101209416
 20
554.8619064265
 30
0.0
  0
SPLINE
  5
3AB
100
AcDbEntity
  8
0
100
AcDbSpline
 62
9
  6
CONTINUOUS
 70
0
 71
3
 72
9
 73
5
 74
0
 42
0.0000001
 43
0.0000001
 44
0.0000000001
 40
0.0
 40
0.0
 40
0.0
 40
0.0
 40
0.4999826479
 40
1.0
 40
1.0
 40
1.0
 40
1.0
 10
232.3735421515
 20
529.6761066528
 30
0.0
 10
232.4056845697
 20
529.1202045101
 30
0.0
 10
232.6754401753
 20
528.0083216094
 30
0.0
 10
233.34683977
 20
527.0821265893
 30
0.0
 10
233.7488345599
 20
526.6967649918
 30
0.0
  0
SPLINE
  5
3AC
100
AcDbEntity
  8
0
100
AcDbSpline
 62
9
  6
CONTINUOUS
 70
0
 71
3
 72
8
 73
4
 74
0
 42
0.0000001
 43
0.0000001
 44
0.0000000001
 40
0.0
 40
0.0
 40
0.0
 40
0.0
 40
1.0
 40
1.0
 40
1.0
 40
1.0
 10
233.7488345599
 20
526.6967649918
 30
0.0
 10
234.1556887694
 20
526.3086515666
 30
0.0
 10
234.6473012027
 20
525.9952335395
 30
0.0
 10
235.1700659815
 20
525.7881602079
 30
0.0
  0
SPLINE
  5
3AD
100
AcDbEntity
  8
0
100
AcDbSpline
 62
9
  6
CONTINUOUS
 70
0
 71
3
 72
8
 73
4
 74
0
 42
0.0000001
 43
0.0000001
 44
0.0000000001
 40
0.0
 40
0.0
 40
0.0
 40
0.0
 40
1.0
 40
1.0
 40
1.0
 40
1.0
 10
212.8528582138
 20
556.0536221545
 30
0.0
 10
212.5379374133
 20
555.6976223043
 30
0.0
 10
212.1936642724
 20
555.3647261376
 30
0.0
 10
211.8219409588
 20
555.0685289363
 30
0.0
  0
SPLINE
  5
3AE
100
AcDbEntity
  8
0
100
AcDbSpline
 62
9
  6
CONTINUOUS
 70
0
 71
3
 72
8
 73
4
 74
0
 42
0.0000001
 43
0.0000001
 44
0.0000000001
 40
0.0
 40
0.0
 40
0.0
 40
0.0
 40
1.0
 40
1.0
 40
1.0
 40
1.0
 10
211.8219409588
 20
555.0685289363
 30
0.0
 10
211.4611170802
 20
554.7810166413
 30
0.0
 10
211.0705492542
 20
554.5259700809
 30
0.0
 10
210.6577030964
 20
554.3200204727
 30
0.0
  0
SPLINE
  5
3AF
100
AcDbEntity
  8
0
100
AcDbSpline
 62
9
  6
CONTINUOUS
 70
0
 71
3
 72
9
 73
5
 74
0
 42
0.0000001
 43
0.0000001
 44
0.0000000001
 40
0.0
 40
0.0
 40
0.0
 40
0.0
 40
0.2371415819
 40
1.0
 40
1.0
 40
1.0
 40
1.0
 10
213.6028560195
 20
555.1260129197
 30
0.0
 10
213.6026507819
 20
555.1622389615
 30
0.0
 10
213.6018800061
 20
555.3149985885
 30
0.0
 10
213.6026437781
 20
555.4677836176
 30
0.0
 10
213.6052835812
 20
555.5842907824
 30
0.0
  0
SPLINE
  5
3B0
100
AcDbEntity
  8
0
100
AcDbSpline
 62
9
  6
CONTINUOUS
 70
0
 71
3
 72
8
 73
4
 74
0
 42
0.0000001
 43
0.0000001
 44
0.0000000001
 40
0.0
 40
0.0
 40
0.0
 40
0.0
 40
1.0
 40
1.0
 40
1.0
 40
1.0
 10
210.5843072242
 20
554.7682286847
 30
0.0
 10
210.6013243332
 20
554.6179853632
 30
0.0
 10
210.6266485283
 20
554.4685516514
 30
0.0
 10
210.658190951
 20
554.3206742926
 30
0.0
  0
SPLINE
  5
3B1
100
AcDbEntity
  8
0
100
AcDbSpline
 62
6
  6
CONTINUOUS
 70
0
 71
3
 72
8
 73
4
 74
0
 42
0.0000001
 43
0.0000001
 44
0.0000000001
 40
0.0
 40
0.0
 40
0.0
 40
0.0
 40
1.0
 40
1.0
 40
1.0
 40
1.0
 10
220.9402507667
 20
522.9662235145
 30
0.0
 10
220.929995507
 20
523.2057901811
 30
0.0
 10
220.8837404385
 20
523.4466709727
 30
0.0
 10
220.8024644346
 20
523.6722625712
 30
0.0
  0
SPLINE
  5
3B2
100
AcDbEntity
  8
0
100
AcDbSpline
 62
9
  6
CONTINUOUS
 70
0
 71
3
 72
8
 73
4
 74
0
 42
0.0000001
 43
0.0000001
 44
0.0000000001
 40
0.0
 40
0.0
 40
0.0
 40
0.0
 40
1.0
 40
1.0
 40
1.0
 40
1.0
 10
210.5617298836
 20
555.1611599764
 30
0.0
 10
210.5610905033
 20
555.0716877967
 30
0.0
 10
210.5649812104
 20
554.9821267791
 30
0.0
 10
210.5721246618
 20
554.8929379298
 30
0.0
  0
SPLINE
  5
3B3
100
AcDbEntity
  8
0
100
AcDbSpline
 62
9
  6
CONTINUOUS
 70
0
 71
3
 72
9
 73
5
 74
0
 42
0.0000001
 43
0.0000001
 44
0.0000000001
 40
0.0
 40
0.0
 40
0.0
 40
0.0
 40
0.2370643002
 40
1.0
 40
1.0
 40
1.0
 40
1.0
 10
210.5761174211
 20
555.4008961682
 30
0.0
 10
210.5738315592
 20
555.3820506244
 30
0.0
 10
210.5655359368
 20
555.3023929694
 30
0.0
 10
210.5621863571
 20
555.2222591954
 30
0.0
 10
210.5617498123
 20
555.1611662811
 30
0.0
  0
SPLINE
  5
3B4
100
AcDbEntity
  8
0
100
AcDbSpline
 62
9
  6
CONTINUOUS
 70
0
 71
3
 72
10
 73
6
 74
0
 42
0.0000001
 43
0.0000001
 44
0.0000000001
 40
0.0
 40
0.0
 40
0.0
 40
0.0
 40
0.180091812
 40
0.5241338604
 40
1.0
 40
1.0
 40
1.0
 40
1.0
 10
210.8513223923
 20
555.9144069236
 30
0.0
 10
210.8165131298
 20
555.9033943931
 30
0.0
 10
210.7237458552
 20
555.8436211733
 30
0.0
 10
210.6218146151
 20
555.6605007513
 30
0.0
 10
210.5876986552
 20
555.4966547539
 30
0.0
 10
210.5760823536
 20
555.4008850745
 30
0.0
  0
SPLINE
  5
3B5
100
AcDbEntity
  8
0
100
AcDbSpline
 62
9
  6
CONTINUOUS
 70
0
 71
3
 72
13
 73
9
 74
0
 42
0.0000001
 43
0.0000001
 44
0.0000000001
 40
0.0
 40
0.0
 40
0.0
 40
0.0
 40
0.3948254123
 40
0.7168054606
 40
0.8347707031
 40
0.9208515228
 40
0.9752270079
 40
1.0
 40
1.0
 40
1.0
 40
1.0
 10
298.2267667021
 20
554.320664155
 30
0.0
 10
298.3774372926
 20
554.3506203679
 30
0.0
 10
298.6512516982
 20
554.401762163
 30
0.0
 10
298.973228122
 20
554.4529243032
 30
0.0
 10
299.1752036129
 20
554.474964599
 30
0.0
 10
299.2783563782
 20
554.4805476488
 30
0.0
 10
299.3375727397
 20
554.4783361773
 30
0.0
 10
299.3743745477
 20
554.470592478
 30
0.0
 10
299.3779121992
 20
554.4616264146
 30
0.0
  0
SPLINE
  5
3B6
100
AcDbEntity
  8
0
100
AcDbSpline
 62
9
  6
CONTINUOUS
 70
0
 71
3
 72
8
 73
4
 74
0
 42
0.0000001
 43
0.0000001
 44
0.0000000001
 40
0.0
 40
0.0
 40
0.0
 40
0.0
 40
1.0
 40
1.0
 40
1.0
 40
1.0
 10
298.2267727527
 20
554.3206432214
 30
0.0
 10
298.2648519755
 20
554.4991746594
 30
0.0
 10
298.2940048899
 20
554.6800703195
 30
0.0
 10
298.3101281302
 20
554.8619041521
 30
0.0
  0
SPLINE
  5
3B7
100
AcDbEntity
  8
0
100
AcDbSpline
 62
9
  6
CONTINUOUS
 70
0
 71
3
 72
13
 73
9
 74
0
 42
0.0000001
 43
0.0000001
 44
0.0000000001
 40
0.0
 40
0.0
 40
0.0
 40
0.0
 40
0.0233122414
 40
0.0763183034
 40
0.1615278445
 40
0.2791564188
 40
0.6023084142
 40
1.0
 40
1.0
 40
1.0
 40
1.0
 10
209.5065729596
 20
554.4603978091
 30
0.0
 10
209.5086284524
 20
554.4692404401
 30
0.0
 10
209.5451408674
 20
554.4787357576
 30
0.0
 10
209.6021147921
 20
554.4802196713
 30
0.0
 10
209.7048789086
 20
554.475577206
 30
0.0
 10
209.9067396332
 20
554.4534828413
 30
0.0
 10
210.2306762355
 20
554.4023894965
 30
0.0
 10
210.5062062231
 20
554.3508659852
 30
0.0
 10
210.6581045016
 20
554.3206655841
 30
0.0
  0
SPLINE
  5
3B8
100
AcDbEntity
  8
0
100
AcDbSpline
 62
9
  6
CONTINUOUS
 70
0
 71
3
 72
9
 73
5
 74
0
 42
0.0000001
 43
0.0000001
 44
0.0000000001
 40
0.0
 40
0.0
 40
0.0
 40
0.0
 40
0.7590407692
 40
1.0
 40
1.0
 40
1.0
 40
1.0
 10
293.3894546515
 20
557.3132625217
 30
0.0
 10
293.6400656535
 20
557.3484813517
 30
0.0
 10
293.973150165
 20
557.3781251352
 30
0.0
 10
294.3066519118
 20
557.3799760395
 30
0.0
 10
294.3869707907
 20
557.3781875119
 30
0.0
  0
SPLINE
  5
3B9
100
AcDbEntity
  8
0
100
AcDbSpline
 62
9
  6
CONTINUOUS
 70
0
 71
3
 72
9
 73
5
 74
0
 42
0.0000001
 43
0.0000001
 44
0.0000000001
 40
0.0
 40
0.0
 40
0.0
 40
0.0
 40
0.2325608588
 40
1.0
 40
1.0
 40
1.0
 40
1.0
 10
294.2688452601
 20
557.8777270577
 30
0.0
 10
294.1967394914
 20
557.8406937588
 30
0.0
 10
293.8922396185
 20
557.6707368787
 30
0.0
 10
293.6036038416
 20
557.4735449524
 30
0.0
 10
293.3894401868
 20
557.3132740912
 30
0.0
  0
SPLINE
  5
3BA
100
AcDbEntity
  8
0
100
AcDbSpline
 62
9
  6
CONTINUOUS
 70
0
 71
3
 72
10
 73
6
 74
0
 42
0.0000001
 43
0.0000001
 44
0.0000000001
 40
0.0
 40
0.0
 40
0.0
 40
0.0
 40
0.3183624415
 40
0.6149724553
 40
1.0
 40
1.0
 40
1.0
 40
1.0
 10
294.943544353
 20
558.0201416758
 30
0.0
 10
294.89602884
 20
558.078793484
 30
0.0
 10
294.7113371489
 20
558.0617880658
 30
0.0
 10
294.5007347462
 20
557.9886092521
 30
0.0
 10
294.3500741318
 20
557.9194052359
 30
0.0
 10
294.2688684958
 20
557.8776983749
 30
0.0
  0
SPLINE
  5
3BB
100
AcDbEntity
  8
0
100
AcDbSpline
 62
9
  6
CONTINUOUS
 70
0
 71
3
 72
8
 73
4
 74
0
 42
0.0000001
 43
0.0000001
 44
0.0000000001
 40
0.0
 40
0.0
 40
0.0
 40
0.0
 40
1.0
 40
1.0
 40
1.0
 40
1.0
 10
295.1041670419
 20
557.6772651675
 30
0.0
 10
295.0776563199
 20
557.8006537965
 30
0.0
 10
295.0229783755
 20
557.9220492501
 30
0.0
 10
294.9435413123
 20
558.020117212
 30
0.0
  0
SPLINE
  5
3BC
100
AcDbEntity
  8
0
100
AcDbSpline
 62
9
  6
CONTINUOUS
 70
0
 71
3
 72
8
 73
4
 74
0
 42
0.0000001
 43
0.0000001
 44
0.0000000001
 40
0.0
 40
0.0
 40
0.0
 40
0.0
 40
1.0
 40
1.0
 40
1.0
 40
1.0
 10
295.112543279
 20
557.2748308293
 30
0.0
 10
295.1258481214
 20
557.3655148386
 30
0.0
 10
295.1302153506
 20
557.4582480516
 30
0.0
 10
295.1228130127
 20
557.5496034772
 30
0.0
  0
SPLINE
  5
3BD
100
AcDbEntity
  8
0
100
AcDbSpline
 62
9
  6
CONTINUOUS
 70
0
 71
3
 72
8
 73
4
 74
0
 42
0.0000001
 43
0.0000001
 44
0.0000000001
 40
0.0
 40
0.0
 40
0.0
 40
0.0
 40
1.0
 40
1.0
 40
1.0
 40
1.0
 10
295.1228130127
 20
557.5496034772
 30
0.0
 10
295.1193420002
 20
557.5924407297
 30
0.0
 10
295.1132559541
 20
557.6351711848
 30
0.0
 10
295.1042279942
 20
557.6771899196
 30
0.0
  0
SPLINE
  5
3BE
100
AcDbEntity
  8
0
100
AcDbSpline
 62
9
  6
CONTINUOUS
 70
0
 71
3
 72
9
 73
5
 74
0
 42
0.0000001
 43
0.0000001
 44
0.0000000001
 40
0.0
 40
0.0
 40
0.0
 40
0.0
 40
0.2099420067
 40
1.0
 40
1.0
 40
1.0
 40
1.0
 10
295.1125014375
 20
557.2748955647
 30
0.0
 10
295.0827765808
 20
557.2853964398
 30
0.0
 10
294.9386971055
 20
557.3283110869
 30
0.0
 10
294.78915184
 20
557.3500667266
 30
0.0
 10
294.6710817259
 20
557.3616414139
 30
0.0
  0
SPLINE
  5
3BF
100
AcDbEntity
  8
0
100
AcDbSpline
 62
9
  6
CONTINUOUS
 70
0
 71
3
 72
9
 73
5
 74
0
 42
0.0000001
 43
0.0000001
 44
0.0000000001
 40
0.0
 40
0.0
 40
0.0
 40
0.0
 40
0.2381125233
 40
1.0
 40
1.0
 40
1.0
 40
1.0
 10
294.6710817259
 20
557.3616414139
 30
0.0
 10
294.6485981039
 20
557.3638455355
 30
0.0
 10
294.5540774136
 20
557.3721080994
 30
0.0
 10
294.4592382047
 20
557.376580079
 30
0.0
 10
294.3869705222
 20
557.3781892738
 30
0.0
  0
SPLINE
  5
3C0
100
AcDbEntity
  8
0
100
AcDbSpline
 62
9
  6
CONTINUOUS
 70
0
 71
3
 72
9
 73
5
 74
0
 42
0.0000001
 43
0.0000001
 44
0.0000000001
 40
0.0
 40
0.0
 40
0.0
 40
0.0
 40
0.268727353
 40
1.0
 40
1.0
 40
1.0
 40
1.0
 10
294.9471114183
 20
555.484011565
 30
0.0
 10
294.9816576681
 20
555.45673074
 30
0.0
 10
295.1063755036
 20
555.3506575613
 30
0.0
 10
295.2172503821
 20
555.2267616791
 30
0.0
 10
295.2820701213
 20
555.1260278845
 30
0.0
  0
SPLINE
  5
3C1
100
AcDbEntity
  8
0
100
AcDbSpline
 62
9
  6
CONTINUOUS
 70
0
 71
3
 72
9
 73
5
 74
0
 42
0.0000001
 43
0.0000001
 44
0.0000000001
 40
0.0
 40
0.0
 40
0.0
 40
0.0
 40
0.2631447413
 40
1.0
 40
1.0
 40
1.0
 40
1.0
 10
294.4589627255
 20
555.777576329
 30
0.0
 10
294.5045851492
 20
555.7570334882
 30
0.0
 10
294.6755568486
 20
555.673818362
 30
0.0
 10
294.8372648028
 20
555.5709779296
 30
0.0
 10
294.9471114183
 20
555.484011565
 30
0.0
  0
SPLINE
  5
3C2
100
AcDbEntity
  8
0
100
AcDbSpline
 62
9
  6
CONTINUOUS
 70
0
 71
3
 72
8
 73
4
 74
0
 42
0.0000001
 43
0.0000001
 44
0.0000000001
 40
0.0
 40
0.0
 40
0.0
 40
0.0
 40
1.0
 40
1.0
 40
1.0
 40
1.0
 10
298.226391363
 20
554.3208519619
 30
0.0
 10
297.8222001021
 20
554.5225755632
 30
0.0
 10
297.43934625
 20
554.7712585977
 30
0.0
 10
297.0849229347
 20
555.0513426928
 30
0.0
  0
SPLINE
  5
3C3
100
AcDbEntity
  8
0
100
AcDbSpline
 62
9
  6
CONTINUOUS
 70
0
 71
3
 72
9
 73
5
 74
0
 42
0.0000001
 43
0.0000001
 44
0.0000000001
 40
0.0
 40
0.0
 40
0.0
 40
0.0
 40
0.2534716034
 40
1.0
 40
1.0
 40
1.0
 40
1.0
 10
297.0849229347
 20
555.0513426928
 30
0.0
 10
296.9062659009
 20
555.1925269532
 30
0.0
 10
296.2273070032
 20
555.7822181081
 30
0.0
 10
295.6485270668
 20
556.4818745445
 30
0.0
 10
295.2708133682
 20
557.0360459538
 30
0.0
  0
SPLINE
  5
3C4
100
AcDbEntity
  8
0
100
AcDbSpline
 62
9
  6
CONTINUOUS
 70
0
 71
3
 72
14
 73
10
 74
0
 42
0.0000001
 43
0.0000001
 44
0.0000000001
 40
0.0
 40
0.0
 40
0.0
 40
0.0
 40
0.0154371296
 40
0.0618457737
 40
0.1393295176
 40
0.2480216561
 40
0.3881202908
 40
0.559867497
 40
1.0
 40
1.0
 40
1.0
 40
1.0
 10
233.3535734029
 20
498.914399099
 30
0.0
 10
233.3583945069
 20
498.9138744139
 30
0.0
 10
233.3426679339
 20
498.9461534304
 30
0.0
 10
233.3490786556
 20
498.9768649012
 30
0.0
 10
233.3303945651
 20
499.0562381826
 30
0.0
 10
233.316297097
 20
499.1540739959
 30
0.0
 10
233.2905889624
 20
499.2851530868
 30
0.0
 10
233.2436336013
 20
499.5159450112
 30
0.0
 10
233.1982227313
 20
499.703183013
 30
0.0
 10
233.1624037226
 20
499.8367304154
 30
0.0
  0
SPLINE
  5
3C5
100
AcDbEntity
  8
0
100
AcDbSpline
 62
9
  6
CONTINUOUS
 70
0
 71
3
 72
9
 73
5
 74
0
 42
0.0000001
 43
0.0000001
 44
0.0000000001
 40
0.0
 40
0.0
 40
0.0
 40
0.0
 40
0.2563194639
 40
1.0
 40
1.0
 40
1.0
 40
1.0
 10
230.6125369872
 20
502.7701555981
 30
0.0
 10
230.6567111315
 20
502.6951772816
 30
0.0
 10
230.8501086052
 20
502.4155198001
 30
0.0
 10
231.1183155242
 20
502.1881353952
 30
0.0
 10
231.3397914834
 20
502.066896423
 30
0.0
  0
SPLINE
  5
3C6
100
AcDbEntity
  8
0
100
AcDbSpline
 62
9
  6
CONTINUOUS
 70
0
 71
3
 72
14
 73
10
 74
0
 42
0.0000001
 43
0.0000001
 44
0.0000000001
 40
0.0
 40
0.0
 40
0.0
 40
0.0
 40
0.416350914
 40
0.5941868309
 40
0.7428858422
 40
0.8571286635
 40
0.9370223877
 40
0.9840566427
 40
1.0
 40
1.0
 40
1.0
 40
1.0
 10
231.663899016
 20
503.3458428268
 30
0.0
 10
231.5196842267
 20
503.2626437555
 30
0.0
 10
231.313298101
 20
503.1443536448
 30
0.0
 10
231.0547517835
 20
502.9993196647
 30
0.0
 10
230.8997254686
 20
502.9126339478
 30
0.0
 10
230.7812273815
 20
502.850751066
 30
0.0
 10
230.6909289098
 20
502.7991030073
 30
0.0
 10
230.6474854763
 20
502.7867822098
 30
0.0
 10
230.6156442062
 20
502.7646895379
 30
0.0
 10
230.6123954655
 20
502.7701752613
 30
0.0
  0
SPLINE
  5
3C7
100
AcDbEntity
  8
0
100
AcDbSpline
 62
9
  6
CONTINUOUS
 70
0
 71
3
 72
11
 73
7
 74
0
 42
0.0000001
 43
0.0000001
 44
0.0000000001
 40
0.0
 40
0.0
 40
0.0
 40
0.0
 40
0.352147659
 40
0.6545706546
 40
0.8724761523
 40
1.0
 40
1.0
 40
1.0
 40
1.0
 10
231.6638501394
 20
503.3459068394
 30
0.0
 10
231.5990860423
 20
503.2025919668
 30
0.0
 10
231.4871442778
 20
502.9330864137
 30
0.0
 10
231.3624651783
 20
502.5606183069
 30
0.0
 10
231.3082541618
 20
502.2810538493
 30
0.0
 10
231.3108911319
 20
502.1159681016
 30
0.0
 10
231.3397927392
 20
502.0668942907
 30
0.0
  0
SPLINE
  5
3C8
100
AcDbEntity
  8
0
100
AcDbSpline
 62
9
  6
CONTINUOUS
 70
0
 71
3
 72
9
 73
5
 74
0
 42
0.0000001
 43
0.0000001
 44
0.0000000001
 40
0.0
 40
0.0
 40
0.0
 40
0.0
 40
0.3349515908
 40
1.0
 40
1.0
 40
1.0
 40
1.0
 10
232.3277230755
 20
503.7329688038
 30
0.0
 10
232.3279236825
 20
503.5201577931
 30
0.0
 10
232.3300068534
 20
502.8848275889
 30
0.0
 10
232.3271669129
 20
502.249392863
 30
0.0
 10
232.3357538131
 20
501.8269423879
 30
0.0
  0
SPLINE
  5
3C9
100
AcDbEntity
  8
0
100
AcDbSpline
 62
9
  6
CONTINUOUS
 70
0
 71
3
 72
8
 73
4
 74
0
 42
0.0000001
 43
0.0000001
 44
0.0000000001
 40
0.0
 40
0.0
 40
0.0
 40
0.0
 40
1.0
 40
1.0
 40
1.0
 40
1.0
 10
231.3397834971
 20
502.0668780608
 30
0.0
 10
231.6393284545
 20
501.9028938082
 30
0.0
 10
231.9943712219
 20
501.8186364534
 30
0.0
 10
232.3357647279
 20
501.8269123607
 30
0.0
  0
SPLINE
  5
3CA
100
AcDbEntity
  8
0
100
AcDbSpline
 62
9
  6
CONTINUOUS
 70
0
 71
3
 72
9
 73
5
 74
0
 42
0.0000001
 43
0.0000001
 44
0.0000000001
 40
0.0
 40
0.0
 40
0.0
 40
0.0
 40
0.2383474506
 40
1.0
 40
1.0
 40
1.0
 40
1.0
 10
237.4360075725
 20
502.9074637064
 30
0.0
 10
237.4014685042
 20
502.9325644684
 30
0.0
 10
237.2571860698
 20
503.038739732
 30
0.0
 10
237.1150538348
 20
503.1478201401
 30
0.0
 10
237.007748222
 20
503.2320885363
 30
0.0
  0
SPLINE
  5
3CB
100
AcDbEntity
  8
0
100
AcDbSpline
 62
9
  6
CONTINUOUS
 70
0
 71
3
 72
10
 73
6
 74
0
 42
0.0000001
 43
0.0000001
 44
0.0000000001
 40
0.0
 40
0.0
 40
0.0
 40
0.0
 40
0.0880797942
 40
0.2721159253
 40
1.0
 40
1.0
 40
1.0
 40
1.0
 10
238.1452601983
 20
502.5075749087
 30
0.0
 10
238.1377998965
 20
502.4986926206
 30
0.0
 10
238.0948201054
 20
502.4996783713
 30
0.0
 10
237.9786853996
 20
502.5477117398
 30
0.0
 10
237.8718362712
 20
502.611590975
 30
0.0
 10
237.7910394597
 20
502.6631728017
 30
0.0
  0
SPLINE
  5
3CC
100
AcDbEntity
  8
0
100
AcDbSpline
 62
9
  6
CONTINUOUS
 70
0
 71
3
 72
9
 73
5
 74
0
 42
0.0000001
 43
0.0000001
 44
0.0000000001
 40
0.0
 40
0.0
 40
0.0
 40
0.0
 40
0.2205642608
 40
1.0
 40
1.0
 40
1.0
 40
1.0
 10
237.7910394597
 20
502.6631728017
 30
0.0
 10
237.764330263
 20
502.6802243305
 30
0.0
 10
237.6440653178
 20
502.7588319266
 30
0.0
 10
237.5265471886
 20
502.8415806695
 30
0.0
 10
237.4359571472
 20
502.9074063415
 30
0.0
  0
SPLINE
  5
3CD
100
AcDbEntity
  8
0
100
AcDbSpline
 62
9
  6
CONTINUOUS
 70
0
 71
3
 72
9
 73
5
 74
0
 42
0.0000001
 43
0.0000001
 44
0.0000000001
 40
0.0
 40
0.0
 40
0.0
 40
0.0
 40
0.6438267185
 40
1.0
 40
1.0
 40
1.0
 40
1.0
 10
236.5864273891
 20
503.5724644263
 30
0.0
 10
236.5881053329
 20
503.1996608734
 30
0.0
 10
236.596992761
 20
502.6209230166
 30
0.0
 10
236.5992354659
 20
502.0413248967
 30
0.0
 10
236.6138168158
 20
501.8355991509
 30
0.0
  0
SPLINE
  5
3CE
100
AcDbEntity
  8
0
100
AcDbSpline
 62
6
  6
CONTINUOUS
 70
0
 71
3
 72
8
 73
4
 74
0
 42
0.0000001
 43
0.0000001
 44
0.0000000001
 40
0.0
 40
0.0
 40
0.0
 40
0.0
 40
1.0
 40
1.0
 40
1.0
 40
1.0
 10
288.0838772167
 20
523.6763250656
 30
0.0
 10
288.0017460905
 20
523.4497073756
 30
0.0
 10
287.9550020568
 20
523.2075503654
 30
0.0
 10
287.9446406461
 20
522.9667314698
 30
0.0
  0
SPLINE
  5
3CF
100
AcDbEntity
  8
0
100
AcDbSpline
 62
9
  6
CONTINUOUS
 70
0
 71
3
 72
9
 73
5
 74
0
 42
0.0000001
 43
0.0000001
 44
0.0000000001
 40
0.0
 40
0.0
 40
0.0
 40
0.0
 40
0.2700652215
 40
1.0
 40
1.0
 40
1.0
 40
1.0
 10
295.2552334272
 20
556.1231496349
 30
0.0
 10
295.2616510512
 20
556.0335675572
 30
0.0
 10
295.2803960685
 20
555.7014932215
 30
0.0
 10
295.2835566464
 20
555.3687517913
 30
0.0
 10
295.2820133229
 20
555.1260129082
 30
0.0
  0
SPLINE
  5
3D0
100
AcDbEntity
  8
0
100
AcDbSpline
 62
9
  6
CONTINUOUS
 70
0
 71
3
 72
9
 73
5
 74
0
 42
0.0000001
 43
0.0000001
 44
0.0000000001
 40
0.0
 40
0.0
 40
0.0
 40
0.0
 40
0.2551166329
 40
1.0
 40
1.0
 40
1.0
 40
1.0
 10
295.2007416011
 20
556.6996825716
 30
0.0
 10
295.2067528695
 20
556.6508010272
 30
0.0
 10
295.228842021
 20
556.4590157251
 30
0.0
 10
295.2454058345
 20
556.2666117309
 30
0.0
 10
295.2552334272
 20
556.1231496349
 30
0.0
  0
ENDSEC
  0
SECTION
  2
OBJECTS
  0
DICTIONARY
  5
C
100
AcDbDictionary
280
0
281
1
  3
ACAD_GROUP
350
D
  3
ACAD_MLINESTYLE
350
17
  3
ACAD_LAYOUT
350
1A
  3
ACAD_PLOTSETTINGS
350
19
  3
ACAD_PLOTSTYLENAME
350
E
  0
DICTIONARY
  5
D
102
{ACAD_REACTORS
330
C
102
}
100
AcDbDictionary
280
0
281
1
  0
ACDBDICTIONARYWDFLT
  5
E
102
{ACAD_REACTORS
330
C
102
}
100
AcDbDictionary
281
1
  3
Normal
350
F
100
AcDbDictionaryWithDefault
340
F
  0
DICTIONARY
  5
17
102
{ACAD_REACTORS
330
C
102
}
100
AcDbDictionary
280
0
281
1
  3
Standard
350
18
  0
DICTIONARY
  5
19
102
{ACAD_REACTORS
330
C
102
}
100
AcDbDictionary
281
1
  0
DICTIONARY
  5
1A
102
{ACAD_REACTORS
330
C
102
}
100
AcDbDictionary
281
1
  3
Model
350
3D1
  3
Layout1
350
3D2
  0
ACDBPLACEHOLDER
  5
F
102
{ACAD_REACTORS
330
E
102
}
  0
MLINESTYLE
  5
18
102
{ACAD_REACTORS
330
17
102
}
100
AcDbMlineStyle
  2
STANDARD
 70
0
  3

 62
256
 51
90.0
 52
90.0
 71
2
 49
0.5
 62
256
  6
BYLAYER
 49
-0.5
 62
256
  6
BYLAYER
  0
LAYOUT
  5
3D1
102
{ACAD_REACTORS
330
1A
102
}
100
AcDbPlotSettings
  1

  2
none_device
  4
ANSI_C_(22.00_x_17.00_Inches)
  6

 40
0.0
 41
0.0
 42
0.0
 43
0.0
 44
558.8
 45
431.8
 46
0.0
 47
0.0
 48
0.0
 49
0.0
140
0.0
141
0.0
142
1.0
143
1.0
 70
1024
 72
1
 73
0
 74
0
  7

 75
0
147
1.0
148
0.0
149
0.0
100
AcDbLayout
  1
Model
 70
0
 71
0
 10
0.0
 20
0.0
 11
558.8
 21
431.8
 12
0.0
 22
0.0
 32
0.0
 14
0.0
 24
0.0
 34
0.0
 15
0.0
 25
0.0
 35
0.0
146
0.0
 13
0.0
 23
0.0
 33
0.0
 16
1.0
 26
0.0
 36
0.0
 17
0.0
 27
1.0
 37
0.0
 76
0
330
218
345
0
346
0
  0
LAYOUT
  5
3D2
102
{ACAD_REACTORS
330
1A
102
}
100
AcDbPlotSettings
  1

  2
none_device
  4
ANSI_C_(22.00_x_17.00_Inches)
  6

 40
0.0
 41
0.0
 42
0.0
 43
0.0
 44
558.8
 45
431.8
 46
0.0
 47
0.0
 48
0.0
 49
0.0
140
0.0
141
0.0
142
1.0
143
1.0
 70
0
 72
1
 73
0
 74
0
  7

 75
0
147
1.0
148
0.0
149
0.0
100
AcDbLayout
  1
Layout1
 70
0
 71
1
 10
0.0
 20
0.0
 11
558.8
 21
431.8
 12
0.0
 22
0.0
 32
0.0
 14
0.0
 24
0.0
 34
0.0
 15
0.0
 25
0.0
 35
0.0
146
0.0
 13
0.0
 23
0.0
 33
0.0
 16
1.0
 26
0.0
 36
0.0
 17
0.0
 27
1.0
 37
0.0
 76
0
330
219
345
0
346
0
  0
ENDSEC
  0
EOF
