999
DXF file: Y:\001_SCHNEIDER_PARIS\maxime fuentes - génération CAD 2D\TRAVAIL\XACB06_2D-Views\xacb06_2d-views_5.dxf
999
Pro/ENGINEER 2018260 by Parametric Technology Corporation
  0
SECTION
  2
HEADER
  9
$ACADVER
  1
AC1027
  9
$DWGCODEPAGE
  3
ANSI_1252
  9
$EXTMAX
 10
558.8
 20
431.8
 30
0.0
  9
$EXTMIN
 10
0.0
 20
0.0
 30
0.0
  9
$LIMMIN
 10
0.0
 20
0.0
  9
$LIMMAX
 10
558.8
 20
431.8
  9
$VIEWCTR
 10
279.4
 20
215.9
  9
$VIEWSIZE
 40
431.8
  9
$CLAYER
  8
0
  9
$LTSCALE
 40
30.734
  9
$CELTYPE
  6
BYLAYER
  9
$DIMSCALE
 40
1.0
  9
$DIMASZ
 40
3.5
  9
$DIMEXO
 40
1.0
  9
$DIMDLI
 40
21.2344
  9
$DIMEXE
 40
3.0
  9
$DIMCEN
 40
5.0292
  9
$DIMLFAC
 40
1.0
  9
$DIMBLK
  1
_FILLED
  9
$DIMALT
 70
0
  9
$DIMALTF
 40
0.0393700787
  9
$DIMTXT
 40
4.0
  9
$DIMTOL
 70
1
  9
$DIMLIM
 70
0
  9
$DIMTFAC
 40
1.0
  9
$DIMTP
 40
0.0001
  9
$DIMTM
 40
0.0001
  9
$DIMGAP
 40
0.625
  9
$DIMDSEP
 70
46
  9
$AUNITS
 70
0
  9
$PDMODE
 70
0
  9
$PDSIZE
 40
0.01
  9
$HANDSEED
  5
41C
  9
$TILEMODE
 70
1
  9
$MEASUREMENT
 70
1
  9
$INSUNITS
 70
4
  0
ENDSEC
  0
SECTION
  2
CLASSES
  0
CLASS
  1
ACDBDICTIONARYWDFLT
  2
AcDbDictionaryWithDefault
  3
AutoCAD 2000
 90
0
 91
1
280
0
281
0
  0
CLASS
  1
ACDBPLACEHOLDER
  2
AcDbPlaceHolder
  3
AutoCAD 2000
 90
0
 91
1
280
0
281
0
  0
CLASS
  1
LAYOUT
  2
AcDbLayout
  3
AutoCAD 2000
 90
0
 91
0
280
0
281
0
  0
ENDSEC
  0
SECTION
  2
TABLES
  0
TABLE
  2
VPORT
  5
8
100
AcDbSymbolTable
 70
2
  0
VPORT
  5
1F4
100
AcDbSymbolTableRecord
100
AcDbViewportTableRecord
  2
*ACTIVE
 70
0
 10
0.0
 20
0.0
 11
1.0
 21
1.0
 12
279.4
 22
215.9
 13
0.0
 23
0.0
 14
1.0
 24
1.0
 15
0.0
 25
0.0
 16
0.0
 26
0.0
 36
1.0
 17
0.0
 27
0.0
 37
0.0
 40
431.8
 41
1.2941176471
 42
50.0
 43
0.0
 44
0.0
 50
0.0
 51
0.0
 71
0
 72
100
 73
1
 74
1
 75
0
 76
0
 77
0
 78
0
  0
ENDTAB
  0
TABLE
  2
LTYPE
  5
5
100
AcDbSymbolTable
 70
6
  0
LTYPE
  5
14
100
AcDbSymbolTableRecord
100
AcDbLinetypeTableRecord
  2
BYBLOCK
 70
0
  3

 72
65
 73
0
 40
0.0
  0
LTYPE
  5
15
100
AcDbSymbolTableRecord
100
AcDbLinetypeTableRecord
  2
BYLAYER
 70
0
  3

 72
65
 73
0
 40
0.0
  0
LTYPE
  5
16
100
AcDbSymbolTableRecord
100
AcDbLinetypeTableRecord
  2
CONTINUOUS
 70
64
  3
Solid line
 72
65
 73
0
 40
0.0
  0
LTYPE
  5
1F5
100
AcDbSymbolTableRecord
100
AcDbLinetypeTableRecord
  2
CENTER
 70
64
  3
____ _ ____ _ ____ _ ____ _ ____ _ ____ _ ____
 72
65
 73
4
 40
0.6
 49
0.375
 74
0
 49
-0.075
 74
0
 49
0.075
 74
0
 49
-0.075
 74
0
  0
LTYPE
  5
1F6
100
AcDbSymbolTableRecord
100
AcDbLinetypeTableRecord
  2
HIDDEN
 70
64
  3
- - - - - - - - - - - - - - - - - - - -
 72
65
 73
2
 40
0.2
 49
0.1
 74
0
 49
-0.1
 74
0
  0
LTYPE
  5
1F7
100
AcDbSymbolTableRecord
100
AcDbLinetypeTableRecord
  2
PHANTOM
 70
64
  3
_____ _ _ _____ _ _ _____ _ _ _____
 72
65
 73
6
 40
0.8
 49
0.45
 74
0
 49
-0.05
 74
0
 49
0.1
 74
0
 49
-0.05
 74
0
 49
0.1
 74
0
 49
-0.05
 74
0
  0
LTYPE
  5
1F8
100
AcDbSymbolTableRecord
100
AcDbLinetypeTableRecord
  2
DOT
 70
64
  3
. . . . . . . . . . . . . . . . . . . .
 72
65
 73
2
 40
0.2
 49
0.1
 74
0
 49
-0.1
 74
0
  0
LTYPE
  5
1F9
100
AcDbSymbolTableRecord
100
AcDbLinetypeTableRecord
  2
DASHED
 70
64
  3
- - - - - - - - - - - - - - - - - - - -
 72
65
 73
2
 40
0.2
 49
0.1
 74
0
 49
-0.1
 74
0
  0
ENDTAB
  0
TABLE
  2
LAYER
  5
2
100
AcDbSymbolTable
 70
36
  0
LAYER
  5
10
100
AcDbSymbolTableRecord
100
AcDbLayerTableRecord
  2
0
 70
0
 62
7
  6
CONTINUOUS
370
-3
390
F
  0
LAYER
  5
1FA
100
AcDbSymbolTableRecord
100
AcDbLayerTableRecord
  2
DEFAULT_1
 70
0
 62
7
  6
CENTER
370
-3
390
F
  0
LAYER
  5
1FB
100
AcDbSymbolTableRecord
100
AcDbLayerTableRecord
  2
DEFAULT_2
 70
0
 62
8
  6
HIDDEN
370
-3
390
F
  0
LAYER
  5
1FC
100
AcDbSymbolTableRecord
100
AcDbLayerTableRecord
  2
DEFAULT_3
 70
0
 62
7
  6
PHANTOM
370
-3
390
F
  0
LAYER
  5
1FD
100
AcDbSymbolTableRecord
100
AcDbLayerTableRecord
  2
01_ALL_DTM_PLN
 70
0
 62
7
  6
CONTINUOUS
370
-3
390
F
  0
LAYER
  5
1FE
100
AcDbSymbolTableRecord
100
AcDbLayerTableRecord
  2
01__ASM_ALL_DTM_PLN
 70
0
 62
7
  6
CONTINUOUS
370
-3
390
F
  0
LAYER
  5
1FF
100
AcDbSymbolTableRecord
100
AcDbLayerTableRecord
  2
01__ASM_DEF_DTM_PLN
 70
0
 62
7
  6
CONTINUOUS
370
-3
390
F
  0
LAYER
  5
200
100
AcDbSymbolTableRecord
100
AcDbLayerTableRecord
  2
01___PRT_ALL_DTM_PLN
 70
0
 62
7
  6
CONTINUOUS
370
-3
390
F
  0
LAYER
  5
201
100
AcDbSymbolTableRecord
100
AcDbLayerTableRecord
  2
01___PRT_DEF_DTM_PLN
 70
0
 62
7
  6
CONTINUOUS
370
-3
390
F
  0
LAYER
  5
202
100
AcDbSymbolTableRecord
100
AcDbLayerTableRecord
  2
02_ALL_AXES
 70
0
 62
7
  6
CONTINUOUS
370
-3
390
F
  0
LAYER
  5
203
100
AcDbSymbolTableRecord
100
AcDbLayerTableRecord
  2
02__ASM_ALL_AXES
 70
0
 62
7
  6
CONTINUOUS
370
-3
390
F
  0
LAYER
  5
204
100
AcDbSymbolTableRecord
100
AcDbLayerTableRecord
  2
02___PRT_ALL_AXES
 70
0
 62
7
  6
CONTINUOUS
370
-3
390
F
  0
LAYER
  5
205
100
AcDbSymbolTableRecord
100
AcDbLayerTableRecord
  2
03_ALL_CURVES
 70
0
 62
7
  6
CONTINUOUS
370
-3
390
F
  0
LAYER
  5
206
100
AcDbSymbolTableRecord
100
AcDbLayerTableRecord
  2
03__ASM_ALL_CURVES
 70
0
 62
7
  6
CONTINUOUS
370
-3
390
F
  0
LAYER
  5
207
100
AcDbSymbolTableRecord
100
AcDbLayerTableRecord
  2
03___PRT_ALL_CURVES
 70
0
 62
7
  6
CONTINUOUS
370
-3
390
F
  0
LAYER
  5
208
100
AcDbSymbolTableRecord
100
AcDbLayerTableRecord
  2
04_ALL_DTM_PNT
 70
0
 62
7
  6
CONTINUOUS
370
-3
390
F
  0
LAYER
  5
209
100
AcDbSymbolTableRecord
100
AcDbLayerTableRecord
  2
04__ASM_ALL_DTM_PNT
 70
0
 62
7
  6
CONTINUOUS
370
-3
390
F
  0
LAYER
  5
20A
100
AcDbSymbolTableRecord
100
AcDbLayerTableRecord
  2
04___PRT_ALL_DTM_PNT
 70
0
 62
7
  6
CONTINUOUS
370
-3
390
F
  0
LAYER
  5
20B
100
AcDbSymbolTableRecord
100
AcDbLayerTableRecord
  2
05_ALL_DTM_CSYS
 70
0
 62
7
  6
CONTINUOUS
370
-3
390
F
  0
LAYER
  5
20C
100
AcDbSymbolTableRecord
100
AcDbLayerTableRecord
  2
05__ASM_ALL_DTM_CSYS
 70
0
 62
7
  6
CONTINUOUS
370
-3
390
F
  0
LAYER
  5
20D
100
AcDbSymbolTableRecord
100
AcDbLayerTableRecord
  2
05__ASM_DEF_DTM_CSYS
 70
0
 62
7
  6
CONTINUOUS
370
-3
390
F
  0
LAYER
  5
20E
100
AcDbSymbolTableRecord
100
AcDbLayerTableRecord
  2
05___PRT_ALL_DTM_CSYS
 70
0
 62
7
  6
CONTINUOUS
370
-3
390
F
  0
LAYER
  5
20F
100
AcDbSymbolTableRecord
100
AcDbLayerTableRecord
  2
05___PRT_DEF_DTM_CSYS
 70
0
 62
7
  6
CONTINUOUS
370
-3
390
F
  0
LAYER
  5
210
100
AcDbSymbolTableRecord
100
AcDbLayerTableRecord
  2
06_ALL_SURFS
 70
0
 62
7
  6
CONTINUOUS
370
-3
390
F
  0
LAYER
  5
211
100
AcDbSymbolTableRecord
100
AcDbLayerTableRecord
  2
06__ASM_ALL_SURFS
 70
0
 62
7
  6
CONTINUOUS
370
-3
390
F
  0
LAYER
  5
212
100
AcDbSymbolTableRecord
100
AcDbLayerTableRecord
  2
06___PRT_ALL_SURFS
 70
0
 62
7
  6
CONTINUOUS
370
-3
390
F
  0
LAYER
  5
213
100
AcDbSymbolTableRecord
100
AcDbLayerTableRecord
  2
07__ASM_ALL_SKELETONS
 70
0
 62
7
  6
CONTINUOUS
370
-3
390
F
  0
LAYER
  5
214
100
AcDbSymbolTableRecord
100
AcDbLayerTableRecord
  2
CLOSED_SHELL
 70
0
 62
7
  6
CONTINUOUS
370
-3
390
F
  0
LAYER
  5
215
100
AcDbSymbolTableRecord
100
AcDbLayerTableRecord
  2
ORIENTED_CLOSED_SHE
 70
0
 62
7
  6
CONTINUOUS
370
-3
390
F
  0
ENDTAB
  0
TABLE
  2
STYLE
  5
3
100
AcDbSymbolTable
 70
1
  0
STYLE
  5
11
100
AcDbSymbolTableRecord
100
AcDbTextStyleTableRecord
  2
STANDARD
 70
0
 40
0.0
 41
0.6
 50
0.0
 71
0
 42
0.2
  3
txt
  4

  0
STYLE
  5
216
100
AcDbSymbolTableRecord
100
AcDbTextStyleTableRecord
  2
TEXTSTYLE_1
 70
0
 40
0.0
 41
0.8
 50
0.0
 71
0
 42
0.2
  3
gdt
  4

  0
ENDTAB
  0
TABLE
  2
VIEW
  5
6
100
AcDbSymbolTable
 70
0
  0
ENDTAB
  0
TABLE
  2
UCS
  5
7
100
AcDbSymbolTable
 70
0
  0
ENDTAB
  0
TABLE
  2
APPID
  5
9
100
AcDbSymbolTable
 70
1
  0
APPID
  5
217
100
AcDbSymbolTableRecord
100
AcDbRegAppTableRecord
  2
ACAD
 70
0
  0
ENDTAB
  0
TABLE
  2
BLOCK_RECORD
  5
1
100
AcDbSymbolTable
 70
0
  0
BLOCK_RECORD
  5
218
100
AcDbSymbolTableRecord
100
AcDbBlockTableRecord
  2
*Model_Space
  0
BLOCK_RECORD
  5
219
100
AcDbSymbolTableRecord
100
AcDbBlockTableRecord
  2
*Paper_Space
  0
BLOCK_RECORD
  5
21A
100
AcDbSymbolTableRecord
100
AcDbBlockTableRecord
  2
_FILLED
  0
ENDTAB
  0
TABLE
  2
DIMSTYLE
  5
A
100
AcDbSymbolTable
 70
1
100
AcDbDimStyleTable
 71
0
  0
DIMSTYLE
105
21B
100
AcDbSymbolTableRecord
100
AcDbDimStyleTableRecord
  2
STANDARD
 70
0
  3

  4

 40
1.0
 41
3.5
 42
1.0
 43
0.38
 44
3.0
 45
0.0
 46
0.0
 47
0.0001
 48
0.0001
140
4.0
141
0.09
142
0.0
143
25.4
144
1.0
145
0.0
146
1.0
147
0.625
 71
1.0
 72
0.0
 73
0
 74
0
 75
0
 76
0
 77
1
 78
8
 79
2
170
0
171
3
172
0
173
0
174
0
175
0
176
0
177
0
178
0
270
2
179
4
271
4
272
4
273
2
274
2
275
0
280
0
281
0
282
0
283
1
284
8
285
0
286
0
287
3
288
0
340
11
278
46
341
21A
342
21A
343
21A
344
21A
  0
ENDTAB
  0
ENDSEC
  0
SECTION
  2
BLOCKS
  0
BLOCK
  5
20
100
AcDbEntity
  8
0
100
AcDbBlockBegin
  2
*Model_Space
 70
0
 10
0.0
 20
0.0
 30
0.0
  3
*Model_Space
  1

  0
ENDBLK
  5
21
100
AcDbEntity
  8
0
100
AcDbBlockEnd
  0
BLOCK
  5
1C
100
AcDbEntity
  8
0
100
AcDbBlockBegin
  2
*Paper_Space
 70
0
 10
0.0
 20
0.0
 30
0.0
  3
*Paper_Space
  1

  0
ENDBLK
  5
1D
100
AcDbEntity
  8
0
100
AcDbBlockEnd
  0
BLOCK
  5
21C
100
AcDbEntity
  8
0
100
AcDbBlockBegin
  2
_FILLED
 70
64
 10
0.0
 20
0.0
  3
_FILLED
  1

  0
SOLID
  5
21D
100
AcDbEntity
  8
0
  6
BYBLOCK
 62
0
100
AcDbTrace
 10
0.0
 20
0.0
 11
-1.0
 21
0.2857142857
 12
-1.0
 22
-0.2857142857
 13
-1.0
 23
-0.2857142857
  0
ENDBLK
  5
21E
100
AcDbEntity
  8
0
  6
BYBLOCK
 62
0
100
AcDbBlockEnd
  0
ENDSEC
  0
SECTION
  2
ENTITIES
  0
LINE
  5
21F
100
AcDbEntity
  8
0
100
AcDbLine
 62
9
  6
CONTINUOUS
 10
399.5010463381
 20
-106.0708595583
 11
393.7111361495
 21
-105.8686714392
  0
LINE
  5
220
100
AcDbEntity
  8
0
100
AcDbLine
 62
6
  6
CONTINUOUS
 10
399.5010463381
 20
-106.0708595583
 11
406.2158788899
 21
-106.305346678
  0
LINE
  5
221
100
AcDbEntity
  8
0
100
AcDbLine
 62
9
  6
CONTINUOUS
 10
444.0857958582
 20
-101.5207439908
 11
445.6527138623
 21
-101.4670861461
  0
LINE
  5
222
100
AcDbEntity
  8
0
100
AcDbLine
 62
9
  6
CONTINUOUS
 10
458.2678748103
 20
-103.1232468032
 11
456.0364280525
 21
-103.181679293
  0
LINE
  5
223
100
AcDbEntity
  8
0
100
AcDbLine
 62
6
  6
CONTINUOUS
 10
456.0364280525
 20
-103.181679293
 11
443.1144077802
 21
-103.5200543023
  0
LINE
  5
224
100
AcDbEntity
  8
0
100
AcDbLine
 62
9
  6
CONTINUOUS
 10
457.9668419674
 20
-101.1823639416
 11
460.2159153639
 21
-101.1234150892
  0
LINE
  5
225
100
AcDbEntity
  8
0
100
AcDbLine
 62
9
  6
CONTINUOUS
 10
445.6527138622
 20
-101.467083015
 11
456.6697714085
 21
-101.1823635112
  0
LINE
  5
226
100
AcDbEntity
  8
0
100
AcDbLine
 62
9
  6
CONTINUOUS
 10
406.175564853
 20
-99.9812255364
 11
404.6470562115
 21
-100.0064790777
  0
LINE
  5
227
100
AcDbEntity
  8
0
100
AcDbLine
 62
9
  6
CONTINUOUS
 10
406.2158788903
 20
-101.7882203123
 11
404.7168516567
 21
-101.8061555365
  0
LINE
  5
228
100
AcDbEntity
  8
0
100
AcDbLine
 62
9
  6
CONTINUOUS
 10
390.0038148177
 20
-101.7878057652
 11
389.3587330852
 21
-101.7878057652
  0
LINE
  5
229
100
AcDbEntity
  8
0
100
AcDbLine
 62
9
  6
CONTINUOUS
 10
395.2643280124
 20
-101.7877889941
 11
392.0365152637
 21
-101.7877889941
  0
LINE
  5
22A
100
AcDbEntity
  8
0
100
AcDbLine
 62
9
  6
CONTINUOUS
 10
457.9668419676
 20
-101.1823643968
 11
456.6697714085
 21
-101.1823643968
  0
LINE
  5
22B
100
AcDbEntity
  8
0
100
AcDbLine
 62
9
  6
CONTINUOUS
 10
394.1684240478
 20
-99.9807881574
 11
390.9151176688
 21
-99.9807881574
  0
LINE
  5
22C
100
AcDbEntity
  8
0
100
AcDbLine
 62
9
  6
CONTINUOUS
 10
441.2158857401
 20
-98.7145802207
 11
439.7618538037
 21
-98.7144705473
  0
LINE
  5
22D
100
AcDbEntity
  8
0
100
AcDbLine
 62
9
  6
CONTINUOUS
 10
397.7536554113
 20
-104.7101667158
 11
404.7168516567
 21
-104.8385136285
  0
LINE
  5
22E
100
AcDbEntity
  8
0
100
AcDbLine
 62
9
  6
CONTINUOUS
 10
391.9033814645
 20
-104.5654272498
 11
397.7536822726
 21
-104.7102498684
  0
LINE
  5
22F
100
AcDbEntity
  8
0
100
AcDbLine
 62
9
  6
CONTINUOUS
 10
404.7168516567
 20
-104.8385136276
 11
406.2158788903
 21
-104.8759044719
  0
LINE
  5
230
100
AcDbEntity
  8
0
100
AcDbLine
 62
9
  6
CONTINUOUS
 10
388.8497947419
 20
-101.3339082012
 11
388.8739301862
 21
-101.3365575817
  0
LWPOLYLINE
  5
231
100
AcDbEntity
  8
0
100
AcDbPolyline
 62
6
  6
CONTINUOUS
 90
3
 70
0
 10
388.8503184521
 20
-101.3339978488
 10
389.1139419974
 20
-101.3766341864
 10
389.3646241578
 20
-101.4377030387
  0
LWPOLYLINE
  5
232
100
AcDbEntity
  8
0
100
AcDbPolyline
 62
6
  6
CONTINUOUS
 90
4
 70
0
 10
389.3646241578
 20
-101.4377030387
 10
389.5458029115
 20
-101.4976251484
 10
389.6629712541
 20
-101.5460736593
 10
389.7016340442
 20
-101.5647587958
  0
LINE
  5
233
100
AcDbEntity
  8
0
100
AcDbLine
 62
9
  6
CONTINUOUS
 10
385.9186117847
 20
-71.3053466542
 11
384.2158788899
 21
-71.3053466542
  0
LINE
  5
234
100
AcDbEntity
  8
0
100
AcDbLine
 62
6
  6
CONTINUOUS
 10
389.6953398242
 20
-101.5617168954
 11
389.7123213407
 21
-101.5704824498
  0
LINE
  5
235
100
AcDbEntity
  8
0
100
AcDbLine
 62
6
  6
CONTINUOUS
 10
389.7123213407
 20
-101.5704824498
 11
389.7102310619
 21
-101.5692642256
  0
LINE
  5
236
100
AcDbEntity
  8
0
100
AcDbLine
 62
9
  6
CONTINUOUS
 10
458.2192634461
 20
-61.0036118105
 11
458.2076776699
 21
-61.0036118105
  0
LINE
  5
237
100
AcDbEntity
  8
0
100
AcDbLine
 62
6
  6
CONTINUOUS
 10
460.2158788728
 20
-67.1337737839
 11
458.5425877759
 21
-65.4733015062
  0
LINE
  5
238
100
AcDbEntity
  8
0
100
AcDbLine
 62
6
  6
CONTINUOUS
 10
459.2496633832
 20
-66.1752466775
 11
458.5425877759
 21
-65.4733015062
  0
LINE
  5
239
100
AcDbEntity
  8
0
100
AcDbLine
 62
6
  6
CONTINUOUS
 10
460.2158788728
 20
-67.1337737839
 11
460.0298151555
 21
-66.9484765121
  0
LINE
  5
23A
100
AcDbEntity
  8
0
100
AcDbLine
 62
9
  6
CONTINUOUS
 10
458.353321037
 20
-64.4427888249
 11
459.6292304024
 21
-65.7186981903
  0
LINE
  5
23B
100
AcDbEntity
  8
0
100
AcDbLine
 62
6
  6
CONTINUOUS
 10
389.7602950393
 20
289.4579055563
 11
389.8677046309
 21
289.5156222745
  0
LINE
  5
23C
100
AcDbEntity
  8
0
100
AcDbLine
 62
9
  6
CONTINUOUS
 10
390.9151176686
 20
288.4426284054
 11
386.9801280442
 21
286.8382575973
  0
LINE
  5
23D
100
AcDbEntity
  8
0
100
AcDbLine
 62
9
  6
CONTINUOUS
 10
387.0464538238
 20
288.7511639776
 11
387.0463842817
 21
288.7511427165
  0
LINE
  5
23E
100
AcDbEntity
  8
0
100
AcDbLine
 62
9
  6
CONTINUOUS
 10
389.7024428905
 20
289.5631813249
 11
390.1660724811
 21
289.7049271156
  0
LINE
  5
23F
100
AcDbEntity
  8
0
100
AcDbLine
 62
6
  6
CONTINUOUS
 10
387.0463864694
 20
288.7511433853
 11
389.7024428905
 21
289.5631813249
  0
LINE
  5
240
100
AcDbEntity
  8
0
100
AcDbLine
 62
6
  6
CONTINUOUS
 10
390.1660724811
 20
289.7049271156
 11
402.8290307596
 21
293.5763819794
  0
LINE
  5
241
100
AcDbEntity
  8
0
100
AcDbLine
 62
9
  6
CONTINUOUS
 10
404.5859768456
 20
293.6377358887
 11
396.6062931754
 21
291.1981017624
  0
LINE
  5
242
100
AcDbEntity
  8
0
100
AcDbLine
 62
6
  6
CONTINUOUS
 10
394.2459883847
 20
289.4469316145
 11
390.9151176688
 21
288.442628405
  0
LINE
  5
243
100
AcDbEntity
  8
0
100
AcDbLine
 62
6
  6
CONTINUOUS
 10
384.21587889
 20
284.9259263119
 11
384.21587889
 21
-71.3053466718
  0
LINE
  5
244
100
AcDbEntity
  8
0
100
AcDbLine
 62
9
  6
CONTINUOUS
 10
436.0618718098
 20
309.2944599564
 11
436.3311028201
 21
309.7157853854
  0
LINE
  5
245
100
AcDbEntity
  8
0
100
AcDbLine
 62
9
  6
CONTINUOUS
 10
385.9186117847
 20
284.9259264003
 11
385.9186117847
 21
-71.3053466629
  0
LINE
  5
246
100
AcDbEntity
  8
0
100
AcDbLine
 62
9
  6
CONTINUOUS
 10
390.9151176686
 20
-99.9807910175
 11
390.9151176686
 21
288.4426284054
  0
LINE
  5
247
100
AcDbEntity
  8
0
100
AcDbLine
 62
9
  6
CONTINUOUS
 10
394.5930109469
 20
115.7132574324
 11
394.593021859
 21
31.6760061274
  0
LINE
  5
248
100
AcDbEntity
  8
0
100
AcDbLine
 62
9
  6
CONTINUOUS
 10
394.5930109469
 20
25.7132574328
 11
394.5930109469
 21
-85.0883750168
  0
LINE
  5
249
100
AcDbEntity
  8
0
100
AcDbLine
 62
9
  6
CONTINUOUS
 10
394.5930109469
 20
-93.5223183404
 11
394.5930109469
 21
-99.9302081576
  0
LINE
  5
24A
100
AcDbEntity
  8
0
100
AcDbLine
 62
9
  6
CONTINUOUS
 10
394.5930120283
 20
288.9116245424
 11
394.5930120283
 21
289.3997252665
  0
LINE
  5
24B
100
AcDbEntity
  8
0
100
AcDbLine
 62
9
  6
CONTINUOUS
 10
394.593021859
 20
280.4776916669
 11
394.593021859
 21
121.6760061272
  0
LINE
  5
24C
100
AcDbEntity
  8
0
100
AcDbLine
 62
9
  6
CONTINUOUS
 10
402.8830924722
 20
-99.9534893214
 11
402.8830924722
 21
288.1550146067
  0
LINE
  5
24D
100
AcDbEntity
  8
0
100
AcDbLine
 62
9
  6
CONTINUOUS
 10
404.7168516567
 20
-104.8385136276
 11
404.7168516567
 21
-101.8061555365
  0
LWPOLYLINE
  5
24E
100
AcDbEntity
  8
0
100
AcDbPolyline
 62
7
  6
CONTINUOUS
 90
5
 70
0
 10
442.4695762418
 20
310.0612630137
 10
441.8632556377
 20
308.4564391485
 10
441.3919070477
 20
306.5798343878
 10
441.1145642259
 20
304.6097303883
 10
441.0311025806
 20
302.7439545158
  0
LINE
  5
24F
100
AcDbEntity
  8
0
100
AcDbLine
 62
7
  6
CONTINUOUS
 10
442.4694991794
 20
310.0610917941
 11
457.680577765
 21
343.8716068306
  0
LINE
  5
250
100
AcDbEntity
  8
0
100
AcDbLine
 62
7
  6
CONTINUOUS
 10
461.3448703544
 20
342.2670604306
 11
446.1173326818
 21
308.4199608614
  0
LINE
  5
251
100
AcDbEntity
  8
0
100
AcDbLine
 62
9
  6
CONTINUOUS
 10
459.2153835879
 20
247.1170170895
 11
458.3236269277
 21
246.6021611417
  0
LINE
  5
252
100
AcDbEntity
  8
0
100
AcDbLine
 62
9
  6
CONTINUOUS
 10
458.5706319653
 20
247.9067367231
 11
460.2158788897
 21
248.8494325069
  0
LWPOLYLINE
  5
253
100
AcDbEntity
  8
0
100
AcDbPolyline
 62
6
  6
CONTINUOUS
 90
5
 70
0
 10
458.395465825
 20
-64.7354520351
 10
458.4019229769
 20
-64.7579179194
 10
458.3888598103
 20
-64.6916756834
 10
458.3555295819
 20
-64.4639917042
 10
458.3159611827
 20
-64.0841198655
  0
LINE
  5
254
100
AcDbEntity
  8
0
100
AcDbLine
 62
6
  6
CONTINUOUS
 10
406.2158788898
 20
291.1196533226
 11
406.2158788898
 21
290.1525782434
  0
LINE
  5
255
100
AcDbEntity
  8
0
100
AcDbLine
 62
6
  6
CONTINUOUS
 10
406.2158788919
 20
288.2411338422
 11
406.2158788919
 21
-99.8881974519
  0
LINE
  5
256
100
AcDbEntity
  8
0
100
AcDbLine
 62
6
  6
CONTINUOUS
 10
406.2158788899
 20
-99.9801497167
 11
406.2158788899
 21
-104.8639782483
  0
LINE
  5
257
100
AcDbEntity
  8
0
100
AcDbLine
 62
6
  6
CONTINUOUS
 10
406.215879219
 20
-106.3053372665
 11
406.2158792667
 21
-104.8759034193
  0
LINE
  5
258
100
AcDbEntity
  8
0
100
AcDbLine
 62
7
  6
CONTINUOUS
 10
410.6595297046
 20
297.3999257597
 11
410.6595297046
 21
293.5782922303
  0
LINE
  5
259
100
AcDbEntity
  8
0
100
AcDbLine
 62
7
  6
CONTINUOUS
 10
411.231102579
 20
309.9347118481
 11
411.231102579
 21
298.2932380533
  0
LINE
  5
25A
100
AcDbEntity
  8
0
100
AcDbLine
 62
7
  6
CONTINUOUS
 10
415.36587889
 20
322.3999257596
 11
415.36587889
 21
310.4347118482
  0
LINE
  5
25B
100
AcDbEntity
  8
0
100
AcDbLine
 62
9
  6
CONTINUOUS
 10
417.2661314222
 20
293.4052922759
 11
417.2661314222
 21
297.3999257597
  0
LINE
  5
25C
100
AcDbEntity
  8
0
100
AcDbLine
 62
7
  6
CONTINUOUS
 10
419.21587889
 20
433.545823794
 11
419.21587889
 21
421.3999257599
  0
LINE
  5
25D
100
AcDbEntity
  8
0
100
AcDbLine
 62
9
  6
CONTINUOUS
 10
419.9739597227
 20
309.9347118482
 11
419.9739597227
 21
298.3999257596
  0
LINE
  5
25E
100
AcDbEntity
  8
0
100
AcDbLine
 62
7
  6
CONTINUOUS
 10
420.71587889
 20
451.5458237933
 11
420.71587889
 21
439.3999257599
  0
LINE
  5
25F
100
AcDbEntity
  8
0
100
AcDbLine
 62
7
  6
CONTINUOUS
 10
422.21587889
 20
469.5458237937
 11
422.21587889
 21
457.3999257599
  0
LINE
  5
260
100
AcDbEntity
  8
0
100
AcDbLine
 62
7
  6
CONTINUOUS
 10
423.71587889
 20
487.545823794
 11
423.71587889
 21
475.3999257599
  0
LINE
  5
261
100
AcDbEntity
  8
0
100
AcDbLine
 62
7
  6
CONTINUOUS
 10
424.8311025797
 20
309.9347118481
 11
424.8311025797
 21
293.2071965345
  0
LINE
  5
262
100
AcDbEntity
  8
0
100
AcDbLine
 62
9
  6
CONTINUOUS
 10
425.3311025793
 20
293.1941035737
 11
425.3311025793
 21
310.4347118481
  0
LINE
  5
263
100
AcDbEntity
  8
0
100
AcDbLine
 62
7
  6
CONTINUOUS
 10
415.3658788906
 20
322.3999257596
 11
417.1889486853
 21
418.973352722
  0
LINE
  5
264
100
AcDbEntity
  8
0
100
AcDbLine
 62
9
  6
CONTINUOUS
 10
457.500204681
 20
292.3193549622
 11
457.511286491
 21
292.3469955664
  0
LINE
  5
265
100
AcDbEntity
  8
0
100
AcDbLine
 62
9
  6
CONTINUOUS
 10
457.5000401352
 20
292.3196534568
 11
457.5113128763
 21
292.3472766691
  0
LINE
  5
266
100
AcDbEntity
  8
0
100
AcDbLine
 62
6
  6
CONTINUOUS
 10
458.3159611827
 20
-64.0841198655
 11
458.276587546
 21
-63.5350044659
  0
LINE
  5
267
100
AcDbEntity
  8
0
100
AcDbLine
 62
9
  6
CONTINUOUS
 10
426.331102579
 20
304.2385594219
 11
426.331102579
 21
293.1679176521
  0
LINE
  5
268
100
AcDbEntity
  8
0
100
AcDbLine
 62
7
  6
CONTINUOUS
 10
426.8311025791
 20
293.1548246913
 11
426.8311025791
 21
304.2385594254
  0
LINE
  5
269
100
AcDbEntity
  8
0
100
AcDbLine
 62
9
  6
CONTINUOUS
 10
429.3311025799
 20
310.4347118481
 11
429.3311025795
 21
309.7157850006
  0
LINE
  5
26A
100
AcDbEntity
  8
0
100
AcDbLine
 62
7
  6
CONTINUOUS
 10
429.8311025795
 20
309.7157850011
 11
429.8311025795
 21
309.9347118481
  0
LINE
  5
26B
100
AcDbEntity
  8
0
100
AcDbLine
 62
7
  6
CONTINUOUS
 10
430.6311025795
 20
303.4347118482
 11
430.6311025795
 21
293.0553181894
  0
LINE
  5
26C
100
AcDbEntity
  8
0
100
AcDbLine
 62
7
  6
CONTINUOUS
 10
435.031102579
 20
292.9401001345
 11
435.031102579
 21
303.4347118481
  0
LINE
  5
26D
100
AcDbEntity
  8
0
100
AcDbLine
 62
7
  6
CONTINUOUS
 10
435.831102579
 20
309.9347118482
 11
435.831102579
 21
309.7157850011
  0
LINE
  5
26E
100
AcDbEntity
  8
0
100
AcDbLine
 62
9
  6
CONTINUOUS
 10
436.33110258
 20
309.7157850001
 11
436.3311025793
 21
310.4347118481
  0
LINE
  5
26F
100
AcDbEntity
  8
0
100
AcDbLine
 62
7
  6
CONTINUOUS
 10
438.831102579
 20
304.2385594254
 11
438.831102579
 21
292.8405936325
  0
LINE
  5
270
100
AcDbEntity
  8
0
100
AcDbLine
 62
9
  6
CONTINUOUS
 10
439.3311025794
 20
292.8275006717
 11
439.3311025794
 21
304.2385594257
  0
LINE
  5
271
100
AcDbEntity
  8
0
100
AcDbLine
 62
9
  6
CONTINUOUS
 10
439.7618538037
 20
287.9188126018
 11
439.7618538037
 21
-98.7144705473
  0
LINE
  5
272
100
AcDbEntity
  8
0
100
AcDbLine
 62
9
  6
CONTINUOUS
 10
440.3311025799
 20
310.4347118481
 11
440.3311025799
 21
292.8013147501
  0
LINE
  5
273
100
AcDbEntity
  8
0
100
AcDbLine
 62
7
  6
CONTINUOUS
 10
440.8311025793
 20
292.7882217894
 11
440.8311025793
 21
309.9347118481
  0
LINE
  5
274
100
AcDbEntity
  8
0
100
AcDbLine
 62
7
  6
CONTINUOUS
 10
441.0311025791
 20
294.4347118484
 11
441.031102579
 21
302.7439545177
  0
LINE
  5
275
100
AcDbEntity
  8
0
100
AcDbLine
 62
9
  6
CONTINUOUS
 10
441.2158857402
 20
287.9188330746
 11
441.2158857402
 21
-98.7144744851
  0
LINE
  5
276
100
AcDbEntity
  8
0
100
AcDbLine
 62
7
  6
CONTINUOUS
 10
442.71587889
 20
487.545823794
 11
442.71587889
 21
475.3999257597
  0
LINE
  5
277
100
AcDbEntity
  8
0
100
AcDbLine
 62
7
  6
CONTINUOUS
 10
444.21587889
 20
469.5458237937
 11
444.21587889
 21
457.3999257594
  0
LINE
  5
278
100
AcDbEntity
  8
0
100
AcDbLine
 62
7
  6
CONTINUOUS
 10
445.0311025783
 20
294.4347118473
 11
445.031102579
 21
302.7439545177
  0
LINE
  5
279
100
AcDbEntity
  8
0
100
AcDbLine
 62
7
  6
CONTINUOUS
 10
445.2311025792
 20
292.6730037345
 11
445.2311025792
 21
294.4347118482
  0
LINE
  5
27A
100
AcDbEntity
  8
0
100
AcDbLine
 62
9
  6
CONTINUOUS
 10
445.6527138623
 20
-101.4670861461
 11
445.6527138623
 21
289.2273731463
  0
LWPOLYLINE
  5
27B
100
AcDbEntity
  8
0
100
AcDbPolyline
 62
7
  6
CONTINUOUS
 90
6
 70
0
 10
445.0311025796
 20
302.7439545195
 10
445.0747475895
 20
303.958864512
 10
445.2187167452
 20
305.2417003112
 10
445.455336708
 20
306.4467281053
 10
445.773067126
 20
307.5438398606
 10
446.1172844545
 20
308.4198536909
  0
LWPOLYLINE
  5
27C
100
AcDbEntity
  8
0
100
AcDbPolyline
 62
6
  6
CONTINUOUS
 90
3
 70
0
 10
458.276587546
 20
-63.5350044659
 10
458.2427400958
 20
-62.7718755337
 10
458.2218557127
 20
-61.7004973226
  0
LINE
  5
27D
100
AcDbEntity
  8
0
100
AcDbLine
 62
7
  6
CONTINUOUS
 10
450.9432458518
 20
328.8961624087
 11
449.2428090959
 21
418.973352722
  0
LINE
  5
27E
100
AcDbEntity
  8
0
100
AcDbLine
 62
6
  6
CONTINUOUS
 10
458.2226111616
 20
-61.7818553846
 11
458.2223764873
 21
-61.7272132939
  0
LINE
  5
27F
100
AcDbEntity
  8
0
100
AcDbLine
 62
7
  6
CONTINUOUS
 10
445.71587889
 20
451.5458237936
 11
445.71587889
 21
439.3999257593
  0
LINE
  5
280
100
AcDbEntity
  8
0
100
AcDbLine
 62
7
  6
CONTINUOUS
 10
447.21587889
 20
433.545823794
 11
447.21587889
 21
421.3999257599
  0
LINE
  5
281
100
AcDbEntity
  8
0
100
AcDbLine
 62
9
  6
CONTINUOUS
 10
449.3311025791
 20
306.4347118481
 11
449.3311025791
 21
305.9347118481
  0
LINE
  5
282
100
AcDbEntity
  8
0
100
AcDbLine
 62
7
  6
CONTINUOUS
 10
451.06587889
 20
319.4193712608
 11
451.06587889
 21
310.4347118482
  0
LINE
  5
283
100
AcDbEntity
  8
0
100
AcDbLine
 62
9
  6
CONTINUOUS
 10
453.8311025793
 20
301.4347118523
 11
453.8311025793
 21
292.447804809
  0
LINE
  5
284
100
AcDbEntity
  8
0
100
AcDbLine
 62
7
  6
CONTINUOUS
 10
454.3311025793
 20
292.4347118482
 11
454.331102579
 21
309.9347118481
  0
LINE
  5
285
100
AcDbEntity
  8
0
100
AcDbLine
 62
7
  6
CONTINUOUS
 10
455.6595297044
 20
292.3999257596
 11
455.6595297044
 21
297.3999257596
  0
LINE
  5
286
100
AcDbEntity
  8
0
100
AcDbLine
 62
9
  6
CONTINUOUS
 10
456.6697714085
 20
289.4145327638
 11
456.6697714085
 21
-101.1823643968
  0
LINE
  5
287
100
AcDbEntity
  8
0
100
AcDbLine
 62
9
  6
CONTINUOUS
 10
457.9668419676
 20
-101.1823643968
 11
457.9668419676
 21
290.3191710535
  0
LINE
  5
288
100
AcDbEntity
  8
0
100
AcDbLine
 62
9
  6
CONTINUOUS
 10
458.2076776699
 20
243.957283468
 11
458.2076776699
 21
-61.0036118105
  0
LINE
  5
289
100
AcDbEntity
  8
0
100
AcDbLine
 62
6
  6
CONTINUOUS
 10
458.2218557127
 20
-61.7004973226
 11
458.2192634461
 21
243.957283468
  0
LINE
  5
28A
100
AcDbEntity
  8
0
100
AcDbLine
 62
6
  6
CONTINUOUS
 10
460.2158788898
 20
-101.1239395676
 11
460.2158788898
 21
-67.1328286562
  0
LINE
  5
28B
100
AcDbEntity
  8
0
100
AcDbLine
 62
6
  6
CONTINUOUS
 10
460.2158788898
 20
248.8489541128
 11
460.2158788898
 21
291.306465169
  0
LWPOLYLINE
  5
28C
100
AcDbEntity
  8
0
100
AcDbPolyline
 62
6
  6
CONTINUOUS
 90
6
 70
0
 10
458.2192611157
 20
243.9572839617
 10
458.2244191896
 20
244.6938990224
 10
458.2567116561
 20
245.7214633335
 10
458.3021300703
 20
246.3997038726
 10
458.3482827352
 20
246.8343693846
 10
458.3858224416
 20
247.0780054381
  0
LINE
  5
28D
100
AcDbEntity
  8
0
100
AcDbLine
 62
6
  6
CONTINUOUS
 10
458.2235890067
 20
244.6374339995
 11
458.2241570648
 21
244.6564551656
  0
LINE
  5
28E
100
AcDbEntity
  8
0
100
AcDbLine
 62
6
  6
CONTINUOUS
 10
458.3848055227
 20
247.0725642233
 11
458.3969088466
 21
247.1325130884
  0
LINE
  5
28F
100
AcDbEntity
  8
0
100
AcDbLine
 62
9
  6
CONTINUOUS
 10
458.2192634461
 20
243.957283468
 11
458.2076776699
 21
243.957283468
  0
LINE
  5
290
100
AcDbEntity
  8
0
100
AcDbLine
 62
9
  6
CONTINUOUS
 10
429.3311025799
 20
309.7157850005
 11
429.6003333491
 21
309.2944599562
  0
LINE
  5
291
100
AcDbEntity
  8
0
100
AcDbLine
 62
6
  6
CONTINUOUS
 10
402.8290307596
 20
293.5763819791
 11
406.2158788898
 21
293.6946533221
  0
LINE
  5
292
100
AcDbEntity
  8
0
100
AcDbLine
 62
9
  6
CONTINUOUS
 10
406.2158788919
 20
288.2411338422
 11
402.8830924722
 21
288.1550146067
  0
LINE
  5
293
100
AcDbEntity
  8
0
100
AcDbLine
 62
9
  6
CONTINUOUS
 10
402.8830936179
 20
290.0664590382
 11
406.2158788898
 21
290.1525782434
  0
LINE
  5
294
100
AcDbEntity
  8
0
100
AcDbLine
 62
9
  6
CONTINUOUS
 10
384.2158788899
 20
284.9259260742
 11
385.9186117847
 21
284.9259260742
  0
LINE
  5
295
100
AcDbEntity
  8
0
100
AcDbLine
 62
9
  6
CONTINUOUS
 10
441.2158857401
 20
287.9188126018
 11
439.7618538037
 21
287.9188126018
  0
LINE
  5
296
100
AcDbEntity
  8
0
100
AcDbLine
 62
9
  6
CONTINUOUS
 10
460.2158788898
 20
291.3062797012
 11
458.4019075599
 21
291.3537745037
  0
LINE
  5
297
100
AcDbEntity
  8
0
100
AcDbLine
 62
6
  6
CONTINUOUS
 10
406.21587889
 20
293.694653322
 11
438.8417236846
 21
292.8403155091
  0
LINE
  5
298
100
AcDbEntity
  8
0
100
AcDbLine
 62
6
  6
CONTINUOUS
 10
440.8403532197
 20
292.7879795528
 11
459.2415911737
 21
292.306126179
  0
LINE
  5
299
100
AcDbEntity
  8
0
100
AcDbLine
 62
9
  6
CONTINUOUS
 10
410.6595297046
 20
297.3999257597
 11
424.8311025797
 21
297.3999257597
  0
LINE
  5
29A
100
AcDbEntity
  8
0
100
AcDbLine
 62
9
  6
CONTINUOUS
 10
430.6311025795
 20
297.3999257597
 11
435.031102579
 21
297.3999257597
  0
LINE
  5
29B
100
AcDbEntity
  8
0
100
AcDbLine
 62
9
  6
CONTINUOUS
 10
454.3311025793
 20
297.3999257596
 11
455.6595297044
 21
297.3999257596
  0
LINE
  5
29C
100
AcDbEntity
  8
0
100
AcDbLine
 62
9
  6
CONTINUOUS
 10
445.031102579
 20
297.4347118482
 11
441.031102579
 21
297.4347118481
  0
LINE
  5
29D
100
AcDbEntity
  8
0
100
AcDbLine
 62
7
  6
CONTINUOUS
 10
417.9732471739
 20
298.3999257596
 11
422.3555000174
 21
298.3999257596
  0
LINE
  5
29E
100
AcDbEntity
  8
0
100
AcDbLine
 62
7
  6
CONTINUOUS
 10
430.6311025795
 20
298.3999257596
 11
435.031102579
 21
298.3999257596
  0
LINE
  5
29F
100
AcDbEntity
  8
0
100
AcDbLine
 62
7
  6
CONTINUOUS
 10
454.3311025793
 20
298.3999257596
 11
454.6595292774
 21
298.3999257596
  0
LINE
  5
2A0
100
AcDbEntity
  8
0
100
AcDbLine
 62
9
  6
CONTINUOUS
 10
453.8311025793
 20
301.4347118481
 11
454.3311025793
 21
301.4347118481
  0
LINE
  5
2A1
100
AcDbEntity
  8
0
100
AcDbLine
 62
9
  6
CONTINUOUS
 10
441.031102579
 20
302.7439545177
 11
445.031102579
 21
302.7439545177
  0
LINE
  5
2A2
100
AcDbEntity
  8
0
100
AcDbLine
 62
9
  6
CONTINUOUS
 10
426.331102579
 20
304.2385594254
 11
426.831102579
 21
304.2385594254
  0
LINE
  5
2A3
100
AcDbEntity
  8
0
100
AcDbLine
 62
9
  6
CONTINUOUS
 10
438.8311025799
 20
304.2385594254
 11
439.3311025799
 21
304.2385594254
  0
LINE
  5
2A4
100
AcDbEntity
  8
0
100
AcDbLine
 62
9
  6
CONTINUOUS
 10
445.3547968961
 20
305.9347118481
 11
449.3311025796
 21
305.9347118481
  0
LINE
  5
2A5
100
AcDbEntity
  8
0
100
AcDbLine
 62
7
  6
CONTINUOUS
 10
449.3311025795
 20
306.4347118482
 11
445.4529771887
 21
306.4347118482
  0
LINE
  5
2A6
100
AcDbEntity
  8
0
100
AcDbLine
 62
9
  6
CONTINUOUS
 10
451.6984495175
 20
309.4347118482
 11
446.5738609834
 21
309.4347118482
  0
LINE
  5
2A7
100
AcDbEntity
  8
0
100
AcDbLine
 62
9
  6
CONTINUOUS
 10
442.2328581262
 20
309.4347118481
 11
440.8311025791
 21
309.4347118481
  0
LINE
  5
2A8
100
AcDbEntity
  8
0
100
AcDbLine
 62
9
  6
CONTINUOUS
 10
436.33110258
 20
309.7157850012
 11
435.8311025799
 21
309.7157850012
  0
LINE
  5
2A9
100
AcDbEntity
  8
0
100
AcDbLine
 62
9
  6
CONTINUOUS
 10
429.8311025796
 20
309.7157850012
 11
429.3311025795
 21
309.7157850012
  0
LINE
  5
2AA
100
AcDbEntity
  8
0
100
AcDbLine
 62
9
  6
CONTINUOUS
 10
411.231102579
 20
309.9347118481
 11
442.4217637804
 21
309.9347118482
  0
LINE
  5
2AB
100
AcDbEntity
  8
0
100
AcDbLine
 62
9
  6
CONTINUOUS
 10
446.798806959
 20
309.9347118481
 11
454.331102579
 21
309.9347118481
  0
LINE
  5
2AC
100
AcDbEntity
  8
0
100
AcDbLine
 62
7
  6
CONTINUOUS
 10
411.7311025796
 20
310.4347118481
 11
442.6375878346
 21
310.4347118482
  0
LINE
  5
2AD
100
AcDbEntity
  8
0
100
AcDbLine
 62
7
  6
CONTINUOUS
 10
447.0237529347
 20
310.4347118481
 11
453.8308849171
 21
310.4347118482
  0
LINE
  5
2AE
100
AcDbEntity
  8
0
100
AcDbLine
 62
7
  6
CONTINUOUS
 10
415.36587889
 20
322.3999257596
 11
448.0206412694
 21
322.3999257596
  0
LINE
  5
2AF
100
AcDbEntity
  8
0
100
AcDbLine
 62
9
  6
CONTINUOUS
 10
417.1889486853
 20
418.973352722
 11
449.2428090959
 21
418.973352722
  0
LINE
  5
2B0
100
AcDbEntity
  8
0
100
AcDbLine
 62
9
  6
CONTINUOUS
 10
418.4050007234
 20
420.4179721295
 11
448.0267570579
 21
420.4179721295
  0
LINE
  5
2B1
100
AcDbEntity
  8
0
100
AcDbLine
 62
9
  6
CONTINUOUS
 10
447.21587889
 20
421.3999257599
 11
419.21587889
 21
421.3999257599
  0
LINE
  5
2B2
100
AcDbEntity
  8
0
100
AcDbLine
 62
9
  6
CONTINUOUS
 10
419.21587889
 20
433.545823794
 11
447.21587889
 21
433.545823794
  0
LINE
  5
2B3
100
AcDbEntity
  8
0
100
AcDbLine
 62
9
  6
CONTINUOUS
 10
448.2158785617
 20
435.7818914777
 11
418.2158792186
 21
435.7818914777
  0
LINE
  5
2B4
100
AcDbEntity
  8
0
100
AcDbLine
 62
7
  6
CONTINUOUS
 10
419.2158788906
 20
438.3999257594
 11
447.2158788901
 21
438.3999257594
  0
LINE
  5
2B5
100
AcDbEntity
  8
0
100
AcDbLine
 62
9
  6
CONTINUOUS
 10
445.71587889
 20
439.3999257598
 11
420.71587889
 21
439.3999257599
  0
LINE
  5
2B6
100
AcDbEntity
  8
0
100
AcDbLine
 62
9
  6
CONTINUOUS
 10
420.71587889
 20
451.5458237933
 11
445.71587889
 21
451.5458237933
  0
LINE
  5
2B7
100
AcDbEntity
  8
0
100
AcDbLine
 62
9
  6
CONTINUOUS
 10
446.7158784808
 20
453.7818914043
 11
419.7158793002
 21
453.7818914043
  0
LINE
  5
2B8
100
AcDbEntity
  8
0
100
AcDbLine
 62
7
  6
CONTINUOUS
 10
420.7158786477
 20
456.3999257597
 11
445.7158788906
 21
456.3999257597
  0
LINE
  5
2B9
100
AcDbEntity
  8
0
100
AcDbLine
 62
9
  6
CONTINUOUS
 10
444.21587889
 20
457.3999257595
 11
422.21587889
 21
457.3999257599
  0
LINE
  5
2BA
100
AcDbEntity
  8
0
100
AcDbLine
 62
9
  6
CONTINUOUS
 10
422.21587889
 20
469.5458237937
 11
444.21587889
 21
469.5458237937
  0
LINE
  5
2BB
100
AcDbEntity
  8
0
100
AcDbLine
 62
9
  6
CONTINUOUS
 10
445.2158783394
 20
471.7818912787
 11
421.2158794406
 21
471.7818912787
  0
LINE
  5
2BC
100
AcDbEntity
  8
0
100
AcDbLine
 62
7
  6
CONTINUOUS
 10
422.2158777624
 20
474.3999257601
 11
444.2158788903
 21
474.3999257601
  0
LINE
  5
2BD
100
AcDbEntity
  8
0
100
AcDbLine
 62
9
  6
CONTINUOUS
 10
442.71587889
 20
475.3999257599
 11
423.71587889
 21
475.3999257599
  0
LINE
  5
2BE
100
AcDbEntity
  8
0
100
AcDbLine
 62
9
  6
CONTINUOUS
 10
423.71587889
 20
487.545823794
 11
442.71587889
 21
487.545823794
  0
LINE
  5
2BF
100
AcDbEntity
  8
0
100
AcDbLine
 62
9
  6
CONTINUOUS
 10
443.7158770971
 20
489.7818901665
 11
422.7158806837
 21
489.7818901665
  0
LINE
  5
2C0
100
AcDbEntity
  8
0
100
AcDbLine
 62
7
  6
CONTINUOUS
 10
423.7158788907
 20
492.3999257594
 11
442.7158788907
 21
492.3999257594
  0
ARC
  5
2C1
100
AcDbEntity
  8
0
100
AcDbCircle
 62
9
  6
CONTINUOUS
 10
398.3436862663
 20
-192.7506216433
 40
91.0908587571
100
AcDbArc
 50
87.2026679384
 51
88.5202329873
  0
ARC
  5
2C2
100
AcDbEntity
  8
0
100
AcDbCircle
 62
9
  6
CONTINUOUS
 10
404.3823752875
 20
-69.7358111339
 40
32.0720885592
100
AcDbArc
 50
267.1527013373
 51
270.5975423669
  0
ARC
  5
2C3
100
AcDbEntity
  8
0
100
AcDbCircle
 62
6
  6
CONTINUOUS
 10
387.2158788903
 20
-106.305346678
 40
5.0
100
AcDbArc
 50
20.3592693131
 51
64.6230664752
  0
ARC
  5
2C4
100
AcDbEntity
  8
0
100
AcDbCircle
 62
9
  6
CONTINUOUS
 10
388.5185602876
 20
-104.4444039502
 40
3.1260370922
100
AcDbArc
 50
73.4160411284
 51
76.6114363515
  0
ARC
  5
2C5
100
AcDbEntity
  8
0
100
AcDbCircle
 62
9
  6
CONTINUOUS
 10
389.4621359081
 20
-99.1082319225
 40
2.1382923441
100
AcDbArc
 50
191.7135774079
 51
193.7040843949
  0
ARC
  5
2C6
100
AcDbEntity
  8
0
100
AcDbCircle
 62
6
  6
CONTINUOUS
 10
389.1737322585
 20
-99.3049981555
 40
2.0869907412
100
AcDbArc
 50
208.1022073291
 51
219.2868504312
  0
ARC
  5
2C7
100
AcDbEntity
  8
0
100
AcDbCircle
 62
9
  6
CONTINUOUS
 10
390.9161466976
 20
-99.9310790895
 40
2.0697946281
100
AcDbArc
 50
230.9805686543
 51
233.0185410802
  0
ARC
  5
2C8
100
AcDbEntity
  8
0
100
AcDbCircle
 62
6
  6
CONTINUOUS
 10
389.1496719032
 20
-99.3140701822
 40
2.0614962425
100
AcDbArc
 50
197.839838354
 51
208.1947873199
  0
ARC
  5
2C9
100
AcDbEntity
  8
0
100
AcDbCircle
 62
6
  6
CONTINUOUS
 10
390.2158788903
 20
-99.9807913576
 40
2.0
100
AcDbArc
 50
221.4455453539
 51
244.622973005
  0
ARC
  5
2CA
100
AcDbEntity
  8
0
100
AcDbCircle
 62
6
  6
CONTINUOUS
 10
393.7790717193
 20
-103.8698267099
 40
1.9999999573
100
AcDbArc
 50
200.3592693134
 51
268.0
  0
ARC
  5
2CB
100
AcDbEntity
  8
0
100
AcDbCircle
 62
6
  6
CONTINUOUS
 10
389.0894032454
 20
-99.3715042912
 40
1.9796103353
100
AcDbArc
 50
219.342496682
 51
222.2899419659
  0
ARC
  5
2CC
100
AcDbEntity
  8
0
100
AcDbCircle
 62
9
  6
CONTINUOUS
 10
388.9270834726
 20
-103.3500881371
 40
1.9565949758
100
AcDbArc
 50
63.0078656137
 51
66.5339975532
  0
ARC
  5
2CD
100
AcDbEntity
  8
0
100
AcDbCircle
 62
6
  6
CONTINUOUS
 10
388.9669764115
 20
-99.3738887266
 40
1.8692597771
100
AcDbArc
 50
191.7790127772
 51
197.8100396055
  0
ARC
  5
2CE
100
AcDbEntity
  8
0
100
AcDbCircle
 62
6
  6
CONTINUOUS
 10
388.2158788904
 20
284.9259260742
 40
4.0
100
AcDbArc
 50
106.9995958635
 51
180.0000096164
  0
ARC
  5
2CF
100
AcDbEntity
  8
0
100
AcDbCircle
 62
9
  6
CONTINUOUS
 10
393.4992652199
 20
287.0279209707
 40
2.6129475371
100
AcDbArc
 50
59.8184938038
 51
61.7896665997
  0
ARC
  5
2D0
100
AcDbEntity
  8
0
100
AcDbCircle
 62
9
  6
CONTINUOUS
 10
393.6888566628
 20
287.3818362163
 40
2.2114492743
100
AcDbArc
 50
61.7837662046
 51
63.9191873434
  0
ARC
  5
2D1
100
AcDbEntity
  8
0
100
AcDbCircle
 62
9
  6
CONTINUOUS
 10
393.8077743509
 20
287.6227805784
 40
1.9427585232
100
AcDbArc
 50
63.9451544502
 51
64.8468114075
  0
ARC
  5
2D2
100
AcDbEntity
  8
0
100
AcDbCircle
 62
9
  6
CONTINUOUS
 10
393.8873022885
 20
287.7928297036
 40
1.7550318493
100
AcDbArc
 50
64.837311528
 51
66.2900687926
  0
ARC
  5
2D3
100
AcDbEntity
  8
0
100
AcDbCircle
 62
9
  6
CONTINUOUS
 10
406.1859817764
 20
385.5455302792
 40
485.4311633595
100
AcDbArc
 50
270.0035287732
 51
271.8315474426
  0
ARC
  5
2D4
100
AcDbEntity
  8
0
100
AcDbCircle
 62
9
  6
CONTINUOUS
 10
406.1084633489
 20
378.1078147165
 40
479.8017790365
100
AcDbArc
 50
270.0128266008
 51
274.0052561402
  0
ARC
  5
2D5
100
AcDbEntity
  8
0
100
AcDbCircle
 62
7
  6
CONTINUOUS
 10
411.6595297038
 20
297.3999257597
 40
1.0
100
AcDbArc
 50
115.6725641485
 51
180.0
  0
ARC
  5
2D6
100
AcDbEntity
  8
0
100
AcDbCircle
 62
7
  6
CONTINUOUS
 10
411.7311025796
 20
309.9347118481
 40
0.5
100
AcDbArc
 50
90.0000000138
 51
180.0
  0
ARC
  5
2D7
100
AcDbEntity
  8
0
100
AcDbCircle
 62
9
  6
CONTINUOUS
 10
406.2214617344
 20
395.5965850187
 40
500.4460936981
100
AcDbArc
 50
270.987834757
 51
271.9727876256
  0
ARC
  5
2D8
100
AcDbEntity
  8
0
100
AcDbCircle
 62
9
  6
CONTINUOUS
 10
406.2199276515
 20
395.5696175114
 40
500.4175179368
100
AcDbArc
 50
272.4631952119
 51
272.9512500751
  0
ARC
  5
2D9
100
AcDbEntity
  8
0
100
AcDbCircle
 62
9
  6
CONTINUOUS
 10
406.2235137102
 20
395.5143204092
 40
500.3606634024
100
AcDbArc
 50
269.999128193
 51
270.4937427287
  0
ARC
  5
2DA
100
AcDbEntity
  8
0
100
AcDbCircle
 62
9
  6
CONTINUOUS
 10
406.2227166327
 20
395.4859475851
 40
500.3353701127
100
AcDbArc
 50
270.740948199
 51
270.9879096836
  0
ARC
  5
2DB
100
AcDbEntity
  8
0
100
AcDbCircle
 62
9
  6
CONTINUOUS
 10
406.2258862549
 20
395.4295870607
 40
500.2788960141
100
AcDbArc
 50
271.9729402013
 51
272.4631949891
  0
ARC
  5
2DC
100
AcDbEntity
  8
0
100
AcDbCircle
 62
9
  6
CONTINUOUS
 10
406.2275600931
 20
395.3903997753
 40
500.2468095175
100
AcDbArc
 50
273.4372345791
 51
273.6790939551
  0
ARC
  5
2DD
100
AcDbEntity
  8
0
100
AcDbCircle
 62
9
  6
CONTINUOUS
 10
406.22827529
 20
395.380008653
 40
500.2344065955
100
AcDbArc
 50
273.1946312305
 51
273.4372375366
  0
ARC
  5
2DE
100
AcDbEntity
  8
0
100
AcDbCircle
 62
9
  6
CONTINUOUS
 10
406.2244718229
 20
395.3677416757
 40
500.2143383678
100
AcDbArc
 50
270.4937773212
 51
270.7409273665
  0
ARC
  5
2DF
100
AcDbEntity
  8
0
100
AcDbCircle
 62
9
  6
CONTINUOUS
 10
406.2374799008
 20
395.2429191868
 40
500.0943119396
100
AcDbArc
 50
273.6790775888
 51
273.7997381041
  0
ARC
  5
2E0
100
AcDbEntity
  8
0
100
AcDbCircle
 62
9
  6
CONTINUOUS
 10
406.2376775099
 20
395.2497876697
 40
500.0941715098
100
AcDbArc
 50
273.7997151001
 51
273.9201847429
  0
ARC
  5
2E1
100
AcDbEntity
  8
0
100
AcDbCircle
 62
9
  6
CONTINUOUS
 10
406.2378770316
 20
395.2166928134
 40
500.0658942427
100
AcDbArc
 50
272.9512678203
 51
273.1946066246
  0
ARC
  5
2E2
100
AcDbEntity
  8
0
100
AcDbCircle
 62
6
  6
CONTINUOUS
 10
406.2158788908
 20
393.694653322
 40
500.0
100
AcDbArc
 50
270.0
 51
273.9748410365
  0
ARC
  5
2E3
100
AcDbEntity
  8
0
100
AcDbCircle
 62
9
  6
CONTINUOUS
 10
406.1071141425
 20
387.5265767407
 40
487.4091593726
100
AcDbArc
 50
271.8333709643
 51
273.9593594671
  0
ARC
  5
2E4
100
AcDbEntity
  8
0
100
AcDbCircle
 62
7
  6
CONTINUOUS
 10
416.2158788901
 20
433.545823794
 40
3.0
100
AcDbArc
 50
0.0
 51
48.1896766878
  0
ARC
  5
2E5
100
AcDbEntity
  8
0
100
AcDbCircle
 62
7
  6
CONTINUOUS
 10
418.6886814822
 20
418.9450413005
 40
1.5
100
AcDbArc
 50
100.9014623992
 51
178.9185191397
  0
ARC
  5
2E6
100
AcDbEntity
  8
0
100
AcDbCircle
 62
7
  6
CONTINUOUS
 10
419.2158788902
 20
436.8999257596
 40
1.5
100
AcDbArc
 50
89.9999999835
 51
228.1897019206
  0
ARC
  5
2E7
100
AcDbEntity
  8
0
100
AcDbCircle
 62
7
  6
CONTINUOUS
 10
418.2158788906
 20
421.3999257599
 40
1.0
100
AcDbArc
 50
280.9015398082
 51
360.0
  0
ARC
  5
2E8
100
AcDbEntity
  8
0
100
AcDbCircle
 62
7
  6
CONTINUOUS
 10
419.21587889
 20
469.5458237937
 40
3.0
100
AcDbArc
 50
0.0
 51
48.1896709962
  0
ARC
  5
2E9
100
AcDbEntity
  8
0
100
AcDbCircle
 62
7
  6
CONTINUOUS
 10
420.7158788904
 20
487.545823793
 40
3.0
100
AcDbArc
 50
0.0
 51
48.1896391541
  0
ARC
  5
2EA
100
AcDbEntity
  8
0
100
AcDbCircle
 62
7
  6
CONTINUOUS
 10
417.7158788905
 20
451.5458237933
 40
3.0
100
AcDbArc
 50
0.0
 51
48.1896746078
  0
ARC
  5
2EB
100
AcDbEntity
  8
0
100
AcDbCircle
 62
7
  6
CONTINUOUS
 10
422.2158788901
 20
472.8999257593
 40
1.5
100
AcDbArc
 50
90.0000082827
 51
228.1897133038
  0
ARC
  5
2EC
100
AcDbEntity
  8
0
100
AcDbCircle
 62
7
  6
CONTINUOUS
 10
420.7158788907
 20
454.8999257599
 40
1.5
100
AcDbArc
 50
90.0000304546
 51
228.1897061089
  0
ARC
  5
2ED
100
AcDbEntity
  8
0
100
AcDbCircle
 62
7
  6
CONTINUOUS
 10
419.715258144
 20
439.4036330686
 40
1.0037235108
100
AcDbArc
 50
270.0302378353
 51
287.0375699119
  0
ARC
  5
2EE
100
AcDbEntity
  8
0
100
AcDbCircle
 62
7
  6
CONTINUOUS
 10
422.7152615766
 20
475.403609983
 40
1.0037004224
100
AcDbArc
 50
270.0300415258
 51
287.0417910464
  0
ARC
  5
2EF
100
AcDbEntity
  8
0
100
AcDbCircle
 62
7
  6
CONTINUOUS
 10
421.2152628522
 20
457.4036011857
 40
1.003691624
100
AcDbArc
 50
270.0299695174
 51
287.0437245914
  0
ARC
  5
2F0
100
AcDbEntity
  8
0
100
AcDbCircle
 62
7
  6
CONTINUOUS
 10
419.7181696317
 20
439.3981474852
 40
0.9967725331
100
AcDbArc
 50
305.4351901491
 51
321.0450662793
  0
ARC
  5
2F1
100
AcDbEntity
  8
0
100
AcDbCircle
 62
9
  6
CONTINUOUS
 10
452.755322816
 20
-94.2899705715
 40
15.5125499583
100
AcDbArc
 50
220.6981470376
 51
221.2374284201
  0
ARC
  5
2F2
100
AcDbEntity
  8
0
100
AcDbCircle
 62
9
  6
CONTINUOUS
 10
429.3852251955
 20
-108.6005979293
 40
12.0813242737
100
AcDbArc
 50
19.5595632287
 51
21.7205519551
  0
ARC
  5
2F3
100
AcDbEntity
  8
0
100
AcDbCircle
 62
9
  6
CONTINUOUS
 10
447.183260669
 20
-99.0958990739
 40
8.1542467786
100
AcDbArc
 50
217.5243625388
 51
220.6261637131
  0
ARC
  5
2F4
100
AcDbEntity
  8
0
100
AcDbCircle
 62
9
  6
CONTINUOUS
 10
435.4452039081
 20
-106.4808187001
 40
5.6614559415
100
AcDbArc
 50
18.326885761
 51
19.8767824294
  0
ARC
  5
2F5
100
AcDbEntity
  8
0
100
AcDbCircle
 62
9
  6
CONTINUOUS
 10
440.4935609022
 20
-99.9534213657
 40
3.3107678265
100
AcDbArc
 50
325.6052864685
 51
328.6718620759
  0
ARC
  5
2F6
100
AcDbEntity
  8
0
100
AcDbCircle
 62
9
  6
CONTINUOUS
 10
439.0294764338
 20
-98.3733873384
 40
2.2306152428
100
AcDbArc
 50
301.4935540994
 51
318.5879738902
  0
ARC
  5
2F7
100
AcDbEntity
  8
0
100
AcDbCircle
 62
9
  6
CONTINUOUS
 10
439.0392261591
 20
-98.3894340818
 40
2.2118746628
100
AcDbArc
 50
297.767084843
 51
301.4848206317
  0
ARC
  5
2F8
100
AcDbEntity
  8
0
100
AcDbCircle
 62
9
  6
CONTINUOUS
 10
455.9588440808
 20
-101.1848591689
 40
2.0079309283
100
AcDbArc
 50
316.0629218699
 51
0.0712200564
  0
ARC
  5
2F9
100
AcDbEntity
  8
0
100
AcDbCircle
 62
6
  6
CONTINUOUS
 10
443.1667597894
 20
-105.5193690016
 40
2.0
100
AcDbArc
 50
91.499945911
 51
158.5177791351
  0
ARC
  5
2FA
100
AcDbEntity
  8
0
100
AcDbCircle
 62
6
  6
CONTINUOUS
 10
458.2158776225
 20
-101.1239395676
 40
1.9999999024
100
AcDbArc
 50
271.5004839586
 51
360.0
  0
ARC
  5
2FB
100
AcDbEntity
  8
0
100
AcDbCircle
 62
6
  6
CONTINUOUS
 10
458.2153741956
 20
-67.1328286562
 40
1.9999986878
100
AcDbArc
 50
0.0
 51
44.9839233168
  0
ARC
  5
2FC
100
AcDbEntity
  8
0
100
AcDbCircle
 62
9
  6
CONTINUOUS
 10
455.9705561543
 20
-101.1918793088
 40
1.9946283524
100
AcDbArc
 50
301.2665426638
 51
315.9746953345
  0
ARC
  5
2FD
100
AcDbEntity
  8
0
100
AcDbCircle
 62
9
  6
CONTINUOUS
 10
456.5636151789
 20
-65.4479718725
 40
1.9784193276
100
AcDbArc
 50
359.2594210269
 51
21.9721209628
  0
ARC
  5
2FE
100
AcDbEntity
  8
0
100
AcDbCircle
 62
9
  6
CONTINUOUS
 10
439.1427788161
 20
-105.3405804808
 40
1.7916045649
100
AcDbArc
 50
13.3049164283
 51
14.2864933111
  0
ARC
  5
2FF
100
AcDbEntity
  8
0
100
AcDbCircle
 62
6
  6
CONTINUOUS
 10
440.8404299873
 20
-104.6038420213
 40
0.5
100
AcDbArc
 50
273.9753753211
 51
338.5183038096
  0
ARC
  5
300
100
AcDbEntity
  8
0
100
AcDbCircle
 62
9
  6
CONTINUOUS
 10
440.8457502629
 20
-104.5978553295
 40
0.497252603
100
AcDbArc
 50
274.9401086641
 51
338.2912584816
  0
ARC
  5
301
100
AcDbEntity
  8
0
100
AcDbCircle
 62
9
  6
CONTINUOUS
 10
433.054622285
 20
301.5452919931
 40
27.3188385239
100
AcDbArc
 50
335.8941351432
 51
338.0990096593
  0
ARC
  5
302
100
AcDbEntity
  8
0
100
AcDbCircle
 62
9
  6
CONTINUOUS
 10
432.2343167451
 20
302.4687054991
 40
27.2281914476
100
AcDbArc
 50
335.8795674178
 51
338.1145871623
  0
ARC
  5
303
100
AcDbEntity
  8
0
100
AcDbCircle
 62
9
  6
CONTINUOUS
 10
432.8311025794
 20
304.2385594255
 40
6.5
100
AcDbArc
 50
122.5789703915
 51
180.0000000316
  0
ARC
  5
304
100
AcDbEntity
  8
0
100
AcDbCircle
 62
9
  6
CONTINUOUS
 10
432.8311025794
 20
304.2385594255
 40
6.5
100
AcDbArc
 50
0.0000000021
 51
57.4210296009
  0
ARC
  5
305
100
AcDbEntity
  8
0
100
AcDbCircle
 62
7
  6
CONTINUOUS
 10
432.8311025794
 20
304.2385594255
 40
6.0
100
AcDbArc
 50
0.0
 51
57.4210296107
  0
ARC
  5
306
100
AcDbEntity
  8
0
100
AcDbCircle
 62
7
  6
CONTINUOUS
 10
432.8311025794
 20
304.2385594255
 40
6.0
100
AcDbArc
 50
122.5789703894
 51
180.0000000006
  0
ARC
  5
307
100
AcDbEntity
  8
0
100
AcDbCircle
 62
7
  6
CONTINUOUS
 10
432.8311025797
 20
303.4347118481
 40
2.2
100
AcDbArc
 50
359.9999998806
 51
179.9999999215
  0
ARC
  5
308
100
AcDbEntity
  8
0
100
AcDbCircle
 62
9
  6
CONTINUOUS
 10
439.0639246108
 20
287.6980622934
 40
2.1700770237
100
AcDbArc
 50
42.9789936697
 51
52.7342817801
  0
ARC
  5
309
100
AcDbEntity
  8
0
100
AcDbCircle
 62
9
  6
CONTINUOUS
 10
439.0857570425
 20
287.7263759898
 40
2.1343248347
100
AcDbArc
 50
52.7404726339
 51
62.4361792823
  0
ARC
  5
30A
100
AcDbEntity
  8
0
100
AcDbCircle
 62
7
  6
CONTINUOUS
 10
436.3311025793
 20
309.9347118481
 40
0.5
100
AcDbArc
 50
90.0
 51
179.9999999919
  0
ARC
  5
30B
100
AcDbEntity
  8
0
100
AcDbCircle
 62
7
  6
CONTINUOUS
 10
440.3311025798
 20
309.9347118482
 40
0.5
100
AcDbArc
 50
0.0
 51
90.0000000547
  0
ARC
  5
30C
100
AcDbEntity
  8
0
100
AcDbCircle
 62
7
  6
CONTINUOUS
 10
436.3311025793
 20
309.7157850005
 40
0.5
100
AcDbArc
 50
179.9999999235
 51
237.4210295767
  0
ARC
  5
30D
100
AcDbEntity
  8
0
100
AcDbCircle
 62
7
  6
CONTINUOUS
 10
429.3311025799
 20
309.7157850005
 40
0.5
100
AcDbArc
 50
302.5789703876
 51
0.0000000719
  0
ARC
  5
30E
100
AcDbEntity
  8
0
100
AcDbCircle
 62
7
  6
CONTINUOUS
 10
425.3311025793
 20
309.9347118482
 40
0.5
100
AcDbArc
 50
89.9999999578
 51
180.0000000033
  0
ARC
  5
30F
100
AcDbEntity
  8
0
100
AcDbCircle
 62
7
  6
CONTINUOUS
 10
429.3311025799
 20
309.9347118481
 40
0.5
100
AcDbArc
 50
0.0000000034
 51
90.0
  0
ARC
  5
310
100
AcDbEntity
  8
0
100
AcDbCircle
 62
7
  6
CONTINUOUS
 10
423.7158788906
 20
490.8999257596
 40
1.5
100
AcDbArc
 50
89.9999999973
 51
228.1897770133
  0
ARC
  5
311
100
AcDbEntity
  8
0
100
AcDbCircle
 62
9
  6
CONTINUOUS
 10
450.3992308867
 20
292.3184628952
 40
6.9103524503
100
AcDbArc
 50
335.1512561207
 51
338.3810088656
  0
ARC
  5
312
100
AcDbEntity
  8
0
100
AcDbCircle
 62
9
  6
CONTINUOUS
 10
450.8267991129
 20
292.1584072274
 40
6.4538542994
100
AcDbArc
 50
338.3035028367
 51
341.2908888989
  0
ARC
  5
313
100
AcDbEntity
  8
0
100
AcDbCircle
 62
7
  6
CONTINUOUS
 10
449.3311025797
 20
301.4347118481
 40
5.0
100
AcDbArc
 50
0.0
 51
90.000000003
  0
ARC
  5
314
100
AcDbEntity
  8
0
100
AcDbCircle
 62
9
  6
CONTINUOUS
 10
449.3311025797
 20
301.4347118481
 40
4.5
100
AcDbArc
 50
0.0000000523
 51
90.0000000013
  0
ARC
  5
315
100
AcDbEntity
  8
0
100
AcDbCircle
 62
9
  6
CONTINUOUS
 10
456.6838666667
 20
336.789391923
 40
3.535786069
100
AcDbArc
 50
65.7247619191
 51
73.5644249942
  0
ARC
  5
316
100
AcDbEntity
  8
0
100
AcDbCircle
 62
9
  6
CONTINUOUS
 10
443.8311025792
 20
309.4347118482
 40
3.5
100
AcDbArc
 50
211.0027191304
 51
227.2559367297
  0
ARC
  5
317
100
AcDbEntity
  8
0
100
AcDbCircle
 62
7
  6
CONTINUOUS
 10
443.8311025792
 20
309.4347118482
 40
3.0
100
AcDbArc
 50
180.0000000015
 51
221.8932123813
  0
ARC
  5
318
100
AcDbEntity
  8
0
100
AcDbCircle
 62
7
  6
CONTINUOUS
 10
443.0311025795
 20
294.4347118481
 40
2.2
100
AcDbArc
 50
359.9999999116
 51
23.5427751927
  0
ARC
  5
319
100
AcDbEntity
  8
0
100
AcDbCircle
 62
7
  6
CONTINUOUS
 10
443.0311025795
 20
294.4347118481
 40
2.2
100
AcDbArc
 50
156.4571082013
 51
180.0000000892
  0
ARC
  5
31A
100
AcDbEntity
  8
0
100
AcDbCircle
 62
7
  6
CONTINUOUS
 10
443.0311025783
 20
294.4347118482
 40
2.0
100
AcDbArc
 50
299.5859417995
 51
359.9999999755
  0
ARC
  5
31B
100
AcDbEntity
  8
0
100
AcDbCircle
 62
7
  6
CONTINUOUS
 10
459.5209536031
 20
343.087625897
 40
2.0000000001
100
AcDbArc
 50
335.7774031116
 51
155.7774031132
  0
ARC
  5
31C
100
AcDbEntity
  8
0
100
AcDbCircle
 62
7
  6
CONTINUOUS
 10
443.0311025791
 20
294.4347118482
 40
2.0
100
AcDbArc
 50
180.0000000015
 51
237.2316519638
  0
ARC
  5
31D
100
AcDbEntity
  8
0
100
AcDbCircle
 62
6
  6
CONTINUOUS
 10
458.2156018439
 20
248.8489541128
 40
1.9999962822
100
AcDbArc
 50
300.0020203544
 51
360.0
  0
ARC
  5
31E
100
AcDbEntity
  8
0
100
AcDbCircle
 62
6
  6
CONTINUOUS
 10
457.3778080065
 20
291.3328429046
 40
1.0250486606
100
AcDbArc
 50
41.7689846602
 51
55.1850097573
  0
ARC
  5
31F
100
AcDbEntity
  8
0
100
AcDbCircle
 62
6
  6
CONTINUOUS
 10
457.3854195879
 20
291.3425911637
 40
1.0126999039
100
AcDbArc
 50
55.2236831138
 51
69.1164385335
  0
ARC
  5
320
100
AcDbEntity
  8
0
100
AcDbCircle
 62
6
  6
CONTINUOUS
 10
457.3908621669
 20
291.3450840246
 40
1.009405008
100
AcDbArc
 50
83.1466543474
 51
88.5689998939
  0
ARC
  5
321
100
AcDbEntity
  8
0
100
AcDbCircle
 62
6
  6
CONTINUOUS
 10
457.3894232309
 20
291.3509503672
 40
1.0034629534
100
AcDbArc
 50
69.1598802144
 51
83.0246295474
  0
ARC
  5
322
100
AcDbEntity
  8
0
100
AcDbCircle
 62
7
  6
CONTINUOUS
 10
454.6595297047
 20
297.3999257596
 40
1.0
100
AcDbArc
 50
0.0
 51
90.0000244897
  0
ARC
  5
323
100
AcDbEntity
  8
0
100
AcDbCircle
 62
6
  6
CONTINUOUS
 10
459.2158488145
 20
291.306465169
 40
0.9999999214
100
AcDbArc
 50
0.0
 51
88.499358402
  0
ARC
  5
324
100
AcDbEntity
  8
0
100
AcDbCircle
 62
7
  6
CONTINUOUS
 10
453.8311025796
 20
309.9347118481
 40
0.5
100
AcDbArc
 50
0.0
 51
90.0
  0
ARC
  5
325
100
AcDbEntity
  8
0
100
AcDbCircle
 62
7
  6
CONTINUOUS
 10
445.7158788907
 20
454.8999257599
 40
1.5
100
AcDbArc
 50
311.8102938911
 51
90.0000000194
  0
ARC
  5
326
100
AcDbEntity
  8
0
100
AcDbCircle
 62
7
  6
CONTINUOUS
 10
442.7158788906
 20
490.8999257596
 40
1.5
100
AcDbArc
 50
311.8102229867
 51
90.0
  0
ARC
  5
327
100
AcDbEntity
  8
0
100
AcDbCircle
 62
9
  6
CONTINUOUS
 10
443.7309034385
 20
475.4146371043
 40
1.025140154
100
AcDbArc
 50
209.8378199047
 51
220.1481763692
  0
ARC
  5
328
100
AcDbEntity
  8
0
100
AcDbCircle
 62
9
  6
CONTINUOUS
 10
443.7228859242
 20
475.4188485501
 40
1.022480704
100
AcDbArc
 50
230.847433666
 51
241.4244190005
  0
ARC
  5
329
100
AcDbEntity
  8
0
100
AcDbCircle
 62
7
  6
CONTINUOUS
 10
443.7164961957
 20
475.4036099304
 40
1.0037003687
100
AcDbArc
 50
252.9581978254
 51
269.9699589226
  0
ARC
  5
32A
100
AcDbEntity
  8
0
100
AcDbCircle
 62
9
  6
CONTINUOUS
 10
443.7124000081
 20
475.3987647569
 40
0.9998278604
100
AcDbArc
 50
241.4016206419
 51
247.5738879694
  0
ARC
  5
32B
100
AcDbEntity
  8
0
100
AcDbCircle
 62
9
  6
CONTINUOUS
 10
443.7094830248
 20
475.3989711837
 40
0.9989880209
100
AcDbArc
 50
250.5840995139
 51
269.9731307996
  0
ARC
  5
32C
100
AcDbEntity
  8
0
100
AcDbCircle
 62
9
  6
CONTINUOUS
 10
443.7043772176
 20
475.4006836969
 40
0.9951884533
100
AcDbArc
 50
199.4814848069
 51
209.9008233992
  0
ARC
  5
32D
100
AcDbEntity
  8
0
100
AcDbCircle
 62
9
  6
CONTINUOUS
 10
443.698751806
 20
475.3969827691
 40
0.9886521484
100
AcDbArc
 50
186.111740856
 51
199.3880082171
  0
ARC
  5
32E
100
AcDbEntity
  8
0
100
AcDbCircle
 62
9
  6
CONTINUOUS
 10
443.6993480373
 20
475.3891342335
 40
0.9845768212
100
AcDbArc
 50
220.1977568164
 51
230.8178491515
  0
ARC
  5
32F
100
AcDbEntity
  8
0
100
AcDbCircle
 62
9
  6
CONTINUOUS
 10
443.7008374873
 20
475.3719634631
 40
0.9706425928
100
AcDbArc
 50
247.601253839
 51
250.5354530891
  0
ARC
  5
330
100
AcDbEntity
  8
0
100
AcDbCircle
 62
9
  6
CONTINUOUS
 10
443.6756515732
 20
475.3951679071
 40
0.9654902116
100
AcDbArc
 50
179.7176501941
 51
186.1506041665
  0
ARC
  5
331
100
AcDbEntity
  8
0
100
AcDbCircle
 62
7
  6
CONTINUOUS
 10
444.2158788901
 20
472.8999257593
 40
1.5
100
AcDbArc
 50
311.8102866962
 51
89.9999999952
  0
ARC
  5
332
100
AcDbEntity
  8
0
100
AcDbCircle
 62
9
  6
CONTINUOUS
 10
445.2315683359
 20
457.4146464574
 40
1.0250303088
100
AcDbArc
 50
209.5505969283
 51
220.3315195215
  0
ARC
  5
333
100
AcDbEntity
  8
0
100
AcDbCircle
 62
9
  6
CONTINUOUS
 10
445.2236884016
 20
457.4188993357
 40
1.0224989062
100
AcDbArc
 50
230.6861495199
 51
241.6097511456
  0
ARC
  5
334
100
AcDbEntity
  8
0
100
AcDbCircle
 62
7
  6
CONTINUOUS
 10
445.2164949292
 20
457.4036011867
 40
1.0036916267
100
AcDbArc
 50
252.9562754585
 51
269.9700304823
  0
ARC
  5
335
100
AcDbEntity
  8
0
100
AcDbCircle
 62
9
  6
CONTINUOUS
 10
445.2110826559
 20
457.4013930308
 40
1.001483497
100
AcDbArc
 50
260.963384816
 51
269.9668330778
  0
ARC
  5
336
100
AcDbEntity
  8
0
100
AcDbCircle
 62
9
  6
CONTINUOUS
 10
445.213041479
 20
457.3984073968
 40
0.9994092739
100
AcDbArc
 50
241.5881388835
 51
247.5832390682
  0
ARC
  5
337
100
AcDbEntity
  8
0
100
AcDbCircle
 62
9
  6
CONTINUOUS
 10
445.2097993804
 20
457.3969333745
 40
0.996877796
100
AcDbArc
 50
250.4925245683
 51
260.9959668928
  0
ARC
  5
338
100
AcDbEntity
  8
0
100
AcDbCircle
 62
9
  6
CONTINUOUS
 10
445.2043424104
 20
457.4004170153
 40
0.9943286249
100
AcDbArc
 50
199.6414547895
 51
209.6110501856
  0
ARC
  5
339
100
AcDbEntity
  8
0
100
AcDbCircle
 62
9
  6
CONTINUOUS
 10
445.1994816924
 20
457.39702065
 40
0.988610338
100
AcDbArc
 50
185.2414117913
 51
199.5507597151
  0
ARC
  5
33A
100
AcDbEntity
  8
0
100
AcDbCircle
 62
9
  6
CONTINUOUS
 10
445.1996039632
 20
457.3886683841
 40
0.9838506193
100
AcDbArc
 50
220.3830137705
 51
230.6558933137
  0
ARC
  5
33B
100
AcDbEntity
  8
0
100
AcDbCircle
 62
9
  6
CONTINUOUS
 10
445.2016946575
 20
457.3720544115
 40
0.9707207581
100
AcDbArc
 50
247.6092051488
 51
250.4530768963
  0
ARC
  5
33C
100
AcDbEntity
  8
0
100
AcDbCircle
 62
9
  6
CONTINUOUS
 10
445.1731318763
 20
457.395075041
 40
0.9621930789
100
AcDbArc
 50
179.7111527112
 51
185.2693777181
  0
ARC
  5
33D
100
AcDbEntity
  8
0
100
AcDbCircle
 62
7
  6
CONTINUOUS
 10
445.7158788904
 20
487.545823793
 40
3.0
100
AcDbArc
 50
131.8103608459
 51
180.0
  0
ARC
  5
33E
100
AcDbEntity
  8
0
100
AcDbCircle
 62
7
  6
CONTINUOUS
 10
450.2158788901
 20
433.545823794
 40
3.0
100
AcDbArc
 50
131.8103233122
 51
180.0
  0
ARC
  5
33F
100
AcDbEntity
  8
0
100
AcDbCircle
 62
7
  6
CONTINUOUS
 10
448.7158788905
 20
451.5458237933
 40
3.0
100
AcDbArc
 50
131.8103253937
 51
180.0
  0
ARC
  5
340
100
AcDbEntity
  8
0
100
AcDbCircle
 62
7
  6
CONTINUOUS
 10
447.7430762982
 20
418.9450413005
 40
1.5
100
AcDbArc
 50
1.0814808603
 51
79.0985376008
  0
ARC
  5
341
100
AcDbEntity
  8
0
100
AcDbCircle
 62
7
  6
CONTINUOUS
 10
447.2158788902
 20
436.8999257596
 40
1.5
100
AcDbArc
 50
311.8102980794
 51
90.0000000109
  0
ARC
  5
342
100
AcDbEntity
  8
0
100
AcDbCircle
 62
9
  6
CONTINUOUS
 10
446.7320653135
 20
439.4146409021
 40
1.0249349192
100
AcDbArc
 50
209.3350509875
 51
220.4703943393
  0
ARC
  5
343
100
AcDbEntity
  8
0
100
AcDbCircle
 62
9
  6
CONTINUOUS
 10
446.7242887387
 20
439.4189210011
 40
1.0224970272
100
AcDbArc
 50
230.5669893483
 51
241.7484739853
  0
ARC
  5
344
100
AcDbEntity
  8
0
100
AcDbCircle
 62
7
  6
CONTINUOUS
 10
446.7164996371
 20
439.4036330765
 40
1.0037235146
100
AcDbArc
 50
252.9624302866
 51
269.9697621584
  0
ARC
  5
345
100
AcDbEntity
  8
0
100
AcDbCircle
 62
9
  6
CONTINUOUS
 10
446.7118136613
 20
439.4022557755
 40
1.0023462632
100
AcDbArc
 50
250.4615171899
 51
269.9645105755
  0
ARC
  5
346
100
AcDbEntity
  8
0
100
AcDbCircle
 62
7
  6
CONTINUOUS
 10
448.2158788906
 20
421.3999257599
 40
1.0
100
AcDbArc
 50
180.0
 51
259.0984601918
  0
ARC
  5
347
100
AcDbEntity
  8
0
100
AcDbCircle
 62
9
  6
CONTINUOUS
 10
446.7135196014
 20
439.3981190215
 40
0.999075586
100
AcDbArc
 50
241.7278182953
 51
247.5885149324
  0
ARC
  5
348
100
AcDbEntity
  8
0
100
AcDbCircle
 62
9
  6
CONTINUOUS
 10
446.7043293748
 20
439.400214848
 40
0.9936885304
100
AcDbArc
 50
199.7630824221
 51
209.3934071551
  0
ARC
  5
349
100
AcDbEntity
  8
0
100
AcDbCircle
 62
9
  6
CONTINUOUS
 10
446.6999848458
 20
439.3970290657
 40
0.9885238681
100
AcDbArc
 50
184.5840419262
 51
199.6744535227
  0
ARC
  5
34A
100
AcDbEntity
  8
0
100
AcDbCircle
 62
9
  6
CONTINUOUS
 10
446.7011266932
 20
439.3903725864
 40
0.985735216
100
AcDbArc
 50
225.7832391797
 51
230.5528277995
  0
ARC
  5
34B
100
AcDbEntity
  8
0
100
AcDbCircle
 62
9
  6
CONTINUOUS
 10
446.6964792483
 20
439.3847158146
 40
0.9784401518
100
AcDbArc
 50
220.489839257
 51
225.7472823108
  0
ARC
  5
34C
100
AcDbEntity
  8
0
100
AcDbCircle
 62
9
  6
CONTINUOUS
 10
446.7023358384
 20
439.3721080442
 40
0.970765446
100
AcDbArc
 50
247.6134346411
 51
250.3936107352
  0
ARC
  5
34D
100
AcDbEntity
  8
0
100
AcDbCircle
 62
9
  6
CONTINUOUS
 10
446.6710727587
 20
439.3950112891
 40
0.9595430491
100
AcDbArc
 50
179.7065482125
 51
184.6019177344
  0
ARC
  5
34E
100
AcDbEntity
  8
0
100
AcDbCircle
 62
7
  6
CONTINUOUS
 10
447.21587889
 20
469.5458237937
 40
3.0
100
AcDbArc
 50
131.8103290038
 51
180.0
  0
ARC
  5
34F
100
AcDbEntity
  8
0
100
AcDbCircle
 62
9
  6
CONTINUOUS
 10
437.3316333974
 20
1672.7965719025
 40
1384.9011662828
100
AcDbArc
 50
268.7125841682
 51
269.0024247061
  0
ARC
  5
350
100
AcDbEntity
  8
0
100
AcDbCircle
 62
9
  6
CONTINUOUS
 10
436.9307135403
 20
1650.2876050541
 40
1362.3886310321
100
AcDbArc
 50
269.0028021896
 51
269.1288466891
  0
ARC
  5
351
100
AcDbEntity
  8
0
100
AcDbCircle
 62
9
  6
CONTINUOUS
 10
435.4251364306
 20
1244.9474572123
 40
955.7719190143
100
AcDbArc
 50
270.6131217307
 51
271.273662009
  0
ARC
  5
352
100
AcDbEntity
  8
0
100
AcDbCircle
 62
9
  6
CONTINUOUS
 10
434.5440556179
 20
1242.1503510832
 40
951.07579377
100
AcDbArc
 50
270.6451772446
 51
271.3580759467
  0
ARC
  5
353
100
AcDbEntity
  8
0
100
AcDbCircle
 62
6
  6
CONTINUOUS
 10
524.2158788902
 20
-71.3053466785
 40
140.0
100
AcDbArc
 50
179.9999999973
 51
191.7075464
  0
ARC
  5
354
100
AcDbEntity
  8
0
100
AcDbCircle
 62
9
  6
CONTINUOUS
 10
534.0053211342
 20
-61.0835789858
 40
75.7976342531
100
AcDbArc
 50
179.9395455766
 51
180.6964219641
  0
ARC
  5
355
100
AcDbEntity
  8
0
100
AcDbCircle
 62
9
  6
CONTINUOUS
 10
498.9035614225
 20
-59.5064577976
 40
69.7674594153
100
AcDbArc
 50
215.393272148
 51
216.2062329961
  0
ARC
  5
356
100
AcDbEntity
  8
0
100
AcDbCircle
 62
9
  6
CONTINUOUS
 10
497.6374038155
 20
-60.4596031354
 40
68.1827884148
100
AcDbArc
 50
216.1884363924
 51
217.1914516221
  0
ARC
  5
357
100
AcDbEntity
  8
0
100
AcDbCircle
 62
9
  6
CONTINUOUS
 10
507.8111000116
 20
244.0000567628
 40
49.6034119012
100
AcDbArc
 50
179.0875913255
 51
180.0494065049
  0
ARC
  5
358
100
AcDbEntity
  8
0
100
AcDbCircle
 62
9
  6
CONTINUOUS
 10
501.6237525323
 20
-61.4621959895
 40
43.4139015851
100
AcDbArc
 50
180.7162591269
 51
181.9697783595
  0
ARC
  5
359
100
AcDbEntity
  8
0
100
AcDbCircle
 62
9
  6
CONTINUOUS
 10
490.3561345082
 20
244.2787635483
 40
32.1462466058
100
AcDbArc
 50
177.6968606042
 51
179.0888288535
  0
ARC
  5
35A
100
AcDbEntity
  8
0
100
AcDbCircle
 62
9
  6
CONTINUOUS
 10
476.1307735413
 20
-62.6936511057
 40
17.888368979
100
AcDbArc
 50
183.9227727858
 51
185.2147830068
  0
ARC
  5
35B
100
AcDbEntity
  8
0
100
AcDbCircle
 62
9
  6
CONTINUOUS
 10
473.9482757744
 20
245.2060091157
 40
15.7101564933
100
AcDbArc
 50
174.2091014276
 51
175.5337529317
  0
ARC
  5
35C
100
AcDbEntity
  8
0
100
AcDbCircle
 62
9
  6
CONTINUOUS
 10
470.514353241
 20
-63.2192311675
 40
12.2474322509
100
AcDbArc
 50
185.1542898776
 51
186.6750359021
  0
SPLINE
  5
35D
100
AcDbEntity
  8
0
100
AcDbSpline
 62
9
  6
CONTINUOUS
 70
0
 71
3
 72
11
 73
7
 74
0
 42
0.0000001
 43
0.0000001
 44
0.0000000001
 40
0.0
 40
0.0
 40
0.0
 40
0.0
 40
0.2984519863
 40
0.5623089433
 40
0.7921813168
 40
1.0
 40
1.0
 40
1.0
 40
1.0
 10
445.9135779863
 20
307.9154924422
 30
0.0
 10
445.9882331848
 20
307.7026012107
 30
0.0
 10
446.1642800002
 20
307.312083589
 30
0.0
 10
446.5296882162
 20
306.8297617586
 30
0.0
 10
446.9670248065
 20
306.5122193149
 30
0.0
 10
447.3008769047
 20
306.4347118482
 30
0.0
 10
447.4579682509
 20
306.4347118482
 30
0.0
  0
SPLINE
  5
35E
100
AcDbEntity
  8
0
100
AcDbSpline
 62
9
  6
CONTINUOUS
 70
0
 71
3
 72
9
 73
5
 74
0
 42
0.0000001
 43
0.0000001
 44
0.0000000001
 40
0.0
 40
0.0
 40
0.0
 40
0.0
 40
0.2530507172
 40
1.0
 40
1.0
 40
1.0
 40
1.0
 10
451.1830735611
 20
306.781104312
 30
0.0
 10
451.2939035642
 20
306.8184993368
 30
0.0
 10
451.7287852843
 20
306.9752276589
 30
0.0
 10
452.1515113335
 20
307.1661750825
 30
0.0
 10
452.4561883464
 20
307.3285949106
 30
0.0
  0
SPLINE
  5
35F
100
AcDbEntity
  8
0
100
AcDbSpline
 62
9
  6
CONTINUOUS
 70
0
 71
3
 72
9
 73
5
 74
0
 42
0.0000001
 43
0.0000001
 44
0.0000000001
 40
0.0
 40
0.0
 40
0.0
 40
0.0
 40
0.482418797
 40
1.0
 40
1.0
 40
1.0
 40
1.0
 10
449.3311025799
 20
306.4347118481
 30
0.0
 10
449.6350434642
 20
306.435135202
 30
0.0
 10
450.2653497038
 20
306.5079240599
 30
0.0
 10
450.8740927634
 20
306.676851454
 30
0.0
 10
451.1830735608
 20
306.7811043121
 30
0.0
  0
SPLINE
  5
360
100
AcDbEntity
  8
0
100
AcDbSpline
 62
9
  6
CONTINUOUS
 70
0
 71
3
 72
14
 73
10
 74
0
 42
0.0000001
 43
0.0000001
 44
0.0000000001
 40
0.0
 40
0.0
 40
0.0
 40
0.0
 40
0.1441668814
 40
0.2773397763
 40
0.4038818723
 40
0.5264532573
 40
0.7643448708
 40
0.8816380372
 40
1.0
 40
1.0
 40
1.0
 40
1.0
 10
451.6984495175
 20
309.4347118482
 30
0.0
 10
451.9107254488
 20
309.4346695959
 30
0.0
 10
452.3213237725
 20
309.3775069697
 30
0.0
 10
452.8743465951
 20
309.1442893505
 30
0.0
 10
453.3334920069
 20
308.8109292828
 30
0.0
 10
453.8199797289
 20
308.2790930658
 30
0.0
 10
454.1450807924
 20
307.6372417575
 30
0.0
 10
454.305366652
 20
306.9568012016
 30
0.0
 10
454.331102579
 20
306.6089917948
 30
0.0
 10
454.331102579
 20
306.4347118482
 30
0.0
  0
SPLINE
  5
361
100
AcDbEntity
  8
0
100
AcDbSpline
 62
9
  6
CONTINUOUS
 70
0
 71
3
 72
11
 73
7
 74
0
 42
0.0000001
 43
0.0000001
 44
0.0000000001
 40
0.0
 40
0.0
 40
0.0
 40
0.0
 40
0.3046715109
 40
0.5806255911
 40
0.8101158711
 40
1.0
 40
1.0
 40
1.0
 40
1.0
 10
419.9739597222
 20
309.9347118481
 30
0.0
 10
419.9739597222
 20
309.9989453831
 30
0.0
 10
419.9877163837
 20
310.1219822757
 30
0.0
 10
420.0485687443
 20
310.2835555529
 30
0.0
 10
420.1427102492
 20
310.401126617
 30
0.0
 10
420.231545723
 20
310.4347118481
 30
0.0
 10
420.2715787698
 20
310.4347118481
 30
0.0
  0
SPLINE
  5
362
100
AcDbEntity
  8
0
100
AcDbSpline
 62
9
  6
CONTINUOUS
 70
0
 71
3
 72
9
 73
5
 74
0
 42
0.0000001
 43
0.0000001
 44
0.0000000001
 40
0.0
 40
0.0
 40
0.0
 40
0.0
 40
0.4880426153
 40
1.0
 40
1.0
 40
1.0
 40
1.0
 10
451.6984495185
 20
309.4347118482
 30
0.0
 10
451.6984495185
 20
309.0648306403
 30
0.0
 10
451.8215133037
 20
308.3020445539
 30
0.0
 10
452.2023911868
 20
307.6220962497
 30
0.0
 10
452.4562395953
 20
307.3286519338
 30
0.0
  0
SPLINE
  5
363
100
AcDbEntity
  8
0
100
AcDbSpline
 62
9
  6
CONTINUOUS
 70
0
 71
3
 72
11
 73
7
 74
0
 42
0.0000001
 43
0.0000001
 44
0.0000000001
 40
0.0
 40
0.0
 40
0.0
 40
0.0
 40
0.2491849135
 40
0.5062438391
 40
0.7597249899
 40
1.0
 40
1.0
 40
1.0
 40
1.0
 10
451.1830735652
 20
306.7811043133
 30
0.0
 10
451.6297049207
 20
306.6113375368
 30
0.0
 10
452.4939317254
 20
306.1368781034
 30
0.0
 10
453.528170472
 20
305.0796110202
 30
0.0
 10
454.1842225712
 20
303.7719910027
 30
0.0
 10
454.3311025791
 20
302.8191565625
 30
0.0
 10
454.331102579
 20
302.3584333169
 30
0.0
  0
SPLINE
  5
364
100
AcDbEntity
  8
0
100
AcDbSpline
 62
7
  6
CONTINUOUS
 70
0
 71
3
 72
9
 73
5
 74
0
 42
0.0000001
 43
0.0000001
 44
0.0000000001
 40
0.0
 40
0.0
 40
0.0
 40
0.0
 40
0.4264942345
 40
1.0
 40
1.0
 40
1.0
 40
1.0
 10
453.898220365
 20
306.7985950851
 30
0.0
 10
453.7108543665
 20
306.9122340999
 30
0.0
 10
453.2416624337
 20
307.12942849
 30
0.0
 10
452.7445996921
 20
307.267470073
 30
0.0
 10
452.4563590702
 20
307.3286859242
 30
0.0
  0
SPLINE
  5
365
100
AcDbEntity
  8
0
100
AcDbSpline
 62
7
  6
CONTINUOUS
 70
0
 71
3
 72
11
 73
7
 74
0
 42
0.0000001
 43
0.0000001
 44
0.0000000001
 40
0.0
 40
0.0
 40
0.0
 40
0.0
 40
0.0684983331
 40
0.2645513133
 40
0.5774625294
 40
1.0
 40
1.0
 40
1.0
 40
1.0
 10
454.3311025792
 20
306.4347132995
 30
0.0
 10
454.323878267
 20
306.4455351015
 30
0.0
 10
454.2943102888
 20
306.4860716399
 30
0.0
 10
454.218303063
 20
306.5655075974
 30
0.0
 10
454.0830577917
 20
306.6794802905
 30
0.0
 10
453.9667268498
 20
306.7570453402
 30
0.0
 10
453.898220365
 20
306.7985950851
 30
0.0
  0
SPLINE
  5
366
100
AcDbEntity
  8
0
100
AcDbSpline
 62
9
  6
CONTINUOUS
 70
0
 71
3
 72
9
 73
5
 74
0
 42
0.0000001
 43
0.0000001
 44
0.0000000001
 40
0.0
 40
0.0
 40
0.0
 40
0.0
 40
0.2976545259
 40
1.0
 40
1.0
 40
1.0
 40
1.0
 10
444.2934159309
 20
310.4160968321
 30
0.0
 10
444.2162652691
 20
310.4388144698
 30
0.0
 10
443.9545265834
 20
310.5059201143
 30
0.0
 10
443.6837116996
 20
310.5397580401
 30
0.0
 10
443.4939389457
 20
310.5398404754
 30
0.0
  0
SPLINE
  5
367
100
AcDbEntity
  8
0
100
AcDbSpline
 62
9
  6
CONTINUOUS
 70
0
 71
3
 72
13
 73
9
 74
0
 42
0.0000001
 43
0.0000001
 44
0.0000000001
 40
0.0
 40
0.0
 40
0.0
 40
0.0
 40
0.0921648138
 40
0.1897636588
 40
0.2968140767
 40
0.415552555
 40
0.6885029637
 40
1.0
 40
1.0
 40
1.0
 40
1.0
 10
455.8603738274
 20
339.8256867963
 30
0.0
 10
455.8855984681
 20
339.8817410738
 30
0.0
 10
455.9557681852
 20
339.9897379284
 30
0.0
 10
456.1082052331
 20
340.1194872018
 30
0.0
 10
456.3025925135
 20
340.2168552807
 30
0.0
 10
456.6250270379
 20
340.3051278272
 30
0.0
 10
457.1002085503
 20
340.316251142
 30
0.0
 10
457.4849818639
 20
340.2393828647
 30
0.0
 10
457.684271516
 20
340.1807004114
 30
0.0
  0
SPLINE
  5
368
100
AcDbEntity
  8
0
100
AcDbSpline
 62
9
  6
CONTINUOUS
 70
0
 71
3
 72
14
 73
10
 74
0
 42
0.0000001
 43
0.0000001
 44
0.0000000001
 40
0.0
 40
0.0
 40
0.0
 40
0.0
 40
0.0858925463
 40
0.1863276868
 40
0.3060265151
 40
0.4432240134
 40
0.5901590187
 40
0.7372206049
 40
1.0
 40
1.0
 40
1.0
 40
1.0
 10
446.1172075752
 20
308.4200170402
 30
0.0
 10
446.151867462
 20
308.4975338295
 30
0.0
 10
446.1914515929
 20
308.6835051873
 30
0.0
 10
446.133950334
 20
308.9865429609
 30
0.0
 10
445.9701965958
 20
309.3037004033
 30
0.0
 10
445.7111614104
 20
309.6107245079
 30
0.0
 10
445.3855489665
 20
309.8883742459
 30
0.0
 10
444.9198904151
 20
310.1839626736
 30
0.0
 10
444.5426184027
 20
310.3427171446
 30
0.0
 10
444.2934159309
 20
310.4160968322
 30
0.0
  0
SPLINE
  5
369
100
AcDbEntity
  8
0
100
AcDbSpline
 62
9
  6
CONTINUOUS
 70
0
 71
3
 72
13
 73
9
 74
0
 42
0.0000001
 43
0.0000001
 44
0.0000000001
 40
0.0
 40
0.0
 40
0.0
 40
0.0
 40
0.3101817686
 40
0.5886994931
 40
0.7094916219
 40
0.8165420853
 40
0.9117888929
 40
1.0
 40
1.0
 40
1.0
 40
1.0
 10
458.1375005651
 20
340.01254746
 30
0.0
 10
458.3715776777
 20
339.907238051
 30
0.0
 10
458.7961349347
 20
339.6605394404
 30
0.0
 10
459.2298824905
 20
339.2526679727
 30
0.0
 10
459.4561592977
 20
338.8973700352
 30
0.0
 10
459.5514156864
 20
338.6449420423
 30
0.0
 10
459.5748834787
 20
338.4022491912
 30
0.0
 10
459.538123837
 20
338.2511382989
 30
0.0
 10
459.508169204
 20
338.1845730176
 30
0.0
  0
SPLINE
  5
36A
100
AcDbEntity
  8
0
100
AcDbSpline
 62
9
  6
CONTINUOUS
 70
0
 71
3
 72
12
 73
8
 74
0
 42
0.0000001
 43
0.0000001
 44
0.0000000001
 40
0.0
 40
0.0
 40
0.0
 40
0.0
 40
0.2387040028
 40
0.4895045945
 40
0.7429151566
 40
0.8702303064
 40
1.0
 40
1.0
 40
1.0
 40
1.0
 10
443.4939389453
 20
310.5398404762
 30
0.0
 10
443.3991843122
 20
310.539881491
 30
0.0
 10
443.2044856133
 20
310.5276235623
 30
0.0
 10
442.9157406953
 20
310.4597269948
 30
0.0
 10
442.6898410279
 20
310.3399425475
 30
0.0
 10
442.5447623141
 20
310.1963551703
 30
0.0
 10
442.4907419271
 20
310.1082264916
 30
0.0
 10
442.469700949
 20
310.0612070003
 30
0.0
  0
SPLINE
  5
36B
100
AcDbEntity
  8
0
100
AcDbSpline
 62
9
  6
CONTINUOUS
 70
0
 71
3
 72
11
 73
7
 74
0
 42
0.0000001
 43
0.0000001
 44
0.0000000001
 40
0.0
 40
0.0
 40
0.0
 40
0.0
 40
0.2621918703
 40
0.5225966294
 40
0.7713406855
 40
1.0
 40
1.0
 40
1.0
 40
1.0
 10
441.9781775805
 20
302.7439545177
 30
0.0
 10
441.9781775806
 20
303.4426755128
 30
0.0
 10
442.0419456745
 20
304.8362111512
 30
0.0
 10
442.3291912741
 20
306.8748544404
 30
0.0
 10
442.8001895622
 20
308.7873896152
 30
0.0
 10
443.242943989
 20
309.9841303403
 30
0.0
 10
443.4929536024
 20
310.5398406895
 30
0.0
  0
SPLINE
  5
36C
100
AcDbEntity
  8
0
100
AcDbSpline
 62
7
  6
CONTINUOUS
 70
0
 71
3
 72
9
 73
5
 74
0
 42
0.0000001
 43
0.0000001
 44
0.0000000001
 40
0.0
 40
0.0
 40
0.0
 40
0.0
 40
0.244460314
 40
1.0
 40
1.0
 40
1.0
 40
1.0
 10
443.4223423981
 20
474.4439808491
 30
0.0
 10
443.39585082
 20
474.4521144798
 30
0.0
 10
443.2889262159
 20
474.4899532858
 30
0.0
 10
443.1887166743
 20
474.5464827147
 30
0.0
 10
443.1198948809
 20
474.5974647787
 30
0.0
  0
SPLINE
  5
36D
100
AcDbEntity
  8
0
100
AcDbSpline
 62
7
  6
CONTINUOUS
 70
0
 71
3
 72
9
 73
5
 74
0
 42
0.0000001
 43
0.0000001
 44
0.0000000001
 40
0.0
 40
0.0
 40
0.0
 40
0.0
 40
0.5195774723
 40
1.0
 40
1.0
 40
1.0
 40
1.0
 10
443.1198948809
 20
474.5974647787
 30
0.0
 10
442.9913815131
 20
474.6926653891
 30
0.0
 10
442.7860154926
 20
474.9403489145
 30
0.0
 10
442.7150728187
 20
475.2520465783
 30
0.0
 10
442.71587889
 20
475.3999257599
 30
0.0
  0
SPLINE
  5
36E
100
AcDbEntity
  8
0
100
AcDbSpline
 62
7
  6
CONTINUOUS
 70
0
 71
3
 72
9
 73
5
 74
0
 42
0.0000001
 43
0.0000001
 44
0.0000000001
 40
0.0
 40
0.0
 40
0.0
 40
0.0
 40
0.2444582798
 40
1.0
 40
1.0
 40
1.0
 40
1.0
 10
423.0094152036
 20
474.4439807933
 30
0.0
 10
423.0359289283
 20
474.4521212181
 30
0.0
 10
423.1429425217
 20
474.4899958748
 30
0.0
 10
423.2432292681
 20
474.5465918935
 30
0.0
 10
423.3120948747
 20
474.597636672
 30
0.0
  0
SPLINE
  5
36F
100
AcDbEntity
  8
0
100
AcDbSpline
 62
7
  6
CONTINUOUS
 70
0
 71
3
 72
9
 73
5
 74
0
 42
0.0000001
 43
0.0000001
 44
0.0000000001
 40
0.0
 40
0.0
 40
0.0
 40
0.0
 40
0.51958079
 40
1.0
 40
1.0
 40
1.0
 40
1.0
 10
423.3120948747
 20
474.597636672
 30
0.0
 10
423.4405430067
 20
474.6928453947
 30
0.0
 10
423.6457871888
 20
474.9404922433
 30
0.0
 10
423.716684711
 20
475.252092541
 30
0.0
 10
423.71587889
 20
475.39992576
 30
0.0
  0
SPLINE
  5
370
100
AcDbEntity
  8
0
100
AcDbSpline
 62
7
  6
CONTINUOUS
 70
0
 71
3
 72
9
 73
5
 74
0
 42
0.0000001
 43
0.0000001
 44
0.0000000001
 40
0.0
 40
0.0
 40
0.0
 40
0.0
 40
0.2446064369
 40
1.0
 40
1.0
 40
1.0
 40
1.0
 10
420.0093478366
 20
438.4439601353
 30
0.0
 10
420.0343498911
 20
438.4516344794
 30
0.0
 10
420.135283875
 20
438.4870678673
 30
0.0
 10
420.2302732259
 20
438.5391786694
 30
0.0
 10
420.296080107
 20
438.5860052776
 30
0.0
  0
SPLINE
  5
371
100
AcDbEntity
  8
0
100
AcDbSpline
 62
7
  6
CONTINUOUS
 70
0
 71
3
 72
9
 73
5
 74
0
 42
0.0000001
 43
0.0000001
 44
0.0000000001
 40
0.0
 40
0.0
 40
0.0
 40
0.0
 40
0.5203402563
 40
1.0
 40
1.0
 40
1.0
 40
1.0
 10
420.4933005381
 20
438.771467694
 30
0.0
 10
420.566968907
 20
438.8628237154
 30
0.0
 10
420.6794622843
 20
439.0644755861
 30
0.0
 10
420.7164685751
 20
439.2917442846
 30
0.0
 10
420.7158788899
 20
439.3999257593
 30
0.0
  0
SPLINE
  5
372
100
AcDbEntity
  8
0
100
AcDbSpline
 62
7
  6
CONTINUOUS
 70
0
 71
3
 72
9
 73
5
 74
0
 42
0.0000001
 43
0.0000001
 44
0.0000000001
 40
0.0
 40
0.0
 40
0.0
 40
0.0
 40
0.2446081365
 40
1.0
 40
1.0
 40
1.0
 40
1.0
 10
421.5094462845
 20
456.4439903352
 30
0.0
 10
421.5344460522
 20
456.4516668343
 30
0.0
 10
421.6353697224
 20
456.4871081484
 30
0.0
 10
421.7303479279
 20
456.5392238816
 30
0.0
 10
421.7961464827
 20
456.5860526342
 30
0.0
  0
SPLINE
  5
373
100
AcDbEntity
  8
0
100
AcDbSpline
 62
7
  6
CONTINUOUS
 70
0
 71
3
 72
9
 73
5
 74
0
 42
0.0000001
 43
0.0000001
 44
0.0000000001
 40
0.0
 40
0.0
 40
0.0
 40
0.0
 40
0.5193432361
 40
1.0
 40
1.0
 40
1.0
 40
1.0
 10
421.7961464827
 20
456.5860526342
 30
0.0
 10
421.9290518613
 20
456.6806412328
 30
0.0
 10
422.1426867033
 20
456.9306988524
 30
0.0
 10
422.2167018342
 20
457.2489513153
 30
0.0
 10
422.2158788904
 20
457.3999257598
 30
0.0
  0
SPLINE
  5
374
100
AcDbEntity
  8
0
100
AcDbSpline
 62
7
  6
CONTINUOUS
 70
0
 71
3
 72
9
 73
5
 74
0
 42
0.0000001
 43
0.0000001
 44
0.0000000001
 40
0.0
 40
0.0
 40
0.0
 40
0.0
 40
0.2446081366
 40
1.0
 40
1.0
 40
1.0
 40
1.0
 10
444.9223114969
 20
456.4439903335
 30
0.0
 10
444.8973117291
 20
456.4516668325
 30
0.0
 10
444.7963880588
 20
456.4871081466
 30
0.0
 10
444.7014098531
 20
456.5392238798
 30
0.0
 10
444.6356112982
 20
456.5860526324
 30
0.0
  0
SPLINE
  5
375
100
AcDbEntity
  8
0
100
AcDbSpline
 62
7
  6
CONTINUOUS
 70
0
 71
3
 72
9
 73
5
 74
0
 42
0.0000001
 43
0.0000001
 44
0.0000000001
 40
0.0
 40
0.0
 40
0.0
 40
0.0
 40
0.5193432362
 40
1.0
 40
1.0
 40
1.0
 40
1.0
 10
444.6356112982
 20
456.5860526324
 30
0.0
 10
444.5027059193
 20
456.680641231
 30
0.0
 10
444.2890710769
 20
456.9306988512
 30
0.0
 10
444.2150559464
 20
457.2489513149
 30
0.0
 10
444.2158788907
 20
457.3999257595
 30
0.0
  0
SPLINE
  5
376
100
AcDbEntity
  8
0
100
AcDbSpline
 62
7
  6
CONTINUOUS
 70
0
 71
3
 72
9
 73
5
 74
0
 42
0.0000001
 43
0.0000001
 44
0.0000000001
 40
0.0
 40
0.0
 40
0.0
 40
0.0
 40
0.2446064369
 40
1.0
 40
1.0
 40
1.0
 40
1.0
 10
446.4224099468
 20
438.4439601386
 30
0.0
 10
446.3974078923
 20
438.4516344826
 30
0.0
 10
446.2964739084
 20
438.4870678701
 30
0.0
 10
446.2014845573
 20
438.5391786718
 30
0.0
 10
446.1356776762
 20
438.5860052797
 30
0.0
  0
SPLINE
  5
377
100
AcDbEntity
  8
0
100
AcDbSpline
 62
7
  6
CONTINUOUS
 70
0
 71
3
 72
9
 73
5
 74
0
 42
0.0000001
 43
0.0000001
 44
0.0000000001
 40
0.0
 40
0.0
 40
0.0
 40
0.0
 40
0.5193422306
 40
1.0
 40
1.0
 40
1.0
 40
1.0
 10
446.1356776762
 20
438.5860052797
 30
0.0
 10
446.0027536834
 20
438.6805908243
 30
0.0
 10
445.7890841234
 20
438.9306584165
 30
0.0
 10
445.715055875
 20
439.2489383099
 30
0.0
 10
445.7158788902
 20
439.3999257598
 30
0.0
  0
SPLINE
  5
378
100
AcDbEntity
  8
0
100
AcDbSpline
 62
9
  6
CONTINUOUS
 70
0
 71
3
 72
16
 73
12
 74
0
 42
0.0000001
 43
0.0000001
 44
0.0000000001
 40
0.0
 40
0.0
 40
0.0
 40
0.0
 40
0.005146337
 40
0.0181976534
 40
0.0402155886
 40
0.0718516891
 40
0.1648290769
 40
0.2941862655
 40
0.4540299765
 40
0.6330132077
 40
1.0
 40
1.0
 40
1.0
 40
1.0
 10
432.8520172633
 20
474.3999097041
 30
0.0
 10
432.8537366289
 20
474.3999135578
 30
0.0
 10
432.8564331731
 20
474.4075093895
 30
0.0
 10
432.8589708535
 20
474.4189593765
 30
0.0
 10
432.862159324
 20
474.4420136702
 30
0.0
 10
432.8667897991
 20
474.4901683805
 30
0.0
 10
432.871956679
 20
474.5753494339
 30
0.0
 10
432.8771906614
 20
474.7027034175
 30
0.0
 10
432.8814151432
 20
474.8591518954
 30
0.0
 10
432.885595424
 20
475.0948926681
 30
0.0
 10
432.8866942979
 20
475.277316989
 30
0.0
 10
432.8866711381
 20
475.3999257601
 30
0.0
  0
SPLINE
  5
379
100
AcDbEntity
  8
0
100
AcDbSpline
 62
9
  6
CONTINUOUS
 70
0
 71
3
 72
16
 73
12
 74
0
 42
0.0000001
 43
0.0000001
 44
0.0000000001
 40
0.0
 40
0.0
 40
0.0
 40
0.0
 40
0.3673200948
 40
0.5464555305
 40
0.7064200915
 40
0.8358475746
 40
0.9288255771
 40
0.9604233864
 40
0.9823633954
 40
0.9952626335
 40
1.0
 40
1.0
 40
1.0
 40
1.0
 10
432.8866432925
 20
439.3999257593
 30
0.0
 10
432.8866608951
 20
439.2773193847
 30
0.0
 10
432.8858290716
 20
439.0948999359
 30
0.0
 10
432.8826434817
 20
438.8591712263
 30
0.0
 10
432.8794537873
 20
438.7027040464
 30
0.0
 10
432.8754192061
 20
438.5754336425
 30
0.0
 10
432.8716125036
 20
438.4901063481
 30
0.0
 10
432.8679366202
 20
438.4421482829
 30
0.0
 10
432.8657636398
 20
438.4188006087
 30
0.0
 10
432.863424146
 20
438.4079895204
 30
0.0
 10
432.8618857601
 20
438.3999152319
 30
0.0
 10
432.8603045023
 20
438.3999097028
 30
0.0
  0
SPLINE
  5
37A
100
AcDbEntity
  8
0
100
AcDbSpline
 62
9
  6
CONTINUOUS
 70
0
 71
3
 72
16
 73
12
 74
0
 42
0.0000001
 43
0.0000001
 44
0.0000000001
 40
0.0
 40
0.0
 40
0.0
 40
0.0
 40
0.3671855375
 40
0.5462594771
 40
0.706175135
 40
0.8355740178
 40
0.9285513783
 40
0.9601643363
 40
0.9821353741
 40
0.9950954378
 40
1.0
 40
1.0
 40
1.0
 40
1.0
 10
432.8866543891
 20
457.3999257599
 30
0.0
 10
432.8866743915
 20
457.2773184442
 30
0.0
 10
432.8857270152
 20
457.0948972531
 30
0.0
 10
432.8821124907
 20
456.8591633021
 30
0.0
 10
432.8784744469
 20
456.7027047162
 30
0.0
 10
432.8739261028
 20
456.5753979114
 30
0.0
 10
432.8695234705
 20
456.490135333
 30
0.0
 10
432.8654467914
 20
456.4420904279
 30
0.0
 10
432.8628180285
 20
456.4188724973
 30
0.0
 10
432.8604242881
 20
456.407784745
 30
0.0
 10
432.8583624666
 20
456.3999144393
 30
0.0
 10
432.8567247858
 20
456.3999097053
 30
0.0
  0
SPLINE
  5
37B
100
AcDbEntity
  8
0
100
AcDbSpline
 62
9
  6
CONTINUOUS
 70
0
 71
3
 72
11
 73
7
 74
0
 42
0.0000001
 43
0.0000001
 44
0.0000000001
 40
0.0
 40
0.0
 40
0.0
 40
0.0
 40
0.2879697432
 40
0.5553440702
 40
0.7905331502
 40
1.0
 40
1.0
 40
1.0
 40
1.0
 10
417.2661314221
 20
297.3999257596
 30
0.0
 10
417.2661314221
 20
297.5287424994
 30
0.0
 10
417.2998098587
 20
297.7787270692
 30
0.0
 10
417.4477975327
 20
298.1060520365
 30
0.0
 10
417.678274798
 20
298.3390742162
 30
0.0
 10
417.879537954
 20
298.3999257596
 30
0.0
 10
417.9732382032
 20
298.3999257596
 30
0.0
  0
SPLINE
  5
37C
100
AcDbEntity
  8
0
100
AcDbSpline
 62
6
  6
CONTINUOUS
 70
0
 71
3
 72
10
 73
6
 74
0
 42
0.0000001
 43
0.0000001
 44
0.0000000001
 40
0.0
 40
0.0
 40
0.0
 40
0.0
 40
0.3575396675
 40
0.6415861178
 40
1.0
 40
1.0
 40
1.0
 40
1.0
 10
393.6997507904
 20
122.9446533223
 30
0.0
 10
393.8915593693
 20
122.9446533223
 30
0.0
 10
394.1836783723
 20
122.6526025632
 30
0.0
 10
394.4183039786
 20
122.1894373389
 30
0.0
 10
394.537436385
 20
121.8600738253
 30
0.0
 10
394.5930218591
 20
121.6760061262
 30
0.0
  0
SPLINE
  5
37D
100
AcDbEntity
  8
0
100
AcDbSpline
 62
6
  6
CONTINUOUS
 70
0
 71
3
 72
10
 73
6
 74
0
 42
0.0000001
 43
0.0000001
 44
0.0000000001
 40
0.0
 40
0.0
 40
0.0
 40
0.0
 40
0.3583232959
 40
0.6423731449
 40
1.0
 40
1.0
 40
1.0
 40
1.0
 10
394.5930109471
 20
115.7132691947
 30
0.0
 10
394.5374439695
 20
115.5292641859
 30
0.0
 10
394.4182187009
 20
115.2000011198
 30
0.0
 10
394.1835619601
 20
114.7369662563
 30
0.0
 10
393.8915894112
 20
114.4446533221
 30
0.0
 10
393.6997507904
 20
114.4446533221
 30
0.0
  0
SPLINE
  5
37E
100
AcDbEntity
  8
0
100
AcDbSpline
 62
6
  6
CONTINUOUS
 70
0
 71
3
 72
10
 73
6
 74
0
 42
0.0000001
 43
0.0000001
 44
0.0000000001
 40
0.0
 40
0.0
 40
0.0
 40
0.0
 40
0.3575396673
 40
0.6415861178
 40
1.0
 40
1.0
 40
1.0
 40
1.0
 10
393.6997507904
 20
32.9446533216
 30
0.0
 10
393.891559369
 20
32.9446533216
 30
0.0
 10
394.1836783727
 20
32.6526025637
 30
0.0
 10
394.4183039783
 20
32.189437339
 30
0.0
 10
394.537436385
 20
31.8600738255
 30
0.0
 10
394.5930218591
 20
31.6760061264
 30
0.0
  0
SPLINE
  5
37F
100
AcDbEntity
  8
0
100
AcDbSpline
 62
6
  6
CONTINUOUS
 70
0
 71
3
 72
10
 73
6
 74
0
 42
0.0000001
 43
0.0000001
 44
0.0000000001
 40
0.0
 40
0.0
 40
0.0
 40
0.0
 40
0.358323296
 40
0.642373145
 40
1.0
 40
1.0
 40
1.0
 40
1.0
 10
394.5930109471
 20
25.7132691941
 30
0.0
 10
394.5374439695
 20
25.5292641852
 30
0.0
 10
394.4182187009
 20
25.2000011193
 30
0.0
 10
394.1835619602
 20
24.7369662559
 30
0.0
 10
393.8915894111
 20
24.4446533224
 30
0.0
 10
393.6997507903
 20
24.4446533224
 30
0.0
  0
SPLINE
  5
380
100
AcDbEntity
  8
0
100
AcDbSpline
 62
6
  6
CONTINUOUS
 70
0
 71
3
 72
8
 73
4
 74
0
 42
0.0000001
 43
0.0000001
 44
0.0000000001
 40
0.0
 40
0.0
 40
0.0
 40
0.0
 40
1.0
 40
1.0
 40
1.0
 40
1.0
 10
394.4318740482
 20
-85.0553466779
 30
0.0
 10
394.4867030463
 20
-85.0553466779
 30
0.0
 10
394.5422580823
 20
-85.0676297575
 30
0.0
 10
394.5930109471
 20
-85.0883750159
 30
0.0
  0
SPLINE
  5
381
100
AcDbEntity
  8
0
100
AcDbSpline
 62
6
  6
CONTINUOUS
 70
0
 71
3
 72
8
 73
4
 74
0
 42
0.0000001
 43
0.0000001
 44
0.0000000001
 40
0.0
 40
0.0
 40
0.0
 40
0.0
 40
1.0
 40
1.0
 40
1.0
 40
1.0
 10
394.5930109471
 20
-93.5223183394
 30
0.0
 10
394.5422580822
 20
-93.5430635978
 30
0.0
 10
394.4867030464
 20
-93.5553466781
 30
0.0
 10
394.4318740482
 20
-93.5553466781
 30
0.0
  0
SPLINE
  5
382
100
AcDbEntity
  8
0
100
AcDbSpline
 62
6
  6
CONTINUOUS
 70
0
 71
3
 72
8
 73
4
 74
0
 42
0.0000001
 43
0.0000001
 44
0.0000000001
 40
0.0
 40
0.0
 40
0.0
 40
0.0
 40
1.0
 40
1.0
 40
1.0
 40
1.0
 10
394.4318740482
 20
288.944653322
 30
0.0
 10
394.4867034289
 20
288.944653322
 30
0.0
 10
394.5422588578
 20
288.9323700642
 30
0.0
 10
394.5930120283
 20
288.9116245424
 30
0.0
  0
SPLINE
  5
383
100
AcDbEntity
  8
0
100
AcDbSpline
 62
6
  6
CONTINUOUS
 70
0
 71
3
 72
8
 73
4
 74
0
 42
0.0000001
 43
0.0000001
 44
0.0000000001
 40
0.0
 40
0.0
 40
0.0
 40
0.0
 40
1.0
 40
1.0
 40
1.0
 40
1.0
 10
394.5930218591
 20
280.4776853464
 30
0.0
 10
394.5422654452
 20
280.4569387013
 30
0.0
 10
394.4867068564
 20
280.4446533219
 30
0.0
 10
394.4318740483
 20
280.4446533219
 30
0.0
  0
SPLINE
  5
384
100
AcDbEntity
  8
0
100
AcDbSpline
 62
6
  6
CONTINUOUS
 70
0
 71
3
 72
9
 73
5
 74
0
 42
0.0000001
 43
0.0000001
 44
0.0000000001
 40
0.0
 40
0.0
 40
0.0
 40
0.0
 40
0.5775123181
 40
1.0
 40
1.0
 40
1.0
 40
1.0
 10
395.1822030012
 20
-93.0643125272
 30
0.0
 10
395.0818335535
 20
-93.1679748656
 30
0.0
 10
394.9002200955
 20
-93.3393031169
 30
0.0
 10
394.6907217202
 20
-93.4823790222
 30
0.0
 10
394.5930109469
 20
-93.5223183404
 30
0.0
  0
SPLINE
  5
385
100
AcDbEntity
  8
0
100
AcDbSpline
 62
6
  6
CONTINUOUS
 70
0
 71
3
 72
9
 73
5
 74
0
 42
0.0000001
 43
0.0000001
 44
0.0000000001
 40
0.0
 40
0.0
 40
0.0
 40
0.0
 40
0.5540647078
 40
1.0
 40
1.0
 40
1.0
 40
1.0
 10
396.5384046546
 20
-90.8889397544
 30
0.0
 10
396.375237674
 20
-91.335838963
 30
0.0
 10
395.9752850528
 20
-92.1048151312
 30
0.0
 10
395.4485552883
 20
-92.7892218343
 30
0.0
 10
395.1822030012
 20
-93.0643125272
 30
0.0
  0
SPLINE
  5
386
100
AcDbEntity
  8
0
100
AcDbSpline
 62
6
  6
CONTINUOUS
 70
0
 71
3
 72
9
 73
5
 74
0
 42
0.0000001
 43
0.0000001
 44
0.0000000001
 40
0.0
 40
0.0
 40
0.0
 40
0.0
 40
0.5001160024
 40
1.0
 40
1.0
 40
1.0
 40
1.0
 10
396.5426314439
 20
-87.7334419898
 30
0.0
 10
396.7248804463
 20
-88.2362037606
 30
0.0
 10
396.9351977158
 20
-89.3118945445
 30
0.0
 10
396.7217284231
 20
-90.3868329756
 30
0.0
 10
396.5384046546
 20
-90.8889397544
 30
0.0
  0
SPLINE
  5
387
100
AcDbEntity
  8
0
100
AcDbSpline
 62
6
  6
CONTINUOUS
 70
0
 71
3
 72
9
 73
5
 74
0
 42
0.0000001
 43
0.0000001
 44
0.0000000001
 40
0.0
 40
0.0
 40
0.0
 40
0.0
 40
0.202194504
 40
1.0
 40
1.0
 40
1.0
 40
1.0
 10
394.5930109469
 20
-85.0883750168
 30
0.0
 10
394.6251668652
 20
-85.1015187615
 30
0.0
 10
394.7787843802
 20
-85.1796179255
 30
0.0
 10
394.9130181218
 20
-85.2903261566
 30
0.0
 10
395.0143660431
 20
-85.3826106651
 30
0.0
  0
SPLINE
  5
388
100
AcDbEntity
  8
0
100
AcDbSpline
 62
6
  6
CONTINUOUS
 70
0
 71
3
 72
10
 73
6
 74
0
 42
0.0000001
 43
0.0000001
 44
0.0000000001
 40
0.0
 40
0.0
 40
0.0
 40
0.0
 40
0.1966401354
 40
0.4338679989
 40
1.0
 40
1.0
 40
1.0
 40
1.0
 10
395.0143660431
 20
-85.3826106651
 30
0.0
 10
395.1511712012
 20
-85.5071815158
 30
0.0
 10
395.4302945131
 20
-85.8070152831
 30
0.0
 10
395.9999161407
 20
-86.5561067107
 30
0.0
 10
396.3610942097
 20
-87.2326437403
 30
0.0
 10
396.5426314439
 20
-87.7334419898
 30
0.0
  0
SPLINE
  5
389
100
AcDbEntity
  8
0
100
AcDbSpline
 62
6
  6
CONTINUOUS
 70
0
 71
3
 72
9
 73
5
 74
0
 42
0.0000001
 43
0.0000001
 44
0.0000000001
 40
0.0
 40
0.0
 40
0.0
 40
0.0
 40
0.220672538
 40
1.0
 40
1.0
 40
1.0
 40
1.0
 10
394.593021859
 20
31.6760061274
 30
0.0
 10
394.6398228365
 20
31.5210298946
 30
0.0
 10
394.8400923348
 20
30.8154357183
 30
0.0
 10
394.9771467283
 20
30.0900069878
 30
0.0
 10
395.0293500468
 20
29.5206687568
 30
0.0
  0
SPLINE
  5
38A
100
AcDbEntity
  8
0
100
AcDbSpline
 62
6
  6
CONTINUOUS
 70
0
 71
3
 72
9
 73
5
 74
0
 42
0.0000001
 43
0.0000001
 44
0.0000000001
 40
0.0
 40
0.0
 40
0.0
 40
0.0
 40
0.220672538
 40
1.0
 40
1.0
 40
1.0
 40
1.0
 10
394.593021859
 20
121.6760061272
 30
0.0
 10
394.6398228365
 20
121.5210298945
 30
0.0
 10
394.840092335
 20
120.8154357181
 30
0.0
 10
394.9771467284
 20
120.0900069876
 30
0.0
 10
395.0293500468
 20
119.5206687565
 30
0.0
  0
SPLINE
  5
38B
100
AcDbEntity
  8
0
100
AcDbSpline
 62
6
  6
CONTINUOUS
 70
0
 71
3
 72
9
 73
5
 74
0
 42
0.0000001
 43
0.0000001
 44
0.0000000001
 40
0.0
 40
0.0
 40
0.0
 40
0.0
 40
0.4303665214
 40
1.0
 40
1.0
 40
1.0
 40
1.0
 10
394.5930120281
 20
288.9116245418
 30
0.0
 10
394.672975631
 20
288.8789392132
 30
0.0
 10
394.8441146456
 20
288.7695087815
 30
0.0
 10
394.9951478341
 20
288.6372064165
 30
0.0
 10
395.0776544889
 20
288.5580460526
 30
0.0
  0
SPLINE
  5
38C
100
AcDbEntity
  8
0
100
AcDbSpline
 62
6
  6
CONTINUOUS
 70
0
 71
3
 72
15
 73
11
 74
0
 42
0.0000001
 43
0.0000001
 44
0.0000000001
 40
0.0
 40
0.0
 40
0.0
 40
0.0
 40
0.0966403844
 40
0.2161706074
 40
0.3528762596
 40
0.5002686364
 40
0.6475685769
 40
0.7840502842
 40
0.9035233482
 40
1.0
 40
1.0
 40
1.0
 40
1.0
 10
395.0776544889
 20
288.5580460526
 30
0.0
 10
395.2794257766
 20
288.3644581705
 30
0.0
 10
395.6847232392
 20
287.8842305738
 30
0.0
 10
396.2429367313
 20
287.0257285658
 30
0.0
 10
396.6988626113
 20
285.9415606843
 30
0.0
 10
396.8969650503
 20
284.6910502226
 30
0.0
 10
396.7001847597
 20
283.440033098
 30
0.0
 10
396.2372521407
 20
282.36025572
 30
0.0
 10
395.6830838
 20
281.5009480166
 30
0.0
 10
395.2768984326
 20
281.0220983731
 30
0.0
 10
395.0751821997
 20
280.8291378401
 30
0.0
  0
SPLINE
  5
38D
100
AcDbEntity
  8
0
100
AcDbSpline
 62
6
  6
CONTINUOUS
 70
0
 71
3
 72
9
 73
5
 74
0
 42
0.0000001
 43
0.0000001
 44
0.0000000001
 40
0.0
 40
0.0
 40
0.0
 40
0.0
 40
0.5694355865
 40
1.0
 40
1.0
 40
1.0
 40
1.0
 10
395.0751821997
 20
280.8291378401
 30
0.0
 10
394.9930387364
 20
280.750559898
 30
0.0
 10
394.8427551431
 20
280.6190960635
 30
0.0
 10
394.6725847233
 20
280.5102124701
 30
0.0
 10
394.593021859
 20
280.4776916669
 30
0.0
  0
SPLINE
  5
38E
100
AcDbEntity
  8
0
100
AcDbSpline
 62
6
  6
CONTINUOUS
 70
0
 71
3
 72
9
 73
5
 74
0
 42
0.0000001
 43
0.0000001
 44
0.0000000001
 40
0.0
 40
0.0
 40
0.0
 40
0.0
 40
0.2426018901
 40
1.0
 40
1.0
 40
1.0
 40
1.0
 10
388.8739350709
 20
-101.3365138146
 30
0.0
 10
388.8301421437
 20
-101.3316377044
 30
0.0
 10
388.6504141879
 20
-101.3048583419
 30
0.0
 10
388.4746435071
 20
-101.2526871839
 30
0.0
 10
388.347151047
 20
-101.2010156905
 30
0.0
  0
SPLINE
  5
38F
100
AcDbEntity
  8
0
100
AcDbSpline
 62
6
  6
CONTINUOUS
 70
0
 71
3
 72
9
 73
5
 74
0
 42
0.0000001
 43
0.0000001
 44
0.0000000001
 40
0.0
 40
0.0
 40
0.0
 40
0.0
 40
0.747202242
 40
1.0
 40
1.0
 40
1.0
 40
1.0
 10
388.347151047
 20
-101.2010156905
 30
0.0
 10
388.1437329516
 20
-101.1185722521
 30
0.0
 10
387.8851288766
 20
-100.9643234727
 30
0.0
 10
387.6749630133
 20
-100.7584762224
 30
0.0
 10
387.6249880279
 20
-100.7035497673
 30
0.0
  0
SPLINE
  5
390
100
AcDbEntity
  8
0
100
AcDbSpline
 62
6
  6
CONTINUOUS
 70
0
 71
3
 72
9
 73
5
 74
0
 42
0.0000001
 43
0.0000001
 44
0.0000000001
 40
0.0
 40
0.0
 40
0.0
 40
0.0
 40
0.4999981047
 40
1.0
 40
1.0
 40
1.0
 40
1.0
 10
387.128421469
 20
-99.713621252
 30
0.0
 10
387.2173877889
 20
-100.1429431494
 30
0.0
 10
387.7012509045
 20
-100.9651111178
 30
0.0
 10
388.5961525134
 20
-101.2956143666
 30
0.0
 10
389.0344485805
 20
-101.3070934727
 30
0.0
  0
SPLINE
  5
391
100
AcDbEntity
  8
0
100
AcDbSpline
 62
6
  6
CONTINUOUS
 70
0
 71
3
 72
9
 73
5
 74
0
 42
0.0000001
 43
0.0000001
 44
0.0000000001
 40
0.0
 40
0.0
 40
0.0
 40
0.0
 40
0.4646603709
 40
1.0
 40
1.0
 40
1.0
 40
1.0
 10
394.5930179606
 20
115.7132812808
 30
0.0
 10
394.7654474004
 20
116.2842656221
 30
0.0
 10
395.0604181541
 20
117.5393219202
 30
0.0
 10
395.0920950381
 20
118.8363842611
 30
0.0
 10
395.0293500473
 20
119.5206917569
 30
0.0
  0
SPLINE
  5
392
100
AcDbEntity
  8
0
100
AcDbSpline
 62
6
  6
CONTINUOUS
 70
0
 71
3
 72
9
 73
5
 74
0
 42
0.0000001
 43
0.0000001
 44
0.0000000001
 40
0.0
 40
0.0
 40
0.0
 40
0.0
 40
0.4646603708
 40
1.0
 40
1.0
 40
1.0
 40
1.0
 10
394.5930179597
 20
25.7132812784
 30
0.0
 10
394.7654473998
 20
26.28426562
 30
0.0
 10
395.060418154
 20
27.539321919
 30
0.0
 10
395.092095038
 20
28.8363842608
 30
0.0
 10
395.0293500471
 20
29.5206917572
 30
0.0
  0
SPLINE
  5
393
100
AcDbEntity
  8
0
100
AcDbSpline
 62
6
  6
CONTINUOUS
 70
0
 71
3
 72
8
 73
4
 74
0
 42
0.0000001
 43
0.0000001
 44
0.0000000001
 40
0.0
 40
0.0
 40
0.0
 40
0.0
 40
1.0
 40
1.0
 40
1.0
 40
1.0
 10
406.175564853
 20
-99.9812255364
 30
0.0
 10
406.1975453267
 20
-99.9555541619
 30
0.0
 10
406.2158779466
 20
-99.9219933199
 30
0.0
 10
406.2158788919
 20
-99.8881974519
 30
0.0
  0
SPLINE
  5
394
100
AcDbEntity
  8
0
100
AcDbSpline
 62
9
  6
CONTINUOUS
 70
0
 71
3
 72
8
 73
4
 74
0
 42
0.0000001
 43
0.0000001
 44
0.0000000001
 40
0.0
 40
0.0
 40
0.0
 40
0.0
 40
1.0
 40
1.0
 40
1.0
 40
1.0
 10
402.8831042595
 20
-99.9533306441
 30
0.0
 10
403.469732122
 20
-99.9969602926
 30
0.0
 10
404.0588896924
 20
-100.0162753725
 30
0.0
 10
404.647053242
 20
-100.0063037033
 30
0.0
  0
SPLINE
  5
395
100
AcDbEntity
  8
0
100
AcDbSpline
 62
9
  6
CONTINUOUS
 70
0
 71
3
 72
9
 73
5
 74
0
 42
0.0000001
 43
0.0000001
 44
0.0000000001
 40
0.0
 40
0.0
 40
0.0
 40
0.0
 40
0.2476109328
 40
1.0
 40
1.0
 40
1.0
 40
1.0
 10
439.76187384
 20
287.9113732782
 30
0.0
 10
437.8185158768
 20
287.9049327132
 30
0.0
 10
429.9700254516
 20
287.8983800279
 30
0.0
 10
422.1215081715
 20
287.9666786177
 30
0.0
 10
416.2170824736
 20
288.0564471908
 30
0.0
  0
SPLINE
  5
396
100
AcDbEntity
  8
0
100
AcDbSpline
 62
9
  6
CONTINUOUS
 70
0
 71
3
 72
9
 73
5
 74
0
 42
0.0000001
 43
0.0000001
 44
0.0000000001
 40
0.0
 40
0.0
 40
0.0
 40
0.0
 40
0.2434778528
 40
1.0
 40
1.0
 40
1.0
 40
1.0
 10
443.3216231536
 20
-101.6747533487
 30
0.0
 10
443.3809916543
 20
-101.6524602885
 30
0.0
 10
443.6283238437
 20
-101.5706439382
 30
0.0
 10
443.8888680194
 20
-101.5274873769
 30
0.0
 10
444.0857958582
 20
-101.5207439908
 30
0.0
  0
SPLINE
  5
397
100
AcDbEntity
  8
0
100
AcDbSpline
 62
9
  6
CONTINUOUS
 70
0
 71
3
 72
9
 73
5
 74
0
 42
0.0000001
 43
0.0000001
 44
0.0000000001
 40
0.0
 40
0.0
 40
0.0
 40
0.0
 40
0.2128200431
 40
1.0
 40
1.0
 40
1.0
 40
1.0
 10
441.2158857402
 20
-98.7144744851
 30
0.0
 10
441.2703858964
 20
-98.801724352
 30
0.0
 10
441.531686267
 20
-99.2084429501
 30
0.0
 10
441.8090310374
 20
-99.6045724604
 30
0.0
 10
442.0294207532
 20
-99.9147554158
 30
0.0
  0
SPLINE
  5
398
100
AcDbEntity
  8
0
100
AcDbSpline
 62
9
  6
CONTINUOUS
 70
0
 71
3
 72
11
 73
7
 74
0
 42
0.0000001
 43
0.0000001
 44
0.0000000001
 40
0.0
 40
0.0
 40
0.0
 40
0.0
 40
0.3178902127
 40
0.5961923769
 40
0.8235998377
 40
1.0
 40
1.0
 40
1.0
 40
1.0
 10
445.6527520058
 20
289.2269904865
 30
0.0
 10
445.1516768724
 20
289.2193927502
 30
0.0
 10
444.2118149449
 20
289.1542434053
 30
0.0
 10
442.9330515234
 20
288.900583069
 30
0.0
 10
441.9253384296
 20
288.5117614272
 30
0.0
 10
441.3960345835
 20
288.1304256295
 30
0.0
 10
441.2159760303
 20
287.9185078932
 30
0.0
  0
SPLINE
  5
399
100
AcDbEntity
  8
0
100
AcDbSpline
 62
9
  6
CONTINUOUS
 70
0
 71
3
 72
9
 73
5
 74
0
 42
0.0000001
 43
0.0000001
 44
0.0000000001
 40
0.0
 40
0.0
 40
0.0
 40
0.0
 40
0.2121548719
 40
1.0
 40
1.0
 40
1.0
 40
1.0
 10
457.6402609316
 20
290.011485032
 30
0.0
 10
457.5754054432
 20
289.9636092782
 30
0.0
 10
457.2627354745
 20
289.7474573477
 30
0.0
 10
456.9333930868
 20
289.5563701024
 30
0.0
 10
456.6697714085
 20
289.4145327638
 30
0.0
  0
SPLINE
  5
39A
100
AcDbEntity
  8
0
100
AcDbSpline
 62
9
  6
CONTINUOUS
 70
0
 71
3
 72
9
 73
5
 74
0
 42
0.0000001
 43
0.0000001
 44
0.0000000001
 40
0.0
 40
0.0
 40
0.0
 40
0.0
 40
0.3956480868
 40
1.0
 40
1.0
 40
1.0
 40
1.0
 10
457.9668419676
 20
290.3191710535
 30
0.0
 10
457.938429012
 20
290.2669923896
 30
0.0
 10
457.8301990011
 20
290.1580623035
 30
0.0
 10
457.7132004335
 20
290.0654850009
 30
0.0
 10
457.6402609316
 20
290.011485032
 30
0.0
  0
SPLINE
  5
39B
100
AcDbEntity
  8
0
100
AcDbSpline
 62
9
  6
CONTINUOUS
 70
0
 71
3
 72
9
 73
5
 74
0
 42
0.0000001
 43
0.0000001
 44
0.0000000001
 40
0.0
 40
0.0
 40
0.0
 40
0.0
 40
0.2160745829
 40
1.0
 40
1.0
 40
1.0
 40
1.0
 10
457.9909952689
 20
290.3890642929
 30
0.0
 10
457.98881229
 20
290.3842058718
 30
0.0
 10
457.9793524162
 20
290.361431928
 30
0.0
 10
457.9719999128
 20
290.3378356098
 30
0.0
 10
457.9668393482
 20
290.3192133828
 30
0.0
  0
SPLINE
  5
39C
100
AcDbEntity
  8
0
100
AcDbSpline
 62
9
  6
CONTINUOUS
 70
0
 71
3
 72
9
 73
5
 74
0
 42
0.0000001
 43
0.0000001
 44
0.0000000001
 40
0.0
 40
0.0
 40
0.0
 40
0.0
 40
0.2400898319
 40
1.0
 40
1.0
 40
1.0
 40
1.0
 10
458.2843140293
 20
-63.9174270732
 30
0.0
 10
458.2789687303
 20
-63.8404446171
 30
0.0
 10
458.2584403409
 20
-63.5196839643
 30
0.0
 10
458.2440600588
 20
-63.1985491273
 30
0.0
 10
458.2354951742
 20
-62.9544549206
 30
0.0
  0
SPLINE
  5
39D
100
AcDbEntity
  8
0
100
AcDbSpline
 62
9
  6
CONTINUOUS
 70
0
 71
3
 72
9
 73
5
 74
0
 42
0.0000001
 43
0.0000001
 44
0.0000000001
 40
0.0
 40
0.0
 40
0.0
 40
0.0
 40
0.231510031
 40
1.0
 40
1.0
 40
1.0
 40
1.0
 10
458.4246278557
 20
-65.1333677782
 30
0.0
 10
458.4212078448
 20
-65.1165273226
 30
0.0
 10
458.4070048924
 20
-65.0436698884
 30
0.0
 10
458.3948144933
 20
-64.9704297927
 30
0.0
 10
458.3862010566
 20
-64.914041403
 30
0.0
  0
SPLINE
  5
39E
100
AcDbEntity
  8
0
100
AcDbSpline
 62
9
  6
CONTINUOUS
 70
0
 71
3
 72
9
 73
5
 74
0
 42
0.0000001
 43
0.0000001
 44
0.0000000001
 40
0.0
 40
0.0
 40
0.0
 40
0.0
 40
0.2360993904
 40
1.0
 40
1.0
 40
1.0
 40
1.0
 10
458.3862010566
 20
-64.914041403
 30
0.0
 10
458.3829495036
 20
-64.8927549127
 30
0.0
 10
458.3696516278
 20
-64.8025235551
 30
0.0
 10
458.3580777443
 20
-64.7120428539
 30
0.0
 10
458.3499415645
 20
-64.6428481475
 30
0.0
  0
SPLINE
  5
39F
100
AcDbEntity
  8
0
100
AcDbSpline
 62
9
  6
CONTINUOUS
 70
0
 71
3
 72
9
 73
5
 74
0
 42
0.0000001
 43
0.0000001
 44
0.0000000001
 40
0.0
 40
0.0
 40
0.0
 40
0.0
 40
0.362915047
 40
1.0
 40
1.0
 40
1.0
 40
1.0
 10
458.5425877759
 20
-65.4733015062
 30
0.0
 10
458.5116290172
 20
-65.4423341294
 30
0.0
 10
458.4681312663
 20
-65.3237030057
 30
0.0
 10
458.4399263617
 20
-65.2086990619
 30
0.0
 10
458.4246278557
 20
-65.1333677782
 30
0.0
  0
SPLINE
  5
3A0
100
AcDbEntity
  8
0
100
AcDbSpline
 62
9
  6
CONTINUOUS
 70
0
 71
3
 72
9
 73
5
 74
0
 42
0.0000001
 43
0.0000001
 44
0.0000000001
 40
0.0
 40
0.0
 40
0.0
 40
0.0
 40
0.6528433546
 40
1.0
 40
1.0
 40
1.0
 40
1.0
 10
458.4373143361
 20
247.5851928452
 30
0.0
 10
458.4545184097
 20
247.6597643226
 30
0.0
 10
458.4848577102
 20
247.7677055858
 30
0.0
 10
458.5354130182
 20
247.8863461385
 30
0.0
 10
458.5706319653
 20
247.9067367231
 30
0.0
  0
SPLINE
  5
3A1
100
AcDbEntity
  8
0
100
AcDbSpline
 62
9
  6
CONTINUOUS
 70
0
 71
3
 72
9
 73
5
 74
0
 42
0.0000001
 43
0.0000001
 44
0.0000000001
 40
0.0
 40
0.0
 40
0.0
 40
0.0
 40
0.2750603483
 40
1.0
 40
1.0
 40
1.0
 40
1.0
 10
458.318310372
 20
246.7910079991
 30
0.0
 10
458.3237713223
 20
246.8442492384
 30
0.0
 10
458.3448817875
 20
247.0376692456
 30
0.0
 10
458.3708566499
 20
247.2306386782
 30
0.0
 10
458.3947390433
 20
247.3696591988
 30
0.0
  0
SPLINE
  5
3A2
100
AcDbEntity
  8
0
100
AcDbSpline
 62
9
  6
CONTINUOUS
 70
0
 71
3
 72
9
 73
5
 74
0
 42
0.0000001
 43
0.0000001
 44
0.0000000001
 40
0.0
 40
0.0
 40
0.0
 40
0.0
 40
0.2696195013
 40
1.0
 40
1.0
 40
1.0
 40
1.0
 10
458.3947390433
 20
247.3696591988
 30
0.0
 10
458.3980794458
 20
247.389103837
 30
0.0
 10
458.4108707205
 20
247.4611508244
 30
0.0
 10
458.4253108166
 20
247.5329213637
 30
0.0
 10
458.4373257535
 20
247.5849991213
 30
0.0
  0
SPLINE
  5
3A3
100
AcDbEntity
  8
0
100
AcDbSpline
 62
9
  6
CONTINUOUS
 70
0
 71
3
 72
9
 73
5
 74
0
 42
0.0000001
 43
0.0000001
 44
0.0000000001
 40
0.0
 40
0.0
 40
0.0
 40
0.0
 40
0.2605333985
 40
1.0
 40
1.0
 40
1.0
 40
1.0
 10
458.2358514933
 20
245.5706215436
 30
0.0
 10
458.2388795513
 20
245.6452677221
 30
0.0
 10
458.2516963908
 20
245.931728616
 30
0.0
 10
458.2692445158
 20
246.2179955391
 30
0.0
 10
458.2858250411
 20
246.4293872543
 30
0.0
  0
SPLINE
  5
3A4
100
AcDbEntity
  8
0
100
AcDbSpline
 62
9
  6
CONTINUOUS
 70
0
 71
3
 72
8
 73
4
 74
0
 42
0.0000001
 43
0.0000001
 44
0.0000000001
 40
0.0
 40
0.0
 40
0.0
 40
0.0
 40
1.0
 40
1.0
 40
1.0
 40
1.0
 10
389.6710481801
 20
-101.584493582
 30
0.0
 10
389.7748718228
 20
-101.6626721046
 30
0.0
 10
389.8866808655
 20
-101.7314708689
 30
0.0
 10
390.0040248671
 20
-101.787342288
 30
0.0
  0
SPLINE
  5
3A5
100
AcDbEntity
  8
0
100
AcDbSpline
 62
9
  6
CONTINUOUS
 70
0
 71
3
 72
9
 73
5
 74
0
 42
0.0000001
 43
0.0000001
 44
0.0000000001
 40
0.0
 40
0.0
 40
0.0
 40
0.0
 40
0.6933139349
 40
1.0
 40
1.0
 40
1.0
 40
1.0
 10
387.3683579203
 20
-99.5423488213
 30
0.0
 10
387.3044264975
 20
-99.5698494636
 30
0.0
 10
387.2263322713
 20
-99.6053996411
 30
0.0
 10
387.1221500157
 20
-99.6834823681
 30
0.0
 10
387.1283916162
 20
-99.7136283651
 30
0.0
  0
SPLINE
  5
3A6
100
AcDbEntity
  8
0
100
AcDbSpline
 62
9
  6
CONTINUOUS
 70
0
 71
3
 72
9
 73
5
 74
0
 42
0.0000001
 43
0.0000001
 44
0.0000000001
 40
0.0
 40
0.0
 40
0.0
 40
0.0
 40
0.2442460428
 40
1.0
 40
1.0
 40
1.0
 40
1.0
 10
387.3847159695
 20
-99.6148092095
 30
0.0
 10
387.3972313482
 20
-99.6661600165
 30
0.0
 10
387.4560944565
 20
-99.8744770889
 30
0.0
 10
387.5437603199
 20
-100.0746034829
 30
0.0
 10
387.6242241851
 20
-100.2169821348
 30
0.0
  0
SPLINE
  5
3A7
100
AcDbEntity
  8
0
100
AcDbSpline
 62
9
  6
CONTINUOUS
 70
0
 71
3
 72
8
 73
4
 74
0
 42
0.0000001
 43
0.0000001
 44
0.0000000001
 40
0.0
 40
0.0
 40
0.0
 40
0.0
 40
1.0
 40
1.0
 40
1.0
 40
1.0
 10
387.6242241851
 20
-100.2169821348
 30
0.0
 10
387.7410932517
 20
-100.4237788144
 30
0.0
 10
387.8926704474
 20
-100.6147937048
 30
0.0
 10
388.0696631049
 20
-100.7732135413
 30
0.0
  0
SPLINE
  5
3A8
100
AcDbEntity
  8
0
100
AcDbSpline
 62
9
  6
CONTINUOUS
 70
0
 71
3
 72
9
 73
5
 74
0
 42
0.0000001
 43
0.0000001
 44
0.0000000001
 40
0.0
 40
0.0
 40
0.0
 40
0.0
 40
0.2604490228
 40
1.0
 40
1.0
 40
1.0
 40
1.0
 10
388.0696631049
 20
-100.7732135413
 30
0.0
 10
388.1140382814
 20
-100.8129321845
 30
0.0
 10
388.2905442692
 20
-100.9583083156
 30
0.0
 10
388.4907106857
 20
-101.0760452581
 30
0.0
 10
388.6474165327
 20
-101.1396074204
 30
0.0
  0
SPLINE
  5
3A9
100
AcDbEntity
  8
0
100
AcDbSpline
 62
9
  6
CONTINUOUS
 70
0
 71
3
 72
9
 73
5
 74
0
 42
0.0000001
 43
0.0000001
 44
0.0000000001
 40
0.0
 40
0.0
 40
0.0
 40
0.0
 40
0.3018588767
 40
1.0
 40
1.0
 40
1.0
 40
1.0
 10
388.0716358214
 20
-99.3078564763
 30
0.0
 10
387.9997676168
 20
-99.327917643
 30
0.0
 10
387.7626219153
 20
-99.3972941035
 30
0.0
 10
387.5269010861
 20
-99.4741603319
 30
0.0
 10
387.3683762141
 20
-99.5423569025
 30
0.0
  0
SPLINE
  5
3AA
100
AcDbEntity
  8
0
100
AcDbSpline
 62
9
  6
CONTINUOUS
 70
0
 71
3
 72
9
 73
5
 74
0
 42
0.0000001
 43
0.0000001
 44
0.0000000001
 40
0.0
 40
0.0
 40
0.0
 40
0.0
 40
0.4506550041
 40
1.0
 40
1.0
 40
1.0
 40
1.0
 10
388.6471357039
 20
-101.1395004653
 30
0.0
 10
388.5425552062
 20
-101.0476907055
 30
0.0
 10
388.35981797
 20
-100.7901556215
 30
0.0
 10
388.2455144723
 20
-100.5014326936
 30
0.0
 10
388.1985335741
 20
-100.3384304813
 30
0.0
  0
SPLINE
  5
3AB
100
AcDbEntity
  8
0
100
AcDbSpline
 62
9
  6
CONTINUOUS
 70
0
 71
3
 72
9
 73
5
 74
0
 42
0.0000001
 43
0.0000001
 44
0.0000000001
 40
0.0
 40
0.0
 40
0.0
 40
0.0
 40
0.7544542962
 40
1.0
 40
1.0
 40
1.0
 40
1.0
 10
388.1985335741
 20
-100.3384304813
 30
0.0
 10
388.1260808497
 20
-100.0870526914
 30
0.0
 10
388.0762947038
 20
-99.7396029726
 30
0.0
 10
388.0700733693
 20
-99.3929939305
 30
0.0
 10
388.0715749451
 20
-99.3078629841
 30
0.0
  0
SPLINE
  5
3AC
100
AcDbEntity
  8
0
100
AcDbSpline
 62
9
  6
CONTINUOUS
 70
0
 71
3
 72
9
 73
5
 74
0
 42
0.0000001
 43
0.0000001
 44
0.0000000001
 40
0.0
 40
0.0
 40
0.0
 40
0.0
 40
0.4822126049
 40
1.0
 40
1.0
 40
1.0
 40
1.0
 10
392.0367329194
 20
-101.7875418982
 30
0.0
 10
391.7164986034
 20
-101.6328321996
 30
0.0
 10
391.1318305564
 20
-101.1170929106
 30
0.0
 10
390.9151275858
 20
-100.3626763698
 30
0.0
 10
390.9150890571
 20
-99.9807913602
 30
0.0
  0
SPLINE
  5
3AD
100
AcDbEntity
  8
0
100
AcDbSpline
 62
9
  6
CONTINUOUS
 70
0
 71
3
 72
9
 73
5
 74
0
 42
0.0000001
 43
0.0000001
 44
0.0000000001
 40
0.0
 40
0.0
 40
0.0
 40
0.0
 40
0.2633134217
 40
1.0
 40
1.0
 40
1.0
 40
1.0
 10
388.8342363424
 20
-101.2606824613
 30
0.0
 10
388.8508242871
 20
-101.2679258811
 30
0.0
 10
388.9149999351
 20
-101.2926278016
 30
0.0
 10
388.9838417049
 20
-101.3054013756
 30
0.0
 10
389.0344549272
 20
-101.3070691204
 30
0.0
  0
SPLINE
  5
3AE
100
AcDbEntity
  8
0
100
AcDbSpline
 62
9
  6
CONTINUOUS
 70
0
 71
3
 72
9
 73
5
 74
0
 42
0.0000001
 43
0.0000001
 44
0.0000000001
 40
0.0
 40
0.0
 40
0.0
 40
0.0
 40
0.2672011929
 40
1.0
 40
1.0
 40
1.0
 40
1.0
 10
388.6474160553
 20
-101.1396118561
 30
0.0
 10
388.6623639498
 20
-101.1527008057
 30
0.0
 10
388.7199165731
 20
-101.199771173
 30
0.0
 10
388.7842659158
 20
-101.2388745367
 30
0.0
 10
388.8342015195
 20
-101.2606815018
 30
0.0
  0
SPLINE
  5
3AF
100
AcDbEntity
  8
0
100
AcDbSpline
 62
9
  6
CONTINUOUS
 70
0
 71
3
 72
9
 73
5
 74
0
 42
0.0000001
 43
0.0000001
 44
0.0000000001
 40
0.0
 40
0.0
 40
0.0
 40
0.0
 40
0.5041740861
 40
1.0
 40
1.0
 40
1.0
 40
1.0
 10
394.1684236883
 20
-99.9807913576
 30
0.0
 10
394.168425205
 20
-100.3500336508
 30
0.0
 10
394.3687924947
 20
-101.097414928
 30
0.0
 10
394.9388496516
 20
-101.6267727486
 30
0.0
 10
395.2643319729
 20
-101.78778035
 30
0.0
  0
SPLINE
  5
3B0
100
AcDbEntity
  8
0
100
AcDbSpline
 62
9
  6
CONTINUOUS
 70
0
 71
3
 72
9
 73
5
 74
0
 42
0.0000001
 43
0.0000001
 44
0.0000000001
 40
0.0
 40
0.0
 40
0.0
 40
0.0
 40
0.403146025
 40
1.0
 40
1.0
 40
1.0
 40
1.0
 10
402.7892266344
 20
-101.7682738994
 30
0.0
 10
402.7886117279
 20
-101.5240476241
 30
0.0
 10
402.8183269448
 20
-100.9185568097
 30
0.0
 10
402.8563348094
 20
-100.3140735018
 30
0.0
 10
402.8831015041
 20
-99.9534897075
 30
0.0
  0
SPLINE
  5
3B1
100
AcDbEntity
  8
0
100
AcDbSpline
 62
9
  6
CONTINUOUS
 70
0
 71
3
 72
9
 73
5
 74
0
 42
0.0000001
 43
0.0000001
 44
0.0000000001
 40
0.0
 40
0.0
 40
0.0
 40
0.0
 40
0.505726872
 40
1.0
 40
1.0
 40
1.0
 40
1.0
 10
394.59308598
 20
-99.9302081271
 30
0.0
 10
394.6006149818
 20
-100.3093797
 30
0.0
 10
394.8266663949
 20
-101.0699610038
 30
0.0
 10
395.4240303141
 20
-101.5960259951
 30
0.0
 10
395.7604327785
 20
-101.7516540054
 30
0.0
  0
SPLINE
  5
3B2
100
AcDbEntity
  8
0
100
AcDbSpline
 62
9
  6
CONTINUOUS
 70
0
 71
3
 72
9
 73
5
 74
0
 42
0.0000001
 43
0.0000001
 44
0.0000000001
 40
0.0
 40
0.0
 40
0.0
 40
0.0
 40
0.5888908562
 40
1.0
 40
1.0
 40
1.0
 40
1.0
 10
404.6470588027
 20
-100.0064789793
 30
0.0
 10
404.6530342385
 20
-100.3599967474
 30
0.0
 10
404.6696017175
 20
-100.9600716351
 30
0.0
 10
404.6949761644
 20
-101.5602783148
 30
0.0
 10
404.7168478656
 20
-101.80613604
 30
0.0
  0
SPLINE
  5
3B3
100
AcDbEntity
  8
0
100
AcDbSpline
 62
9
  6
CONTINUOUS
 70
0
 71
3
 72
10
 73
6
 74
0
 42
0.0000001
 43
0.0000001
 44
0.0000000001
 40
0.0
 40
0.0
 40
0.0
 40
0.0
 40
0.5572330813
 40
0.7989086271
 40
1.0
 40
1.0
 40
1.0
 40
1.0
 10
442.5763666466
 20
-102.5506884539
 30
0.0
 10
442.0232851435
 20
-102.1801400321
 30
0.0
 10
441.238791136
 20
-101.6364004552
 30
0.0
 10
440.2496395488
 20
-100.966300133
 30
0.0
 10
439.8184397113
 20
-100.6598451257
 30
0.0
 10
439.6217501369
 20
-100.5218882183
 30
0.0
  0
SPLINE
  5
3B4
100
AcDbEntity
  8
0
100
AcDbSpline
 62
9
  6
CONTINUOUS
 70
0
 71
3
 72
8
 73
4
 74
0
 42
0.0000001
 43
0.0000001
 44
0.0000000001
 40
0.0
 40
0.0
 40
0.0
 40
0.0
 40
1.0
 40
1.0
 40
1.0
 40
1.0
 10
441.4140043375
 20
-102.9674492532
 30
0.0
 10
441.780259132
 20
-102.7796276679
 30
0.0
 10
442.1748781796
 20
-102.6413886924
 30
0.0
 10
442.5763666466
 20
-102.5506884539
 30
0.0
  0
SPLINE
  5
3B5
100
AcDbEntity
  8
0
100
AcDbSpline
 62
9
  6
CONTINUOUS
 70
0
 71
3
 72
8
 73
4
 74
0
 42
0.0000001
 43
0.0000001
 44
0.0000000001
 40
0.0
 40
0.0
 40
0.0
 40
0.0
 40
1.0
 40
1.0
 40
1.0
 40
1.0
 10
440.8857705735
 20
-103.2865229811
 30
0.0
 10
441.0533275781
 20
-103.1671911351
 30
0.0
 10
441.2308572456
 20
-103.0611113158
 30
0.0
 10
441.4140043375
 20
-102.9674492532
 30
0.0
  0
SPLINE
  5
3B6
100
AcDbEntity
  8
0
100
AcDbSpline
 62
9
  6
CONTINUOUS
 70
0
 71
3
 72
8
 73
4
 74
0
 42
0.0000001
 43
0.0000001
 44
0.0000000001
 40
0.0
 40
0.0
 40
0.0
 40
0.0
 40
1.0
 40
1.0
 40
1.0
 40
1.0
 10
440.427492711
 20
-103.672330293
 30
0.0
 10
440.56953322
 20
-103.5319790173
 30
0.0
 10
440.722876342
 20
-103.4020195445
 30
0.0
 10
440.8857705735
 20
-103.2865229811
 30
0.0
  0
SPLINE
  5
3B7
100
AcDbEntity
  8
0
100
AcDbSpline
 62
9
  6
CONTINUOUS
 70
0
 71
3
 72
9
 73
5
 74
0
 42
0.0000001
 43
0.0000001
 44
0.0000000001
 40
0.0
 40
0.0
 40
0.0
 40
0.0
 40
0.2575703719
 40
1.0
 40
1.0
 40
1.0
 40
1.0
 10
440.0697056729
 20
-100.3466268066
 30
0.0
 10
440.0331399341
 20
-100.3658765414
 30
0.0
 10
439.8890817162
 20
-100.4365606118
 30
0.0
 10
439.7372260906
 20
-100.4913878978
 30
0.0
 10
439.6221515232
 20
-100.5221345887
 30
0.0
  0
SPLINE
  5
3B8
100
AcDbEntity
  8
0
100
AcDbSpline
 62
9
  6
CONTINUOUS
 70
0
 71
3
 72
9
 73
5
 74
0
 42
0.0000001
 43
0.0000001
 44
0.0000000001
 40
0.0
 40
0.0
 40
0.0
 40
0.0
 40
0.2349829778
 40
1.0
 40
1.0
 40
1.0
 40
1.0
 10
441.2158691856
 20
-98.7144430702
 30
0.0
 10
441.2050225222
 20
-98.8121907406
 30
0.0
 10
441.1231049401
 20
-99.2235110543
 30
0.0
 10
440.9140862549
 20
-99.6086618312
 30
0.0
 10
440.7023495041
 20
-99.8488385665
 30
0.0
  0
SPLINE
  5
3B9
100
AcDbEntity
  8
0
100
AcDbSpline
 62
9
  6
CONTINUOUS
 70
0
 71
3
 72
9
 73
5
 74
0
 42
0.0000001
 43
0.0000001
 44
0.0000000001
 40
0.0
 40
0.0
 40
0.0
 40
0.0
 40
0.484105816
 40
1.0
 40
1.0
 40
1.0
 40
1.0
 10
443.2446718919
 20
-102.9294016453
 30
0.0
 10
443.3152178313
 20
-102.7375615145
 30
0.0
 10
443.3845000042
 20
-102.3138472433
 30
0.0
 10
443.3588456566
 20
-101.8894387999
 30
0.0
 10
443.3216387569
 20
-101.6748182902
 30
0.0
  0
SPLINE
  5
3BA
100
AcDbEntity
  8
0
100
AcDbSpline
 62
9
  6
CONTINUOUS
 70
0
 71
3
 72
9
 73
5
 74
0
 42
0.0000001
 43
0.0000001
 44
0.0000000001
 40
0.0
 40
0.0
 40
0.0
 40
0.0
 40
0.2274776134
 40
1.0
 40
1.0
 40
1.0
 40
1.0
 10
442.6152203396
 20
-103.5969194803
 30
0.0
 10
442.6587292397
 20
-103.5843914187
 30
0.0
 10
442.844477079
 20
-103.509927234
 30
0.0
 10
442.9963264028
 20
-103.3645078178
 30
0.0
 10
443.0847805381
 20
-103.238736656
 30
0.0
  0
SPLINE
  5
3BB
100
AcDbEntity
  8
0
100
AcDbSpline
 62
9
  6
CONTINUOUS
 70
0
 71
3
 72
9
 73
5
 74
0
 42
0.0000001
 43
0.0000001
 44
0.0000000001
 40
0.0
 40
0.0
 40
0.0
 40
0.0
 40
0.2366805201
 40
1.0
 40
1.0
 40
1.0
 40
1.0
 10
443.0847805381
 20
-103.238736656
 30
0.0
 10
443.1006098383
 20
-103.2162292914
 30
0.0
 10
443.1641579902
 20
-103.1188078933
 30
0.0
 10
443.2140524947
 20
-103.0126890152
 30
0.0
 10
443.2446809937
 20
-102.9293990313
 30
0.0
  0
SPLINE
  5
3BC
100
AcDbEntity
  8
0
100
AcDbSpline
 62
9
  6
CONTINUOUS
 70
0
 71
3
 72
10
 73
6
 74
0
 42
0.0000001
 43
0.0000001
 44
0.0000000001
 40
0.0
 40
0.0
 40
0.0
 40
0.0
 40
0.7048766962
 40
0.8972622638
 40
1.0
 40
1.0
 40
1.0
 40
1.0
 10
442.6533250037
 20
-103.0023253521
 30
0.0
 10
442.6721095254
 20
-103.1451192463
 30
0.0
 10
442.6894952909
 20
-103.3318637901
 30
0.0
 10
442.6711760511
 20
-103.5312027234
 30
0.0
 10
442.6353380915
 20
-103.5911020912
 30
0.0
 10
442.6151815161
 20
-103.5969649523
 30
0.0
  0
SPLINE
  5
3BD
100
AcDbEntity
  8
0
100
AcDbSpline
 62
9
  6
CONTINUOUS
 70
0
 71
3
 72
9
 73
5
 74
0
 42
0.0000001
 43
0.0000001
 44
0.0000000001
 40
0.0
 40
0.0
 40
0.0
 40
0.0
 40
0.2697111371
 40
1.0
 40
1.0
 40
1.0
 40
1.0
 10
442.5764689401
 20
-102.5506040269
 30
0.0
 10
442.5844970878
 20
-102.5910427353
 30
0.0
 10
442.613652317
 20
-102.741088436
 30
0.0
 10
442.638844348
 20
-102.8919645009
 30
0.0
 10
442.6533222286
 20
-103.0026532595
 30
0.0
  0
SPLINE
  5
3BE
100
AcDbEntity
  8
0
100
AcDbSpline
 62
9
  6
CONTINUOUS
 70
0
 71
3
 72
9
 73
5
 74
0
 42
0.0000001
 43
0.0000001
 44
0.0000000001
 40
0.0
 40
0.0
 40
0.0
 40
0.0
 40
0.2528894675
 40
1.0
 40
1.0
 40
1.0
 40
1.0
 10
443.2254926954
 20
-101.8236438865
 30
0.0
 10
443.1790456176
 20
-101.8915491381
 30
0.0
 10
442.9853553937
 20
-102.1530908992
 30
0.0
 10
442.759383969
 20
-102.3905531346
 30
0.0
 10
442.5764655299
 20
-102.5506000925
 30
0.0
  0
SPLINE
  5
3BF
100
AcDbEntity
  8
0
100
AcDbSpline
 62
9
  6
CONTINUOUS
 70
0
 71
3
 72
12
 73
8
 74
0
 42
0.0000001
 43
0.0000001
 44
0.0000000001
 40
0.0
 40
0.0
 40
0.0
 40
0.0
 40
0.1662390331
 40
0.2738964452
 40
0.4000442771
 40
0.694480958
 40
1.0
 40
1.0
 40
1.0
 40
1.0
 10
443.1144093478
 20
-103.5200544057
 30
0.0
 10
443.2472611353
 20
-103.5165760281
 30
0.0
 10
443.4642956397
 20
-103.4169545339
 30
0.0
 10
443.677787916
 20
-103.177880063
 30
0.0
 10
443.8938358333
 20
-102.8116827581
 30
0.0
 10
444.05525495
 20
-102.2458720797
 30
0.0
 10
444.0905476536
 20
-101.7649382208
 30
0.0
 10
444.0858292469
 20
-101.5207411597
 30
0.0
  0
SPLINE
  5
3C0
100
AcDbEntity
  8
0
100
AcDbSpline
 62
9
  6
CONTINUOUS
 70
0
 71
3
 72
12
 73
8
 74
0
 42
0.0000001
 43
0.0000001
 44
0.0000000001
 40
0.0
 40
0.0
 40
0.0
 40
0.0
 40
0.1133737569
 40
0.2107820802
 40
0.337511508
 40
0.6571058301
 40
1.0
 40
1.0
 40
1.0
 40
1.0
 10
445.1638511928
 20
-103.466336033
 30
0.0
 10
445.2446474376
 20
-103.4642391836
 30
0.0
 10
445.3681945806
 20
-103.3323721684
 30
0.0
 10
445.4613568687
 20
-103.1187977674
 30
0.0
 10
445.5741779539
 20
-102.7432149123
 30
0.0
 10
445.6465065472
 20
-102.1846716946
 30
0.0
 10
445.6590089537
 20
-101.7114495981
 30
0.0
 10
445.6530790955
 20
-101.4670744023
 30
0.0
  0
SPLINE
  5
3C1
100
AcDbEntity
  8
0
100
AcDbSpline
 62
9
  6
CONTINUOUS
 70
0
 71
3
 72
8
 73
4
 74
0
 42
0.0000001
 43
0.0000001
 44
0.0000000001
 40
0.0
 40
0.0
 40
0.0
 40
0.0
 40
1.0
 40
1.0
 40
1.0
 40
1.0
 10
456.0364280512
 20
-103.1816792275
 30
0.0
 10
456.3731025846
 20
-103.1728614954
 30
0.0
 10
456.7178402238
 20
-103.0714598083
 30
0.0
 10
457.0058083015
 20
-102.8968119338
 30
0.0
  0
SPLINE
  5
3C2
100
AcDbEntity
  8
0
100
AcDbSpline
 62
9
  6
CONTINUOUS
 70
0
 71
3
 72
10
 73
6
 74
0
 42
0.0000001
 43
0.0000001
 44
0.0000000001
 40
0.0
 40
0.0
 40
0.0
 40
0.0
 40
0.3553114268
 40
0.6464179827
 40
1.0
 40
1.0
 40
1.0
 40
1.0
 10
456.6301292505
 20
-101.9886249399
 30
0.0
 10
456.6092726435
 20
-102.1515780471
 30
0.0
 10
456.5520208753
 20
-102.4515905522
 30
0.0
 10
456.418438539
 20
-102.8712025365
 30
0.0
 10
456.1998543553
 20
-103.17738143
 30
0.0
 10
456.0364280512
 20
-103.1816792275
 30
0.0
  0
SPLINE
  5
3C3
100
AcDbEntity
  8
0
100
AcDbSpline
 62
9
  6
CONTINUOUS
 70
0
 71
3
 72
9
 73
5
 74
0
 42
0.0000001
 43
0.0000001
 44
0.0000000001
 40
0.0
 40
0.0
 40
0.0
 40
0.0
 40
0.2564071734
 40
1.0
 40
1.0
 40
1.0
 40
1.0
 10
456.6697714086
 20
-101.1823635114
 30
0.0
 10
456.6713661104
 20
-101.2513737411
 30
0.0
 10
456.6726899217
 20
-101.5205860118
 30
0.0
 10
456.6555440674
 20
-101.7900584431
 30
0.0
 10
456.6301292505
 20
-101.9886249399
 30
0.0
  0
SPLINE
  5
3C4
100
AcDbEntity
  8
0
100
AcDbSpline
 62
9
  6
CONTINUOUS
 70
0
 71
3
 72
9
 73
5
 74
0
 42
0.0000001
 43
0.0000001
 44
0.0000000001
 40
0.0
 40
0.0
 40
0.0
 40
0.0
 40
0.5935408302
 40
1.0
 40
1.0
 40
1.0
 40
1.0
 10
390.529876215
 20
-99.8906270975
 30
0.0
 10
390.6043449484
 20
-99.9153598872
 30
0.0
 10
390.7301984549
 20
-99.9546385802
 30
0.0
 10
390.8613821391
 20
-99.9808194568
 30
0.0
 10
390.9151176686
 20
-99.9807910175
 30
0.0
  0
SPLINE
  5
3C5
100
AcDbEntity
  8
0
100
AcDbSpline
 62
9
  6
CONTINUOUS
 70
0
 71
3
 72
9
 73
5
 74
0
 42
0.0000001
 43
0.0000001
 44
0.0000000001
 40
0.0
 40
0.0
 40
0.0
 40
0.0
 40
0.2844217384
 40
1.0
 40
1.0
 40
1.0
 40
1.0
 10
389.8644061023
 20
-99.6595062319
 30
0.0
 10
389.9277616278
 20
-99.6806442589
 30
0.0
 10
390.1502313025
 20
-99.7558242675
 30
0.0
 10
390.3704071496
 20
-99.8376637305
 30
0.0
 10
390.529876215
 20
-99.8906270975
 30
0.0
  0
SPLINE
  5
3C6
100
AcDbEntity
  8
0
100
AcDbSpline
 62
9
  6
CONTINUOUS
 70
0
 71
3
 72
9
 73
5
 74
0
 42
0.0000001
 43
0.0000001
 44
0.0000000001
 40
0.0
 40
0.0
 40
0.0
 40
0.0
 40
0.2692117538
 40
1.0
 40
1.0
 40
1.0
 40
1.0
 10
389.0080019857
 20
-99.422916594
 30
0.0
 10
389.0860707989
 20
-99.4392501903
 30
0.0
 10
389.3749140591
 20
-99.5054702664
 30
0.0
 10
389.6590255634
 20
-99.5909827788
 30
0.0
 10
389.8644061023
 20
-99.6595062319
 30
0.0
  0
SPLINE
  5
3C7
100
AcDbEntity
  8
0
100
AcDbSpline
 62
9
  6
CONTINUOUS
 70
0
 71
3
 72
9
 73
5
 74
0
 42
0.0000001
 43
0.0000001
 44
0.0000000001
 40
0.0
 40
0.0
 40
0.0
 40
0.0
 40
0.2622986494
 40
1.0
 40
1.0
 40
1.0
 40
1.0
 10
388.0715934422
 20
-99.3078374369
 30
0.0
 10
388.1540778455
 20
-99.310954282
 30
0.0
 10
388.4682026742
 20
-99.3306540041
 30
0.0
 10
388.7807327342
 20
-99.3755700895
 30
0.0
 10
389.0080019857
 20
-99.422916594
 30
0.0
  0
SPLINE
  5
3C8
100
AcDbEntity
  8
0
100
AcDbSpline
 62
9
  6
CONTINUOUS
 70
0
 71
3
 72
9
 73
5
 74
0
 42
0.0000001
 43
0.0000001
 44
0.0000000001
 40
0.0
 40
0.0
 40
0.0
 40
0.0
 40
0.2508195249
 40
1.0
 40
1.0
 40
1.0
 40
1.0
 10
385.9178981875
 20
-71.3053466604
 30
0.0
 10
385.9179003822
 20
-73.6547596202
 30
0.0
 10
386.0972596734
 20
-83.0207718316
 30
0.0
 10
386.9933999399
 20
-92.3736564887
 30
0.0
 10
388.0712117902
 20
-99.3079259084
 30
0.0
  0
SPLINE
  5
3C9
100
AcDbEntity
  8
0
100
AcDbSpline
 62
9
  6
CONTINUOUS
 70
0
 71
3
 72
9
 73
5
 74
0
 42
0.0000001
 43
0.0000001
 44
0.0000000001
 40
0.0
 40
0.0
 40
0.0
 40
0.0
 40
0.493014369
 40
1.0
 40
1.0
 40
1.0
 40
1.0
 10
386.9800568243
 20
286.8385372841
 30
0.0
 10
386.6333466033
 20
286.6971427282
 30
0.0
 10
386.0712717464
 20
286.0794030806
 30
0.0
 10
385.9187246414
 20
285.3109706819
 30
0.0
 10
385.9186117847
 20
284.9259264003
 30
0.0
  0
SPLINE
  5
3CA
100
AcDbEntity
  8
0
100
AcDbSpline
 62
6
  6
CONTINUOUS
 70
0
 71
3
 72
10
 73
6
 74
0
 42
0.0000001
 43
0.0000001
 44
0.0000000001
 40
0.0
 40
0.0
 40
0.0
 40
0.0
 40
0.3394752341
 40
0.6126900743
 40
1.0
 40
1.0
 40
1.0
 40
1.0
 10
393.0612760816
 20
122.2495691747
 30
0.0
 10
393.1029965519
 20
122.3526271553
 30
0.0
 10
393.1896834632
 20
122.5357319756
 30
0.0
 10
393.3681397207
 20
122.8055763485
 30
0.0
 10
393.5729018315
 20
122.9446533223
 30
0.0
 10
393.6997507904
 20
122.9446533223
 30
0.0
  0
SPLINE
  5
3CB
100
AcDbEntity
  8
0
100
AcDbSpline
 62
6
  6
CONTINUOUS
 70
0
 71
3
 72
10
 73
6
 74
0
 42
0.0000001
 43
0.0000001
 44
0.0000000001
 40
0.0
 40
0.0
 40
0.0
 40
0.0
 40
0.5613246225
 40
0.8056595893
 40
1.0
 40
1.0
 40
1.0
 40
1.0
 10
392.5868805813
 20
117.8535770316
 30
0.0
 10
392.5447486423
 20
118.684170448
 30
0.0
 10
392.5675188806
 20
119.8847226849
 30
0.0
 10
392.7841572871
 20
121.3510256314
 30
0.0
 10
392.9532301707
 20
121.9826739713
 30
0.0
 10
393.0612760816
 20
122.2495691747
 30
0.0
  0
SPLINE
  5
3CC
100
AcDbEntity
  8
0
100
AcDbSpline
 62
6
  6
CONTINUOUS
 70
0
 71
3
 72
9
 73
5
 74
0
 42
0.0000001
 43
0.0000001
 44
0.0000000001
 40
0.0
 40
0.0
 40
0.0
 40
0.0
 40
0.4360688679
 40
1.0
 40
1.0
 40
1.0
 40
1.0
 10
393.0608901772
 20
115.1406782162
 30
0.0
 10
392.9103642861
 20
115.5128539367
 30
0.0
 10
392.7037091476
 20
116.4186273639
 30
0.0
 10
392.6131821608
 20
117.3350649644
 30
0.0
 10
392.5868805813
 20
117.8535770316
 30
0.0
  0
SPLINE
  5
3CD
100
AcDbEntity
  8
0
100
AcDbSpline
 62
9
  6
CONTINUOUS
 70
0
 71
3
 72
9
 73
5
 74
0
 42
0.0000001
 43
0.0000001
 44
0.0000000001
 40
0.0
 40
0.0
 40
0.0
 40
0.0
 40
0.5493174538
 40
1.0
 40
1.0
 40
1.0
 40
1.0
 10
440.8885771225
 20
-105.0933327084
 30
0.0
 10
440.8872506796
 20
-105.0951070815
 30
0.0
 10
440.8846140534
 20
-105.098187053
 30
0.0
 10
440.8812970577
 20
-105.1005963695
 30
0.0
 10
440.8796571529
 20
-105.1013801432
 30
0.0
  0
SPLINE
  5
3CE
100
AcDbEntity
  8
0
100
AcDbSpline
 62
9
  6
CONTINUOUS
 70
0
 71
3
 72
9
 73
5
 74
0
 42
0.0000001
 43
0.0000001
 44
0.0000000001
 40
0.0
 40
0.0
 40
0.0
 40
0.0
 40
0.5113028357
 40
1.0
 40
1.0
 40
1.0
 40
1.0
 10
440.8796571529
 20
-105.1013801432
 30
0.0
 10
440.8789261707
 20
-105.1017295077
 30
0.0
 10
440.8774359764
 20
-105.1022963006
 30
0.0
 10
440.8758615713
 20
-105.1025629091
 30
0.0
 10
440.8750888049
 20
-105.1026125582
 30
0.0
  0
SPLINE
  5
3CF
100
AcDbEntity
  8
0
100
AcDbSpline
 62
9
  6
CONTINUOUS
 70
0
 71
3
 72
9
 73
5
 74
0
 42
0.0000001
 43
0.0000001
 44
0.0000000001
 40
0.0
 40
0.0
 40
0.0
 40
0.0
 40
0.3048413556
 40
1.0
 40
1.0
 40
1.0
 40
1.0
 10
441.3077359646
 20
-104.7817829298
 30
0.0
 10
441.3100138177
 20
-104.7760448013
 30
0.0
 10
441.2956794164
 20
-104.7559455532
 30
0.0
 10
441.285566606
 20
-104.7411603221
 30
0.0
 10
441.2767874198
 20
-104.7301544078
 30
0.0
  0
SPLINE
  5
3D0
100
AcDbEntity
  8
0
100
AcDbSpline
 62
9
  6
CONTINUOUS
 70
0
 71
3
 72
8
 73
4
 74
0
 42
0.0000001
 43
0.0000001
 44
0.0000000001
 40
0.0
 40
0.0
 40
0.0
 40
0.0
 40
1.0
 40
1.0
 40
1.0
 40
1.0
 10
441.2767874198
 20
-104.7301544078
 30
0.0
 10
441.2627498549
 20
-104.7125563945
 30
0.0
 10
441.2481478638
 20
-104.6954062272
 30
0.0
 10
441.2332839895
 20
-104.6785003541
 30
0.0
  0
SPLINE
  5
3D1
100
AcDbEntity
  8
0
100
AcDbSpline
 62
9
  6
CONTINUOUS
 70
0
 71
3
 72
9
 73
5
 74
0
 42
0.0000001
 43
0.0000001
 44
0.0000000001
 40
0.0
 40
0.0
 40
0.0
 40
0.0
 40
0.2377140756
 40
1.0
 40
1.0
 40
1.0
 40
1.0
 10
440.7161730556
 20
-104.0626402921
 30
0.0
 10
440.6927268422
 20
-104.0321424291
 30
0.0
 10
440.5942870955
 20
-103.9036849786
 30
0.0
 10
440.5029312454
 20
-103.7699300123
 30
0.0
 10
440.4274905157
 20
-103.6723279931
 30
0.0
  0
SPLINE
  5
3D2
100
AcDbEntity
  8
0
100
AcDbSpline
 62
9
  6
CONTINUOUS
 70
0
 71
3
 72
9
 73
5
 74
0
 42
0.0000001
 43
0.0000001
 44
0.0000000001
 40
0.0
 40
0.0
 40
0.0
 40
0.0
 40
0.2077739115
 40
1.0
 40
1.0
 40
1.0
 40
1.0
 10
441.2332839895
 20
-104.6785003541
 30
0.0
 10
441.2234689532
 20
-104.6671275049
 30
0.0
 10
441.1760913982
 20
-104.6125097742
 30
0.0
 10
441.1279128999
 20
-104.5585943977
 30
0.0
 10
441.0901263117
 20
-104.5155461897
 30
0.0
  0
SPLINE
  5
3D3
100
AcDbEntity
  8
0
100
AcDbSpline
 62
9
  6
CONTINUOUS
 70
0
 71
3
 72
9
 73
5
 74
0
 42
0.0000001
 43
0.0000001
 44
0.0000000001
 40
0.0
 40
0.0
 40
0.0
 40
0.0
 40
0.2386117774
 40
1.0
 40
1.0
 40
1.0
 40
1.0
 10
440.6087741883
 20
-104.1295415867
 30
0.0
 10
440.5945499837
 20
-104.0930992259
 30
0.0
 10
440.5352886142
 20
-103.9402400444
 30
0.0
 10
440.4756099318
 20
-103.7875088877
 30
0.0
 10
440.42749054
 20
-103.6723280472
 30
0.0
  0
SPLINE
  5
3D4
100
AcDbEntity
  8
0
100
AcDbSpline
 62
9
  6
CONTINUOUS
 70
0
 71
3
 72
9
 73
5
 74
0
 42
0.0000001
 43
0.0000001
 44
0.0000000001
 40
0.0
 40
0.0
 40
0.0
 40
0.0
 40
0.2202651135
 40
1.0
 40
1.0
 40
1.0
 40
1.0
 10
440.8789760947
 20
-104.8984651944
 30
0.0
 10
440.8752352206
 20
-104.8837648399
 30
0.0
 10
440.8574614897
 20
-104.8172236745
 30
0.0
 10
440.8364176839
 20
-104.7516049886
 30
0.0
 10
440.8194996722
 20
-104.7006421871
 30
0.0
  0
SPLINE
  5
3D5
100
AcDbEntity
  8
0
100
AcDbSpline
 62
9
  6
CONTINUOUS
 70
0
 71
3
 72
9
 73
5
 74
0
 42
0.0000001
 43
0.0000001
 44
0.0000000001
 40
0.0
 40
0.0
 40
0.0
 40
0.0
 40
0.35673606
 40
1.0
 40
1.0
 40
1.0
 40
1.0
 10
440.8884455487
 20
-105.0932718109
 30
0.0
 10
440.9016544092
 20
-105.0783425132
 30
0.0
 10
440.9041181965
 20
-105.0157592651
 30
0.0
 10
440.8941084947
 20
-104.9633525073
 30
0.0
 10
440.8861777713
 20
-104.9282937737
 30
0.0
  0
SPLINE
  5
3D6
100
AcDbEntity
  8
0
100
AcDbSpline
 62
6
  6
CONTINUOUS
 70
0
 71
3
 72
10
 73
6
 74
0
 42
0.0000001
 43
0.0000001
 44
0.0000000001
 40
0.0
 40
0.0
 40
0.0
 40
0.0
 40
0.3873964652
 40
0.6605408287
 40
1.0
 40
1.0
 40
1.0
 40
1.0
 10
393.6997507904
 20
114.4446533221
 30
0.0
 10
393.5727595617
 20
114.4446533221
 30
0.0
 10
393.368029123
 20
114.5842867898
 30
0.0
 10
393.1893336961
 20
114.8542330267
 30
0.0
 10
393.102612736
 20
115.0375190636
 30
0.0
 10
393.0608901772
 20
115.1406782162
 30
0.0
  0
SPLINE
  5
3D7
100
AcDbEntity
  8
0
100
AcDbSpline
 62
6
  6
CONTINUOUS
 70
0
 71
3
 72
10
 73
6
 74
0
 42
0.0000001
 43
0.0000001
 44
0.0000000001
 40
0.0
 40
0.0
 40
0.0
 40
0.0
 40
0.3394752342
 40
0.6126900746
 40
1.0
 40
1.0
 40
1.0
 40
1.0
 10
393.0612760816
 20
32.249569175
 30
0.0
 10
393.1029965518
 20
32.3526271555
 30
0.0
 10
393.1896834632
 20
32.5357319758
 30
0.0
 10
393.3681397204
 20
32.8055763489
 30
0.0
 10
393.5729018316
 20
32.9446533215
 30
0.0
 10
393.6997507904
 20
32.9446533216
 30
0.0
  0
SPLINE
  5
3D8
100
AcDbEntity
  8
0
100
AcDbSpline
 62
6
  6
CONTINUOUS
 70
0
 71
3
 72
10
 73
6
 74
0
 42
0.0000001
 43
0.0000001
 44
0.0000000001
 40
0.0
 40
0.0
 40
0.0
 40
0.0
 40
0.5613246224
 40
0.8056595892
 40
1.0
 40
1.0
 40
1.0
 40
1.0
 10
392.5868805813
 20
27.8535770319
 30
0.0
 10
392.5447486423
 20
28.6841704482
 30
0.0
 10
392.5675188804
 20
29.884722685
 30
0.0
 10
392.7841572874
 20
31.3510256314
 30
0.0
 10
392.9532301706
 20
31.9826739714
 30
0.0
 10
393.0612760816
 20
32.249569175
 30
0.0
  0
SPLINE
  5
3D9
100
AcDbEntity
  8
0
100
AcDbSpline
 62
6
  6
CONTINUOUS
 70
0
 71
3
 72
9
 73
5
 74
0
 42
0.0000001
 43
0.0000001
 44
0.0000000001
 40
0.0
 40
0.0
 40
0.0
 40
0.0
 40
0.4360688679
 40
1.0
 40
1.0
 40
1.0
 40
1.0
 10
393.0608901772
 20
25.1406782164
 30
0.0
 10
392.9103642862
 20
25.5128539369
 30
0.0
 10
392.7037091475
 20
26.4186273641
 30
0.0
 10
392.6131821608
 20
27.3350649646
 30
0.0
 10
392.5868805813
 20
27.8535770319
 30
0.0
  0
SPLINE
  5
3DA
100
AcDbEntity
  8
0
100
AcDbSpline
 62
6
  6
CONTINUOUS
 70
0
 71
3
 72
10
 73
6
 74
0
 42
0.0000001
 43
0.0000001
 44
0.0000000001
 40
0.0
 40
0.0
 40
0.0
 40
0.0
 40
0.3873964652
 40
0.6605408287
 40
1.0
 40
1.0
 40
1.0
 40
1.0
 10
393.6997507903
 20
24.4446533224
 30
0.0
 10
393.5727595617
 20
24.4446533224
 30
0.0
 10
393.368029123
 20
24.5842867901
 30
0.0
 10
393.1893336961
 20
24.854233027
 30
0.0
 10
393.1026127359
 20
25.0375190639
 30
0.0
 10
393.0608901772
 20
25.1406782164
 30
0.0
  0
SPLINE
  5
3DB
100
AcDbEntity
  8
0
100
AcDbSpline
 62
6
  6
CONTINUOUS
 70
0
 71
3
 72
10
 73
6
 74
0
 42
0.0000001
 43
0.0000001
 44
0.0000000001
 40
0.0
 40
0.0
 40
0.0
 40
0.0
 40
0.3318713236
 40
0.7146666201
 40
1.0
 40
1.0
 40
1.0
 40
1.0
 10
393.7494376386
 20
-85.7477994797
 30
0.0
 10
393.7942981025
 20
-85.6447434207
 30
0.0
 10
393.9041310799
 20
-85.428992458
 30
0.0
 10
394.1112424931
 20
-85.1532703678
 30
0.0
 10
394.3352386331
 20
-85.0553466779
 30
0.0
 10
394.4318740482
 20
-85.0553466779
 30
0.0
  0
SPLINE
  5
3DC
100
AcDbEntity
  8
0
100
AcDbSpline
 62
6
  6
CONTINUOUS
 70
0
 71
3
 72
10
 73
6
 74
0
 42
0.0000001
 43
0.0000001
 44
0.0000000001
 40
0.0
 40
0.0
 40
0.0
 40
0.0
 40
0.5644757193
 40
0.8045628489
 40
1.0
 40
1.0
 40
1.0
 40
1.0
 10
393.2161400636
 20
-89.3017653345
 30
0.0
 10
393.216294477
 20
-88.6222140834
 30
0.0
 10
393.2734061772
 20
-87.6501567439
 30
0.0
 10
393.4988971833
 20
-86.4666966597
 30
0.0
 10
393.6555314137
 20
-85.9635263051
 30
0.0
 10
393.7494376386
 20
-85.7477994797
 30
0.0
  0
SPLINE
  5
3DD
100
AcDbEntity
  8
0
100
AcDbSpline
 62
6
  6
CONTINUOUS
 70
0
 71
3
 72
10
 73
6
 74
0
 42
0.0000001
 43
0.0000001
 44
0.0000000001
 40
0.0
 40
0.0
 40
0.0
 40
0.0
 40
0.1953092276
 40
0.4354444569
 40
1.0
 40
1.0
 40
1.0
 40
1.0
 10
393.7491672618
 20
-92.8622897984
 30
0.0
 10
393.6551998886
 20
-92.6462919826
 30
0.0
 10
393.4979323417
 20
-92.1424252035
 30
0.0
 10
393.2728910908
 20
-90.9566016707
 30
0.0
 10
393.215985348
 20
-89.982646622
 30
0.0
 10
393.2161400636
 20
-89.3017653345
 30
0.0
  0
SPLINE
  5
3DE
100
AcDbEntity
  8
0
100
AcDbSpline
 62
6
  6
CONTINUOUS
 70
0
 71
3
 72
9
 73
5
 74
0
 42
0.0000001
 43
0.0000001
 44
0.0000000001
 40
0.0
 40
0.0
 40
0.0
 40
0.0
 40
0.2392030875
 40
1.0
 40
1.0
 40
1.0
 40
1.0
 10
394.4318740482
 20
-93.5553466781
 30
0.0
 10
394.4111610402
 20
-93.5553466781
 30
0.0
 10
394.3245071351
 20
-93.54834528
 30
0.0
 10
394.2419512813
 20
-93.5117981743
 30
0.0
 10
394.1870623767
 20
-93.4753672322
 30
0.0
  0
SPLINE
  5
3DF
100
AcDbEntity
  8
0
100
AcDbSpline
 62
6
  6
CONTINUOUS
 70
0
 71
3
 72
9
 73
5
 74
0
 42
0.0000001
 43
0.0000001
 44
0.0000000001
 40
0.0
 40
0.0
 40
0.0
 40
0.0
 40
0.4294375654
 40
1.0
 40
1.0
 40
1.0
 40
1.0
 10
394.1870623767
 20
-93.4753672322
 30
0.0
 10
394.0963682139
 20
-93.4151715731
 30
0.0
 10
393.9230530991
 20
-93.2211200521
 30
0.0
 10
393.8068615261
 20
-92.9949085429
 30
0.0
 10
393.7491672618
 20
-92.8622897984
 30
0.0
  0
SPLINE
  5
3E0
100
AcDbEntity
  8
0
100
AcDbSpline
 62
9
  6
CONTINUOUS
 70
0
 71
3
 72
9
 73
5
 74
0
 42
0.0000001
 43
0.0000001
 44
0.0000000001
 40
0.0
 40
0.0
 40
0.0
 40
0.0
 40
0.7435859476
 40
1.0
 40
1.0
 40
1.0
 40
1.0
 10
394.1684240263
 20
-99.9807147812
 30
0.0
 10
394.2745264234
 20
-99.9807234307
 30
0.0
 10
394.4175145745
 20
-99.966671816
 30
0.0
 10
394.5573351642
 20
-99.9382584469
 30
0.0
 10
394.5930094288
 20
-99.9301337207
 30
0.0
  0
SPLINE
  5
3E1
100
AcDbEntity
  8
0
100
AcDbSpline
 62
9
  6
CONTINUOUS
 70
0
 71
3
 72
9
 73
5
 74
0
 42
0.0000001
 43
0.0000001
 44
0.0000000001
 40
0.0
 40
0.0
 40
0.0
 40
0.0
 40
0.5164391903
 40
1.0
 40
1.0
 40
1.0
 40
1.0
 10
394.5930150679
 20
289.399788171
 30
0.0
 10
394.5391888341
 20
289.4297409327
 30
0.0
 10
394.4246068419
 20
289.4732927349
 30
0.0
 10
394.3012087156
 20
289.4636445593
 30
0.0
 10
394.2459868581
 20
289.4469945589
 30
0.0
  0
SPLINE
  5
3E2
100
AcDbEntity
  8
0
100
AcDbSpline
 62
6
  6
CONTINUOUS
 70
0
 71
3
 72
10
 73
6
 74
0
 42
0.0000001
 43
0.0000001
 44
0.0000000001
 40
0.0
 40
0.0
 40
0.0
 40
0.0
 40
0.3318713235
 40
0.7146666201
 40
1.0
 40
1.0
 40
1.0
 40
1.0
 10
393.7494376386
 20
288.2522005205
 30
0.0
 10
393.7942981025
 20
288.3552565795
 30
0.0
 10
393.90413108
 20
288.571007542
 30
0.0
 10
394.111242493
 20
288.8467296325
 30
0.0
 10
394.3352386331
 20
288.944653322
 30
0.0
 10
394.4318740482
 20
288.944653322
 30
0.0
  0
SPLINE
  5
3E3
100
AcDbEntity
  8
0
100
AcDbSpline
 62
9
  6
CONTINUOUS
 70
0
 71
3
 72
9
 73
5
 74
0
 42
0.0000001
 43
0.0000001
 44
0.0000000001
 40
0.0
 40
0.0
 40
0.0
 40
0.0
 40
0.5057301121
 40
1.0
 40
1.0
 40
1.0
 40
1.0
 10
397.7536185385
 20
-104.7101795969
 30
0.0
 10
397.8729042932
 20
-105.0833439841
 30
0.0
 10
398.3351203105
 20
-105.7713983359
 30
0.0
 10
399.1188280812
 20
-106.0574967565
 30
0.0
 10
399.5014833383
 20
-106.07085868
 30
0.0
  0
SPLINE
  5
3E4
100
AcDbEntity
  8
0
100
AcDbSpline
 62
6
  6
CONTINUOUS
 70
0
 71
3
 72
10
 73
6
 74
0
 42
0.0000001
 43
0.0000001
 44
0.0000000001
 40
0.0
 40
0.0
 40
0.0
 40
0.0
 40
0.5644757193
 40
0.8045628489
 40
1.0
 40
1.0
 40
1.0
 40
1.0
 10
393.2161400637
 20
284.6982346651
 30
0.0
 10
393.216294477
 20
285.3777859164
 30
0.0
 10
393.2734061771
 20
286.349843256
 30
0.0
 10
393.4988971833
 20
287.5333033404
 30
0.0
 10
393.6555314137
 20
288.0364736951
 30
0.0
 10
393.7494376386
 20
288.2522005205
 30
0.0
  0
SPLINE
  5
3E5
100
AcDbEntity
  8
0
100
AcDbSpline
 62
9
  6
CONTINUOUS
 70
0
 71
3
 72
16
 73
12
 74
0
 42
0.0000001
 43
0.0000001
 44
0.0000000001
 40
0.0
 40
0.0
 40
0.0
 40
0.0
 40
0.4023065072
 40
0.5749697843
 40
0.7225398026
 40
0.8413987348
 40
0.9286371799
 40
0.959587599
 40
0.9818540608
 40
0.9953352215
 40
1.0
 40
1.0
 40
1.0
 40
1.0
 10
404.7168517031
 20
-104.8384741733
 30
0.0
 10
404.7096106057
 20
-105.0279746824
 30
0.0
 10
404.6988424086
 20
-105.2988263779
 30
0.0
 10
404.6839347799
 20
-105.639006683
 30
0.0
 10
404.6743414467
 20
-105.8459518058
 30
0.0
 10
404.6654979926
 20
-106.0119213474
 30
0.0
 10
404.6595577788
 20
-106.1245907469
 30
0.0
 10
404.6541054587
 20
-106.1891045852
 30
0.0
 10
404.6527267623
 20
-106.2229844546
 30
0.0
 10
404.648339516
 20
-106.2373573389
 30
0.0
 10
404.6492509086
 20
-106.2506235493
 30
0.0
 10
404.6470528334
 20
-106.2505641279
 30
0.0
  0
LINE
  5
3E6
100
AcDbEntity
  8
0
100
AcDbLine
 62
9
  6
CONTINUOUS
 10
400.6960107226
 20
-101.6901410892
 11
400.5168063965
 21
-101.6855472121
  0
SPLINE
  5
3E7
100
AcDbEntity
  8
0
100
AcDbSpline
 62
9
  6
CONTINUOUS
 70
0
 71
3
 72
11
 73
7
 74
0
 42
0.0000001
 43
0.0000001
 44
0.0000000001
 40
0.0
 40
0.0
 40
0.0
 40
0.0
 40
0.3266351643
 40
0.6101061015
 40
0.8380333408
 40
1.0
 40
1.0
 40
1.0
 40
1.0
 10
400.5168063965
 20
-101.6855472121
 30
0.0
 10
399.9987638703
 20
-101.6727112605
 30
0.0
 10
399.0309817035
 20
-101.6559051324
 30
0.0
 10
397.701226128
 20
-101.6546149688
 30
0.0
 10
396.6334731552
 20
-101.6799579362
 30
0.0
 10
396.0151507122
 20
-101.7178934249
 30
0.0
 10
395.7604236224
 20
-101.7516764009
 30
0.0
  0
SPLINE
  5
3E8
100
AcDbEntity
  8
0
100
AcDbSpline
 62
9
  6
CONTINUOUS
 70
0
 71
3
 72
9
 73
5
 74
0
 42
0.0000001
 43
0.0000001
 44
0.0000000001
 40
0.0
 40
0.0
 40
0.0
 40
0.0
 40
0.2683201164
 40
1.0
 40
1.0
 40
1.0
 40
1.0
 10
395.7604236224
 20
-101.7516764009
 30
0.0
 10
395.7162969806
 20
-101.7574380356
 30
0.0
 10
395.5516189648
 20
-101.7769520271
 30
0.0
 10
395.3857147144
 20
-101.7878140486
 30
0.0
 10
395.2643647597
 20
-101.7878071569
 30
0.0
  0
SPLINE
  5
3E9
100
AcDbEntity
  8
0
100
AcDbSpline
 62
9
  6
CONTINUOUS
 70
0
 71
3
 72
9
 73
5
 74
0
 42
0.0000001
 43
0.0000001
 44
0.0000000001
 40
0.0
 40
0.0
 40
0.0
 40
0.0
 40
0.3954154697
 40
1.0
 40
1.0
 40
1.0
 40
1.0
 10
392.0365152637
 20
-101.7877889941
 30
0.0
 10
391.9055508698
 20
-101.7839275624
 30
0.0
 10
391.5764624924
 20
-101.7318368304
 30
0.0
 10
391.2557499649
 20
-101.6499917556
 30
0.0
 10
391.0605193797
 20
-101.6050807245
 30
0.0
  0
SPLINE
  5
3EA
100
AcDbEntity
  8
0
100
AcDbSpline
 62
9
  6
CONTINUOUS
 70
0
 71
3
 72
10
 73
6
 74
0
 42
0.0000001
 43
0.0000001
 44
0.0000000001
 40
0.0
 40
0.0
 40
0.0
 40
0.0
 40
0.5877318832
 40
0.8273901157
 40
1.0
 40
1.0
 40
1.0
 40
1.0
 10
439.7618553062
 20
-98.71447047
 30
0.0
 10
439.7857807507
 20
-99.0707877592
 30
0.0
 10
439.7938234478
 20
-99.5764037109
 30
0.0
 10
439.7215597887
 20
-100.1796403326
 30
0.0
 10
439.6626128029
 20
-100.425344121
 30
0.0
 10
439.6221233151
 20
-100.5220953176
 30
0.0
  0
SPLINE
  5
3EB
100
AcDbEntity
  8
0
100
AcDbSpline
 62
9
  6
CONTINUOUS
 70
0
 71
3
 72
9
 73
5
 74
0
 42
0.0000001
 43
0.0000001
 44
0.0000000001
 40
0.0
 40
0.0
 40
0.0
 40
0.0
 40
0.5040479148
 40
1.0
 40
1.0
 40
1.0
 40
1.0
 10
397.7536822726
 20
-104.7102498684
 30
0.0
 10
397.5515240872
 20
-104.0839827209
 30
0.0
 10
396.9042322075
 20
-102.9063996498
 30
0.0
 10
395.8447232762
 20
-102.0748772102
 30
0.0
 10
395.2643280124
 20
-101.7877889941
 30
0.0
  0
SPLINE
  5
3EC
100
AcDbEntity
  8
0
100
AcDbSpline
 62
6
  6
CONTINUOUS
 70
0
 71
3
 72
8
 73
4
 74
0
 42
0.0000001
 43
0.0000001
 44
0.0000000001
 40
0.0
 40
0.0
 40
0.0
 40
0.0
 40
1.0
 40
1.0
 40
1.0
 40
1.0
 10
458.3319813363
 20
291.7069228865
 30
0.0
 10
458.3756994756
 20
291.5951718523
 30
0.0
 10
458.39984089
 20
291.4737553881
 30
0.0
 10
458.4018528132
 20
291.3537740499
 30
0.0
  0
SPLINE
  5
3ED
100
AcDbEntity
  8
0
100
AcDbSpline
 62
6
  6
CONTINUOUS
 70
0
 71
3
 72
8
 73
4
 74
0
 42
0.0000001
 43
0.0000001
 44
0.0000000001
 40
0.0
 40
0.0
 40
0.0
 40
0.0
 40
1.0
 40
1.0
 40
1.0
 40
1.0
 10
458.1423269145
 20
292.0156573713
 30
0.0
 10
458.2227494294
 20
291.9255489467
 30
0.0
 10
458.2879791242
 20
291.8194000594
 30
0.0
 10
458.3319813363
 20
291.7069228865
 30
0.0
  0
SPLINE
  5
3EE
100
AcDbEntity
  8
0
100
AcDbSpline
 62
9
  6
CONTINUOUS
 70
0
 71
3
 72
9
 73
5
 74
0
 42
0.0000001
 43
0.0000001
 44
0.0000000001
 40
0.0
 40
0.0
 40
0.0
 40
0.0
 40
0.5191123003
 40
1.0
 40
1.0
 40
1.0
 40
1.0
 10
457.1190515202
 20
291.2038903031
 30
0.0
 10
457.3392850435
 20
291.1632978792
 30
0.0
 10
457.7525620363
 20
290.9530085027
 30
0.0
 10
457.9539189169
 20
290.5262261053
 30
0.0
 10
457.9668433069
 20
290.3191758648
 30
0.0
  0
SPLINE
  5
3EF
100
AcDbEntity
  8
0
100
AcDbSpline
 62
9
  6
CONTINUOUS
 70
0
 71
3
 72
9
 73
5
 74
0
 42
0.0000001
 43
0.0000001
 44
0.0000000001
 40
0.0
 40
0.0
 40
0.0
 40
0.0
 40
0.4941914777
 40
1.0
 40
1.0
 40
1.0
 40
1.0
 10
457.9909932913
 20
290.3891127207
 30
0.0
 10
457.9821929916
 20
290.6195076723
 30
0.0
 10
457.7778919739
 20
291.0909566964
 30
0.0
 10
457.3194855958
 20
291.3136975653
 30
0.0
 10
457.0851680555
 20
291.3416831551
 30
0.0
  0
SPLINE
  5
3F0
100
AcDbEntity
  8
0
100
AcDbSpline
 62
9
  6
CONTINUOUS
 70
0
 71
3
 72
9
 73
5
 74
0
 42
0.0000001
 43
0.0000001
 44
0.0000000001
 40
0.0
 40
0.0
 40
0.0
 40
0.0
 40
0.2862745119
 40
1.0
 40
1.0
 40
1.0
 40
1.0
 10
457.1190437497
 20
291.2038443423
 30
0.0
 10
457.1164887775
 20
291.2171528189
 30
0.0
 10
457.1070197594
 20
291.2635237214
 30
0.0
 10
457.0956082153
 20
291.3095783867
 30
0.0
 10
457.0851796325
 20
291.3417145897
 30
0.0
  0
SPLINE
  5
3F1
100
AcDbEntity
  8
0
100
AcDbSpline
 62
9
  6
CONTINUOUS
 70
0
 71
3
 72
9
 73
5
 74
0
 42
0.0000001
 43
0.0000001
 44
0.0000000001
 40
0.0
 40
0.0
 40
0.0
 40
0.0
 40
0.5623916893
 40
1.0
 40
1.0
 40
1.0
 40
1.0
 10
457.0812902596
 20
290.5955449351
 30
0.0
 10
457.1054336552
 20
290.7077198134
 30
0.0
 10
457.1369861358
 20
290.9095577106
 30
0.0
 10
457.1356497087
 20
291.1161178481
 30
0.0
 10
457.1190437497
 20
291.2038443423
 30
0.0
  0
SPLINE
  5
3F2
100
AcDbEntity
  8
0
100
AcDbSpline
 62
9
  6
CONTINUOUS
 70
0
 71
3
 72
9
 73
5
 74
0
 42
0.0000001
 43
0.0000001
 44
0.0000000001
 40
0.0
 40
0.0
 40
0.0
 40
0.0
 40
0.2635532604
 40
1.0
 40
1.0
 40
1.0
 40
1.0
 10
456.9396593126
 20
290.0882316264
 30
0.0
 10
456.9544659917
 20
290.1320856775
 30
0.0
 10
457.0086165916
 20
290.2991403777
 30
0.0
 10
457.0545570799
 20
290.4690027937
 30
0.0
 10
457.0812632612
 20
290.5955531603
 30
0.0
  0
SPLINE
  5
3F3
100
AcDbEntity
  8
0
100
AcDbSpline
 62
9
  6
CONTINUOUS
 70
0
 71
3
 72
11
 73
7
 74
0
 42
0.0000001
 43
0.0000001
 44
0.0000000001
 40
0.0
 40
0.0
 40
0.0
 40
0.0
 40
0.1598288563
 40
0.3966549355
 40
0.6910077729
 40
1.0
 40
1.0
 40
1.0
 40
1.0
 10
445.2533872717
 20
291.1348539903
 30
0.0
 10
445.3223703823
 20
291.0556077568
 30
0.0
 10
445.4343136866
 20
290.8131445178
 30
0.0
 10
445.5540849064
 20
290.3759660306
 30
0.0
 10
445.6284842722
 20
289.8266827844
 30
0.0
 10
445.650510352
 20
289.4304803317
 30
0.0
 10
445.6526799995
 20
289.227373153
 30
0.0
  0
SPLINE
  5
3F4
100
AcDbEntity
  8
0
100
AcDbSpline
 62
9
  6
CONTINUOUS
 70
0
 71
3
 72
9
 73
5
 74
0
 42
0.0000001
 43
0.0000001
 44
0.0000000001
 40
0.0
 40
0.0
 40
0.0
 40
0.0
 40
0.2520688774
 40
1.0
 40
1.0
 40
1.0
 40
1.0
 10
406.2158785744
 20
290.1514928753
 30
0.0
 10
409.0067300629
 20
290.0888064904
 30
0.0
 10
420.0792320997
 20
289.8741996344
 30
0.0
 10
431.1545393501
 20
289.7967353211
 30
0.0
 10
439.4375015859
 20
289.82726267
 30
0.0
  0
SPLINE
  5
3F5
100
AcDbEntity
  8
0
100
AcDbSpline
 62
6
  6
CONTINUOUS
 70
0
 71
3
 72
8
 73
4
 74
0
 42
0.0000001
 43
0.0000001
 44
0.0000000001
 40
0.0
 40
0.0
 40
0.0
 40
0.0
 40
1.0
 40
1.0
 40
1.0
 40
1.0
 10
406.2158788898
 20
293.6946533221
 30
0.0
 10
406.2112450146
 20
292.8363516486
 30
0.0
 10
406.2167194675
 20
291.9780250767
 30
0.0
 10
406.2176121394
 20
291.1197113586
 30
0.0
  0
SPLINE
  5
3F6
100
AcDbEntity
  8
0
100
AcDbSpline
 62
9
  6
CONTINUOUS
 70
0
 71
3
 72
9
 73
5
 74
0
 42
0.0000001
 43
0.0000001
 44
0.0000000001
 40
0.0
 40
0.0
 40
0.0
 40
0.0
 40
0.2609960548
 40
1.0
 40
1.0
 40
1.0
 40
1.0
 10
441.051168552
 20
288.5689977516
 30
0.0
 10
441.0745248575
 20
288.5153576985
 30
0.0
 10
441.1552941324
 20
288.3061585517
 30
0.0
 10
441.2023777042
 20
288.0838839659
 30
0.0
 10
441.2159040893
 20
287.9187831757
 30
0.0
  0
SPLINE
  5
3F7
100
AcDbEntity
  8
0
100
AcDbSpline
 62
9
  6
CONTINUOUS
 70
0
 71
3
 72
8
 73
4
 74
0
 42
0.0000001
 43
0.0000001
 44
0.0000000001
 40
0.0
 40
0.0
 40
0.0
 40
0.0
 40
1.0
 40
1.0
 40
1.0
 40
1.0
 10
440.6515346348
 20
289.1774447808
 30
0.0
 10
440.8169459779
 20
288.999916674
 30
0.0
 10
440.9542845228
 20
288.7914744032
 30
0.0
 10
441.0511445362
 20
288.5689990587
 30
0.0
  0
SPLINE
  5
3F8
100
AcDbEntity
  8
0
100
AcDbSpline
 62
9
  6
CONTINUOUS
 70
0
 71
3
 72
9
 73
5
 74
0
 42
0.0000001
 43
0.0000001
 44
0.0000000001
 40
0.0
 40
0.0
 40
0.0
 40
0.0
 40
0.2389834678
 40
1.0
 40
1.0
 40
1.0
 40
1.0
 10
439.4375092647
 20
289.8272256395
 30
0.0
 10
439.4903586028
 20
289.819246765
 30
0.0
 10
439.7100093449
 20
289.7766046201
 30
0.0
 10
439.9224648352
 20
289.6971290858
 30
0.0
 10
440.0733846092
 20
289.6184444017
 30
0.0
  0
SPLINE
  5
3F9
100
AcDbEntity
  8
0
100
AcDbSpline
 62
9
  6
CONTINUOUS
 70
0
 71
3
 72
9
 73
5
 74
0
 42
0.0000001
 43
0.0000001
 44
0.0000000001
 40
0.0
 40
0.0
 40
0.0
 40
0.0
 40
0.283530134
 40
1.0
 40
1.0
 40
1.0
 40
1.0
 10
440.2824490112
 20
290.3366806326
 30
0.0
 10
440.196624455
 20
290.2995972373
 30
0.0
 10
439.8981069787
 20
290.1604331284
 30
0.0
 10
439.613375468
 20
289.9841595006
 30
0.0
 10
439.4374605771
 20
289.8264568157
 30
0.0
  0
SPLINE
  5
3FA
100
AcDbEntity
  8
0
100
AcDbSpline
 62
9
  6
CONTINUOUS
 70
0
 71
3
 72
9
 73
5
 74
0
 42
0.0000001
 43
0.0000001
 44
0.0000000001
 40
0.0
 40
0.0
 40
0.0
 40
0.0
 40
0.5667751776
 40
1.0
 40
1.0
 40
1.0
 40
1.0
 10
445.2533033903
 20
291.1335299681
 30
0.0
 10
444.2983891693
 20
291.1209303131
 30
0.0
 10
442.6147669301
 20
291.0069338
 30
0.0
 10
440.9547094465
 20
290.6211472841
 30
0.0
 10
440.2824490112
 20
290.3366806326
 30
0.0
  0
SPLINE
  5
3FB
100
AcDbEntity
  8
0
100
AcDbSpline
 62
9
  6
CONTINUOUS
 70
0
 71
3
 72
10
 73
6
 74
0
 42
0.0000001
 43
0.0000001
 44
0.0000000001
 40
0.0
 40
0.0
 40
0.0
 40
0.0
 40
0.1551098104
 40
0.3912675248
 40
1.0
 40
1.0
 40
1.0
 40
1.0
 10
439.4375122032
 20
289.827246161
 30
0.0
 10
439.4967971679
 20
289.7455802928
 30
0.0
 10
439.5879079877
 20
289.502177071
 30
0.0
 10
439.7289812973
 20
288.8689101451
 30
0.0
 10
439.7604087744
 20
288.314856955
 30
0.0
 10
439.7618540147
 20
287.9188124815
 30
0.0
  0
SPLINE
  5
3FC
100
AcDbEntity
  8
0
100
AcDbSpline
 62
6
  6
CONTINUOUS
 70
0
 71
3
 72
9
 73
5
 74
0
 42
0.0000001
 43
0.0000001
 44
0.0000000001
 40
0.0
 40
0.0
 40
0.0
 40
0.0
 40
0.3317765667
 40
1.0
 40
1.0
 40
1.0
 40
1.0
 10
406.2158958534
 20
289.4301047093
 30
0.0
 10
406.2151089236
 20
289.5100007947
 30
0.0
 10
406.2161600837
 20
289.7508324979
 30
0.0
 10
406.2152451815
 20
289.9916548466
 30
0.0
 10
406.2158788906
 20
290.1525782434
 30
0.0
  0
SPLINE
  5
3FD
100
AcDbEntity
  8
0
100
AcDbSpline
 62
6
  6
CONTINUOUS
 70
0
 71
3
 72
9
 73
5
 74
0
 42
0.0000001
 43
0.0000001
 44
0.0000000001
 40
0.0
 40
0.0
 40
0.0
 40
0.0
 40
0.2665668696
 40
1.0
 40
1.0
 40
1.0
 40
1.0
 10
406.215902039
 20
288.2411344396
 30
0.0
 10
406.2159022339
 20
288.346781134
 30
0.0
 10
406.2154221848
 20
288.7431019945
 30
0.0
 10
406.2187587103
 20
289.1394420786
 30
0.0
 10
406.2158958534
 20
289.4301047093
 30
0.0
  0
SPLINE
  5
3FE
100
AcDbEntity
  8
0
100
AcDbSpline
 62
9
  6
CONTINUOUS
 70
0
 71
3
 72
11
 73
7
 74
0
 42
0.0000001
 43
0.0000001
 44
0.0000000001
 40
0.0
 40
0.0
 40
0.0
 40
0.0
 40
0.1714678169
 40
0.4042314874
 40
0.6876704459
 40
1.0
 40
1.0
 40
1.0
 40
1.0
 10
396.6062944227
 20
291.1981019394
 30
0.0
 10
396.9018852037
 20
290.9772558415
 30
0.0
 10
397.7120200599
 20
290.6198139151
 30
0.0
 10
399.1510878379
 20
290.2720329956
 30
0.0
 10
400.9278627141
 20
290.0736832178
 30
0.0
 10
402.2112160198
 20
290.0491425793
 30
0.0
 10
402.8830936179
 20
290.0664590369
 30
0.0
  0
SPLINE
  5
3FF
100
AcDbEntity
  8
0
100
AcDbSpline
 62
9
  6
CONTINUOUS
 70
0
 71
3
 72
10
 73
6
 74
0
 42
0.0000001
 43
0.0000001
 44
0.0000000001
 40
0.0
 40
0.0
 40
0.0
 40
0.0
 40
0.628921034
 40
0.8604319466
 40
1.0
 40
1.0
 40
1.0
 40
1.0
 10
402.8830965353
 20
288.1550146316
 30
0.0
 10
402.872755611
 20
288.5556861015
 30
0.0
 10
402.8625724845
 20
289.1041253858
 30
0.0
 10
402.8686355822
 20
289.7412524523
 30
0.0
 10
402.8752970992
 20
289.9778561761
 30
0.0
 10
402.8830941382
 20
290.0664590503
 30
0.0
  0
SPLINE
  5
400
100
AcDbEntity
  8
0
100
AcDbSpline
 62
9
  6
CONTINUOUS
 70
0
 71
3
 72
9
 73
5
 74
0
 42
0.0000001
 43
0.0000001
 44
0.0000000001
 40
0.0
 40
0.0
 40
0.0
 40
0.0
 40
0.4758135515
 40
1.0
 40
1.0
 40
1.0
 40
1.0
 10
398.0231777351
 20
288.4046877536
 30
0.0
 10
398.7882370016
 20
288.2985898757
 30
0.0
 10
400.4079631257
 20
288.1606548942
 30
0.0
 10
402.0323589035
 20
288.1379742684
 30
0.0
 10
402.8830924722
 20
288.1550050427
 30
0.0
  0
SPLINE
  5
401
100
AcDbEntity
  8
0
100
AcDbSpline
 62
9
  6
CONTINUOUS
 70
0
 71
3
 72
9
 73
5
 74
0
 42
0.0000001
 43
0.0000001
 44
0.0000000001
 40
0.0
 40
0.0
 40
0.0
 40
0.0
 40
0.2251974213
 40
1.0
 40
1.0
 40
1.0
 40
1.0
 10
396.1210756226
 20
288.7793723412
 30
0.0
 10
396.2614804853
 20
288.7408808981
 30
0.0
 10
396.8887394647
 20
288.5837843528
 30
0.0
 10
397.5270322584
 20
288.4734928572
 30
0.0
 10
398.0231777351
 20
288.4046877536
 30
0.0
  0
SPLINE
  5
402
100
AcDbEntity
  8
0
100
AcDbSpline
 62
9
  6
CONTINUOUS
 70
0
 71
3
 72
9
 73
5
 74
0
 42
0.0000001
 43
0.0000001
 44
0.0000000001
 40
0.0
 40
0.0
 40
0.0
 40
0.0
 40
0.2213752
 40
1.0
 40
1.0
 40
1.0
 40
1.0
 10
394.8129001055
 20
289.2866509429
 30
0.0
 10
394.8686908139
 20
289.2542279837
 30
0.0
 10
395.1257965682
 20
289.1165097256
 30
0.0
 10
395.3981341885
 20
289.0090402289
 30
0.0
 10
395.6127618563
 20
288.9352484549
 30
0.0
  0
SPLINE
  5
403
100
AcDbEntity
  8
0
100
AcDbSpline
 62
9
  6
CONTINUOUS
 70
0
 71
3
 72
9
 73
5
 74
0
 42
0.0000001
 43
0.0000001
 44
0.0000000001
 40
0.0
 40
0.0
 40
0.0
 40
0.0
 40
0.2386936056
 40
1.0
 40
1.0
 40
1.0
 40
1.0
 10
395.6127618563
 20
288.9352484549
 30
0.0
 10
395.65276997
 20
288.9214931469
 30
0.0
 10
395.8209040152
 20
288.865384881
 30
0.0
 10
395.9909412017
 20
288.8150481829
 30
0.0
 10
396.1210756226
 20
288.7793723412
 30
0.0
  0
SPLINE
  5
404
100
AcDbEntity
  8
0
100
AcDbSpline
 62
9
  6
CONTINUOUS
 70
0
 71
3
 72
9
 73
5
 74
0
 42
0.0000001
 43
0.0000001
 44
0.0000000001
 40
0.0
 40
0.0
 40
0.0
 40
0.0
 40
0.4960254022
 40
1.0
 40
1.0
 40
1.0
 40
1.0
 10
396.6062963198
 20
291.198100522
 30
0.0
 10
396.1535697259
 20
291.1333126456
 30
0.0
 10
395.2741473182
 20
290.6542577413
 30
0.0
 10
394.8586419121
 20
289.7490720463
 30
0.0
 10
394.8130004096
 20
289.2866509428
 30
0.0
  0
SPLINE
  5
405
100
AcDbEntity
  8
0
100
AcDbSpline
 62
9
  6
CONTINUOUS
 70
0
 71
3
 72
9
 73
5
 74
0
 42
0.0000001
 43
0.0000001
 44
0.0000000001
 40
0.0
 40
0.0
 40
0.0
 40
0.0
 40
0.4978750971
 40
1.0
 40
1.0
 40
1.0
 40
1.0
 10
396.2704566278
 20
291.3434673854
 30
0.0
 10
395.82669008
 20
291.2641830008
 30
0.0
 10
394.9740903556
 20
290.7667985794
 30
0.0
 10
394.6150543994
 20
289.853832036
 30
0.0
 10
394.5930119393
 20
289.3997252912
 30
0.0
  0
SPLINE
  5
406
100
AcDbEntity
  8
0
100
AcDbSpline
 62
9
  6
CONTINUOUS
 70
0
 71
3
 72
9
 73
5
 74
0
 42
0.0000001
 43
0.0000001
 44
0.0000000001
 40
0.0
 40
0.0
 40
0.0
 40
0.0
 40
0.4978922962
 40
1.0
 40
1.0
 40
1.0
 40
1.0
 10
395.5780564071
 20
291.3595367905
 30
0.0
 10
395.1876656167
 20
291.2401782578
 30
0.0
 10
394.4695513062
 20
290.709532929
 30
0.0
 10
394.2357405707
 20
289.8584899545
 30
0.0
 10
394.2459884029
 20
289.446931615
 30
0.0
  0
SPLINE
  5
407
100
AcDbEntity
  8
0
100
AcDbSpline
 62
9
  6
CONTINUOUS
 70
0
 71
3
 72
9
 73
5
 74
0
 42
0.0000001
 43
0.0000001
 44
0.0000000001
 40
0.0
 40
0.0
 40
0.0
 40
0.0
 40
0.2601218163
 40
1.0
 40
1.0
 40
1.0
 40
1.0
 10
396.2704560709
 20
291.3434675362
 30
0.0
 10
396.212942643
 20
291.3625575273
 30
0.0
 10
395.9874649282
 20
291.4218585318
 30
0.0
 10
395.7429040098
 20
291.4099356757
 30
0.0
 10
395.5780709993
 20
291.3595411106
 30
0.0
  0
SPLINE
  5
408
100
AcDbEntity
  8
0
100
AcDbSpline
 62
9
  6
CONTINUOUS
 70
0
 71
3
 72
9
 73
5
 74
0
 42
0.0000001
 43
0.0000001
 44
0.0000000001
 40
0.0
 40
0.0
 40
0.0
 40
0.0
 40
0.5051565211
 40
1.0
 40
1.0
 40
1.0
 40
1.0
 10
392.2931620406
 20
290.3551768887
 30
0.0
 10
391.8930373064
 20
290.2328858424
 30
0.0
 10
391.1636224004
 20
289.7065953806
 30
0.0
 10
390.9103945435
 20
288.852456207
 30
0.0
 10
390.9150083241
 20
288.4426283191
 30
0.0
  0
SPLINE
  5
409
100
AcDbEntity
  8
0
100
AcDbSpline
 62
9
  6
CONTINUOUS
 70
0
 71
3
 72
12
 73
8
 74
0
 42
0.0000001
 43
0.0000001
 44
0.0000000001
 40
0.0
 40
0.0
 40
0.0
 40
0.0
 40
0.3412639835
 40
0.6525570459
 40
0.7767982214
 40
0.8746477989
 40
1.0
 40
1.0
 40
1.0
 40
1.0
 10
386.9801019069
 20
286.8385590772
 30
0.0
 10
386.9199576087
 20
287.0585856424
 30
0.0
 10
386.8280072688
 20
287.4858677192
 30
0.0
 10
386.7801283209
 20
288.0050837252
 30
0.0
 10
386.8133854052
 20
288.3630743206
 30
0.0
 10
386.8661615002
 20
288.5852647061
 30
0.0
 10
386.9663850165
 20
288.7263806822
 30
0.0
 10
387.0465155331
 20
288.7508544342
 30
0.0
  0
SPLINE
  5
40A
100
AcDbEntity
  8
0
100
AcDbSpline
 62
9
  6
CONTINUOUS
 70
0
 71
3
 72
9
 73
5
 74
0
 42
0.0000001
 43
0.0000001
 44
0.0000000001
 40
0.0
 40
0.0
 40
0.0
 40
0.0
 40
0.5461714391
 40
1.0
 40
1.0
 40
1.0
 40
1.0
 10
390.0163730402
 20
-101.7391246349
 30
0.0
 10
390.0260053691
 20
-101.749075666
 30
0.0
 10
390.0528684433
 20
-101.7793626432
 30
0.0
 10
390.0153222322
 20
-101.7879007511
 30
0.0
 10
390.0038148177
 20
-101.7878057652
 30
0.0
  0
SPLINE
  5
40B
100
AcDbEntity
  8
0
100
AcDbSpline
 62
9
  6
CONTINUOUS
 70
0
 71
3
 72
9
 73
5
 74
0
 42
0.0000001
 43
0.0000001
 44
0.0000000001
 40
0.0
 40
0.0
 40
0.0
 40
0.0
 40
0.3006003449
 40
1.0
 40
1.0
 40
1.0
 40
1.0
 10
389.815119668
 20
-101.6066273217
 30
0.0
 10
389.8315483789
 20
-101.6150145729
 30
0.0
 10
389.8857018903
 20
-101.6438272163
 30
0.0
 10
389.9383253695
 20
-101.67588747
 30
0.0
 10
389.9726937125
 20
-101.7015920577
 30
0.0
  0
SPLINE
  5
40C
100
AcDbEntity
  8
0
100
AcDbSpline
 62
9
  6
CONTINUOUS
 70
0
 71
3
 72
8
 73
4
 74
0
 42
0.0000001
 43
0.0000001
 44
0.0000000001
 40
0.0
 40
0.0
 40
0.0
 40
0.0
 40
1.0
 40
1.0
 40
1.0
 40
1.0
 10
389.9726937125
 20
-101.7015920577
 30
0.0
 10
389.9880663498
 20
-101.7130894787
 30
0.0
 10
390.0031522262
 20
-101.7252063467
 30
0.0
 10
390.0163730402
 20
-101.7391246349
 30
0.0
  0
SPLINE
  5
40D
100
AcDbEntity
  8
0
100
AcDbSpline
 62
9
  6
CONTINUOUS
 70
0
 71
3
 72
9
 73
5
 74
0
 42
0.0000001
 43
0.0000001
 44
0.0000000001
 40
0.0
 40
0.0
 40
0.0
 40
0.0
 40
0.278318665
 40
1.0
 40
1.0
 40
1.0
 40
1.0
 10
389.4107939637
 20
-101.4484021195
 30
0.0
 10
389.4387354721
 20
-101.4567295624
 30
0.0
 10
389.5386642579
 20
-101.4881747163
 30
0.0
 10
389.6368874714
 20
-101.5251419663
 30
0.0
 10
389.7062090688
 20
-101.555310378
 30
0.0
  0
SPLINE
  5
40E
100
AcDbEntity
  8
0
100
AcDbSpline
 62
9
  6
CONTINUOUS
 70
0
 71
3
 72
8
 73
4
 74
0
 42
0.0000001
 43
0.0000001
 44
0.0000000001
 40
0.0
 40
0.0
 40
0.0
 40
0.0
 40
1.0
 40
1.0
 40
1.0
 40
1.0
 10
390.1690259544
 20
289.7022058288
 30
0.0
 10
390.0052433859
 20
289.6410490831
 30
0.0
 10
389.8488747269
 20
289.556436404
 30
0.0
 10
389.70636644
 20
289.4551631823
 30
0.0
  0
SPLINE
  5
40F
100
AcDbEntity
  8
0
100
AcDbSpline
 62
9
  6
CONTINUOUS
 70
0
 71
3
 72
9
 73
5
 74
0
 42
0.0000001
 43
0.0000001
 44
0.0000000001
 40
0.0
 40
0.0
 40
0.0
 40
0.0
 40
0.2687574035
 40
1.0
 40
1.0
 40
1.0
 40
1.0
 10
388.8739393211
 20
-101.3365584801
 30
0.0
 10
388.9072264126
 20
-101.3407997593
 30
0.0
 10
389.0308612915
 20
-101.3582613943
 30
0.0
 10
389.1535923741
 20
-101.3821604446
 30
0.0
 10
389.2424058391
 20
-101.4033259309
 30
0.0
  0
SPLINE
  5
410
100
AcDbEntity
  8
0
100
AcDbSpline
 62
9
  6
CONTINUOUS
 70
0
 71
3
 72
9
 73
5
 74
0
 42
0.0000001
 43
0.0000001
 44
0.0000000001
 40
0.0
 40
0.0
 40
0.0
 40
0.0
 40
0.2701358284
 40
1.0
 40
1.0
 40
1.0
 40
1.0
 10
389.034453519
 20
-101.3070936029
 30
0.0
 10
389.019773287
 20
-101.3080892468
 30
0.0
 10
388.9655472786
 20
-101.3133643621
 30
0.0
 10
388.9119370454
 20
-101.3248462639
 30
0.0
 10
388.873932836
 20
-101.3365134144
 30
0.0
  0
SPLINE
  5
411
100
AcDbEntity
  8
0
100
AcDbSpline
 62
9
  6
CONTINUOUS
 70
0
 71
3
 72
9
 73
5
 74
0
 42
0.0000001
 43
0.0000001
 44
0.0000000001
 40
0.0
 40
0.0
 40
0.0
 40
0.0
 40
0.2261858031
 40
1.0
 40
1.0
 40
1.0
 40
1.0
 10
390.520235205
 20
-101.4855044508
 30
0.0
 10
390.4095876303
 20
-101.4630538752
 30
0.0
 10
389.9192649328
 20
-101.3700857419
 30
0.0
 10
389.4205544964
 20
-101.3157611434
 30
0.0
 10
389.0343975547
 20
-101.3070673902
 30
0.0
  0
SPLINE
  5
412
100
AcDbEntity
  8
0
100
AcDbSpline
 62
9
  6
CONTINUOUS
 70
0
 71
3
 72
9
 73
5
 74
0
 42
0.0000001
 43
0.0000001
 44
0.0000000001
 40
0.0
 40
0.0
 40
0.0
 40
0.0
 40
0.2360449766
 40
1.0
 40
1.0
 40
1.0
 40
1.0
 10
391.0140626472
 20
-101.5943313445
 30
0.0
 10
390.9753119795
 20
-101.5853078143
 30
0.0
 10
390.811096011
 20
-101.5473008346
 30
0.0
 10
390.6464432062
 20
-101.5111132865
 30
0.0
 10
390.5202436007
 20
-101.4855070017
 30
0.0
  0
LINE
  5
413
100
AcDbEntity
  8
0
100
AcDbLine
 62
9
  6
CONTINUOUS
 10
391.0605987059
 20
-101.6051051469
 11
391.0135206472
 21
-101.59412275
  0
SPLINE
  5
414
100
AcDbEntity
  8
0
100
AcDbSpline
 62
6
  6
CONTINUOUS
 70
0
 71
3
 72
10
 73
6
 74
0
 42
0.0000001
 43
0.0000001
 44
0.0000000001
 40
0.0
 40
0.0
 40
0.0
 40
0.0
 40
0.1953092275
 40
0.4354444568
 40
1.0
 40
1.0
 40
1.0
 40
1.0
 10
393.7491672619
 20
281.1377102015
 30
0.0
 10
393.6551998887
 20
281.3537080173
 30
0.0
 10
393.4979323417
 20
281.8575747963
 30
0.0
 10
393.2728910908
 20
283.043398329
 30
0.0
 10
393.215985348
 20
284.0173533777
 30
0.0
 10
393.2161400637
 20
284.6982346651
 30
0.0
  0
SPLINE
  5
415
100
AcDbEntity
  8
0
100
AcDbSpline
 62
9
  6
CONTINUOUS
 70
0
 71
3
 72
9
 73
5
 74
0
 42
0.0000001
 43
0.0000001
 44
0.0000000001
 40
0.0
 40
0.0
 40
0.0
 40
0.0
 40
0.2338956026
 40
1.0
 40
1.0
 40
1.0
 40
1.0
 10
396.2704560709
 20
291.3434675362
 30
0.0
 10
396.2975517287
 20
291.3344759494
 30
0.0
 10
396.4124822288
 20
291.293283503
 30
0.0
 10
396.523537004
 20
291.241664121
 30
0.0
 10
396.6062756709
 20
291.1980964107
 30
0.0
  0
SPLINE
  5
416
100
AcDbEntity
  8
0
100
AcDbSpline
 62
6
  6
CONTINUOUS
 70
0
 71
3
 72
9
 73
5
 74
0
 42
0.0000001
 43
0.0000001
 44
0.0000000001
 40
0.0
 40
0.0
 40
0.0
 40
0.0
 40
0.2392030875
 40
1.0
 40
1.0
 40
1.0
 40
1.0
 10
394.4318740483
 20
280.4446533219
 30
0.0
 10
394.4111610403
 20
280.4446533219
 30
0.0
 10
394.3245071354
 20
280.45165472
 30
0.0
 10
394.2419512817
 20
280.4882018255
 30
0.0
 10
394.1870623772
 20
280.5246327675
 30
0.0
  0
SPLINE
  5
417
100
AcDbEntity
  8
0
100
AcDbSpline
 62
6
  6
CONTINUOUS
 70
0
 71
3
 72
9
 73
5
 74
0
 42
0.0000001
 43
0.0000001
 44
0.0000000001
 40
0.0
 40
0.0
 40
0.0
 40
0.0
 40
0.4294375656
 40
1.0
 40
1.0
 40
1.0
 40
1.0
 10
394.1870623772
 20
280.5246327675
 30
0.0
 10
394.0963682143
 20
280.5848284266
 30
0.0
 10
393.9230530995
 20
280.7788799477
 30
0.0
 10
393.8068615261
 20
281.0050914569
 30
0.0
 10
393.7491672619
 20
281.1377102015
 30
0.0
  0
SPLINE
  5
418
100
AcDbEntity
  8
0
100
AcDbSpline
 62
9
  6
CONTINUOUS
 70
0
 71
3
 72
12
 73
8
 74
0
 42
0.0000001
 43
0.0000001
 44
0.0000000001
 40
0.0
 40
0.0
 40
0.0
 40
0.0
 40
0.0618420643
 40
0.1467620803
 40
0.3777364499
 40
0.6714271383
 40
1.0
 40
1.0
 40
1.0
 40
1.0
 10
394.5930109469
 20
-99.9302081576
 30
0.0
 10
394.76138135
 20
-99.8999945243
 30
0.0
 10
395.1657936613
 20
-99.8572617294
 30
0.0
 10
396.2090336416
 20
-99.8005536296
 30
0.0
 10
397.8959867471
 20
-99.7885678095
 30
0.0
 10
400.2556892842
 20
-99.8286024654
 30
0.0
 10
401.9757494427
 20
-99.9010474775
 30
0.0
 10
402.8830924722
 20
-99.9534893106
 30
0.0
  0
SPLINE
  5
419
100
AcDbEntity
  8
0
100
AcDbSpline
 62
9
  6
CONTINUOUS
 70
0
 71
3
 72
9
 73
5
 74
0
 42
0.0000001
 43
0.0000001
 44
0.0000000001
 40
0.0
 40
0.0
 40
0.0
 40
0.0
 40
0.2408220487
 40
1.0
 40
1.0
 40
1.0
 40
1.0
 10
458.5706319295
 20
247.9067367214
 30
0.0
 10
458.5711293306
 20
247.8389410497
 30
0.0
 10
458.5579997035
 20
247.5575417008
 30
0.0
 10
458.4857095947
 20
247.2786995225
 30
0.0
 10
458.3994348561
 20
247.0831586367
 30
0.0
  0
ENDSEC
  0
SECTION
  2
OBJECTS
  0
DICTIONARY
  5
C
100
AcDbDictionary
280
0
281
1
  3
ACAD_GROUP
350
D
  3
ACAD_MLINESTYLE
350
17
  3
ACAD_LAYOUT
350
1A
  3
ACAD_PLOTSETTINGS
350
19
  3
ACAD_PLOTSTYLENAME
350
E
  0
DICTIONARY
  5
D
102
{ACAD_REACTORS
330
C
102
}
100
AcDbDictionary
280
0
281
1
  0
ACDBDICTIONARYWDFLT
  5
E
102
{ACAD_REACTORS
330
C
102
}
100
AcDbDictionary
281
1
  3
Normal
350
F
100
AcDbDictionaryWithDefault
340
F
  0
DICTIONARY
  5
17
102
{ACAD_REACTORS
330
C
102
}
100
AcDbDictionary
280
0
281
1
  3
Standard
350
18
  0
DICTIONARY
  5
19
102
{ACAD_REACTORS
330
C
102
}
100
AcDbDictionary
281
1
  0
DICTIONARY
  5
1A
102
{ACAD_REACTORS
330
C
102
}
100
AcDbDictionary
281
1
  3
Model
350
41A
  3
Layout1
350
41B
  0
ACDBPLACEHOLDER
  5
F
102
{ACAD_REACTORS
330
E
102
}
  0
MLINESTYLE
  5
18
102
{ACAD_REACTORS
330
17
102
}
100
AcDbMlineStyle
  2
STANDARD
 70
0
  3

 62
256
 51
90.0
 52
90.0
 71
2
 49
0.5
 62
256
  6
BYLAYER
 49
-0.5
 62
256
  6
BYLAYER
  0
LAYOUT
  5
41A
102
{ACAD_REACTORS
330
1A
102
}
100
AcDbPlotSettings
  1

  2
none_device
  4
ANSI_C_(22.00_x_17.00_Inches)
  6

 40
0.0
 41
0.0
 42
0.0
 43
0.0
 44
558.8
 45
431.8
 46
0.0
 47
0.0
 48
0.0
 49
0.0
140
0.0
141
0.0
142
1.0
143
1.0
 70
1024
 72
1
 73
0
 74
0
  7

 75
0
147
1.0
148
0.0
149
0.0
100
AcDbLayout
  1
Model
 70
0
 71
0
 10
0.0
 20
0.0
 11
558.8
 21
431.8
 12
0.0
 22
0.0
 32
0.0
 14
0.0
 24
0.0
 34
0.0
 15
0.0
 25
0.0
 35
0.0
146
0.0
 13
0.0
 23
0.0
 33
0.0
 16
1.0
 26
0.0
 36
0.0
 17
0.0
 27
1.0
 37
0.0
 76
0
330
218
345
0
346
0
  0
LAYOUT
  5
41B
102
{ACAD_REACTORS
330
1A
102
}
100
AcDbPlotSettings
  1

  2
none_device
  4
ANSI_C_(22.00_x_17.00_Inches)
  6

 40
0.0
 41
0.0
 42
0.0
 43
0.0
 44
558.8
 45
431.8
 46
0.0
 47
0.0
 48
0.0
 49
0.0
140
0.0
141
0.0
142
1.0
143
1.0
 70
0
 72
1
 73
0
 74
0
  7

 75
0
147
1.0
148
0.0
149
0.0
100
AcDbLayout
  1
Layout1
 70
0
 71
1
 10
0.0
 20
0.0
 11
558.8
 21
431.8
 12
0.0
 22
0.0
 32
0.0
 14
0.0
 24
0.0
 34
0.0
 15
0.0
 25
0.0
 35
0.0
146
0.0
 13
0.0
 23
0.0
 33
0.0
 16
1.0
 26
0.0
 36
0.0
 17
0.0
 27
1.0
 37
0.0
 76
0
330
219
345
0
346
0
  0
ENDSEC
  0
EOF
