999
DXF file: C:\Users\sesa63760\Dev\_Creo\CAD\MCADID0002086_3D-CAD\drw0001_1.dxf
999
Pro/ENGINEER 2019471 by Parametric Technology Corporation
  0
SECTION
  2
HEADER
  9
$ACADVER
  1
AC1024
  9
$DWGCODEPAGE
  3
ANSI_1252
  9
$EXTMAX
 10
535.5831710354
 20
757.4676276073
 30
0.0
  9
$EXTMIN
 10
0.0
 20
0.0
 30
0.0
  9
$LIMMIN
 10
0.0
 20
0.0
  9
$LIMMAX
 10
535.5831710354
 20
757.4676276073
  9
$VIEWCTR
 10
267.7915855177
 20
378.7338138036
  9
$VIEWSIZE
 40
757.4676276073
  9
$CLAYER
  8
0
  9
$LTSCALE
 40
49.3756675774
  9
$CELTYPE
  6
BYLAYER
  9
$DIMSCALE
 40
1.0
  9
$DIMASZ
 40
6.3759901314
  9
$DIMEXO
 40
1.0
  9
$DIMDLI
 40
34.1140975989
  9
$DIMEXE
 40
1.0
  9
$DIMCEN
 40
8.0796546945
  9
$DIMLFAC
 40
1.0
  9
$DIMBLK
  1
_FILLED
  9
$DIMALT
 70
0
  9
$DIMALTF
 40
0.0393700787
  9
$DIMTXT
 40
8.9263861839
  9
$DIMTOL
 70
1
  9
$DIMLIM
 70
0
  9
$DIMTFAC
 40
1.0
  9
$DIMTP
 40
0.01
  9
$DIMTM
 40
0.01
  9
$DIMGAP
 40
0.625
  9
$DIMDSEP
 70
46
  9
$AUNITS
 70
0
  9
$PDMODE
 70
3
  9
$PDSIZE
 40
0.3125
  9
$HANDSEED
  5
48E
  9
$TILEMODE
 70
1
  9
$MEASUREMENT
 70
1
  9
$INSUNITS
 70
4
  0
ENDSEC
  0
SECTION
  2
CLASSES
  0
CLASS
  1
ACDBDICTIONARYWDFLT
  2
AcDbDictionaryWithDefault
  3
AutoCAD 2000
 90
0
 91
1
280
0
281
0
  0
CLASS
  1
ACDBPLACEHOLDER
  2
AcDbPlaceHolder
  3
AutoCAD 2000
 90
0
 91
1
280
0
281
0
  0
CLASS
  1
LAYOUT
  2
AcDbLayout
  3
AutoCAD 2000
 90
0
 91
0
280
0
281
0
  0
ENDSEC
  0
SECTION
  2
TABLES
  0
TABLE
  2
VPORT
  5
8
100
AcDbSymbolTable
 70
2
  0
VPORT
  5
1F4
100
AcDbSymbolTableRecord
100
AcDbViewportTableRecord
  2
*ACTIVE
 70
0
 10
0.0
 20
0.0
 11
1.0
 21
1.0
 12
267.7915855177
 22
378.7338138036
 13
0.0
 23
0.0
 14
1.0
 24
1.0
 15
0.0
 25
0.0
 16
0.0
 26
0.0
 36
1.0
 17
0.0
 27
0.0
 37
0.0
 40
757.4676276073
 41
0.7070707071
 42
50.0
 43
0.0
 44
0.0
 50
0.0
 51
0.0
 71
0
 72
100
 73
1
 74
1
 75
0
 76
0
 77
0
 78
0
  0
ENDTAB
  0
TABLE
  2
LTYPE
  5
5
100
AcDbSymbolTable
 70
6
  0
LTYPE
  5
14
100
AcDbSymbolTableRecord
100
AcDbLinetypeTableRecord
  2
BYBLOCK
 70
0
  3

 72
65
 73
0
 40
0.0
  0
LTYPE
  5
15
100
AcDbSymbolTableRecord
100
AcDbLinetypeTableRecord
  2
BYLAYER
 70
0
  3

 72
65
 73
0
 40
0.0
  0
LTYPE
  5
16
100
AcDbSymbolTableRecord
100
AcDbLinetypeTableRecord
  2
CONTINUOUS
 70
64
  3
Solid line
 72
65
 73
0
 40
0.0
  0
LTYPE
  5
1F5
100
AcDbSymbolTableRecord
100
AcDbLinetypeTableRecord
  2
CENTER
 70
64
  3
____ _ ____ _ ____ _ ____ _ ____ _ ____ _ ____
 72
65
 73
4
 40
0.6
 49
0.375
 74
0
 49
-0.075
 74
0
 49
0.075
 74
0
 49
-0.075
 74
0
  0
LTYPE
  5
1F6
100
AcDbSymbolTableRecord
100
AcDbLinetypeTableRecord
  2
HIDDEN
 70
64
  3
- - - - - - - - - - - - - - - - - - - -
 72
65
 73
2
 40
0.2
 49
0.1
 74
0
 49
-0.1
 74
0
  0
LTYPE
  5
1F7
100
AcDbSymbolTableRecord
100
AcDbLinetypeTableRecord
  2
PHANTOM
 70
64
  3
_____ _ _ _____ _ _ _____ _ _ _____
 72
65
 73
6
 40
0.8
 49
0.45
 74
0
 49
-0.05
 74
0
 49
0.1
 74
0
 49
-0.05
 74
0
 49
0.1
 74
0
 49
-0.05
 74
0
  0
LTYPE
  5
1F8
100
AcDbSymbolTableRecord
100
AcDbLinetypeTableRecord
  2
DOT
 70
64
  3
. . . . . . . . . . . . . . . . . . . .
 72
65
 73
2
 40
0.2
 49
0.1
 74
0
 49
-0.1
 74
0
  0
LTYPE
  5
1F9
100
AcDbSymbolTableRecord
100
AcDbLinetypeTableRecord
  2
DASHED
 70
64
  3
- - - - - - - - - - - - - - - - - - - -
 72
65
 73
2
 40
0.2
 49
0.1
 74
0
 49
-0.1
 74
0
  0
ENDTAB
  0
TABLE
  2
LAYER
  5
2
100
AcDbSymbolTable
 70
36
  0
LAYER
  5
10
100
AcDbSymbolTableRecord
100
AcDbLayerTableRecord
  2
0
 70
0
 62
7
  6
CONTINUOUS
370
-3
390
F
  0
LAYER
  5
1FA
100
AcDbSymbolTableRecord
100
AcDbLayerTableRecord
  2
DEFAULT_1
 70
0
 62
7
  6
CENTER
370
-3
390
F
  0
LAYER
  5
1FB
100
AcDbSymbolTableRecord
100
AcDbLayerTableRecord
  2
DEFAULT_2
 70
0
 62
8
  6
HIDDEN
370
-3
390
F
  0
LAYER
  5
1FC
100
AcDbSymbolTableRecord
100
AcDbLayerTableRecord
  2
DEFAULT_3
 70
0
 62
7
  6
PHANTOM
370
-3
390
F
  0
LAYER
  5
1FD
100
AcDbSymbolTableRecord
100
AcDbLayerTableRecord
  2
00_COMPONENTS
 70
0
 62
7
  6
CONTINUOUS
370
-3
390
F
  0
LAYER
  5
1FE
100
AcDbSymbolTableRecord
100
AcDbLayerTableRecord
  2
01_1_DEFAULT_DATUMS
 70
0
 62
7
  6
CONTINUOUS
370
-3
390
F
  0
LAYER
  5
1FF
100
AcDbSymbolTableRecord
100
AcDbLayerTableRecord
  2
01_PLANES
 70
0
 62
7
  6
CONTINUOUS
370
-3
390
F
  0
LAYER
  5
200
100
AcDbSymbolTableRecord
100
AcDbLayerTableRecord
  2
02_COORD_SYS
 70
0
 62
7
  6
CONTINUOUS
370
-3
390
F
  0
LAYER
  5
201
100
AcDbSymbolTableRecord
100
AcDbLayerTableRecord
  2
03_AXES
 70
0
 62
7
  6
CONTINUOUS
370
-3
390
F
  0
LAYER
  5
202
100
AcDbSymbolTableRecord
100
AcDbLayerTableRecord
  2
04_POINTS
 70
0
 62
7
  6
CONTINUOUS
370
-3
390
F
  0
LAYER
  5
203
100
AcDbSymbolTableRecord
100
AcDbLayerTableRecord
  2
05_CURVES
 70
0
 62
7
  6
CONTINUOUS
370
-3
390
F
  0
LAYER
  5
204
100
AcDbSymbolTableRecord
100
AcDbLayerTableRecord
  2
06_SURFS
 70
0
 62
7
  6
CONTINUOUS
370
-3
390
F
  0
LAYER
  5
205
100
AcDbSymbolTableRecord
100
AcDbLayerTableRecord
  2
07_COSMETICS
 70
0
 62
7
  6
CONTINUOUS
370
-3
390
F
  0
LAYER
  5
206
100
AcDbSymbolTableRecord
100
AcDbLayerTableRecord
  2
10_NOTES
 70
0
 62
7
  6
CONTINUOUS
370
-3
390
F
  0
LAYER
  5
207
100
AcDbSymbolTableRecord
100
AcDbLayerTableRecord
  2
11_NOTES_PUB
 70
0
 62
7
  6
CONTINUOUS
370
-3
390
F
  0
LAYER
  5
208
100
AcDbSymbolTableRecord
100
AcDbLayerTableRecord
  2
13_REF_GTOL
 70
0
 62
7
  6
CONTINUOUS
370
-3
390
F
  0
LAYER
  5
209
100
AcDbSymbolTableRecord
100
AcDbLayerTableRecord
  2
16_MISC
 70
0
 62
7
  6
CONTINUOUS
370
-3
390
F
  0
LAYER
  5
20A
100
AcDbSymbolTableRecord
100
AcDbLayerTableRecord
  2
17_NO_PRINT
 70
0
 62
7
  6
CONTINUOUS
370
-3
390
F
  0
LAYER
  5
20B
100
AcDbSymbolTableRecord
100
AcDbLayerTableRecord
  2
18_DATUM_CAMS_JOINTS
 70
0
 62
7
  6
CONTINUOUS
370
-3
390
F
  0
LAYER
  5
20C
100
AcDbSymbolTableRecord
100
AcDbLayerTableRecord
  2
19_DATUM_FUNCTIONAL
 70
0
 62
7
  6
CONTINUOUS
370
-3
390
F
  0
LAYER
  5
20D
100
AcDbSymbolTableRecord
100
AcDbLayerTableRecord
  2
20_DATUM_KINEMATIC_SCHEME
 70
0
 62
7
  6
CONTINUOUS
370
-3
390
F
  0
ENDTAB
  0
TABLE
  2
STYLE
  5
3
100
AcDbSymbolTable
 70
1
  0
STYLE
  5
11
100
AcDbSymbolTableRecord
100
AcDbTextStyleTableRecord
  2
STANDARD
 70
0
 40
0.0
 41
0.8
 50
0.0
 71
0
 42
0.2
  3
txt
  4

  0
STYLE
  5
20E
100
AcDbSymbolTableRecord
100
AcDbTextStyleTableRecord
  2
TEXTSTYLE_1
 70
0
 40
0.0
 41
0.8
 50
0.0
 71
0
 42
0.2
  3
gdt
  4

  0
ENDTAB
  0
TABLE
  2
VIEW
  5
6
100
AcDbSymbolTable
 70
0
  0
ENDTAB
  0
TABLE
  2
UCS
  5
7
100
AcDbSymbolTable
 70
0
  0
ENDTAB
  0
TABLE
  2
APPID
  5
9
100
AcDbSymbolTable
 70
1
  0
APPID
  5
20F
100
AcDbSymbolTableRecord
100
AcDbRegAppTableRecord
  2
ACAD
 70
0
  0
ENDTAB
  0
TABLE
  2
BLOCK_RECORD
  5
1
100
AcDbSymbolTable
 70
0
  0
BLOCK_RECORD
  5
210
100
AcDbSymbolTableRecord
100
AcDbBlockTableRecord
  2
*Model_Space
  0
BLOCK_RECORD
  5
211
100
AcDbSymbolTableRecord
100
AcDbBlockTableRecord
  2
*Paper_Space
  0
BLOCK_RECORD
  5
212
100
AcDbSymbolTableRecord
100
AcDbBlockTableRecord
  2
_FILLED
  0
ENDTAB
  0
TABLE
  2
DIMSTYLE
  5
A
100
AcDbSymbolTable
 70
1
100
AcDbDimStyleTable
 71
0
  0
DIMSTYLE
105
213
100
AcDbSymbolTableRecord
100
AcDbDimStyleTableRecord
  2
STANDARD
 70
0
  3

  4

 40
1.0
 41
6.3759901314
 42
1.0
 43
0.38
 44
1.0
 45
0.0
 46
0.0
 47
0.01
 48
0.01
140
8.9263861839
141
0.09
142
0.0
143
25.4
144
1.0
145
0.0
146
1.0
147
0.625
 71
1
 72
0
 73
0
 74
0
 75
0
 76
0
 77
1
 78
8
 79
2
170
0
171
1
172
0
173
0
174
0
175
0
176
0
177
0
178
0
270
2
179
2
271
2
272
2
273
2
274
2
275
0
280
0
281
0
282
0
283
1
284
8
285
0
286
0
287
3
288
0
340
11
278
46
341
212
342
212
343
212
344
212
  0
ENDTAB
  0
ENDSEC
  0
SECTION
  2
BLOCKS
  0
BLOCK
  5
20
100
AcDbEntity
  8
0
100
AcDbBlockBegin
  2
*Model_Space
 70
0
 10
0.0
 20
0.0
 30
0.0
  3
*Model_Space
  1

  0
ENDBLK
  5
21
100
AcDbEntity
  8
0
100
AcDbBlockEnd
  0
BLOCK
  5
1C
100
AcDbEntity
  8
0
100
AcDbBlockBegin
  2
*Paper_Space
 70
0
 10
0.0
 20
0.0
 30
0.0
  3
*Paper_Space
  1

  0
ENDBLK
  5
1D
100
AcDbEntity
  8
0
100
AcDbBlockEnd
  0
BLOCK
  5
214
100
AcDbEntity
  8
0
100
AcDbBlockBegin
  2
_FILLED
 70
64
 10
0.0
 20
0.0
  3
_FILLED
  1

  0
SOLID
  5
215
100
AcDbEntity
  8
0
  6
BYBLOCK
 62
0
100
AcDbTrace
 10
0.0
 20
0.0
 11
-1.0
 21
0.25
 12
-1.0
 22
-0.25
 13
-1.0
 23
-0.25
  0
ENDBLK
  5
216
100
AcDbEntity
  8
0
  6
BYBLOCK
 62
0
100
AcDbBlockEnd
  0
ENDSEC
  0
SECTION
  2
ENTITIES
  0
LWPOLYLINE
  5
217
100
AcDbEntity
  8
0
100
AcDbPolyline
 62
7
  6
CONTINUOUS
 90
3
 70
0
 10
67.7229602583
 20
489.6565493103
 10
64.8595575687
 20
485.453437459
 10
63.9454287688
 20
482.6504316598
  0
LWPOLYLINE
  5
218
100
AcDbEntity
  8
0
100
AcDbPolyline
 62
7
  6
CONTINUOUS
 90
4
 70
0
 10
63.9453053169
 20
482.6500829201
 10
63.1573964133
 20
478.3696487537
 10
62.4917729677
 20
473.0633582029
 10
62.1784182944
 20
468.232827545
  0
LINE
  5
219
100
AcDbEntity
  8
0
100
AcDbLine
 62
7
  6
CONTINUOUS
 10
63.9454287688
 20
482.6504316598
 11
63.9453708733
 21
482.6501566588
  0
LINE
  5
21A
100
AcDbEntity
  8
0
100
AcDbLine
 62
7
  6
CONTINUOUS
 10
67.7245785689
 20
489.6582229929
 11
67.7229602583
 21
489.6565493103
  0
LWPOLYLINE
  5
21B
100
AcDbEntity
  8
0
100
AcDbPolyline
 62
7
  6
CONTINUOUS
 90
4
 70
0
 10
62.0509488729
 20
465.3761282924
 10
62.4259143076
 20
460.6412538259
 10
63.1575371103
 20
455.3420413425
 10
63.9876633656
 20
451.072468244
  0
LINE
  5
21C
100
AcDbEntity
  8
0
100
AcDbLine
 62
7
  6
CONTINUOUS
 10
67.8899132785
 20
459.564276207
 11
67.8899132785
 21
460.7889942197
  0
LINE
  5
21D
100
AcDbEntity
  8
0
100
AcDbLine
 62
7
  6
CONTINUOUS
 10
80.1321427913
 20
439.1667610179
 11
80.1321427913
 21
437.0858959145
  0
LWPOLYLINE
  5
21E
100
AcDbEntity
  8
0
100
AcDbPolyline
 62
7
  6
CONTINUOUS
 90
3
 70
0
 10
106.1381746948
 20
511.8733589786
 10
85.1503513958
 20
503.282254993
 10
67.7245584389
 20
489.6582470211
  0
LINE
  5
21F
100
AcDbEntity
  8
0
100
AcDbLine
 62
7
  6
CONTINUOUS
 10
63.9871170929
 20
451.0749578528
 11
63.9876633656
 21
451.072468244
  0
LINE
  5
220
100
AcDbEntity
  8
0
100
AcDbLine
 62
7
  6
CONTINUOUS
 10
126.2652851964
 20
478.9146296648
 11
126.2850987873
 21
478.9299108043
  0
LINE
  5
221
100
AcDbEntity
  8
0
100
AcDbLine
 62
7
  6
CONTINUOUS
 10
122.160480988
 20
472.9315435218
 11
122.0618102644
 21
472.8575885545
  0
LWPOLYLINE
  5
222
100
AcDbEntity
  8
0
100
AcDbPolyline
 62
7
  6
CONTINUOUS
 90
4
 70
0
 10
63.9869420646
 20
451.075789164
 10
65.106773194
 20
447.9868448529
 10
66.6811580331
 20
445.62009408
 10
70.7646313598
 20
442.2251256377
  0
LINE
  5
223
100
AcDbEntity
  8
0
100
AcDbLine
 62
7
  6
CONTINUOUS
 10
122.0618102644
 20
473.0631900093
 11
122.0618102644
 21
467.3396509154
  0
LINE
  5
224
100
AcDbEntity
  8
0
100
AcDbLine
 62
7
  6
CONTINUOUS
 10
121.7082954485
 20
473.1493937991
 11
121.6039261604
 21
473.0772703014
  0
LINE
  5
225
100
AcDbEntity
  8
0
100
AcDbLine
 62
7
  6
CONTINUOUS
 10
126.2619771956
 20
478.91653067
 11
126.2850987873
 21
478.9299108043
  0
LINE
  5
226
100
AcDbEntity
  8
0
100
AcDbLine
 62
7
  6
CONTINUOUS
 10
141.6492497124
 20
459.1128239237
 11
141.6492497124
 21
459.7199832703
  0
LINE
  5
227
100
AcDbEntity
  8
0
100
AcDbLine
 62
7
  6
CONTINUOUS
 10
147.4785769508
 20
466.6674070292
 11
147.4983905418
 21
466.6826881687
  0
LINE
  5
228
100
AcDbEntity
  8
0
100
AcDbLine
 62
7
  6
CONTINUOUS
 10
147.4752689501
 20
466.6693080344
 11
147.4983905418
 21
466.6826881687
  0
LINE
  5
229
100
AcDbEntity
  8
0
100
AcDbLine
 62
7
  6
CONTINUOUS
 10
141.6492497124
 20
459.1128239237
 11
143.2751020189
 21
460.0515045873
  0
LINE
  5
22A
100
AcDbEntity
  8
0
100
AcDbLine
 62
7
  6
CONTINUOUS
 10
143.2751020189
 20
460.8159673737
 11
143.2751020189
 21
455.0924282797
  0
LINE
  5
22B
100
AcDbEntity
  8
0
100
AcDbLine
 62
7
  6
CONTINUOUS
 10
150.5618102644
 20
473.0631900093
 11
150.5618102644
 21
467.9453643926
  0
LINE
  5
22C
100
AcDbEntity
  8
0
100
AcDbLine
 62
7
  6
CONTINUOUS
 10
168.6918687052
 20
454.4201843935
 11
168.7116822962
 21
454.4354655331
  0
LINE
  5
22D
100
AcDbEntity
  8
0
100
AcDbLine
 62
7
  6
CONTINUOUS
 10
168.6885607045
 20
454.4220853988
 11
168.7116822962
 21
454.4354655331
  0
LINE
  5
22E
100
AcDbEntity
  8
0
100
AcDbLine
 62
7
  6
CONTINUOUS
 10
162.8625414668
 20
446.8656012881
 11
162.8625414668
 21
447.4727606347
  0
LINE
  5
22F
100
AcDbEntity
  8
0
100
AcDbLine
 62
7
  6
CONTINUOUS
 10
164.4883937733
 20
448.5687447381
 11
164.4883937733
 21
442.8452056441
  0
LINE
  5
230
100
AcDbEntity
  8
0
100
AcDbLine
 62
7
  6
CONTINUOUS
 10
171.7751020189
 20
460.8159673737
 11
171.7751020189
 21
455.698141757
  0
LINE
  5
231
100
AcDbEntity
  8
0
100
AcDbLine
 62
7
  6
CONTINUOUS
 10
189.9051604596
 20
442.1729617579
 11
189.9249740506
 21
442.1882428975
  0
LINE
  5
232
100
AcDbEntity
  8
0
100
AcDbLine
 62
7
  6
CONTINUOUS
 10
162.8625414668
 20
446.8656012881
 11
164.4883937733
 21
447.8042819517
  0
LINE
  5
233
100
AcDbEntity
  8
0
100
AcDbLine
 62
7
  6
CONTINUOUS
 10
184.0758332212
 20
434.6183786525
 11
184.0758332212
 21
435.2255379991
  0
LINE
  5
234
100
AcDbEntity
  8
0
100
AcDbLine
 62
7
  6
CONTINUOUS
 10
185.7016855277
 20
436.3215221024
 11
185.7016855277
 21
430.5979830085
  0
LINE
  5
235
100
AcDbEntity
  8
0
100
AcDbLine
 62
7
  6
CONTINUOUS
 10
186.1986015633
 20
377.9306478399
 11
186.1986015633
 21
375.8497827364
  0
LINE
  5
236
100
AcDbEntity
  8
0
100
AcDbLine
 62
7
  6
CONTINUOUS
 10
189.9018524589
 20
442.1748627632
 11
189.9249740506
 21
442.1882428975
  0
LINE
  5
237
100
AcDbEntity
  8
0
100
AcDbLine
 62
7
  6
CONTINUOUS
 10
184.0758332212
 20
434.6183786525
 11
185.7016855277
 21
435.5570593161
  0
LINE
  5
238
100
AcDbEntity
  8
0
100
AcDbLine
 62
7
  6
CONTINUOUS
 10
319.8718406111
 20
305.1373951159
 11
319.8773378516
 21
305.1388463861
  0
LINE
  5
239
100
AcDbEntity
  8
0
100
AcDbLine
 62
7
  6
CONTINUOUS
 10
137.7734793347
 20
496.4093192649
 11
142.5080474356
 21
483.2762145781
  0
LINE
  5
23A
100
AcDbEntity
  8
0
100
AcDbLine
 62
7
  6
CONTINUOUS
 10
192.9883937733
 20
448.5687447381
 11
192.9883937733
 21
443.4509191214
  0
LINE
  5
23B
100
AcDbEntity
  8
0
100
AcDbLine
 62
7
  6
CONTINUOUS
 10
205.2891249756
 20
422.3711560169
 11
205.2891249756
 21
422.9783153635
  0
LINE
  5
23C
100
AcDbEntity
  8
0
100
AcDbLine
 62
7
  6
CONTINUOUS
 10
206.9149772821
 20
424.0742994668
 11
206.9149772821
 21
418.3507603729
  0
LINE
  5
23D
100
AcDbEntity
  8
0
100
AcDbLine
 62
7
  6
CONTINUOUS
 10
211.1184522141
 20
429.9257391223
 11
211.138265805
 21
429.9410202619
  0
LINE
  5
23E
100
AcDbEntity
  8
0
100
AcDbLine
 62
7
  6
CONTINUOUS
 10
211.1151442133
 20
429.9276401275
 11
211.138265805
 21
429.9410202619
  0
LINE
  5
23F
100
AcDbEntity
  8
0
100
AcDbLine
 62
7
  6
CONTINUOUS
 10
205.2891249756
 20
422.3711560169
 11
206.9149772821
 21
423.3098366805
  0
LINE
  5
240
100
AcDbEntity
  8
0
100
AcDbLine
 62
7
  6
CONTINUOUS
 10
214.2016855277
 20
436.3215221024
 11
214.2016855277
 21
431.2036964858
  0
LINE
  5
241
100
AcDbEntity
  8
0
100
AcDbLine
 62
7
  6
CONTINUOUS
 10
232.3317439685
 20
417.6785164867
 11
232.3515575594
 21
417.6937976263
  0
LINE
  5
242
100
AcDbEntity
  8
0
100
AcDbLine
 62
7
  6
CONTINUOUS
 10
232.3284359677
 20
417.6804174919
 11
232.3515575594
 21
417.6937976263
  0
LINE
  5
243
100
AcDbEntity
  8
0
100
AcDbLine
 62
7
  6
CONTINUOUS
 10
226.5024167301
 20
410.1239333812
 11
228.1282690365
 21
411.0626140449
  0
LINE
  5
244
100
AcDbEntity
  8
0
100
AcDbLine
 62
7
  6
CONTINUOUS
 10
323.4792089811
 20
318.5439423083
 11
321.8225355526
 21
318.6919715407
  0
LINE
  5
245
100
AcDbEntity
  8
0
100
AcDbLine
 62
7
  6
CONTINUOUS
 10
291.0226764849
 20
315.0619687075
 11
292.2650603354
 21
314.6136695584
  0
LWPOLYLINE
  5
246
100
AcDbEntity
  8
0
100
AcDbPolyline
 62
7
  6
CONTINUOUS
 90
4
 70
0
 10
304.7253999047
 20
307.150877604
 10
310.3112704575
 20
305.0223852014
 10
313.6671972797
 20
304.5572879605
 10
319.8773378516
 20
305.1388463861
  0
LINE
  5
247
100
AcDbEntity
  8
0
100
AcDbLine
 62
7
  6
CONTINUOUS
 10
226.5024167301
 20
410.1239333812
 11
226.5024167301
 21
410.7310927279
  0
LINE
  5
248
100
AcDbEntity
  8
0
100
AcDbLine
 62
7
  6
CONTINUOUS
 10
228.1282690365
 20
411.8270768312
 11
228.1282690365
 21
406.1035377373
  0
LINE
  5
249
100
AcDbEntity
  8
0
100
AcDbLine
 62
7
  6
CONTINUOUS
 10
235.4149772821
 20
424.0742994668
 11
235.4149772821
 21
418.9564738502
  0
LINE
  5
24A
100
AcDbEntity
  8
0
100
AcDbLine
 62
7
  6
CONTINUOUS
 10
253.5450357229
 20
405.4312938511
 11
253.5648493138
 21
405.4465749907
  0
LINE
  5
24B
100
AcDbEntity
  8
0
100
AcDbLine
 62
7
  6
CONTINUOUS
 10
253.5417277221
 20
405.4331948563
 11
253.5648493138
 21
405.4465749907
  0
LINE
  5
24C
100
AcDbEntity
  8
0
100
AcDbLine
 62
7
  6
CONTINUOUS
 10
184.9562177129
 20
376.2980818855
 11
186.1986015633
 21
375.8497827364
  0
LINE
  5
24D
100
AcDbEntity
  8
0
100
AcDbLine
 62
7
  6
CONTINUOUS
 10
465.3535713468
 20
251.3604016559
 11
457.9167140931
 21
254.4979496666
  0
LINE
  5
24E
100
AcDbEntity
  8
0
100
AcDbLine
 62
7
  6
CONTINUOUS
 10
451.738201989
 20
257.1046123603
 11
444.3409108979
 21
260.2254677373
  0
LINE
  5
24F
100
AcDbEntity
  8
0
100
AcDbLine
 62
7
  6
CONTINUOUS
 10
437.6776503443
 20
263.0366417563
 11
430.7651077028
 21
265.9529858079
  0
LINE
  5
250
100
AcDbEntity
  8
0
100
AcDbLine
 62
7
  6
CONTINUOUS
 10
423.7870880249
 20
268.8969540747
 11
417.1893045076
 21
271.6805038786
  0
LINE
  5
251
100
AcDbEntity
  8
0
100
AcDbLine
 62
7
  6
CONTINUOUS
 10
410.0062269046
 20
274.7109843726
 11
408.7938373247
 21
275.2224814184
  0
LINE
  5
252
100
AcDbEntity
  8
0
100
AcDbLine
 62
7
  6
CONTINUOUS
 10
464.2280183726
 20
251.5272866245
 11
464.0474797409
 21
251.6065450948
  0
LINE
  5
253
100
AcDbEntity
  8
0
100
AcDbLine
 62
7
  6
CONTINUOUS
 10
462.9655020887
 20
252.0638634066
 11
462.784963457
 21
252.1431369682
  0
LINE
  5
254
100
AcDbEntity
  8
0
100
AcDbLine
 62
7
  6
CONTINUOUS
 10
332.073380285
 20
308.2175901672
 11
314.5651357359
 21
317.8327483144
  0
LINE
  5
255
100
AcDbEntity
  8
0
100
AcDbLine
 62
7
  6
CONTINUOUS
 10
84.8294755239
 20
434.1049638781
 11
184.9562126047
 21
376.298073038
  0
LINE
  5
256
100
AcDbEntity
  8
0
100
AcDbLine
 62
7
  6
CONTINUOUS
 10
190.895934296
 20
372.8688507
 11
291.0226713768
 21
315.0619598599
  0
LINE
  5
257
100
AcDbEntity
  8
0
100
AcDbLine
 62
7
  6
CONTINUOUS
 10
296.962393068
 20
311.632737522
 11
304.7321457353
 21
307.1469702096
  0
LINE
  5
258
100
AcDbEntity
  8
0
100
AcDbLine
 62
7
  6
CONTINUOUS
 10
76.7201649945
 20
441.1366227532
 11
82.6598866857
 21
437.7074004152
  0
LINE
  5
259
100
AcDbEntity
  8
0
100
AcDbLine
 62
7
  6
CONTINUOUS
 10
182.7866237665
 20
379.9005095751
 11
188.7263454578
 21
376.4712872372
  0
LINE
  5
25A
100
AcDbEntity
  8
0
100
AcDbLine
 62
7
  6
CONTINUOUS
 10
288.8530825386
 20
318.6643963971
 11
294.7928042298
 21
315.2351740591
  0
LINE
  5
25B
100
AcDbEntity
  8
0
100
AcDbLine
 62
7
  6
CONTINUOUS
 10
302.504105645
 20
311.1928716629
 11
68.538406772
 21
446.2699750359
  0
LINE
  5
25C
100
AcDbEntity
  8
0
100
AcDbLine
 62
7
  6
CONTINUOUS
 10
302.6203359914
 20
322.8209730351
 11
66.878466042
 21
458.9235260665
  0
LINE
  5
25D
100
AcDbEntity
  8
0
100
AcDbLine
 62
7
  6
CONTINUOUS
 10
303.7293996184
 20
323.4053692847
 11
67.8902353625
 21
459.5640939341
  0
LINE
  5
25E
100
AcDbEntity
  8
0
100
AcDbLine
 62
7
  6
CONTINUOUS
 10
302.8556523979
 20
325.1345307365
 11
66.9954192538
 21
461.3054189013
  0
LINE
  5
25F
100
AcDbEntity
  8
0
100
AcDbLine
 62
7
  6
CONTINUOUS
 10
78.8897538327
 20
437.534186216
 11
70.7643475782
 21
442.225286503
  0
LINE
  5
260
100
AcDbEntity
  8
0
100
AcDbLine
 62
7
  6
CONTINUOUS
 10
247.7157084845
 20
397.8767107456
 11
247.7157084845
 21
398.4838700922
  0
LINE
  5
261
100
AcDbEntity
  8
0
100
AcDbLine
 62
7
  6
CONTINUOUS
 10
249.3415607909
 20
399.5798541956
 11
249.3415607909
 21
393.8563151017
  0
LINE
  5
262
100
AcDbEntity
  8
0
100
AcDbLine
 62
7
  6
CONTINUOUS
 10
256.6282690365
 20
411.8270768312
 11
256.6282690365
 21
406.7092512146
  0
LINE
  5
263
100
AcDbEntity
  8
0
100
AcDbLine
 62
7
  6
CONTINUOUS
 10
247.7157084845
 20
397.8767107456
 11
249.3415607909
 21
398.8153914093
  0
LINE
  5
264
100
AcDbEntity
  8
0
100
AcDbLine
 62
7
  6
CONTINUOUS
 10
407.7951743668
 20
275.6982790894
 11
355.4625675794
 21
303.6145983988
  0
LINE
  5
265
100
AcDbEntity
  8
0
100
AcDbLine
 62
7
  6
CONTINUOUS
 10
343.9463426536
 20
309.082384271
 11
341.2373293091
 21
310.5572044936
  0
LINE
  5
266
100
AcDbEntity
  8
0
100
AcDbLine
 62
7
  6
CONTINUOUS
 10
347.1573441788
 20
305.5892872744
 11
339.7133782153
 21
309.6773561713
  0
LINE
  5
267
100
AcDbEntity
  8
0
100
AcDbLine
 62
7
  6
CONTINUOUS
 10
355.2816310007
 20
303.715050804
 11
355.4625675793
 21
303.6145983988
  0
LINE
  5
268
100
AcDbEntity
  8
0
100
AcDbLine
 62
7
  6
CONTINUOUS
 10
355.2816310007
 20
303.715050804
 11
349.8197916829
 21
306.8683738667
  0
LINE
  5
269
100
AcDbEntity
  8
0
100
AcDbLine
 62
7
  6
CONTINUOUS
 10
68.4917234906
 20
474.0497332111
 11
302.9102545228
 21
338.7111929835
  0
LINE
  5
26A
100
AcDbEntity
  8
0
100
AcDbLine
 62
7
  6
CONTINUOUS
 10
336.2842556424
 20
322.5957126318
 11
327.5196907205
 21
327.8324756751
  0
LINE
  5
26B
100
AcDbEntity
  8
0
100
AcDbLine
 62
7
  6
CONTINUOUS
 10
268.9290002389
 20
385.62948811
 11
268.9290002389
 21
386.2366474566
  0
LINE
  5
26C
100
AcDbEntity
  8
0
100
AcDbLine
 62
7
  6
CONTINUOUS
 10
270.5548525453
 20
387.33263156
 11
270.5548525453
 21
381.6090924661
  0
LINE
  5
26D
100
AcDbEntity
  8
0
100
AcDbLine
 62
7
  6
CONTINUOUS
 10
274.7583274773
 20
393.1840712155
 11
274.7781410682
 21
393.199352355
  0
LINE
  5
26E
100
AcDbEntity
  8
0
100
AcDbLine
 62
7
  6
CONTINUOUS
 10
274.7550194765
 20
393.1859722207
 11
274.7781410682
 21
393.199352355
  0
LINE
  5
26F
100
AcDbEntity
  8
0
100
AcDbLine
 62
7
  6
CONTINUOUS
 10
268.9290002389
 20
385.62948811
 11
270.5548525453
 21
386.5681687736
  0
LINE
  5
270
100
AcDbEntity
  8
0
100
AcDbLine
 62
7
  6
CONTINUOUS
 10
78.8897589408
 20
437.5341950636
 11
80.1321427913
 21
437.0858959145
  0
LINE
  5
271
100
AcDbEntity
  8
0
100
AcDbLine
 62
7
  6
CONTINUOUS
 10
74.9321542143
 20
485.6069935213
 11
309.3506774661
 21
350.2684577856
  0
LINE
  5
272
100
AcDbEntity
  8
0
100
AcDbLine
 62
7
  6
CONTINUOUS
 10
284.0502932002
 20
367.0517889426
 11
98.882768288
 21
473.955890802
  0
LINE
  5
273
100
AcDbEntity
  8
0
100
AcDbLine
 62
7
  6
CONTINUOUS
 10
285.5470735123
 20
367.7902578014
 11
114.0117627959
 21
466.823975177
  0
LINE
  5
274
100
AcDbEntity
  8
0
100
AcDbLine
 62
7
  6
CONTINUOUS
 10
340.3706462118
 20
324.9549698378
 11
343.9463847565
 21
322.8657208052
  0
LINE
  5
275
100
AcDbEntity
  8
0
100
AcDbLine
 62
7
  6
CONTINUOUS
 10
340.9184988449
 20
318.8461176991
 11
341.3528510424
 21
318.4902637206
  0
LINE
  5
276
100
AcDbEntity
  8
0
100
AcDbLine
 62
7
  6
CONTINUOUS
 10
277.8415607909
 20
399.5798541956
 11
277.8415607909
 21
394.462028579
  0
LINE
  5
277
100
AcDbEntity
  8
0
100
AcDbLine
 62
7
  6
CONTINUOUS
 10
290.1422919933
 20
373.3822654744
 11
290.1422919933
 21
373.989424821
  0
LINE
  5
278
100
AcDbEntity
  8
0
100
AcDbLine
 62
7
  6
CONTINUOUS
 10
290.1422919933
 20
373.3822654744
 11
292.6518023048
 21
374.8311232798
  0
LINE
  5
279
100
AcDbEntity
  8
0
100
AcDbLine
 62
7
  6
CONTINUOUS
 10
293.7727142246
 20
375.4782782154
 11
295.6276656897
 21
376.5492285504
  0
LINE
  5
27A
100
AcDbEntity
  8
0
100
AcDbLine
 62
7
  6
CONTINUOUS
 10
296.5436162614
 20
377.0780497029
 11
297.2865781711
 21
377.506996401
  0
LINE
  5
27B
100
AcDbEntity
  8
0
100
AcDbLine
 62
7
  6
CONTINUOUS
 10
295.8792198326
 20
376.4316223686
 11
294.8455248533
 21
376.9148937562
  0
LINE
  5
27C
100
AcDbEntity
  8
0
100
AcDbLine
 62
7
  6
CONTINUOUS
 10
114.0117627959
 20
466.823975177
 11
98.882768288
 21
473.955890802
  0
LINE
  5
27D
100
AcDbEntity
  8
0
100
AcDbLine
 62
7
  6
CONTINUOUS
 10
357.460394468
 20
336.3576665335
 11
357.4085779406
 21
336.3875821428
  0
LINE
  5
27E
100
AcDbEntity
  8
0
100
AcDbLine
 62
7
  6
CONTINUOUS
 10
347.2270224542
 20
346.057226227
 11
353.5515715362
 21
342.4058287177
  0
LINE
  5
27F
100
AcDbEntity
  8
0
100
AcDbLine
 62
7
  6
CONTINUOUS
 10
353.8416867373
 20
347.1372234717
 11
352.1253992547
 21
348.1281000951
  0
LINE
  5
280
100
AcDbEntity
  8
0
100
AcDbLine
 62
7
  6
CONTINUOUS
 10
373.7813171107
 20
335.7581719665
 11
367.9834934132
 21
339.1054713129
  0
LINE
  5
281
100
AcDbEntity
  8
0
100
AcDbLine
 62
7
  6
CONTINUOUS
 10
373.9587818207
 20
335.6517059724
 11
373.7813171107
 21
335.7581719665
  0
LINE
  5
282
100
AcDbEntity
  8
0
100
AcDbLine
 62
7
  6
CONTINUOUS
 10
368.0959178201
 20
341.8567811208
 11
361.7030174913
 21
345.7321531744
  0
LINE
  5
283
100
AcDbEntity
  8
0
100
AcDbLine
 62
7
  6
CONTINUOUS
 10
424.3019413763
 20
304.2894850037
 11
373.9587818208
 21
335.6517059723
  0
LINE
  5
284
100
AcDbEntity
  8
0
100
AcDbLine
 62
7
  6
CONTINUOUS
 10
304.9193962907
 20
322.96579263
 11
304.8571107264
 21
324.3601631646
  0
LINE
  5
285
100
AcDbEntity
  8
0
100
AcDbLine
 62
7
  6
CONTINUOUS
 10
292.2650603354
 20
316.6945346619
 11
292.2650603354
 21
314.6136695584
  0
LINE
  5
286
100
AcDbEntity
  8
0
100
AcDbLine
 62
7
  6
CONTINUOUS
 10
293.7727142246
 20
375.2154380484
 11
293.7727142246
 21
376.3585414324
  0
LINE
  5
287
100
AcDbEntity
  8
0
100
AcDbLine
 62
7
  6
CONTINUOUS
 10
295.8792198326
 20
377.5747257526
 11
295.8792198326
 21
376.4316223686
  0
LINE
  5
288
100
AcDbEntity
  8
0
100
AcDbLine
 62
7
  6
CONTINUOUS
 10
297.2865781711
 20
377.8009176563
 11
297.2865781711
 21
377.506996401
  0
LINE
  5
289
100
AcDbEntity
  8
0
100
AcDbLine
 62
7
  6
CONTINUOUS
 10
299.0548525453
 20
387.33263156
 11
299.0548525453
 21
381.6090924661
  0
LINE
  5
28A
100
AcDbEntity
  8
0
100
AcDbLine
 62
7
  6
CONTINUOUS
 10
303.7295092189
 20
324.7964340722
 11
303.7295092189
 21
323.4053023329
  0
LINE
  5
28B
100
AcDbEntity
  8
0
100
AcDbLine
 62
7
  6
CONTINUOUS
 10
322.941004247
 20
389.5052174056
 11
317.2152153182
 21
385.1901279499
  0
LINE
  5
28C
100
AcDbEntity
  8
0
100
AcDbLine
 62
7
  6
CONTINUOUS
 10
314.399931828
 20
384.0366339519
 11
322.941004247
 21
389.5052174056
  0
LINE
  5
28D
100
AcDbEntity
  8
0
100
AcDbLine
 62
7
  6
CONTINUOUS
 10
314.399931828
 20
384.0366339519
 11
142.5080474356
 21
483.2762145781
  0
LINE
  5
28E
100
AcDbEntity
  8
0
100
AcDbLine
 62
7
  6
CONTINUOUS
 10
137.7734793347
 20
496.4093192649
 11
322.941004247
 21
389.5052174056
  0
LINE
  5
28F
100
AcDbEntity
  8
0
100
AcDbLine
 62
7
  6
CONTINUOUS
 10
361.3793137605
 20
349.1382747333
 11
371.6394494329
 21
343.0079191723
  0
LINE
  5
290
100
AcDbEntity
  8
0
100
AcDbLine
 62
7
  6
CONTINUOUS
 10
375.9555772221
 20
343.3993380135
 11
363.9009675644
 21
350.7068346085
  0
LINE
  5
291
100
AcDbEntity
  8
0
100
AcDbLine
 62
7
  6
CONTINUOUS
 10
474.172741982
 20
266.6020386448
 11
467.7233778065
 21
271.4839737375
  0
LINE
  5
292
100
AcDbEntity
  8
0
100
AcDbLine
 62
7
  6
CONTINUOUS
 10
462.2724045105
 20
275.6101630949
 11
455.9751258271
 21
280.3769749785
  0
LINE
  5
293
100
AcDbEntity
  8
0
100
AcDbLine
 62
7
  6
CONTINUOUS
 10
450.3865771505
 20
284.6073039163
 11
444.2268738478
 21
289.2699762195
  0
LINE
  5
294
100
AcDbEntity
  8
0
100
AcDbLine
 62
7
  6
CONTINUOUS
 10
438.4035718339
 20
293.6780049311
 11
432.4786218684
 21
298.1629774605
  0
LINE
  5
295
100
AcDbEntity
  8
0
100
AcDbLine
 62
7
  6
CONTINUOUS
 10
426.4137853762
 20
302.7538390241
 11
425.213338008
 21
303.662534203
  0
LINE
  5
296
100
AcDbEntity
  8
0
100
AcDbLine
 62
7
  6
CONTINUOUS
 10
351.4878315339
 20
374.5962098394
 11
117.0693082824
 21
509.9347455749
  0
LINE
  5
297
100
AcDbEntity
  8
0
100
AcDbLine
 62
7
  6
CONTINUOUS
 10
355.7040898368
 20
374.519331752
 11
121.2816901405
 21
509.8601086476
  0
LINE
  5
298
100
AcDbEntity
  8
0
100
AcDbLine
 62
7
  6
CONTINUOUS
 10
345.3893196009
 20
356.1578039744
 11
349.6319426242
 21
358.6072688977
  0
LINE
  5
299
100
AcDbEntity
  8
0
100
AcDbLine
 62
7
  6
CONTINUOUS
 10
361.690341859
 20
338.8489196828
 11
361.7030174913
 21
338.8527645853
  0
LINE
  5
29A
100
AcDbEntity
  8
0
100
AcDbLine
 62
7
  6
CONTINUOUS
 10
321.8225419945
 20
315.3925517412
 11
323.4792155246
 21
317.4534884435
  0
LINE
  5
29B
100
AcDbEntity
  8
0
100
AcDbLine
 62
7
  6
CONTINUOUS
 10
357.460394468
 20
343.4151294678
 11
361.7030174913
 21
345.864594391
  0
LINE
  5
29C
100
AcDbEntity
  8
0
100
AcDbLine
 62
7
  6
CONTINUOUS
 10
340.3706299849
 20
324.9549626501
 11
336.2842556424
 21
322.5957126318
  0
LINE
  5
29D
100
AcDbEntity
  8
0
100
AcDbLine
 62
7
  6
CONTINUOUS
 10
371.6394494329
 20
343.0079191723
 11
368.7700590626
 21
341.3512756657
  0
LINE
  5
29E
100
AcDbEntity
  8
0
100
AcDbLine
 62
7
  6
CONTINUOUS
 10
361.6712267376
 20
338.7927571909
 11
361.7030174913
 21
338.8071314568
  0
LINE
  5
29F
100
AcDbEntity
  8
0
100
AcDbLine
 62
7
  6
CONTINUOUS
 10
361.6714947923
 20
338.7948352755
 11
361.7030174913
 21
338.8071314568
  0
LINE
  5
2A0
100
AcDbEntity
  8
0
100
AcDbLine
 62
7
  6
CONTINUOUS
 10
361.6908006403
 20
338.8523648788
 11
361.7036241086
 21
338.8572943787
  0
LWPOLYLINE
  5
2A1
100
AcDbEntity
  8
0
100
AcDbPolyline
 62
7
  6
CONTINUOUS
 90
4
 70
0
 10
121.2844363057
 20
509.8584494793
 10
115.5666078082
 20
512.0132359908
 10
112.2504726784
 20
512.4549395568
 10
106.1363074933
 20
511.8728605336
  0
LWPOLYLINE
  5
2A2
100
AcDbEntity
  8
0
100
AcDbPolyline
 62
7
  6
CONTINUOUS
 90
4
 70
0
 10
362.5114109206
 20
365.5143863829
 10
361.4556241606
 20
368.5669425839
 10
359.931085982
 20
370.9460398355
 10
355.7046835747
 20
374.5189157111
  0
LWPOLYLINE
  5
2A3
100
AcDbEntity
  8
0
100
AcDbPolyline
 62
7
  6
CONTINUOUS
 90
4
 70
0
 10
364.2414972815
 20
351.2684990091
 10
363.9311128137
 20
356.0379638629
 10
363.2703862758
 20
361.3295270016
 10
362.5105604314
 20
365.5186406256
  0
LINE
  5
2A4
100
AcDbEntity
  8
0
100
AcDbLine
 62
7
  6
CONTINUOUS
 10
357.460394468
 20
336.3576665335
 11
357.460394468
 21
343.4151294678
  0
LINE
  5
2A5
100
AcDbEntity
  8
0
100
AcDbLine
 62
7
  6
CONTINUOUS
 10
361.7030174913
 20
338.8071314568
 11
361.7030174913
 21
345.864594391
  0
LINE
  5
2A6
100
AcDbEntity
  8
0
100
AcDbLine
 62
7
  6
CONTINUOUS
 10
338.3685614236
 20
318.9432311938
 11
341.7382138412
 21
320.8886559867
  0
LINE
  5
2A7
100
AcDbEntity
  8
0
100
AcDbLine
 62
7
  6
CONTINUOUS
 10
371.5498454484
 20
338.1002725077
 11
373.7237532842
 21
339.3554388874
  0
LINE
  5
2A8
100
AcDbEntity
  8
0
100
AcDbLine
 62
7
  6
CONTINUOUS
 10
341.7384137315
 20
311.8612403004
 11
338.3685614236
 21
309.9155619916
  0
LINE
  5
2A9
100
AcDbEntity
  8
0
100
AcDbLine
 62
7
  6
CONTINUOUS
 10
337.7472255328
 20
308.5422041668
 11
341.6026523904
 21
310.7681226139
  0
LINE
  5
2AA
100
AcDbEntity
  8
0
100
AcDbLine
 62
7
  6
CONTINUOUS
 10
319.8718443002
 20
305.1373888747
 11
330.0688388176
 21
309.3184420069
  0
LINE
  5
2AB
100
AcDbEntity
  8
0
100
AcDbLine
 62
7
  6
CONTINUOUS
 10
362.5114109206
 20
365.5143863829
 11
362.510673244
 21
365.5179631413
  0
LINE
  5
2AC
100
AcDbEntity
  8
0
100
AcDbLine
 62
7
  6
CONTINUOUS
 10
451.2605793667
 20
257.246510051
 11
451.2605793667
 21
257.3061173586
  0
LINE
  5
2AD
100
AcDbEntity
  8
0
100
AcDbLine
 62
7
  6
CONTINUOUS
 10
106.1381746948
 20
511.8733589786
 11
106.1363035396
 21
511.8728682985
  0
LINE
  5
2AE
100
AcDbEntity
  8
0
100
AcDbLine
 62
7
  6
CONTINUOUS
 10
462.6019163385
 20
252.261656757
 11
462.6019163385
 21
252.5213019398
  0
LINE
  5
2AF
100
AcDbEntity
  8
0
100
AcDbLine
 62
7
  6
CONTINUOUS
 10
462.784963457
 20
252.1431369682
 11
462.784963457
 21
252.4440758881
  0
LINE
  5
2B0
100
AcDbEntity
  8
0
100
AcDbLine
 62
7
  6
CONTINUOUS
 10
462.9655020887
 20
252.0638634066
 11
462.9655020887
 21
252.3679081461
  0
LINE
  5
2B1
100
AcDbEntity
  8
0
100
AcDbLine
 62
7
  6
CONTINUOUS
 10
463.3842505356
 20
251.9168265718
 11
463.3842505356
 21
252.191241671
  0
LINE
  5
2B2
100
AcDbEntity
  8
0
100
AcDbLine
 62
7
  6
CONTINUOUS
 10
463.8004904429
 20
251.817867827
 11
463.8004904429
 21
252.0156335279
  0
LINE
  5
2B3
100
AcDbEntity
  8
0
100
AcDbLine
 62
7
  6
CONTINUOUS
 10
463.9246122031
 20
251.6983701586
 11
463.9246122031
 21
251.9632675931
  0
LINE
  5
2B4
100
AcDbEntity
  8
0
100
AcDbLine
 62
7
  6
CONTINUOUS
 10
464.0474797409
 20
251.6065450948
 11
464.0474797409
 21
251.9114308043
  0
LINE
  5
2B5
100
AcDbEntity
  8
0
100
AcDbLine
 62
7
  6
CONTINUOUS
 10
464.2280183726
 20
251.5272866245
 11
464.2280183726
 21
251.8352630623
  0
LINE
  5
2B6
100
AcDbEntity
  8
0
100
AcDbLine
 62
7
  6
CONTINUOUS
 10
464.6467668985
 20
251.3801159428
 11
464.6467668985
 21
251.6585965539
  0
LINE
  5
2B7
100
AcDbEntity
  8
0
100
AcDbLine
 62
7
  6
CONTINUOUS
 10
465.0040814895
 20
251.2845656294
 11
465.0040814895
 21
251.50784851
  0
ARC
  5
2B8
100
AcDbEntity
  8
0
100
AcDbCircle
 62
7
  6
CONTINUOUS
 10
-447.1189539415
 20
330.3606493498
 40
770.6532496524
100
AcDbArc
 50
359.7715243244
 51
0.6037271962
  0
ARC
  5
2B9
100
AcDbEntity
  8
0
100
AcDbCircle
 62
7
  6
CONTINUOUS
 10
-100.4153704872
 20
322.5165842572
 40
423.6765369952
100
AcDbArc
 50
358.1786727173
 51
358.7269544457
  0
ARC
  5
2BA
100
AcDbEntity
  8
0
100
AcDbCircle
 62
7
  6
CONTINUOUS
 10
174.3433907888
 20
388.5401076935
 40
99.9410795025
100
AcDbArc
 50
108.5745173227
 51
111.6396231003
  0
ARC
  5
2BB
100
AcDbEntity
  8
0
100
AcDbCircle
 62
7
  6
CONTINUOUS
 10
148.4000071054
 20
458.2089136623
 40
81.4632656052
100
AcDbArc
 50
168.7872166558
 51
177.8217121892
  0
ARC
  5
2BC
100
AcDbEntity
  8
0
100
AcDbCircle
 62
7
  6
CONTINUOUS
 10
261.7552958061
 20
407.6101166073
 40
14.7821789844
100
AcDbArc
 50
246.6115018388
 51
246.8348346632
  0
ARC
  5
2BD
100
AcDbEntity
  8
0
100
AcDbCircle
 62
7
  6
CONTINUOUS
 10
176.9021287877
 20
456.5990071481
 40
14.7821789826
100
AcDbArc
 50
246.6115018387
 51
246.8348346632
  0
ARC
  5
2BE
100
AcDbEntity
  8
0
100
AcDbCircle
 62
7
  6
CONTINUOUS
 10
198.11542054
 20
444.3517845075
 40
14.7821789771
100
AcDbArc
 50
246.6115018387
 51
246.8348346632
  0
ARC
  5
2BF
100
AcDbEntity
  8
0
100
AcDbCircle
 62
7
  6
CONTINUOUS
 10
219.3287122945
 20
432.104561872
 40
14.7821789772
100
AcDbArc
 50
246.6115018387
 51
246.8348346632
  0
ARC
  5
2C0
100
AcDbEntity
  8
0
100
AcDbCircle
 62
7
  6
CONTINUOUS
 10
240.5420040488
 20
419.8573392363
 40
14.7821789771
100
AcDbArc
 50
246.6115018387
 51
246.8348346632
  0
ARC
  5
2C1
100
AcDbEntity
  8
0
100
AcDbCircle
 62
7
  6
CONTINUOUS
 10
282.9685875486
 20
395.362893944
 40
14.7821789542
100
AcDbArc
 50
246.6115018385
 51
246.8348346634
  0
ARC
  5
2C2
100
AcDbEntity
  8
0
100
AcDbCircle
 62
7
  6
CONTINUOUS
 10
154.2342807136
 20
455.0156997989
 40
13.4718533999
100
AcDbArc
 50
119.7292329256
 51
119.9998206127
  0
ARC
  5
2C3
100
AcDbEntity
  8
0
100
AcDbCircle
 62
7
  6
CONTINUOUS
 10
260.3007394841
 20
393.7795866236
 40
13.4718533967
100
AcDbArc
 50
119.7292329256
 51
119.9998206127
  0
ARC
  5
2C4
100
AcDbEntity
  8
0
100
AcDbCircle
 62
7
  6
CONTINUOUS
 10
239.0874477256
 20
406.0268092663
 40
13.4718533886
100
AcDbArc
 50
119.7292329255
 51
119.9998206128
  0
ARC
  5
2C5
100
AcDbEntity
  8
0
100
AcDbCircle
 62
7
  6
CONTINUOUS
 10
196.6608642145
 20
430.5212545414
 40
13.4718533841
100
AcDbArc
 50
119.7292329254
 51
119.9998206129
  0
ARC
  5
2C6
100
AcDbEntity
  8
0
100
AcDbCircle
 62
7
  6
CONTINUOUS
 10
175.4475724585
 20
442.7684771798
 40
13.4718533808
100
AcDbArc
 50
119.7292329255
 51
119.9998206129
  0
ARC
  5
2C7
100
AcDbEntity
  8
0
100
AcDbCircle
 62
7
  6
CONTINUOUS
 10
217.874155965
 20
418.2740319126
 40
13.4718533762
100
AcDbArc
 50
119.7292329254
 51
119.999820613
  0
ARC
  5
2C8
100
AcDbEntity
  8
0
100
AcDbCircle
 62
7
  6
CONTINUOUS
 10
281.514031226
 20
381.5323640097
 40
13.4718533716
100
AcDbArc
 50
119.7292329253
 51
119.999820613
  0
ARC
  5
2C9
100
AcDbEntity
  8
0
100
AcDbCircle
 62
7
  6
CONTINUOUS
 10
153.6302243938
 20
456.024251195
 40
12.2963698557
100
AcDbArc
 50
120.0364348179
 51
124.7736104128
  0
ARC
  5
2CA
100
AcDbEntity
  8
0
100
AcDbCircle
 62
7
  6
CONTINUOUS
 10
174.8435161483
 20
443.7770285592
 40
12.2963698559
100
AcDbArc
 50
120.0364348179
 51
124.7736104128
  0
ARC
  5
2CB
100
AcDbEntity
  8
0
100
AcDbCircle
 62
7
  6
CONTINUOUS
 10
196.0568079026
 20
431.5298059237
 40
12.2963698558
100
AcDbArc
 50
120.0364348179
 51
124.7736104128
  0
ARC
  5
2CC
100
AcDbEntity
  8
0
100
AcDbCircle
 62
7
  6
CONTINUOUS
 10
217.2700996571
 20
419.282583288
 40
12.2963698559
100
AcDbArc
 50
120.0364348179
 51
124.7736104128
  0
ARC
  5
2CD
100
AcDbEntity
  8
0
100
AcDbCircle
 62
7
  6
CONTINUOUS
 10
238.4833914115
 20
407.0353606525
 40
12.2963698558
100
AcDbArc
 50
120.0364348179
 51
124.7736104128
  0
ARC
  5
2CE
100
AcDbEntity
  8
0
100
AcDbCircle
 62
7
  6
CONTINUOUS
 10
259.6966831659
 20
394.7881380168
 40
12.2963698558
100
AcDbArc
 50
120.0364348179
 51
124.7736104128
  0
ARC
  5
2CF
100
AcDbEntity
  8
0
100
AcDbCircle
 62
7
  6
CONTINUOUS
 10
280.9099749203
 20
382.5409153812
 40
12.2963698558
100
AcDbArc
 50
120.0364348179
 51
124.7736104128
  0
ARC
  5
2D0
100
AcDbEntity
  8
0
100
AcDbCircle
 62
7
  6
CONTINUOUS
 10
239.4669176441
 20
407.70250781
 40
11.0016276417
100
AcDbArc
 50
119.9972175825
 51
121.1315701544
  0
ARC
  5
2D1
100
AcDbEntity
  8
0
100
AcDbCircle
 62
7
  6
CONTINUOUS
 10
260.6802093982
 20
395.455285175
 40
11.001627641
100
AcDbArc
 50
119.9972175825
 51
121.1315701544
  0
ARC
  5
2D2
100
AcDbEntity
  8
0
100
AcDbCircle
 62
7
  6
CONTINUOUS
 10
281.8935011528
 20
383.208062539
 40
11.0016276415
100
AcDbArc
 50
119.9972175825
 51
121.1315701544
  0
ARC
  5
2D3
100
AcDbEntity
  8
0
100
AcDbCircle
 62
7
  6
CONTINUOUS
 10
154.6129634331
 20
456.6926326544
 40
11.0001651116
100
AcDbArc
 50
119.9968808471
 51
121.131387731
  0
ARC
  5
2D4
100
AcDbEntity
  8
0
100
AcDbCircle
 62
7
  6
CONTINUOUS
 10
175.8262551879
 20
444.4454100181
 40
11.0001651124
100
AcDbArc
 50
119.9968808472
 51
121.131387731
  0
ARC
  5
2D5
100
AcDbEntity
  8
0
100
AcDbCircle
 62
7
  6
CONTINUOUS
 10
197.0395469419
 20
432.1981873833
 40
11.0001651115
100
AcDbArc
 50
119.9968808471
 51
121.131387731
  0
ARC
  5
2D6
100
AcDbEntity
  8
0
100
AcDbCircle
 62
7
  6
CONTINUOUS
 10
218.2528386964
 20
419.9509647475
 40
11.0001651116
100
AcDbArc
 50
119.9968808471
 51
121.131387731
  0
ARC
  5
2D7
100
AcDbEntity
  8
0
100
AcDbCircle
 62
7
  6
CONTINUOUS
 10
314.5071122485
 20
350.8784461687
 40
28.5272766485
100
AcDbArc
 50
270.5512197969
 51
273.2235183295
  0
ARC
  5
2D8
100
AcDbEntity
  8
0
100
AcDbCircle
 62
7
  6
CONTINUOUS
 10
314.5416055893
 20
350.325628811
 40
27.9733945712
100
AcDbArc
 50
273.2166504138
 51
276.1975956146
  0
ARC
  5
2D9
100
AcDbEntity
  8
0
100
AcDbCircle
 62
7
  6
CONTINUOUS
 10
314.2932795849
 20
346.860045587
 40
25.9812132056
100
AcDbArc
 50
270.6220312707
 51
270.7495079649
  0
ARC
  5
2DA
100
AcDbEntity
  8
0
100
AcDbCircle
 62
7
  6
CONTINUOUS
 10
311.7004316724
 20
337.3708214583
 40
16.0819453846
100
AcDbArc
 50
244.1535330939
 51
244.4271374844
  0
ARC
  5
2DB
100
AcDbEntity
  8
0
100
AcDbCircle
 62
7
  6
CONTINUOUS
 10
311.2952796157
 20
336.547970078
 40
15.1647781305
100
AcDbArc
 50
240.0719981102
 51
244.1757930818
  0
ARC
  5
2DC
100
AcDbEntity
  8
0
100
AcDbCircle
 62
7
  6
CONTINUOUS
 10
413.5333428734
 20
286.4562989068
 40
12.1926850272
100
AcDbArc
 50
241.9251996539
 51
247.1253009757
  0
ARC
  5
2DD
100
AcDbEntity
  8
0
100
AcDbCircle
 62
7
  6
CONTINUOUS
 10
417.8545099198
 20
293.9409490809
 40
12.1926850266
100
AcDbArc
 50
52.8758215519
 51
58.0759228725
  0
ARC
  5
2DE
100
AcDbEntity
  8
0
100
AcDbCircle
 62
7
  6
CONTINUOUS
 10
361.1166742755
 20
332.5397134443
 40
11.852547729
100
AcDbArc
 50
21.187168074
 51
26.0491301911
  0
ARC
  5
2DF
100
AcDbEntity
  8
0
100
AcDbCircle
 62
7
  6
CONTINUOUS
 10
329.9544890977
 20
321.8687290477
 40
8.2183033069
100
AcDbArc
 50
235.2118728625
 51
236.0275592813
  0
ARC
  5
2E0
100
AcDbEntity
  8
0
100
AcDbCircle
 62
7
  6
CONTINUOUS
 10
359.0551376437
 20
352.4898852793
 40
8.1989429059
100
AcDbArc
 50
212.1965161185
 51
216.3237747884
  0
ARC
  5
2E1
100
AcDbEntity
  8
0
100
AcDbCircle
 62
7
  6
CONTINUOUS
 10
353.3607417803
 20
311.9445285836
 40
6.2665115118
100
AcDbArc
 50
240.0272365689
 51
249.536287309
  0
ARC
  5
2E2
100
AcDbEntity
  8
0
100
AcDbCircle
 62
7
  6
CONTINUOUS
 10
365.718126009
 20
333.3439258747
 40
6.2223108061
100
AcDbArc
 50
55.3384524819
 51
59.9953546466
  0
ARC
  5
2E3
100
AcDbEntity
  8
0
100
AcDbCircle
 62
7
  6
CONTINUOUS
 10
353.3406222629
 20
311.9034306791
 40
6.2208592175
100
AcDbArc
 50
235.0774105339
 51
239.9986549207
  0
ARC
  5
2E4
100
AcDbEntity
  8
0
100
AcDbCircle
 62
7
  6
CONTINUOUS
 10
421.8780397345
 20
299.2549334705
 40
5.5272867535
100
AcDbArc
 50
52.8845045722
 51
64.3494752856
  0
ARC
  5
2E5
100
AcDbEntity
  8
0
100
AcDbCircle
 62
7
  6
CONTINUOUS
 10
421.8805418968
 20
299.254467725
 40
5.5266240085
100
AcDbArc
 50
64.3749495332
 51
66.2388589469
  0
ARC
  5
2E6
100
AcDbEntity
  8
0
100
AcDbCircle
 62
7
  6
CONTINUOUS
 10
410.9410161477
 20
280.310754242
 40
5.5227584122
100
AcDbArc
 50
235.8111006329
 51
247.1209483941
  0
ARC
  5
2E7
100
AcDbEntity
  8
0
100
AcDbCircle
 62
7
  6
CONTINUOUS
 10
358.733363588
 20
351.0676257688
 40
5.5117973328
100
AcDbArc
 50
354.707941996
 51
2.0885635506
  0
ARC
  5
2E8
100
AcDbEntity
  8
0
100
AcDbCircle
 62
7
  6
CONTINUOUS
 10
301.357650531
 20
391.5688324757
 40
85.3207669804
100
AcDbArc
 50
284.7268359401
 51
288.111336776
  0
ARC
  5
2E9
100
AcDbEntity
  8
0
100
AcDbCircle
 62
7
  6
CONTINUOUS
 10
181.635069107
 20
639.8242981514
 40
332.2020319592
100
AcDbArc
 50
301.7166326528
 51
302.4460165164
  0
ARC
  5
2EA
100
AcDbEntity
  8
0
100
AcDbCircle
 62
7
  6
CONTINUOUS
 10
155.6888370331
 20
468.8462297831
 40
14.7821789819
100
AcDbArc
 50
246.6115018387
 51
246.8348346632
  0
ARC
  5
2EB
100
AcDbEntity
  8
0
100
AcDbCircle
 62
7
  6
CONTINUOUS
 10
134.4755452766
 20
481.0934524139
 40
14.7821789766
100
AcDbArc
 50
246.6115018387
 51
246.8348346633
  0
ARC
  5
2EC
100
AcDbEntity
  8
0
100
AcDbCircle
 62
7
  6
CONTINUOUS
 10
133.0209889333
 20
467.2629224795
 40
13.471853348
100
AcDbArc
 50
119.7292329251
 51
119.9998206132
  0
ARC
  5
2ED
100
AcDbEntity
  8
0
100
AcDbCircle
 62
7
  6
CONTINUOUS
 10
74.5597998598
 20
471.126011262
 40
13.3476972876
100
AcDbArc
 50
235.9075682389
 51
240.0212326166
  0
ARC
  5
2EE
100
AcDbEntity
  8
0
100
AcDbCircle
 62
7
  6
CONTINUOUS
 10
132.4169326394
 20
468.2714738305
 40
12.2963698558
100
AcDbArc
 50
120.0364348179
 51
124.7736104128
  0
ARC
  5
2EF
100
AcDbEntity
  8
0
100
AcDbCircle
 62
7
  6
CONTINUOUS
 10
133.3996716794
 20
468.9398552888
 40
11.000165113
100
AcDbArc
 50
119.9968808472
 51
121.1313877309
  0
ARC
  5
2F0
100
AcDbEntity
  8
0
100
AcDbCircle
 62
7
  6
CONTINUOUS
 10
119.4781100299
 20
506.7304417732
 40
3.6120548188
100
AcDbArc
 50
60.0458215149
 51
62.4480396605
  0
SPLINE
  5
2F1
100
AcDbEntity
  8
0
100
AcDbSpline
 62
7
  6
CONTINUOUS
 70
0
 71
3
 72
15
 73
11
 74
0
 42
0.0000001
 43
0.0000001
 44
0.0000000001
 40
0.0
 40
0.0
 40
0.0
 40
0.0
 40
0.1368466797
 40
0.2774609733
 40
0.4178974541
 40
0.5542184297
 40
0.6828549048
 40
0.7434209724
 40
0.801103424
 40
1.0
 40
1.0
 40
1.0
 40
1.0
 10
141.6492497124
 20
459.1128239237
 30
0.0
 10
140.7697665403
 20
458.8956935529
 30
0.0
 10
138.9552213409
 20
458.5755902388
 30
0.0
 10
136.1867585529
 20
458.4270136988
 30
0.0
 10
133.4229049431
 20
458.6048842542
 30
0.0
 10
130.7786820394
 20
459.1021772417
 30
0.0
 10
128.7248745214
 20
459.7785253269
 30
0.0
 10
127.2404473531
 20
460.4699073847
 30
0.0
 10
125.4232991965
 20
461.5102179867
 30
0.0
 10
124.0896394447
 20
462.7027137923
 30
0.0
 10
123.4319010451
 20
463.8432977774
 30
0.0
  0
SPLINE
  5
2F2
100
AcDbEntity
  8
0
100
AcDbSpline
 62
7
  6
CONTINUOUS
 70
0
 71
3
 72
15
 73
11
 74
0
 42
0.0000001
 43
0.0000001
 44
0.0000000001
 40
0.0
 40
0.0
 40
0.0
 40
0.0
 40
0.1368466797
 40
0.2774609733
 40
0.4178974541
 40
0.5542184297
 40
0.6828549048
 40
0.7434209724
 40
0.801103424
 40
1.0
 40
1.0
 40
1.0
 40
1.0
 10
162.8625414668
 20
446.8656012881
 30
0.0
 10
161.9830582947
 20
446.6484709173
 30
0.0
 10
160.1685130953
 20
446.3283676032
 30
0.0
 10
157.4000503073
 20
446.1797910632
 30
0.0
 10
154.6361966975
 20
446.3576616186
 30
0.0
 10
151.9919737939
 20
446.8549546061
 30
0.0
 10
149.9381662758
 20
447.5313026913
 30
0.0
 10
148.4537391075
 20
448.2226847491
 30
0.0
 10
146.6365909509
 20
449.2629953511
 30
0.0
 10
145.3029311991
 20
450.4554911567
 30
0.0
 10
144.6451927995
 20
451.5960751418
 30
0.0
  0
SPLINE
  5
2F3
100
AcDbEntity
  8
0
100
AcDbSpline
 62
7
  6
CONTINUOUS
 70
0
 71
3
 72
15
 73
11
 74
0
 42
0.0000001
 43
0.0000001
 44
0.0000000001
 40
0.0
 40
0.0
 40
0.0
 40
0.0
 40
0.1368466797
 40
0.2774609733
 40
0.4178974541
 40
0.5542184297
 40
0.6828549048
 40
0.7434209724
 40
0.801103424
 40
1.0
 40
1.0
 40
1.0
 40
1.0
 10
184.0758332212
 20
434.6183786525
 30
0.0
 10
183.1963500491
 20
434.4012482817
 30
0.0
 10
181.3818048498
 20
434.0811449676
 30
0.0
 10
178.6133420617
 20
433.9325684275
 30
0.0
 10
175.8494884519
 20
434.1104389829
 30
0.0
 10
173.2052655483
 20
434.6077319705
 30
0.0
 10
171.1514580302
 20
435.2840800557
 30
0.0
 10
169.6670308619
 20
435.9754621135
 30
0.0
 10
167.8498827053
 20
437.0157727155
 30
0.0
 10
166.5162229535
 20
438.2082685211
 30
0.0
 10
165.8584845539
 20
439.3488525062
 30
0.0
  0
SPLINE
  5
2F4
100
AcDbEntity
  8
0
100
AcDbSpline
 62
7
  6
CONTINUOUS
 70
0
 71
3
 72
15
 73
11
 74
0
 42
0.0000001
 43
0.0000001
 44
0.0000000001
 40
0.0
 40
0.0
 40
0.0
 40
0.0
 40
0.1368466797
 40
0.2774609733
 40
0.4178974541
 40
0.5542184297
 40
0.6828549048
 40
0.7434209724
 40
0.801103424
 40
1.0
 40
1.0
 40
1.0
 40
1.0
 10
205.2891249756
 20
422.3711560169
 30
0.0
 10
204.4096418035
 20
422.1540256461
 30
0.0
 10
202.5950966042
 20
421.833922332
 30
0.0
 10
199.8266338161
 20
421.6853457919
 30
0.0
 10
197.0627802063
 20
421.8632163473
 30
0.0
 10
194.4185573027
 20
422.3605093349
 30
0.0
 10
192.3647497846
 20
423.0368574201
 30
0.0
 10
190.8803226163
 20
423.7282394779
 30
0.0
 10
189.0631744597
 20
424.7685500799
 30
0.0
 10
187.7295147079
 20
425.9610458855
 30
0.0
 10
187.0717763083
 20
427.1016298706
 30
0.0
  0
SPLINE
  5
2F5
100
AcDbEntity
  8
0
100
AcDbSpline
 62
7
  6
CONTINUOUS
 70
0
 71
3
 72
15
 73
11
 74
0
 42
0.0000001
 43
0.0000001
 44
0.0000000001
 40
0.0
 40
0.0
 40
0.0
 40
0.0
 40
0.1368466797
 40
0.2774609733
 40
0.4178974541
 40
0.5542184297
 40
0.6828549048
 40
0.7434209724
 40
0.801103424
 40
1.0
 40
1.0
 40
1.0
 40
1.0
 10
226.5024167301
 20
410.1239333812
 30
0.0
 10
225.622933558
 20
409.9068030105
 30
0.0
 10
223.8083883586
 20
409.5866996964
 30
0.0
 10
221.0399255706
 20
409.4381231563
 30
0.0
 10
218.2760719608
 20
409.6159937117
 30
0.0
 10
215.6318490571
 20
410.1132866992
 30
0.0
 10
213.578041539
 20
410.7896347845
 30
0.0
 10
212.0936143707
 20
411.4810168423
 30
0.0
 10
210.2764662141
 20
412.5213274442
 30
0.0
 10
208.9428064624
 20
413.7138232498
 30
0.0
 10
208.2850680628
 20
414.854407235
 30
0.0
  0
SPLINE
  5
2F6
100
AcDbEntity
  8
0
100
AcDbSpline
 62
7
  6
CONTINUOUS
 70
0
 71
3
 72
15
 73
11
 74
0
 42
0.0000001
 43
0.0000001
 44
0.0000000001
 40
0.0
 40
0.0
 40
0.0
 40
0.0
 40
0.1368466797
 40
0.2774609733
 40
0.4178974541
 40
0.5542184297
 40
0.6828549048
 40
0.7434209724
 40
0.801103424
 40
1.0
 40
1.0
 40
1.0
 40
1.0
 10
247.7157084845
 20
397.8767107456
 30
0.0
 10
246.8362253124
 20
397.6595803749
 30
0.0
 10
245.021680113
 20
397.3394770608
 30
0.0
 10
242.253217325
 20
397.1909005207
 30
0.0
 10
239.4893637152
 20
397.3687710761
 30
0.0
 10
236.8451408115
 20
397.8660640636
 30
0.0
 10
234.7913332935
 20
398.5424121489
 30
0.0
 10
233.3069061251
 20
399.2337942067
 30
0.0
 10
231.4897579685
 20
400.2741048086
 30
0.0
 10
230.1560982168
 20
401.4666006142
 30
0.0
 10
229.4983598172
 20
402.6071845994
 30
0.0
  0
SPLINE
  5
2F7
100
AcDbEntity
  8
0
100
AcDbSpline
 62
7
  6
CONTINUOUS
 70
0
 71
3
 72
15
 73
11
 74
0
 42
0.0000001
 43
0.0000001
 44
0.0000000001
 40
0.0
 40
0.0
 40
0.0
 40
0.0
 40
0.1368466797
 40
0.2774609733
 40
0.4178974541
 40
0.5542184297
 40
0.6828549048
 40
0.7434209724
 40
0.801103424
 40
1.0
 40
1.0
 40
1.0
 40
1.0
 10
268.9290002389
 20
385.62948811
 30
0.0
 10
268.0495170668
 20
385.4123577393
 30
0.0
 10
266.2349718674
 20
385.0922544252
 30
0.0
 10
263.4665090794
 20
384.9436778851
 30
0.0
 10
260.7026554696
 20
385.1215484405
 30
0.0
 10
258.0584325659
 20
385.618841428
 30
0.0
 10
256.0046250479
 20
386.2951895133
 30
0.0
 10
254.5201978795
 20
386.986571571
 30
0.0
 10
252.7030497229
 20
388.026882173
 30
0.0
 10
251.3693899712
 20
389.2193779786
 30
0.0
 10
250.7116515716
 20
390.3599619638
 30
0.0
  0
SPLINE
  5
2F8
100
AcDbEntity
  8
0
100
AcDbSpline
 62
7
  6
CONTINUOUS
 70
0
 71
3
 72
15
 73
11
 74
0
 42
0.0000001
 43
0.0000001
 44
0.0000000001
 40
0.0
 40
0.0
 40
0.0
 40
0.0
 40
0.1368466797
 40
0.2774609733
 40
0.4178974541
 40
0.5542184297
 40
0.6828549048
 40
0.7434209724
 40
0.801103424
 40
1.0
 40
1.0
 40
1.0
 40
1.0
 10
290.1422919933
 20
373.3822654744
 30
0.0
 10
289.2628088212
 20
373.1651351037
 30
0.0
 10
287.4482636218
 20
372.8450317895
 30
0.0
 10
284.6798008338
 20
372.6964552495
 30
0.0
 10
281.915947224
 20
372.8743258049
 30
0.0
 10
279.2717243203
 20
373.3716187924
 30
0.0
 10
277.2179168023
 20
374.0479668776
 30
0.0
 10
275.7334896339
 20
374.7393489354
 30
0.0
 10
273.9163414774
 20
375.7796595374
 30
0.0
 10
272.5826817256
 20
376.972155343
 30
0.0
 10
271.924943326
 20
378.1127393282
 30
0.0
  0
SPLINE
  5
2F9
100
AcDbEntity
  8
0
100
AcDbSpline
 62
7
  6
CONTINUOUS
 70
0
 71
3
 72
9
 73
5
 74
0
 42
0.0000001
 43
0.0000001
 44
0.0000000001
 40
0.0
 40
0.0
 40
0.0
 40
0.0
 40
0.2464973094
 40
1.0
 40
1.0
 40
1.0
 40
1.0
 10
297.6438433485
 20
378.0428992202
 30
0.0
 10
297.6167824465
 20
377.9974056628
 30
0.0
 10
297.5045781555
 20
377.8142940654
 30
0.0
 10
297.3828843917
 20
377.6370246252
 30
0.0
 10
297.2865781711
 20
377.506996401
 30
0.0
  0
SPLINE
  5
2FA
100
AcDbEntity
  8
0
100
AcDbSpline
 62
7
  6
CONTINUOUS
 70
0
 71
3
 72
17
 73
13
 74
0
 42
0.0000001
 43
0.0000001
 44
0.0000000001
 40
0.0
 40
0.0
 40
0.0
 40
0.0
 40
0.0428596337
 40
0.0874888005
 40
0.1353225004
 40
0.1872872
 40
0.3045527712
 40
0.4382245045
 40
0.5825721442
 40
0.7297288633
 40
0.8713223023
 40
1.0
 40
1.0
 40
1.0
 40
1.0
 10
148.6618091624
 20
473.5042441647
 30
0.0
 10
148.661809079
 20
473.8558185193
 30
0.0
 10
148.5678145719
 20
474.5765445252
 30
0.0
 10
148.15445949
 20
475.6171721725
 30
0.0
 10
147.4837906969
 20
476.6038015881
 30
0.0
 10
146.2210904004
 20
477.870922485
 30
0.0
 10
144.0696339896
 20
479.1805872107
 30
0.0
 10
140.9761301261
 20
480.2138566583
 30
0.0
 10
137.5045900047
 20
480.7016059438
 30
0.0
 10
133.9363974103
 20
480.6028583385
 30
0.0
 10
130.5629628176
 20
479.9277839377
 30
0.0
 10
128.4931253359
 20
479.073781863
 30
0.0
 10
127.5790051589
 20
478.546017483
 30
0.0
  0
SPLINE
  5
2FB
100
AcDbEntity
  8
0
100
AcDbSpline
 62
7
  6
CONTINUOUS
 70
0
 71
3
 72
18
 73
14
 74
0
 42
0.0000001
 43
0.0000001
 44
0.0000000001
 40
0.0
 40
0.0
 40
0.0
 40
0.0
 40
0.0433244208
 40
0.0883431824
 40
0.1364428286
 40
0.1885485427
 40
0.245087772
 40
0.3060587701
 40
0.4394624974
 40
0.5834343418
 40
0.7302012928
 40
0.8714713421
 40
1.0
 40
1.0
 40
1.0
 40
1.0
 10
150.5618102644
 20
473.0631900093
 30
0.0
 10
150.5618102644
 20
473.4735009665
 30
0.0
 10
150.4525112506
 20
474.313722606
 30
0.0
 10
149.9724838556
 20
475.5255702694
 30
0.0
 10
149.1950856796
 20
476.6716866428
 30
0.0
 10
148.1437456142
 20
477.7297506079
 30
0.0
 10
146.8431634806
 20
478.6821216609
 30
0.0
 10
144.751405815
 20
479.8215121164
 30
0.0
 10
141.688425623
 20
480.8468224706
 30
0.0
 10
137.6925734853
 20
481.409479005
 30
0.0
 10
133.5825964682
 20
481.2969400311
 30
0.0
 10
129.6958995289
 20
480.5194701377
 30
0.0
 10
127.3103801817
 20
479.535022386
 30
0.0
 10
126.2562078775
 20
478.9263993553
 30
0.0
  0
SPLINE
  5
2FC
100
AcDbEntity
  8
0
100
AcDbSpline
 62
7
  6
CONTINUOUS
 70
0
 71
3
 72
11
 73
7
 74
0
 42
0.0000001
 43
0.0000001
 44
0.0000000001
 40
0.0
 40
0.0
 40
0.0
 40
0.0
 40
0.2885462405
 40
0.5473584031
 40
0.7810413815
 40
1.0
 40
1.0
 40
1.0
 40
1.0
 10
126.2562078775
 20
478.9263993553
 30
0.0
 10
125.6291024273
 20
478.5643420161
 30
0.0
 10
124.4902581309
 20
477.7801320796
 30
0.0
 10
123.1283121614
 20
476.3463971604
 30
0.0
 10
122.2638573471
 20
474.7563128432
 30
0.0
 10
122.0618102644
 20
473.6126751081
 30
0.0
 10
122.0618102644
 20
473.0631900093
 30
0.0
  0
SPLINE
  5
2FD
100
AcDbEntity
  8
0
100
AcDbSpline
 62
7
  6
CONTINUOUS
 70
0
 71
3
 72
11
 73
7
 74
0
 42
0.0000001
 43
0.0000001
 44
0.0000000001
 40
0.0
 40
0.0
 40
0.0
 40
0.0
 40
0.2897943377
 40
0.549045495
 40
0.7822266761
 40
1.0
 40
1.0
 40
1.0
 40
1.0
 10
127.5790051589
 20
478.546017483
 30
0.0
 10
127.0369269619
 20
478.2330503583
 30
0.0
 10
126.0536182482
 20
477.5561918259
 30
0.0
 10
124.8789987134
 20
476.3209536819
 30
0.0
 10
124.1354265467
 20
474.9552357318
 30
0.0
 10
123.961813285
 20
473.9746204784
 30
0.0
 10
123.9618110352
 20
473.5042441647
 30
0.0
  0
SPLINE
  5
2FE
100
AcDbEntity
  8
0
100
AcDbSpline
 62
7
  6
CONTINUOUS
 70
0
 71
3
 72
17
 73
13
 74
0
 42
0.0000001
 43
0.0000001
 44
0.0000000001
 40
0.0
 40
0.0
 40
0.0
 40
0.0
 40
0.1406504166
 40
0.2876881119
 40
0.4345874784
 40
0.5748426694
 40
0.7029229104
 40
0.815385057
 40
0.8657734609
 40
0.9127155798
 40
0.9570606135
 40
1.0
 40
1.0
 40
1.0
 40
1.0
 10
143.3473981638
 20
460.1851945894
 30
0.0
 10
142.2299777641
 20
459.8189171358
 30
0.0
 10
139.8724719641
 20
459.2794006204
 30
0.0
 10
136.2356477128
 20
459.0216694124
 30
0.0
 10
132.6025997134
 20
459.3017602509
 30
0.0
 10
129.208260409
 20
460.1029766411
 30
0.0
 10
126.2696030447
 20
461.3738442734
 30
0.0
 10
124.2769873988
 20
462.8226780535
 30
0.0
 10
123.127137319
 20
464.1569352875
 30
0.0
 10
122.5185001632
 20
465.1813738843
 30
0.0
 10
122.1460041611
 20
466.2483984633
 30
0.0
 10
122.0618369212
 20
466.9806525019
 30
0.0
 10
122.0618306544
 20
467.3396509227
 30
0.0
  0
SPLINE
  5
2FF
100
AcDbEntity
  8
0
100
AcDbSpline
 62
7
  6
CONTINUOUS
 70
0
 71
3
 72
18
 73
14
 74
0
 42
0.0000001
 43
0.0000001
 44
0.0000000001
 40
0.0
 40
0.0
 40
0.0
 40
0.0
 40
0.0428481578
 40
0.0874653981
 40
0.1352862996
 40
0.187237077
 40
0.2437290859
 40
0.3047358013
 40
0.4383717212
 40
0.5826807747
 40
0.729798307
 40
0.8713543401
 40
1.0
 40
1.0
 40
1.0
 40
1.0
 10
122.0618255073
 20
473.0631900093
 30
0.0
 10
122.0618256031
 20
472.65752881
 30
0.0
 10
122.1702834246
 20
471.8259307777
 30
0.0
 10
122.6472151276
 20
470.6251820798
 30
0.0
 10
123.4211121977
 20
469.4868808577
 30
0.0
 10
124.4700268827
 20
468.4335843138
 30
0.0
 10
125.7697947338
 20
467.4837346776
 30
0.0
 10
127.8636200574
 20
466.3454930788
 30
0.0
 10
130.931650888
 20
465.3207568048
 30
0.0
 10
134.9349776509
 20
464.7587139193
 30
0.0
 10
139.0527504454
 20
464.8724342543
 30
0.0
 10
142.9450261881
 20
465.6514147705
 30
0.0
 10
145.3333539321
 20
466.6367911977
 30
0.0
 10
146.3881238478
 20
467.2457592574
 30
0.0
  0
SPLINE
  5
300
100
AcDbEntity
  8
0
100
AcDbSpline
 62
7
  6
CONTINUOUS
 70
0
 71
3
 72
17
 73
13
 74
0
 42
0.0000001
 43
0.0000001
 44
0.0000000001
 40
0.0
 40
0.0
 40
0.0
 40
0.0
 40
0.042861445
 40
0.087492668
 40
0.1353287936
 40
0.1872963454
 40
0.3045687556
 40
0.4382481658
 40
0.5826031581
 40
0.7297648853
 40
0.8713436635
 40
1.0
 40
1.0
 40
1.0
 40
1.0
 10
123.9618110352
 20
473.5042441647
 30
0.0
 10
123.9618093536
 20
473.1526549411
 30
0.0
 10
124.0558150196
 20
472.4318968509
 30
0.0
 10
124.4692046631
 20
471.3912265844
 30
0.0
 10
125.139929991
 20
470.4045615768
 30
0.0
 10
126.4027337906
 20
469.1374025274
 30
0.0
 10
128.5543521741
 20
467.8277245896
 30
0.0
 10
131.6480588443
 20
466.7944915497
 30
0.0
 10
135.1197795646
 20
466.3068338305
 30
0.0
 10
138.6879511024
 20
466.405715956
 30
0.0
 10
142.0611089009
 20
467.0808648592
 30
0.0
 10
144.1306469136
 20
467.9347940618
 30
0.0
 10
145.04461537
 20
468.4624708464
 30
0.0
  0
SPLINE
  5
301
100
AcDbEntity
  8
0
100
AcDbSpline
 62
7
  6
CONTINUOUS
 70
0
 71
3
 72
11
 73
7
 74
0
 42
0.0000001
 43
0.0000001
 44
0.0000000001
 40
0.0
 40
0.0
 40
0.0
 40
0.0
 40
0.2177705522
 40
0.450950541
 40
0.7101897553
 40
1.0
 40
1.0
 40
1.0
 40
1.0
 10
148.6617968895
 20
473.4634190355
 30
0.0
 10
148.6618186469
 20
472.9930492716
 30
0.0
 10
148.4881923025
 20
472.0124379644
 30
0.0
 10
147.7446224363
 20
470.6467689941
 30
0.0
 10
146.5700457502
 20
469.411486847
 30
0.0
 10
145.5867226736
 20
468.7346296549
 30
0.0
 10
145.04461537
 20
468.4216457255
 30
0.0
  0
SPLINE
  5
302
100
AcDbEntity
  8
0
100
AcDbSpline
 62
7
  6
CONTINUOUS
 70
0
 71
3
 72
13
 73
9
 74
0
 42
0.0000001
 43
0.0000001
 44
0.0000000001
 40
0.0
 40
0.0
 40
0.0
 40
0.0
 40
0.1129199549
 40
0.2342528336
 40
0.4929971542
 40
0.7555189699
 40
0.8813140154
 40
1.0
 40
1.0
 40
1.0
 40
1.0
 10
144.7235127843
 20
468.7537994341
 30
0.0
 10
144.1932776077
 20
468.4476507376
 30
0.0
 10
143.0406929829
 20
467.9012932468
 30
0.0
 10
140.4900855841
 20
467.0825752055
 30
0.0
 10
137.0083594043
 20
466.6102284683
 30
0.0
 10
133.4807742258
 20
466.8476308153
 30
0.0
 10
130.8006848728
 20
467.4816353516
 30
0.0
 10
129.5527427429
 20
467.9421775861
 30
0.0
 10
128.966586465
 20
468.2078075147
 30
0.0
  0
SPLINE
  5
303
100
AcDbEntity
  8
0
100
AcDbSpline
 62
7
  6
CONTINUOUS
 70
0
 71
3
 72
17
 73
13
 74
0
 42
0.0000001
 43
0.0000001
 44
0.0000000001
 40
0.0
 40
0.0
 40
0.0
 40
0.0
 40
0.1512593604
 40
0.2864948912
 40
0.4065994415
 40
0.4623760763
 40
0.5163112347
 40
0.5694673589
 40
0.6229872581
 40
0.735023671
 40
0.8596256072
 40
1.0
 40
1.0
 40
1.0
 40
1.0
 10
128.966586465
 20
468.2078075147
 30
0.0
 10
128.3480196693
 20
468.4881249999
 30
0.0
 10
127.2130843598
 20
469.1098876904
 30
0.0
 10
125.8011357488
 20
470.2876634875
 30
0.0
 10
124.9699414058
 20
471.4363913145
 30
0.0
 10
124.5809118658
 20
472.3968451759
 30
0.0
 10
124.4248980149
 20
473.1151660904
 30
0.0
 10
124.400747389
 20
473.8399015795
 30
0.0
 10
124.5461669511
 20
474.8160244537
 30
0.0
 10
125.0842907853
 20
476.0307237077
 30
0.0
 10
126.2034744728
 20
477.3242841672
 30
0.0
 10
127.1730953969
 20
478.0299525008
 30
0.0
 10
127.7125606754
 20
478.3558205044
 30
0.0
  0
SPLINE
  5
304
100
AcDbEntity
  8
0
100
AcDbSpline
 62
7
  6
CONTINUOUS
 70
0
 71
3
 72
21
 73
17
 74
0
 42
0.0000001
 43
0.0000001
 44
0.0000000001
 40
0.0
 40
0.0
 40
0.0
 40
0.0
 40
0.0604103608
 40
0.1144524967
 40
0.1630598398
 40
0.2084556409
 40
0.2538515713
 40
0.3024592918
 40
0.3565017425
 40
0.4169125868
 40
0.4835338414
 40
0.5554176038
 40
0.7084564545
 40
0.8614949619
 40
0.9333788027
 40
1.0
 40
1.0
 40
1.0
 40
1.0
 10
142.8172197358
 20
470.1566804317
 30
0.0
 10
143.221044085
 20
470.3898271367
 30
0.0
 10
143.9535560745
 20
470.8941254078
 30
0.0
 10
144.8285800018
 20
471.8140278119
 30
0.0
 10
145.3824801772
 20
472.8323029134
 30
0.0
 10
145.5742668769
 20
473.9125168054
 30
0.0
 10
145.3824508223
 20
474.9927408102
 30
0.0
 10
144.8285990295
 20
476.0109791572
 30
0.0
 10
143.9532795688
 20
476.9310324738
 30
0.0
 10
142.7955844736
 20
477.7281805431
 30
0.0
 10
141.3982343641
 20
478.3788633124
 30
0.0
 10
139.2393128359
 20
479.0345756706
 30
0.0
 10
136.3118373713
 20
479.3529915077
 30
0.0
 10
133.3840360183
 20
479.0344596203
 30
0.0
 10
131.2256094869
 20
478.3790020841
 30
0.0
 10
130.2517426403
 20
477.9254270155
 30
0.0
 10
129.8064007931
 20
477.6683103148
 30
0.0
  0
SPLINE
  5
305
100
AcDbEntity
  8
0
100
AcDbSpline
 62
7
  6
CONTINUOUS
 70
0
 71
3
 72
21
 73
17
 74
0
 42
0.0000001
 43
0.0000001
 44
0.0000000001
 40
0.0
 40
0.0
 40
0.0
 40
0.0
 40
0.0604103608
 40
0.1144524967
 40
0.1630598398
 40
0.2084556409
 40
0.2538515713
 40
0.3024592918
 40
0.3565017425
 40
0.4169125868
 40
0.4835338414
 40
0.5554176038
 40
0.7084564545
 40
0.8614949619
 40
0.9333788027
 40
1.0
 40
1.0
 40
1.0
 40
1.0
 10
129.8064007931
 20
477.6683103148
 30
0.0
 10
129.4025764439
 20
477.4351636098
 30
0.0
 10
128.6700644544
 20
476.9308653387
 30
0.0
 10
127.7950405271
 20
476.0109629346
 30
0.0
 10
127.2411403517
 20
474.9926878331
 30
0.0
 10
127.049353652
 20
473.9124739411
 30
0.0
 10
127.2411697066
 20
472.8322499363
 30
0.0
 10
127.7950214994
 20
471.8140115893
 30
0.0
 10
128.6703409601
 20
470.8939582727
 30
0.0
 10
129.8280360553
 20
470.0968102034
 30
0.0
 10
131.2253861648
 20
469.4461274341
 30
0.0
 10
133.384307693
 20
468.7904150759
 30
0.0
 10
136.3117831576
 20
468.4719992389
 30
0.0
 10
139.2395845106
 20
468.7905311262
 30
0.0
 10
141.3980110419
 20
469.4459886624
 30
0.0
 10
142.3718778885
 20
469.899563731
 30
0.0
 10
142.8172197358
 20
470.1566804317
 30
0.0
  0
SPLINE
  5
306
100
AcDbEntity
  8
0
100
AcDbSpline
 62
7
  6
CONTINUOUS
 70
0
 71
3
 72
11
 73
7
 74
0
 42
0.0000001
 43
0.0000001
 44
0.0000000001
 40
0.0
 40
0.0
 40
0.0
 40
0.0
 40
0.2897809977
 40
0.5490200673
 40
0.7822030282
 40
1.0
 40
1.0
 40
1.0
 40
1.0
 10
145.04461537
 20
468.4624708464
 30
0.0
 10
145.586668573
 20
468.7754235409
 30
0.0
 10
146.5699333643
 20
469.4522465514
 30
0.0
 10
147.7445372338
 20
470.6874257783
 30
0.0
 10
148.4881620922
 20
472.0531453694
 30
0.0
 10
148.661809274
 20
473.0338168082
 30
0.0
 10
148.6618091624
 20
473.5042441647
 30
0.0
  0
SPLINE
  5
307
100
AcDbEntity
  8
0
100
AcDbSpline
 62
7
  6
CONTINUOUS
 70
0
 71
3
 72
23
 73
19
 74
0
 42
0.0000001
 43
0.0000001
 44
0.0000000001
 40
0.0
 40
0.0
 40
0.0
 40
0.0
 40
0.0665886714
 40
0.1384326503
 40
0.2140578972
 40
0.2916519266
 40
0.3692459515
 40
0.4448712949
 40
0.5167173575
 40
0.5833037828
 40
0.6436835861
 40
0.6976981415
 40
0.7462804527
 40
0.7916525745
 40
0.8370245551
 40
0.8856071172
 40
0.9396190512
 40
1.0
 40
1.0
 40
1.0
 40
1.0
 10
127.9001077446
 20
478.46657713
 30
0.0
 10
128.4759671408
 20
478.7990477228
 30
0.0
 10
129.7351441984
 20
479.3854087433
 30
0.0
 10
131.7856574859
 20
480.0086142123
 30
0.0
 10
134.0056366711
 20
480.392269512
 30
0.0
 10
136.3117414537
 20
480.5217001091
 30
0.0
 10
138.6178953042
 20
480.3922486169
 30
0.0
 10
140.8377594276
 20
480.0087217867
 30
0.0
 10
142.888765081
 20
479.3852253994
 30
0.0
 10
144.6955021604
 20
478.5440255459
 30
0.0
 10
146.1924651126
 20
477.5132576746
 30
0.0
 10
147.3242801657
 20
476.3236025733
 30
0.0
 10
148.0404162703
 20
475.0069818848
 30
0.0
 10
148.2884520592
 20
473.6102298661
 30
0.0
 10
148.0404856893
 20
472.2134703462
 30
0.0
 10
147.3242508809
 20
470.896842252
 30
0.0
 10
146.1928532092
 20
469.7073494317
 30
0.0
 10
145.2456958852
 20
469.0552613829
 30
0.0
 10
144.7235127843
 20
468.7537994341
 30
0.0
  0
SPLINE
  5
308
100
AcDbEntity
  8
0
100
AcDbSpline
 62
7
  6
CONTINUOUS
 70
0
 71
3
 72
17
 73
13
 74
0
 42
0.0000001
 43
0.0000001
 44
0.0000000001
 40
0.0
 40
0.0
 40
0.0
 40
0.0
 40
0.128680444
 40
0.2702734524
 40
0.4174302495
 40
0.5617773798
 40
0.6954484859
 40
0.8127135545
 40
0.8646780272
 40
0.9125115307
 40
0.9571405353
 40
1.0
 40
1.0
 40
1.0
 40
1.0
 10
145.04461537
 20
468.4216457255
 30
0.0
 10
144.1304762755
 20
467.8938704236
 30
0.0
 10
142.060619573
 20
467.0398659924
 30
0.0
 10
138.6871656183
 20
466.3648012013
 30
0.0
 10
135.1189821197
 20
466.2660644927
 30
0.0
 10
131.6474543822
 20
466.7538218232
 30
0.0
 10
128.5539677901
 20
467.7870941421
 30
0.0
 10
126.402526118
 20
469.0967571488
 30
0.0
 10
125.1398336261
 20
470.3638744415
 30
0.0
 10
124.4691723918
 20
471.350500234
 30
0.0
 10
124.0558108498
 20
472.3911236718
 30
0.0
 10
123.9618399017
 20
473.1118463116
 30
0.0
 10
123.9618236394
 20
473.4634190522
 30
0.0
  0
SPLINE
  5
309
100
AcDbEntity
  8
0
100
AcDbSpline
 62
7
  6
CONTINUOUS
 70
0
 71
3
 72
23
 73
19
 74
0
 42
0.0000001
 43
0.0000001
 44
0.0000000001
 40
0.0
 40
0.0
 40
0.0
 40
0.0
 40
0.0603807593
 40
0.114392887
 40
0.1629750197
 40
0.208347109
 40
0.253719209
 40
0.3023014435
 40
0.3563156421
 40
0.4166948548
 40
0.4832817219
 40
0.5551281532
 40
0.6307534117
 40
0.708347148
 40
0.7859409876
 40
0.8615664137
 40
0.9334112328
 40
1.0
 40
1.0
 40
1.0
 40
1.0
 10
145.3981702326
 20
468.2175253482
 30
0.0
 10
145.9622242977
 20
468.5431801707
 30
0.0
 10
146.9853582407
 20
469.2475483048
 30
0.0
 10
148.2075067612
 20
470.5324354573
 30
0.0
 10
148.98117586
 20
471.9546690491
 30
0.0
 10
149.2490250209
 20
473.4634473122
 30
0.0
 10
148.9811356033
 20
474.9722347064
 30
0.0
 10
148.2075327489
 20
476.3944378461
 30
0.0
 10
146.9849562385
 20
477.6794999324
 30
0.0
 10
145.3679541341
 20
478.7929698431
 30
0.0
 10
143.4162925992
 20
479.7016136045
 30
0.0
 10
141.2007844666
 20
480.3751282697
 30
0.0
 10
138.8028793956
 20
480.7894380794
 30
0.0
 10
136.3117658621
 20
480.929254205
 30
0.0
 10
133.8207048255
 20
480.7894513416
 30
0.0
 10
131.4226600193
 20
480.3750418075
 30
0.0
 10
129.2076772338
 20
479.7018388894
 30
0.0
 10
127.8474972069
 20
479.0684495469
 30
0.0
 10
127.2254502963
 20
478.7093127394
 30
0.0
  0
SPLINE
  5
30A
100
AcDbEntity
  8
0
100
AcDbSpline
 62
7
  6
CONTINUOUS
 70
0
 71
3
 72
17
 73
13
 74
0
 42
0.0000001
 43
0.0000001
 44
0.0000000001
 40
0.0
 40
0.0
 40
0.0
 40
0.0
 40
0.1410207677
 40
0.2658548751
 40
0.3775993265
 40
0.4308318661
 40
0.4836616565
 40
0.5372866486
 40
0.5928183322
 40
0.7127338294
 40
0.8482210386
 40
1.0
 40
1.0
 40
1.0
 40
1.0
 10
127.2254502963
 20
478.7093127394
 30
0.0
 10
126.6134107689
 20
478.3559536628
 30
0.0
 10
125.5122681546
 20
477.5869436625
 30
0.0
 10
124.2345849574
 20
476.1637646605
 30
0.0
 10
123.6151000149
 20
474.8170833124
 30
0.0
 10
123.4454291023
 20
473.7329515426
 30
0.0
 10
123.4702293038
 20
472.9283475529
 30
0.0
 10
123.645486862
 20
472.1311098162
 30
0.0
 10
124.0857857264
 20
471.0653086971
 30
0.0
 10
125.0290659141
 20
469.7945583332
 30
0.0
 10
126.627606945
 20
468.5023601804
 30
0.0
 10
127.9094207121
 20
467.827807301
 30
0.0
 10
128.6075575843
 20
467.5258610381
 30
0.0
  0
SPLINE
  5
30B
100
AcDbEntity
  8
0
100
AcDbSpline
 62
7
  6
CONTINUOUS
 70
0
 71
3
 72
9
 73
5
 74
0
 42
0.0000001
 43
0.0000001
 44
0.0000000001
 40
0.0
 40
0.0
 40
0.0
 40
0.0
 40
0.2395882674
 40
1.0
 40
1.0
 40
1.0
 40
1.0
 10
128.6604870492
 20
467.5030913771
 30
0.0
 10
128.9686625494
 20
467.3712281069
 30
0.0
 10
130.2734475797
 20
466.8644774052
 30
0.0
 10
131.6402413029
 20
466.5234518534
 30
0.0
 10
132.689126566
 20
466.3455118592
 30
0.0
  0
SPLINE
  5
30C
100
AcDbEntity
  8
0
100
AcDbSpline
 62
7
  6
CONTINUOUS
 70
0
 71
3
 72
9
 73
5
 74
0
 42
0.0000001
 43
0.0000001
 44
0.0000000001
 40
0.0
 40
0.0
 40
0.0
 40
0.0
 40
0.4999936226
 40
1.0
 40
1.0
 40
1.0
 40
1.0
 10
132.689126566
 20
466.3455118592
 30
0.0
 10
133.883209388
 20
466.1429395685
 30
0.0
 10
136.310098789
 20
465.9464167987
 30
0.0
 10
138.7370163384
 20
466.142565077
 30
0.0
 10
139.931163377
 20
466.3449434578
 30
0.0
  0
SPLINE
  5
30D
100
AcDbEntity
  8
0
100
AcDbSpline
 62
7
  6
CONTINUOUS
 70
0
 71
3
 72
9
 73
5
 74
0
 42
0.0000001
 43
0.0000001
 44
0.0000000001
 40
0.0
 40
0.0
 40
0.0
 40
0.0
 40
0.5220592598
 40
1.0
 40
1.0
 40
1.0
 40
1.0
 10
139.931163377
 20
466.3449434578
 30
0.0
 10
140.9264721861
 20
466.5136236779
 30
0.0
 10
142.8127219214
 20
466.9763067512
 30
0.0
 10
144.5977973584
 20
467.7554326122
 30
0.0
 10
145.3981702326
 20
468.2175253482
 30
0.0
  0
SPLINE
  5
30E
100
AcDbEntity
  8
0
100
AcDbSpline
 62
7
  6
CONTINUOUS
 70
0
 71
3
 72
12
 73
8
 74
0
 42
0.0000001
 43
0.0000001
 44
0.0000000001
 40
0.0
 40
0.0
 40
0.0
 40
0.0
 40
0.2906710443
 40
0.5493091434
 40
0.7813087059
 40
0.8913858811
 40
1.0
 40
1.0
 40
1.0
 40
1.0
 10
146.3385217415
 20
467.3523235836
 30
0.0
 10
146.9880360203
 20
467.7273185888
 30
0.0
 10
148.1612619682
 20
468.5411513192
 30
0.0
 10
149.5424422511
 20
470.0357079059
 30
0.0
 10
150.2485667754
 20
471.4473705514
 30
0.0
 10
150.484966986
 20
472.5913512326
 30
0.0
 10
150.4999107236
 20
473.159013648
 30
0.0
 10
150.4822919418
 20
473.4387068871
 30
0.0
  0
SPLINE
  5
30F
100
AcDbEntity
  8
0
100
AcDbSpline
 62
7
  6
CONTINUOUS
 70
0
 71
3
 72
20
 73
16
 74
0
 42
0.0000001
 43
0.0000001
 44
0.0000000001
 40
0.0
 40
0.0
 40
0.0
 40
0.0
 40
0.0428858089
 40
0.0878601456
 40
0.1362006143
 40
0.1886926687
 40
0.2456462412
 40
0.3069737639
 40
0.4407522823
 40
0.5845870404
 40
0.7308727408
 40
0.8024721559
 40
0.8717207286
 40
0.9377182035
 40
1.0
 40
1.0
 40
1.0
 40
1.0
 10
150.4822919418
 20
473.4387068871
 30
0.0
 10
150.4572058396
 20
473.8369417513
 30
0.0
 10
150.3005890641
 20
474.6492820013
 30
0.0
 10
149.769355595
 20
475.8108653311
 30
0.0
 10
148.9572208073
 20
476.9081325632
 30
0.0
 10
147.8851566606
 20
477.920399734
 30
0.0
 10
146.5764111152
 20
478.8303782796
 30
0.0
 10
144.4915241015
 20
479.9154398929
 30
0.0
 10
141.4661277111
 20
480.8864461138
 30
0.0
 10
137.5396969786
 20
481.4081058715
 30
0.0
 10
134.1584410052
 20
481.3006563716
 30
0.0
 10
131.5181259868
 20
480.8756431651
 30
0.0
 10
129.6498397804
 20
480.4007836901
 30
0.0
 10
127.9201162555
 20
479.7715130521
 30
0.0
 10
126.8434902785
 20
479.2489627498
 30
0.0
 10
126.3402727556
 20
478.9615918048
 30
0.0
  0
SPLINE
  5
310
100
AcDbEntity
  8
0
100
AcDbSpline
 62
7
  6
CONTINUOUS
 70
0
 71
3
 72
12
 73
8
 74
0
 42
0.0000001
 43
0.0000001
 44
0.0000000001
 40
0.0
 40
0.0
 40
0.0
 40
0.0
 40
0.2895886829
 40
0.5486331543
 40
0.7816363674
 40
0.8918378843
 40
1.0
 40
1.0
 40
1.0
 40
1.0
 10
146.3881238478
 20
467.2457592574
 30
0.0
 10
147.0136279776
 20
467.6068920794
 30
0.0
 10
148.1481971003
 20
468.3882826869
 30
0.0
 10
149.5036114848
 20
469.8120094632
 30
0.0
 10
150.2314158976
 20
471.1535361251
 30
0.0
 10
150.5148876336
 20
472.2476667722
 30
0.0
 10
150.5617950852
 20
472.7934207311
 30
0.0
 10
150.5617950216
 20
473.0631900093
 30
0.0
  0
SPLINE
  5
311
100
AcDbEntity
  8
0
100
AcDbSpline
 62
7
  6
CONTINUOUS
 70
0
 71
3
 72
19
 73
15
 74
0
 42
0.0000001
 43
0.0000001
 44
0.0000000001
 40
0.0
 40
0.0
 40
0.0
 40
0.0
 40
0.1312079803
 40
0.2758750414
 40
0.4255314748
 40
0.5706928595
 40
0.6389182278
 40
0.7030066437
 40
0.7623887276
 40
0.8168600523
 40
0.8666958382
 40
0.9127612789
 40
0.9565453217
 40
1.0
 40
1.0
 40
1.0
 40
1.0
 10
146.3385217415
 20
467.3523235836
 30
0.0
 10
145.227414543
 20
466.7108293726
 30
0.0
 10
142.6988852394
 20
465.6892709735
 30
0.0
 10
138.5856013215
 20
464.9317268262
 30
0.0
 10
134.2665269543
 20
464.9114430331
 30
0.0
 10
130.7459378839
 20
465.5244625016
 30
0.0
 10
128.1720676822
 20
466.3977187576
 30
0.0
 10
126.4729755412
 20
467.2004880388
 30
0.0
 10
125.0055063384
 20
468.1461137533
 30
0.0
 10
123.8038730634
 20
469.2149292653
 30
0.0
 10
122.897806929
 20
470.3856644972
 30
0.0
 10
122.3143032667
 20
471.6352973052
 30
0.0
 10
122.077375683
 20
472.9323480862
 30
0.0
 10
122.1585863553
 20
473.7938250047
 30
0.0
 10
122.2529300857
 20
474.2081329935
 30
0.0
  0
SPLINE
  5
312
100
AcDbEntity
  8
0
100
AcDbSpline
 62
7
  6
CONTINUOUS
 70
0
 71
3
 72
9
 73
5
 74
0
 42
0.0000001
 43
0.0000001
 44
0.0000000001
 40
0.0
 40
0.0
 40
0.0
 40
0.0
 40
0.2464781239
 40
1.0
 40
1.0
 40
1.0
 40
1.0
 10
122.2529300857
 20
474.2081329935
 30
0.0
 10
122.2712864844
 20
474.288744631
 30
0.0
 10
122.3538904718
 20
474.613913757
 30
0.0
 10
122.4687383745
 20
474.9307319662
 30
0.0
 10
122.570773284
 20
475.1619719883
 30
0.0
  0
SPLINE
  5
313
100
AcDbEntity
  8
0
100
AcDbSpline
 62
7
  6
CONTINUOUS
 70
0
 71
3
 72
9
 73
5
 74
0
 42
0.0000001
 43
0.0000001
 44
0.0000000001
 40
0.0
 40
0.0
 40
0.0
 40
0.0
 40
0.2389185096
 40
1.0
 40
1.0
 40
1.0
 40
1.0
 10
122.570773284
 20
475.1619719883
 30
0.0
 10
122.6415778937
 20
475.3224353002
 30
0.0
 10
122.969295779
 20
475.9801722564
 30
0.0
 10
123.4150581035
 20
476.5757453727
 30
0.0
 10
123.7936800576
 20
476.9866018973
 30
0.0
  0
SPLINE
  5
314
100
AcDbEntity
  8
0
100
AcDbSpline
 62
7
  6
CONTINUOUS
 70
0
 71
3
 72
9
 73
5
 74
0
 42
0.0000001
 43
0.0000001
 44
0.0000000001
 40
0.0
 40
0.0
 40
0.0
 40
0.0
 40
0.2393055601
 40
1.0
 40
1.0
 40
1.0
 40
1.0
 10
123.7936800576
 20
476.9866018973
 30
0.0
 10
123.9086326555
 20
477.1113411639
 30
0.0
 10
124.4052035291
 20
477.6176010713
 30
0.0
 10
124.9611159753
 20
478.0641130794
 30
0.0
 10
125.4038788734
 20
478.3718593927
 30
0.0
  0
SPLINE
  5
315
100
AcDbEntity
  8
0
100
AcDbSpline
 62
7
  6
CONTINUOUS
 70
0
 71
3
 72
17
 73
13
 74
0
 42
0.0000001
 43
0.0000001
 44
0.0000000001
 40
0.0
 40
0.0
 40
0.0
 40
0.0
 40
0.0428596337
 40
0.0874888005
 40
0.1353225004
 40
0.1872872
 40
0.3045527712
 40
0.4382245045
 40
0.5825721442
 40
0.7297288633
 40
0.8713223023
 40
1.0
 40
1.0
 40
1.0
 40
1.0
 10
169.8751009168
 20
461.2570215291
 30
0.0
 10
169.8751008334
 20
461.6085958837
 30
0.0
 10
169.7811063263
 20
462.3293218896
 30
0.0
 10
169.3677512444
 20
463.3699495369
 30
0.0
 10
168.6970824514
 20
464.3565789525
 30
0.0
 10
167.4343821548
 20
465.6236998494
 30
0.0
 10
165.282925744
 20
466.933364575
 30
0.0
 10
162.1894218805
 20
467.9666340227
 30
0.0
 10
158.7178817591
 20
468.4543833082
 30
0.0
 10
155.1496891647
 20
468.3556357029
 30
0.0
 10
151.776254572
 20
467.680561302
 30
0.0
 10
149.7064170903
 20
466.8265592273
 30
0.0
 10
148.7922969133
 20
466.2987948474
 30
0.0
  0
SPLINE
  5
316
100
AcDbEntity
  8
0
100
AcDbSpline
 62
7
  6
CONTINUOUS
 70
0
 71
3
 72
18
 73
14
 74
0
 42
0.0000001
 43
0.0000001
 44
0.0000000001
 40
0.0
 40
0.0
 40
0.0
 40
0.0
 40
0.0433244208
 40
0.0883431824
 40
0.1364428286
 40
0.1885485427
 40
0.245087772
 40
0.3060587701
 40
0.4394624974
 40
0.5834343418
 40
0.7302012928
 40
0.8714713421
 40
1.0
 40
1.0
 40
1.0
 40
1.0
 10
171.7751020189
 20
460.8159673737
 30
0.0
 10
171.7751020189
 20
461.2262783309
 30
0.0
 10
171.665803005
 20
462.0664999704
 30
0.0
 10
171.18577561
 20
463.2783476338
 30
0.0
 10
170.408377434
 20
464.4244640072
 30
0.0
 10
169.3570373686
 20
465.4825279723
 30
0.0
 10
168.056455235
 20
466.4348990253
 30
0.0
 10
165.9646975694
 20
467.5742894808
 30
0.0
 10
162.9017173775
 20
468.599599835
 30
0.0
 10
158.9058652397
 20
469.1622563694
 30
0.0
 10
154.7958882226
 20
469.0497173955
 30
0.0
 10
150.9091912833
 20
468.2722475021
 30
0.0
 10
148.5236719361
 20
467.2877997504
 30
0.0
 10
147.4694996319
 20
466.6791767197
 30
0.0
  0
SPLINE
  5
317
100
AcDbEntity
  8
0
100
AcDbSpline
 62
7
  6
CONTINUOUS
 70
0
 71
3
 72
11
 73
7
 74
0
 42
0.0000001
 43
0.0000001
 44
0.0000000001
 40
0.0
 40
0.0
 40
0.0
 40
0.0
 40
0.2885462405
 40
0.5473584031
 40
0.7810413815
 40
1.0
 40
1.0
 40
1.0
 40
1.0
 10
147.4694996319
 20
466.6791767197
 30
0.0
 10
146.8423941817
 20
466.3171193805
 30
0.0
 10
145.7035498853
 20
465.532909444
 30
0.0
 10
144.3416039158
 20
464.0991745248
 30
0.0
 10
143.4771491015
 20
462.5090902075
 30
0.0
 10
143.2751020189
 20
461.3654524725
 30
0.0
 10
143.2751020189
 20
460.8159673737
 30
0.0
  0
SPLINE
  5
318
100
AcDbEntity
  8
0
100
AcDbSpline
 62
7
  6
CONTINUOUS
 70
0
 71
3
 72
11
 73
7
 74
0
 42
0.0000001
 43
0.0000001
 44
0.0000000001
 40
0.0
 40
0.0
 40
0.0
 40
0.0
 40
0.2897943377
 40
0.549045495
 40
0.7822266761
 40
1.0
 40
1.0
 40
1.0
 40
1.0
 10
148.7922969133
 20
466.2987948474
 30
0.0
 10
148.2502187164
 20
465.9858277226
 30
0.0
 10
147.2669100026
 20
465.3089691903
 30
0.0
 10
146.0922904679
 20
464.0737310462
 30
0.0
 10
145.3487183011
 20
462.7080130962
 30
0.0
 10
145.1751050394
 20
461.7273978428
 30
0.0
 10
145.1751027896
 20
461.2570215291
 30
0.0
  0
SPLINE
  5
319
100
AcDbEntity
  8
0
100
AcDbSpline
 62
7
  6
CONTINUOUS
 70
0
 71
3
 72
17
 73
13
 74
0
 42
0.0000001
 43
0.0000001
 44
0.0000000001
 40
0.0
 40
0.0
 40
0.0
 40
0.0
 40
0.1406504166
 40
0.2876881119
 40
0.4345874784
 40
0.5748426694
 40
0.7029229104
 40
0.815385057
 40
0.8657734609
 40
0.9127155798
 40
0.9570606135
 40
1.0
 40
1.0
 40
1.0
 40
1.0
 10
164.5606899182
 20
447.9379719538
 30
0.0
 10
163.4432695185
 20
447.5716945002
 30
0.0
 10
161.0857637185
 20
447.0321779848
 30
0.0
 10
157.4489394672
 20
446.7744467768
 30
0.0
 10
153.8158914678
 20
447.0545376152
 30
0.0
 10
150.4215521634
 20
447.8557540055
 30
0.0
 10
147.4828947991
 20
449.1266216378
 30
0.0
 10
145.4902791532
 20
450.5754554179
 30
0.0
 10
144.3404290734
 20
451.9097126519
 30
0.0
 10
143.7317919176
 20
452.9341512487
 30
0.0
 10
143.3592959155
 20
454.0011758277
 30
0.0
 10
143.2751286757
 20
454.7334298662
 30
0.0
 10
143.2751224088
 20
455.0924282871
 30
0.0
  0
SPLINE
  5
31A
100
AcDbEntity
  8
0
100
AcDbSpline
 62
7
  6
CONTINUOUS
 70
0
 71
3
 72
18
 73
14
 74
0
 42
0.0000001
 43
0.0000001
 44
0.0000000001
 40
0.0
 40
0.0
 40
0.0
 40
0.0
 40
0.0428481578
 40
0.0874653981
 40
0.1352862996
 40
0.187237077
 40
0.2437290859
 40
0.3047358013
 40
0.4383717212
 40
0.5826807747
 40
0.729798307
 40
0.8713543401
 40
1.0
 40
1.0
 40
1.0
 40
1.0
 10
143.2751172617
 20
460.8159673737
 30
0.0
 10
143.2751173575
 20
460.4103061744
 30
0.0
 10
143.383575179
 20
459.5787081421
 30
0.0
 10
143.860506882
 20
458.3779594442
 30
0.0
 10
144.6344039522
 20
457.2396582221
 30
0.0
 10
145.6833186371
 20
456.1863616782
 30
0.0
 10
146.9830864882
 20
455.236512042
 30
0.0
 10
149.0769118118
 20
454.0982704432
 30
0.0
 10
152.1449426424
 20
453.0735341692
 30
0.0
 10
156.1482694054
 20
452.5114912837
 30
0.0
 10
160.2660421998
 20
452.6252116186
 30
0.0
 10
164.1583179425
 20
453.4041921349
 30
0.0
 10
166.5466456866
 20
454.3895685621
 30
0.0
 10
167.6014156022
 20
454.9985366217
 30
0.0
  0
SPLINE
  5
31B
100
AcDbEntity
  8
0
100
AcDbSpline
 62
7
  6
CONTINUOUS
 70
0
 71
3
 72
17
 73
13
 74
0
 42
0.0000001
 43
0.0000001
 44
0.0000000001
 40
0.0
 40
0.0
 40
0.0
 40
0.0
 40
0.042861445
 40
0.087492668
 40
0.1353287936
 40
0.1872963454
 40
0.3045687556
 40
0.4382481658
 40
0.5826031581
 40
0.7297648853
 40
0.8713436635
 40
1.0
 40
1.0
 40
1.0
 40
1.0
 10
145.1751027896
 20
461.2570215291
 30
0.0
 10
145.175101108
 20
460.9054323054
 30
0.0
 10
145.269106774
 20
460.1846742153
 30
0.0
 10
145.6824964175
 20
459.1440039488
 30
0.0
 10
146.3532217454
 20
458.1573389412
 30
0.0
 10
147.616025545
 20
456.8901798918
 30
0.0
 10
149.7676439285
 20
455.580501954
 30
0.0
 10
152.8613505987
 20
454.5472689141
 30
0.0
 10
156.333071319
 20
454.0596111949
 30
0.0
 10
159.9012428568
 20
454.1584933204
 30
0.0
 10
163.2744006553
 20
454.8336422236
 30
0.0
 10
165.343938668
 20
455.6875714262
 30
0.0
 10
166.2579071244
 20
456.2152482108
 30
0.0
  0
SPLINE
  5
31C
100
AcDbEntity
  8
0
100
AcDbSpline
 62
7
  6
CONTINUOUS
 70
0
 71
3
 72
11
 73
7
 74
0
 42
0.0000001
 43
0.0000001
 44
0.0000000001
 40
0.0
 40
0.0
 40
0.0
 40
0.0
 40
0.2177705522
 40
0.450950541
 40
0.7101897553
 40
1.0
 40
1.0
 40
1.0
 40
1.0
 10
169.8750886439
 20
461.2161963999
 30
0.0
 10
169.8751104013
 20
460.745826636
 30
0.0
 10
169.7014840569
 20
459.7652153288
 30
0.0
 10
168.9579141907
 20
458.3995463585
 30
0.0
 10
167.7833375047
 20
457.1642642114
 30
0.0
 10
166.800014428
 20
456.4874070193
 30
0.0
 10
166.2579071244
 20
456.1744230899
 30
0.0
  0
SPLINE
  5
31D
100
AcDbEntity
  8
0
100
AcDbSpline
 62
7
  6
CONTINUOUS
 70
0
 71
3
 72
13
 73
9
 74
0
 42
0.0000001
 43
0.0000001
 44
0.0000000001
 40
0.0
 40
0.0
 40
0.0
 40
0.0
 40
0.1129199549
 40
0.2342528336
 40
0.4929971542
 40
0.7555189699
 40
0.8813140154
 40
1.0
 40
1.0
 40
1.0
 40
1.0
 10
165.9368045387
 20
456.5065767984
 30
0.0
 10
165.4065693621
 20
456.200428102
 30
0.0
 10
164.2539847373
 20
455.6540706112
 30
0.0
 10
161.7033773385
 20
454.8353525699
 30
0.0
 10
158.2216511587
 20
454.3630058326
 30
0.0
 10
154.6940659802
 20
454.6004081797
 30
0.0
 10
152.0139766272
 20
455.234412716
 30
0.0
 10
150.7660344973
 20
455.6949549505
 30
0.0
 10
150.1798782195
 20
455.9605848791
 30
0.0
  0
SPLINE
  5
31E
100
AcDbEntity
  8
0
100
AcDbSpline
 62
7
  6
CONTINUOUS
 70
0
 71
3
 72
17
 73
13
 74
0
 42
0.0000001
 43
0.0000001
 44
0.0000000001
 40
0.0
 40
0.0
 40
0.0
 40
0.0
 40
0.1512593604
 40
0.2864948912
 40
0.4065994415
 40
0.4623760763
 40
0.5163112347
 40
0.5694673589
 40
0.6229872581
 40
0.735023671
 40
0.8596256072
 40
1.0
 40
1.0
 40
1.0
 40
1.0
 10
150.1798782195
 20
455.9605848791
 30
0.0
 10
149.5613114237
 20
456.2409023643
 30
0.0
 10
148.4263761142
 20
456.8626650548
 30
0.0
 10
147.0144275032
 20
458.0404408519
 30
0.0
 10
146.1832331602
 20
459.1891686789
 30
0.0
 10
145.7942036203
 20
460.1496225403
 30
0.0
 10
145.6381897693
 20
460.8679434548
 30
0.0
 10
145.6140391434
 20
461.5926789439
 30
0.0
 10
145.7594587055
 20
462.568801818
 30
0.0
 10
146.2975825397
 20
463.7835010721
 30
0.0
 10
147.4167662272
 20
465.0770615316
 30
0.0
 10
148.3863871513
 20
465.7827298652
 30
0.0
 10
148.9258524298
 20
466.1085978688
 30
0.0
  0
SPLINE
  5
31F
100
AcDbEntity
  8
0
100
AcDbSpline
 62
7
  6
CONTINUOUS
 70
0
 71
3
 72
21
 73
17
 74
0
 42
0.0000001
 43
0.0000001
 44
0.0000000001
 40
0.0
 40
0.0
 40
0.0
 40
0.0
 40
0.0604103608
 40
0.1144524967
 40
0.1630598398
 40
0.2084556409
 40
0.2538515713
 40
0.3024592918
 40
0.3565017425
 40
0.4169125868
 40
0.4835338414
 40
0.5554176038
 40
0.7084564545
 40
0.8614949619
 40
0.9333788027
 40
1.0
 40
1.0
 40
1.0
 40
1.0
 10
164.0305114902
 20
457.9094577961
 30
0.0
 10
164.4343358394
 20
458.1426045011
 30
0.0
 10
165.1668478289
 20
458.6469027722
 30
0.0
 10
166.0418717562
 20
459.5668051763
 30
0.0
 10
166.5957719316
 20
460.5850802778
 30
0.0
 10
166.7875586313
 20
461.6652941698
 30
0.0
 10
166.5957425767
 20
462.7455181745
 30
0.0
 10
166.0418907839
 20
463.7637565216
 30
0.0
 10
165.1665713232
 20
464.6838098382
 30
0.0
 10
164.008876228
 20
465.4809579075
 30
0.0
 10
162.6115261185
 20
466.1316406768
 30
0.0
 10
160.4526045903
 20
466.787353035
 30
0.0
 10
157.5251291257
 20
467.105768872
 30
0.0
 10
154.5973277727
 20
466.7872369847
 30
0.0
 10
152.4389012414
 20
466.1317794485
 30
0.0
 10
151.4650343948
 20
465.6782043798
 30
0.0
 10
151.0196925475
 20
465.4210876792
 30
0.0
  0
SPLINE
  5
320
100
AcDbEntity
  8
0
100
AcDbSpline
 62
7
  6
CONTINUOUS
 70
0
 71
3
 72
21
 73
17
 74
0
 42
0.0000001
 43
0.0000001
 44
0.0000000001
 40
0.0
 40
0.0
 40
0.0
 40
0.0
 40
0.0604103608
 40
0.1144524967
 40
0.1630598398
 40
0.2084556409
 40
0.2538515713
 40
0.3024592918
 40
0.3565017425
 40
0.4169125868
 40
0.4835338414
 40
0.5554176038
 40
0.7084564545
 40
0.8614949619
 40
0.9333788027
 40
1.0
 40
1.0
 40
1.0
 40
1.0
 10
151.0196925475
 20
465.4210876792
 30
0.0
 10
150.6158681983
 20
465.1879409742
 30
0.0
 10
149.8833562088
 20
464.6836427031
 30
0.0
 10
149.0083322815
 20
463.763740299
 30
0.0
 10
148.4544321061
 20
462.7454651975
 30
0.0
 10
148.2626454064
 20
461.6652513054
 30
0.0
 10
148.454461461
 20
460.5850273007
 30
0.0
 10
149.0083132538
 20
459.5667889537
 30
0.0
 10
149.8836327145
 20
458.6467356371
 30
0.0
 10
151.0413278097
 20
457.8495875678
 30
0.0
 10
152.4386779192
 20
457.1989047985
 30
0.0
 10
154.5975994474
 20
456.5431924403
 30
0.0
 10
157.525074912
 20
456.2247766032
 30
0.0
 10
160.452876265
 20
456.5433084906
 30
0.0
 10
162.6113027964
 20
457.1987660268
 30
0.0
 10
163.585169643
 20
457.6523410954
 30
0.0
 10
164.0305114902
 20
457.9094577961
 30
0.0
  0
SPLINE
  5
321
100
AcDbEntity
  8
0
100
AcDbSpline
 62
7
  6
CONTINUOUS
 70
0
 71
3
 72
11
 73
7
 74
0
 42
0.0000001
 43
0.0000001
 44
0.0000000001
 40
0.0
 40
0.0
 40
0.0
 40
0.0
 40
0.2897809977
 40
0.5490200673
 40
0.7822030282
 40
1.0
 40
1.0
 40
1.0
 40
1.0
 10
166.2579071244
 20
456.2152482108
 30
0.0
 10
166.7999603274
 20
456.5282009053
 30
0.0
 10
167.7832251187
 20
457.2050239157
 30
0.0
 10
168.9578289882
 20
458.4402031427
 30
0.0
 10
169.7014538466
 20
459.8059227338
 30
0.0
 10
169.8751010284
 20
460.7865941726
 30
0.0
 10
169.8751009168
 20
461.2570215291
 30
0.0
  0
SPLINE
  5
322
100
AcDbEntity
  8
0
100
AcDbSpline
 62
7
  6
CONTINUOUS
 70
0
 71
3
 72
23
 73
19
 74
0
 42
0.0000001
 43
0.0000001
 44
0.0000000001
 40
0.0
 40
0.0
 40
0.0
 40
0.0
 40
0.0665886714
 40
0.1384326503
 40
0.2140578972
 40
0.2916519266
 40
0.3692459515
 40
0.4448712949
 40
0.5167173575
 40
0.5833037828
 40
0.6436835861
 40
0.6976981415
 40
0.7462804527
 40
0.7916525745
 40
0.8370245551
 40
0.8856071172
 40
0.9396190512
 40
1.0
 40
1.0
 40
1.0
 40
1.0
 10
149.113399499
 20
466.2193544944
 30
0.0
 10
149.6892588952
 20
466.5518250872
 30
0.0
 10
150.9484359528
 20
467.1381861077
 30
0.0
 10
152.9989492403
 20
467.7613915767
 30
0.0
 10
155.2189284255
 20
468.1450468764
 30
0.0
 10
157.5250332082
 20
468.2744774735
 30
0.0
 10
159.8311870586
 20
468.1450259813
 30
0.0
 10
162.0510511821
 20
467.7614991511
 30
0.0
 10
164.1020568354
 20
467.1380027638
 30
0.0
 10
165.9087939148
 20
466.2968029103
 30
0.0
 10
167.405756867
 20
465.266035039
 30
0.0
 10
168.5375719201
 20
464.0763799377
 30
0.0
 10
169.2537080247
 20
462.7597592491
 30
0.0
 10
169.5017438136
 20
461.3630072305
 30
0.0
 10
169.2537774437
 20
459.9662477106
 30
0.0
 10
168.5375426353
 20
458.6496196164
 30
0.0
 10
167.4061449636
 20
457.4601267961
 30
0.0
 10
166.4589876396
 20
456.8080387473
 30
0.0
 10
165.9368045387
 20
456.5065767984
 30
0.0
  0
SPLINE
  5
323
100
AcDbEntity
  8
0
100
AcDbSpline
 62
7
  6
CONTINUOUS
 70
0
 71
3
 72
17
 73
13
 74
0
 42
0.0000001
 43
0.0000001
 44
0.0000000001
 40
0.0
 40
0.0
 40
0.0
 40
0.0
 40
0.128680444
 40
0.2702734524
 40
0.4174302495
 40
0.5617773798
 40
0.6954484859
 40
0.8127135545
 40
0.8646780272
 40
0.9125115307
 40
0.9571405353
 40
1.0
 40
1.0
 40
1.0
 40
1.0
 10
166.2579071244
 20
456.1744230899
 30
0.0
 10
165.34376803
 20
455.646647788
 30
0.0
 10
163.2739113274
 20
454.7926433568
 30
0.0
 10
159.9004573727
 20
454.1175785656
 30
0.0
 10
156.3322738741
 20
454.0188418571
 30
0.0
 10
152.8607461366
 20
454.5065991876
 30
0.0
 10
149.7672595445
 20
455.5398715065
 30
0.0
 10
147.6158178724
 20
456.8495345132
 30
0.0
 10
146.3531253805
 20
458.1166518059
 30
0.0
 10
145.6824641463
 20
459.1032775984
 30
0.0
 10
145.2691026042
 20
460.1439010362
 30
0.0
 10
145.1751316561
 20
460.864623676
 30
0.0
 10
145.1751153938
 20
461.2161964166
 30
0.0
  0
SPLINE
  5
324
100
AcDbEntity
  8
0
100
AcDbSpline
 62
7
  6
CONTINUOUS
 70
0
 71
3
 72
23
 73
19
 74
0
 42
0.0000001
 43
0.0000001
 44
0.0000000001
 40
0.0
 40
0.0
 40
0.0
 40
0.0
 40
0.0603807593
 40
0.114392887
 40
0.1629750197
 40
0.208347109
 40
0.253719209
 40
0.3023014435
 40
0.3563156421
 40
0.4166948548
 40
0.4832817219
 40
0.5551281532
 40
0.6307534117
 40
0.708347148
 40
0.7859409876
 40
0.8615664137
 40
0.9334112328
 40
1.0
 40
1.0
 40
1.0
 40
1.0
 10
166.611461987
 20
455.9703027126
 30
0.0
 10
167.1755160521
 20
456.2959575351
 30
0.0
 10
168.1986499951
 20
457.0003256692
 30
0.0
 10
169.4207985156
 20
458.2852128217
 30
0.0
 10
170.1944676144
 20
459.7074464135
 30
0.0
 10
170.4623167753
 20
461.2162246766
 30
0.0
 10
170.1944273577
 20
462.7250120707
 30
0.0
 10
169.4208245033
 20
464.1472152105
 30
0.0
 10
168.1982479929
 20
465.4322772968
 30
0.0
 10
166.5812458885
 20
466.5457472075
 30
0.0
 10
164.6295843536
 20
467.4543909689
 30
0.0
 10
162.414076221
 20
468.1279056341
 30
0.0
 10
160.01617115
 20
468.5422154437
 30
0.0
 10
157.5250576166
 20
468.6820315694
 30
0.0
 10
155.0339965799
 20
468.542228706
 30
0.0
 10
152.6359517737
 20
468.1278191719
 30
0.0
 10
150.4209689883
 20
467.4546162538
 30
0.0
 10
149.0607889613
 20
466.8212269113
 30
0.0
 10
148.4387420507
 20
466.4620901038
 30
0.0
  0
SPLINE
  5
325
100
AcDbEntity
  8
0
100
AcDbSpline
 62
7
  6
CONTINUOUS
 70
0
 71
3
 72
17
 73
13
 74
0
 42
0.0000001
 43
0.0000001
 44
0.0000000001
 40
0.0
 40
0.0
 40
0.0
 40
0.0
 40
0.1410207677
 40
0.2658548751
 40
0.3775993265
 40
0.4308318661
 40
0.4836616565
 40
0.5372866486
 40
0.5928183322
 40
0.7127338294
 40
0.8482210386
 40
1.0
 40
1.0
 40
1.0
 40
1.0
 10
148.4387420507
 20
466.4620901038
 30
0.0
 10
147.8267025233
 20
466.1087310272
 30
0.0
 10
146.725559909
 20
465.3397210269
 30
0.0
 10
145.4478767118
 20
463.9165420249
 30
0.0
 10
144.8283917694
 20
462.5698606768
 30
0.0
 10
144.6587208567
 20
461.485728907
 30
0.0
 10
144.6835210583
 20
460.6811249173
 30
0.0
 10
144.8587786164
 20
459.8838871806
 30
0.0
 10
145.2990774809
 20
458.8180860615
 30
0.0
 10
146.2423576685
 20
457.5473356976
 30
0.0
 10
147.8408986994
 20
456.2551375447
 30
0.0
 10
149.1227124665
 20
455.5805846654
 30
0.0
 10
149.8208493387
 20
455.2786384025
 30
0.0
  0
SPLINE
  5
326
100
AcDbEntity
  8
0
100
AcDbSpline
 62
7
  6
CONTINUOUS
 70
0
 71
3
 72
9
 73
5
 74
0
 42
0.0000001
 43
0.0000001
 44
0.0000000001
 40
0.0
 40
0.0
 40
0.0
 40
0.0
 40
0.2395882674
 40
1.0
 40
1.0
 40
1.0
 40
1.0
 10
149.8737788036
 20
455.2558687415
 30
0.0
 10
150.1819543038
 20
455.1240054713
 30
0.0
 10
151.4867393342
 20
454.6172547696
 30
0.0
 10
152.8535330574
 20
454.2762292178
 30
0.0
 10
153.9024183204
 20
454.0982892236
 30
0.0
  0
SPLINE
  5
327
100
AcDbEntity
  8
0
100
AcDbSpline
 62
7
  6
CONTINUOUS
 70
0
 71
3
 72
9
 73
5
 74
0
 42
0.0000001
 43
0.0000001
 44
0.0000000001
 40
0.0
 40
0.0
 40
0.0
 40
0.0
 40
0.4999936226
 40
1.0
 40
1.0
 40
1.0
 40
1.0
 10
153.9024183204
 20
454.0982892236
 30
0.0
 10
155.0965011424
 20
453.8957169329
 30
0.0
 10
157.5233905434
 20
453.699194163
 30
0.0
 10
159.9503080928
 20
453.8953424413
 30
0.0
 10
161.1444551314
 20
454.0977208222
 30
0.0
  0
SPLINE
  5
328
100
AcDbEntity
  8
0
100
AcDbSpline
 62
7
  6
CONTINUOUS
 70
0
 71
3
 72
9
 73
5
 74
0
 42
0.0000001
 43
0.0000001
 44
0.0000000001
 40
0.0
 40
0.0
 40
0.0
 40
0.0
 40
0.5220592598
 40
1.0
 40
1.0
 40
1.0
 40
1.0
 10
161.1444551314
 20
454.0977208222
 30
0.0
 10
162.1397639406
 20
454.2664010423
 30
0.0
 10
164.0260136758
 20
454.7290841156
 30
0.0
 10
165.8110891128
 20
455.5082099766
 30
0.0
 10
166.611461987
 20
455.9703027126
 30
0.0
  0
SPLINE
  5
329
100
AcDbEntity
  8
0
100
AcDbSpline
 62
7
  6
CONTINUOUS
 70
0
 71
3
 72
12
 73
8
 74
0
 42
0.0000001
 43
0.0000001
 44
0.0000000001
 40
0.0
 40
0.0
 40
0.0
 40
0.0
 40
0.2906710443
 40
0.5493091434
 40
0.7813087059
 40
0.8913858811
 40
1.0
 40
1.0
 40
1.0
 40
1.0
 10
167.551813496
 20
455.105100948
 30
0.0
 10
168.2013277747
 20
455.4800959532
 30
0.0
 10
169.3745537226
 20
456.2939286836
 30
0.0
 10
170.7557340055
 20
457.7884852703
 30
0.0
 10
171.4618585298
 20
459.2001479158
 30
0.0
 10
171.6982587404
 20
460.344128597
 30
0.0
 10
171.713202478
 20
460.9117910124
 30
0.0
 10
171.6955836962
 20
461.1914842515
 30
0.0
  0
SPLINE
  5
32A
100
AcDbEntity
  8
0
100
AcDbSpline
 62
7
  6
CONTINUOUS
 70
0
 71
3
 72
20
 73
16
 74
0
 42
0.0000001
 43
0.0000001
 44
0.0000000001
 40
0.0
 40
0.0
 40
0.0
 40
0.0
 40
0.0428858089
 40
0.0878601456
 40
0.1362006143
 40
0.1886926687
 40
0.2456462412
 40
0.3069737639
 40
0.4407522823
 40
0.5845870404
 40
0.7308727408
 40
0.8024721559
 40
0.8717207286
 40
0.9377182035
 40
1.0
 40
1.0
 40
1.0
 40
1.0
 10
171.6955836962
 20
461.1914842515
 30
0.0
 10
171.670497594
 20
461.5897191157
 30
0.0
 10
171.5138808185
 20
462.4020593657
 30
0.0
 10
170.9826473494
 20
463.5636426955
 30
0.0
 10
170.1705125617
 20
464.6609099276
 30
0.0
 10
169.098448415
 20
465.6731770984
 30
0.0
 10
167.7897028696
 20
466.583155644
 30
0.0
 10
165.7048158559
 20
467.6682172573
 30
0.0
 10
162.6794194655
 20
468.6392234782
 30
0.0
 10
158.7529887331
 20
469.1608832359
 30
0.0
 10
155.3717327596
 20
469.053433736
 30
0.0
 10
152.7314177412
 20
468.6284205295
 30
0.0
 10
150.8631315348
 20
468.1535610545
 30
0.0
 10
149.1334080099
 20
467.5242904165
 30
0.0
 10
148.0567820329
 20
467.0017401142
 30
0.0
 10
147.55356451
 20
466.7143691692
 30
0.0
  0
SPLINE
  5
32B
100
AcDbEntity
  8
0
100
AcDbSpline
 62
7
  6
CONTINUOUS
 70
0
 71
3
 72
12
 73
8
 74
0
 42
0.0000001
 43
0.0000001
 44
0.0000000001
 40
0.0
 40
0.0
 40
0.0
 40
0.0
 40
0.2895886829
 40
0.5486331543
 40
0.7816363674
 40
0.8918378843
 40
1.0
 40
1.0
 40
1.0
 40
1.0
 10
167.6014156022
 20
454.9985366217
 30
0.0
 10
168.2269197321
 20
455.3596694438
 30
0.0
 10
169.3614888547
 20
456.1410600513
 30
0.0
 10
170.7169032392
 20
457.5647868276
 30
0.0
 10
171.444707652
 20
458.9063134895
 30
0.0
 10
171.728179388
 20
460.0004441366
 30
0.0
 10
171.7750868396
 20
460.5461980955
 30
0.0
 10
171.775086776
 20
460.8159673737
 30
0.0
  0
SPLINE
  5
32C
100
AcDbEntity
  8
0
100
AcDbSpline
 62
7
  6
CONTINUOUS
 70
0
 71
3
 72
19
 73
15
 74
0
 42
0.0000001
 43
0.0000001
 44
0.0000000001
 40
0.0
 40
0.0
 40
0.0
 40
0.0
 40
0.1312079803
 40
0.2758750414
 40
0.4255314748
 40
0.5706928595
 40
0.6389182278
 40
0.7030066437
 40
0.7623887276
 40
0.8168600523
 40
0.8666958382
 40
0.9127612789
 40
0.9565453217
 40
1.0
 40
1.0
 40
1.0
 40
1.0
 10
167.551813496
 20
455.105100948
 30
0.0
 10
166.4407062975
 20
454.463606737
 30
0.0
 10
163.9121769938
 20
453.4420483379
 30
0.0
 10
159.7988930759
 20
452.6845041906
 30
0.0
 10
155.4798187087
 20
452.6642203975
 30
0.0
 10
151.9592296383
 20
453.277239866
 30
0.0
 10
149.3853594366
 20
454.150496122
 30
0.0
 10
147.6862672956
 20
454.9532654032
 30
0.0
 10
146.2187980928
 20
455.8988911177
 30
0.0
 10
145.0171648178
 20
456.9677066297
 30
0.0
 10
144.1110986834
 20
458.1384418616
 30
0.0
 10
143.5275950211
 20
459.3880746696
 30
0.0
 10
143.2906674374
 20
460.6851254506
 30
0.0
 10
143.3718781098
 20
461.5466023691
 30
0.0
 10
143.4662218402
 20
461.9609103579
 30
0.0
  0
SPLINE
  5
32D
100
AcDbEntity
  8
0
100
AcDbSpline
 62
7
  6
CONTINUOUS
 70
0
 71
3
 72
9
 73
5
 74
0
 42
0.0000001
 43
0.0000001
 44
0.0000000001
 40
0.0
 40
0.0
 40
0.0
 40
0.0
 40
0.2464781239
 40
1.0
 40
1.0
 40
1.0
 40
1.0
 10
143.4662218402
 20
461.9609103579
 30
0.0
 10
143.4845782388
 20
462.0415219954
 30
0.0
 10
143.5671822262
 20
462.3666911214
 30
0.0
 10
143.6820301289
 20
462.6835093306
 30
0.0
 10
143.7840650384
 20
462.9147493527
 30
0.0
  0
SPLINE
  5
32E
100
AcDbEntity
  8
0
100
AcDbSpline
 62
7
  6
CONTINUOUS
 70
0
 71
3
 72
9
 73
5
 74
0
 42
0.0000001
 43
0.0000001
 44
0.0000000001
 40
0.0
 40
0.0
 40
0.0
 40
0.0
 40
0.2389185096
 40
1.0
 40
1.0
 40
1.0
 40
1.0
 10
143.7840650384
 20
462.9147493527
 30
0.0
 10
143.8548696481
 20
463.0752126646
 30
0.0
 10
144.1825875334
 20
463.7329496207
 30
0.0
 10
144.6283498579
 20
464.3285227371
 30
0.0
 10
145.006971812
 20
464.7393792617
 30
0.0
  0
SPLINE
  5
32F
100
AcDbEntity
  8
0
100
AcDbSpline
 62
7
  6
CONTINUOUS
 70
0
 71
3
 72
9
 73
5
 74
0
 42
0.0000001
 43
0.0000001
 44
0.0000000001
 40
0.0
 40
0.0
 40
0.0
 40
0.0
 40
0.2393055601
 40
1.0
 40
1.0
 40
1.0
 40
1.0
 10
145.006971812
 20
464.7393792617
 30
0.0
 10
145.1219244099
 20
464.8641185283
 30
0.0
 10
145.6184952835
 20
465.3703784357
 30
0.0
 10
146.1744077298
 20
465.8168904437
 30
0.0
 10
146.6171706278
 20
466.1246367571
 30
0.0
  0
SPLINE
  5
330
100
AcDbEntity
  8
0
100
AcDbSpline
 62
7
  6
CONTINUOUS
 70
0
 71
3
 72
17
 73
13
 74
0
 42
0.0000001
 43
0.0000001
 44
0.0000000001
 40
0.0
 40
0.0
 40
0.0
 40
0.0
 40
0.0428596337
 40
0.0874888005
 40
0.1353225004
 40
0.1872872
 40
0.3045527712
 40
0.4382245045
 40
0.5825721442
 40
0.7297288633
 40
0.8713223023
 40
1.0
 40
1.0
 40
1.0
 40
1.0
 10
191.0883926712
 20
449.0097988935
 30
0.0
 10
191.0883925878
 20
449.3613732481
 30
0.0
 10
190.9943980807
 20
450.082099254
 30
0.0
 10
190.5810429988
 20
451.1227269013
 30
0.0
 10
189.9103742058
 20
452.1093563169
 30
0.0
 10
188.6476739092
 20
453.3764772137
 30
0.0
 10
186.4962174984
 20
454.6861419394
 30
0.0
 10
183.4027136349
 20
455.7194113871
 30
0.0
 10
179.9311735135
 20
456.2071606726
 30
0.0
 10
176.3629809191
 20
456.1084130673
 30
0.0
 10
172.9895463264
 20
455.4333386664
 30
0.0
 10
170.9197088447
 20
454.5793365917
 30
0.0
 10
170.0055886677
 20
454.0515722118
 30
0.0
  0
SPLINE
  5
331
100
AcDbEntity
  8
0
100
AcDbSpline
 62
7
  6
CONTINUOUS
 70
0
 71
3
 72
18
 73
14
 74
0
 42
0.0000001
 43
0.0000001
 44
0.0000000001
 40
0.0
 40
0.0
 40
0.0
 40
0.0
 40
0.0433244208
 40
0.0883431824
 40
0.1364428286
 40
0.1885485427
 40
0.245087772
 40
0.3060587701
 40
0.4394624974
 40
0.5834343418
 40
0.7302012928
 40
0.8714713421
 40
1.0
 40
1.0
 40
1.0
 40
1.0
 10
192.9883937733
 20
448.5687447381
 30
0.0
 10
192.9883937733
 20
448.9790556953
 30
0.0
 10
192.8790947594
 20
449.8192773348
 30
0.0
 10
192.3990673644
 20
451.0311249982
 30
0.0
 10
191.6216691884
 20
452.1772413716
 30
0.0
 10
190.570329123
 20
453.2353053366
 30
0.0
 10
189.2697469895
 20
454.1876763897
 30
0.0
 10
187.1779893239
 20
455.3270668452
 30
0.0
 10
184.1150091319
 20
456.3523771994
 30
0.0
 10
180.1191569941
 20
456.9150337338
 30
0.0
 10
176.009179977
 20
456.8024947599
 30
0.0
 10
172.1224830377
 20
456.0250248665
 30
0.0
 10
169.7369636905
 20
455.0405771148
 30
0.0
 10
168.6827913863
 20
454.4319540841
 30
0.0
  0
SPLINE
  5
332
100
AcDbEntity
  8
0
100
AcDbSpline
 62
7
  6
CONTINUOUS
 70
0
 71
3
 72
11
 73
7
 74
0
 42
0.0000001
 43
0.0000001
 44
0.0000000001
 40
0.0
 40
0.0
 40
0.0
 40
0.0
 40
0.2885462405
 40
0.5473584031
 40
0.7810413815
 40
1.0
 40
1.0
 40
1.0
 40
1.0
 10
168.6827913863
 20
454.4319540841
 30
0.0
 10
168.0556859361
 20
454.0698967448
 30
0.0
 10
166.9168416397
 20
453.2856868084
 30
0.0
 10
165.5548956702
 20
451.8519518892
 30
0.0
 10
164.6904408559
 20
450.2618675719
 30
0.0
 10
164.4883937733
 20
449.1182298369
 30
0.0
 10
164.4883937733
 20
448.5687447381
 30
0.0
  0
SPLINE
  5
333
100
AcDbEntity
  8
0
100
AcDbSpline
 62
7
  6
CONTINUOUS
 70
0
 71
3
 72
11
 73
7
 74
0
 42
0.0000001
 43
0.0000001
 44
0.0000000001
 40
0.0
 40
0.0
 40
0.0
 40
0.0
 40
0.2897943377
 40
0.549045495
 40
0.7822266761
 40
1.0
 40
1.0
 40
1.0
 40
1.0
 10
170.0055886677
 20
454.0515722118
 30
0.0
 10
169.4635104708
 20
453.738605087
 30
0.0
 10
168.480201757
 20
453.0617465546
 30
0.0
 10
167.3055822223
 20
451.8265084106
 30
0.0
 10
166.5620100555
 20
450.4607904606
 30
0.0
 10
166.3883967938
 20
449.4801752072
 30
0.0
 10
166.388394544
 20
449.0097988935
 30
0.0
  0
SPLINE
  5
334
100
AcDbEntity
  8
0
100
AcDbSpline
 62
7
  6
CONTINUOUS
 70
0
 71
3
 72
17
 73
13
 74
0
 42
0.0000001
 43
0.0000001
 44
0.0000000001
 40
0.0
 40
0.0
 40
0.0
 40
0.0
 40
0.1406504166
 40
0.2876881119
 40
0.4345874784
 40
0.5748426694
 40
0.7029229104
 40
0.815385057
 40
0.8657734609
 40
0.9127155798
 40
0.9570606135
 40
1.0
 40
1.0
 40
1.0
 40
1.0
 10
185.7739816726
 20
435.6907493182
 30
0.0
 10
184.6565612729
 20
435.3244718646
 30
0.0
 10
182.2990554729
 20
434.7849553492
 30
0.0
 10
178.6622312216
 20
434.5272241412
 30
0.0
 10
175.0291832222
 20
434.8073149796
 30
0.0
 10
171.6348439178
 20
435.6085313698
 30
0.0
 10
168.6961865535
 20
436.8793990022
 30
0.0
 10
166.7035709076
 20
438.3282327822
 30
0.0
 10
165.5537208278
 20
439.6624900163
 30
0.0
 10
164.945083672
 20
440.6869286131
 30
0.0
 10
164.5725876699
 20
441.7539531921
 30
0.0
 10
164.4884204301
 20
442.4862072306
 30
0.0
 10
164.4884141632
 20
442.8452056514
 30
0.0
  0
SPLINE
  5
335
100
AcDbEntity
  8
0
100
AcDbSpline
 62
7
  6
CONTINUOUS
 70
0
 71
3
 72
18
 73
14
 74
0
 42
0.0000001
 43
0.0000001
 44
0.0000000001
 40
0.0
 40
0.0
 40
0.0
 40
0.0
 40
0.0428481578
 40
0.0874653981
 40
0.1352862996
 40
0.187237077
 40
0.2437290859
 40
0.3047358013
 40
0.4383717212
 40
0.5826807747
 40
0.729798307
 40
0.8713543401
 40
1.0
 40
1.0
 40
1.0
 40
1.0
 10
164.4884090162
 20
448.5687447381
 30
0.0
 10
164.4884091119
 20
448.1630835388
 30
0.0
 10
164.5968669334
 20
447.3314855065
 30
0.0
 10
165.0737986364
 20
446.1307368085
 30
0.0
 10
165.8476957066
 20
444.9924355865
 30
0.0
 10
166.8966103915
 20
443.9391390426
 30
0.0
 10
168.1963782426
 20
442.9892894064
 30
0.0
 10
170.2902035663
 20
441.8510478076
 30
0.0
 10
173.3582343968
 20
440.8263115336
 30
0.0
 10
177.3615611598
 20
440.2642686481
 30
0.0
 10
181.4793339542
 20
440.377988983
 30
0.0
 10
185.3716096969
 20
441.1569694993
 30
0.0
 10
187.759937441
 20
442.1423459265
 30
0.0
 10
188.8147073566
 20
442.7513139861
 30
0.0
  0
SPLINE
  5
336
100
AcDbEntity
  8
0
100
AcDbSpline
 62
7
  6
CONTINUOUS
 70
0
 71
3
 72
17
 73
13
 74
0
 42
0.0000001
 43
0.0000001
 44
0.0000000001
 40
0.0
 40
0.0
 40
0.0
 40
0.0
 40
0.042861445
 40
0.087492668
 40
0.1353287936
 40
0.1872963454
 40
0.3045687556
 40
0.4382481658
 40
0.5826031581
 40
0.7297648853
 40
0.8713436635
 40
1.0
 40
1.0
 40
1.0
 40
1.0
 10
166.388394544
 20
449.0097988935
 30
0.0
 10
166.3883928624
 20
448.6582096698
 30
0.0
 10
166.4823985284
 20
447.9374515797
 30
0.0
 10
166.8957881719
 20
446.8967813132
 30
0.0
 10
167.5665134998
 20
445.9101163056
 30
0.0
 10
168.8293172994
 20
444.6429572562
 30
0.0
 10
170.9809356829
 20
443.3332793184
 30
0.0
 10
174.0746423531
 20
442.3000462785
 30
0.0
 10
177.5463630734
 20
441.8123885593
 30
0.0
 10
181.1145346112
 20
441.9112706848
 30
0.0
 10
184.4876924097
 20
442.586419588
 30
0.0
 10
186.5572304224
 20
443.4403487906
 30
0.0
 10
187.4711988788
 20
443.9680255751
 30
0.0
  0
SPLINE
  5
337
100
AcDbEntity
  8
0
100
AcDbSpline
 62
7
  6
CONTINUOUS
 70
0
 71
3
 72
11
 73
7
 74
0
 42
0.0000001
 43
0.0000001
 44
0.0000000001
 40
0.0
 40
0.0
 40
0.0
 40
0.0
 40
0.2177705522
 40
0.450950541
 40
0.7101897553
 40
1.0
 40
1.0
 40
1.0
 40
1.0
 10
191.0883803983
 20
448.9689737643
 30
0.0
 10
191.0884021557
 20
448.4986040004
 30
0.0
 10
190.9147758114
 20
447.5179926932
 30
0.0
 10
190.1712059451
 20
446.1523237229
 30
0.0
 10
188.9966292591
 20
444.9170415758
 30
0.0
 10
188.0133061824
 20
444.2401843837
 30
0.0
 10
187.4711988788
 20
443.9272004543
 30
0.0
  0
SPLINE
  5
338
100
AcDbEntity
  8
0
100
AcDbSpline
 62
7
  6
CONTINUOUS
 70
0
 71
3
 72
13
 73
9
 74
0
 42
0.0000001
 43
0.0000001
 44
0.0000000001
 40
0.0
 40
0.0
 40
0.0
 40
0.0
 40
0.1129199549
 40
0.2342528336
 40
0.4929971542
 40
0.7555189699
 40
0.8813140154
 40
1.0
 40
1.0
 40
1.0
 40
1.0
 10
187.1500962931
 20
444.2593541628
 30
0.0
 10
186.6198611165
 20
443.9532054664
 30
0.0
 10
185.4672764917
 20
443.4068479756
 30
0.0
 10
182.9166690929
 20
442.5881299343
 30
0.0
 10
179.4349429132
 20
442.115783197
 30
0.0
 10
175.9073577346
 20
442.3531855441
 30
0.0
 10
173.2272683816
 20
442.9871900804
 30
0.0
 10
171.9793262517
 20
443.4477323149
 30
0.0
 10
171.3931699739
 20
443.7133622435
 30
0.0
  0
SPLINE
  5
339
100
AcDbEntity
  8
0
100
AcDbSpline
 62
7
  6
CONTINUOUS
 70
0
 71
3
 72
17
 73
13
 74
0
 42
0.0000001
 43
0.0000001
 44
0.0000000001
 40
0.0
 40
0.0
 40
0.0
 40
0.0
 40
0.1512593604
 40
0.2864948912
 40
0.4065994415
 40
0.4623760763
 40
0.5163112347
 40
0.5694673589
 40
0.6229872581
 40
0.735023671
 40
0.8596256072
 40
1.0
 40
1.0
 40
1.0
 40
1.0
 10
171.3931699739
 20
443.7133622435
 30
0.0
 10
170.7746031781
 20
443.9936797287
 30
0.0
 10
169.6396678686
 20
444.6154424191
 30
0.0
 10
168.2277192576
 20
445.7932182163
 30
0.0
 10
167.3965249146
 20
446.9419460433
 30
0.0
 10
167.0074953747
 20
447.9023999046
 30
0.0
 10
166.8514815237
 20
448.6207208192
 30
0.0
 10
166.8273308978
 20
449.3454563082
 30
0.0
 10
166.9727504599
 20
450.3215791824
 30
0.0
 10
167.5108742941
 20
451.5362784365
 30
0.0
 10
168.6300579816
 20
452.829838896
 30
0.0
 10
169.5996789057
 20
453.5355072296
 30
0.0
 10
170.1391441842
 20
453.8613752331
 30
0.0
  0
SPLINE
  5
33A
100
AcDbEntity
  8
0
100
AcDbSpline
 62
7
  6
CONTINUOUS
 70
0
 71
3
 72
21
 73
17
 74
0
 42
0.0000001
 43
0.0000001
 44
0.0000000001
 40
0.0
 40
0.0
 40
0.0
 40
0.0
 40
0.0604103608
 40
0.1144524967
 40
0.1630598398
 40
0.2084556409
 40
0.2538515713
 40
0.3024592918
 40
0.3565017425
 40
0.4169125868
 40
0.4835338414
 40
0.5554176038
 40
0.7084564545
 40
0.8614949619
 40
0.9333788027
 40
1.0
 40
1.0
 40
1.0
 40
1.0
 10
185.2438032446
 20
445.6622351604
 30
0.0
 10
185.6476275939
 20
445.8953818655
 30
0.0
 10
186.3801395833
 20
446.3996801366
 30
0.0
 10
187.2551635106
 20
447.3195825407
 30
0.0
 10
187.809063686
 20
448.3378576422
 30
0.0
 10
188.0008503857
 20
449.4180715342
 30
0.0
 10
187.8090343311
 20
450.4982955389
 30
0.0
 10
187.2551825383
 20
451.516533886
 30
0.0
 10
186.3798630776
 20
452.4365872026
 30
0.0
 10
185.2221679824
 20
453.2337352719
 30
0.0
 10
183.8248178729
 20
453.8844180412
 30
0.0
 10
181.6658963447
 20
454.5401303993
 30
0.0
 10
178.7384208801
 20
454.8585462364
 30
0.0
 10
175.8106195272
 20
454.5400143491
 30
0.0
 10
173.6521929958
 20
453.8845568128
 30
0.0
 10
172.6783261492
 20
453.4309817442
 30
0.0
 10
172.2329843019
 20
453.1738650436
 30
0.0
  0
SPLINE
  5
33B
100
AcDbEntity
  8
0
100
AcDbSpline
 62
7
  6
CONTINUOUS
 70
0
 71
3
 72
21
 73
17
 74
0
 42
0.0000001
 43
0.0000001
 44
0.0000000001
 40
0.0
 40
0.0
 40
0.0
 40
0.0
 40
0.0604103608
 40
0.1144524967
 40
0.1630598398
 40
0.2084556409
 40
0.2538515713
 40
0.3024592918
 40
0.3565017425
 40
0.4169125868
 40
0.4835338414
 40
0.5554176038
 40
0.7084564545
 40
0.8614949619
 40
0.9333788027
 40
1.0
 40
1.0
 40
1.0
 40
1.0
 10
172.2329843019
 20
453.1738650436
 30
0.0
 10
171.8291599527
 20
452.9407183386
 30
0.0
 10
171.0966479632
 20
452.4364200675
 30
0.0
 10
170.2216240359
 20
451.5165176633
 30
0.0
 10
169.6677238605
 20
450.4982425619
 30
0.0
 10
169.4759371608
 20
449.4180286698
 30
0.0
 10
169.6677532154
 20
448.3378046651
 30
0.0
 10
170.2216050082
 20
447.3195663181
 30
0.0
 10
171.0969244689
 20
446.3995130015
 30
0.0
 10
172.2546195641
 20
445.6023649322
 30
0.0
 10
173.6519696736
 20
444.9516821629
 30
0.0
 10
175.8108912018
 20
444.2959698047
 30
0.0
 10
178.7383666664
 20
443.9775539676
 30
0.0
 10
181.6661680194
 20
444.296085855
 30
0.0
 10
183.8245945508
 20
444.9515433912
 30
0.0
 10
184.7984613974
 20
445.4051184598
 30
0.0
 10
185.2438032446
 20
445.6622351604
 30
0.0
  0
SPLINE
  5
33C
100
AcDbEntity
  8
0
100
AcDbSpline
 62
7
  6
CONTINUOUS
 70
0
 71
3
 72
11
 73
7
 74
0
 42
0.0000001
 43
0.0000001
 44
0.0000000001
 40
0.0
 40
0.0
 40
0.0
 40
0.0
 40
0.2897809977
 40
0.5490200673
 40
0.7822030282
 40
1.0
 40
1.0
 40
1.0
 40
1.0
 10
187.4711988788
 20
443.9680255751
 30
0.0
 10
188.0132520818
 20
444.2809782697
 30
0.0
 10
188.9965168731
 20
444.9578012801
 30
0.0
 10
190.1711207426
 20
446.1929805071
 30
0.0
 10
190.914745601
 20
447.5587000982
 30
0.0
 10
191.0883927828
 20
448.539371537
 30
0.0
 10
191.0883926712
 20
449.0097988935
 30
0.0
  0
SPLINE
  5
33D
100
AcDbEntity
  8
0
100
AcDbSpline
 62
7
  6
CONTINUOUS
 70
0
 71
3
 72
23
 73
19
 74
0
 42
0.0000001
 43
0.0000001
 44
0.0000000001
 40
0.0
 40
0.0
 40
0.0
 40
0.0
 40
0.0665886714
 40
0.1384326503
 40
0.2140578972
 40
0.2916519266
 40
0.3692459515
 40
0.4448712949
 40
0.5167173575
 40
0.5833037828
 40
0.6436835861
 40
0.6976981415
 40
0.7462804527
 40
0.7916525745
 40
0.8370245551
 40
0.8856071172
 40
0.9396190512
 40
1.0
 40
1.0
 40
1.0
 40
1.0
 10
170.3266912534
 20
453.9721318588
 30
0.0
 10
170.9025506496
 20
454.3046024516
 30
0.0
 10
172.1617277072
 20
454.8909634721
 30
0.0
 10
174.2122409947
 20
455.5141689411
 30
0.0
 10
176.4322201799
 20
455.8978242407
 30
0.0
 10
178.7383249626
 20
456.0272548379
 30
0.0
 10
181.044478813
 20
455.8978033457
 30
0.0
 10
183.2643429365
 20
455.5142765155
 30
0.0
 10
185.3153485898
 20
454.8907801282
 30
0.0
 10
187.1220856693
 20
454.0495802747
 30
0.0
 10
188.6190486214
 20
453.0188124034
 30
0.0
 10
189.7508636745
 20
451.8291573021
 30
0.0
 10
190.4669997791
 20
450.5125366135
 30
0.0
 10
190.715035568
 20
449.1157845949
 30
0.0
 10
190.4670691981
 20
447.719025075
 30
0.0
 10
189.7508343897
 20
446.4023969808
 30
0.0
 10
188.619436718
 20
445.2129041605
 30
0.0
 10
187.672279394
 20
444.5608161117
 30
0.0
 10
187.1500962931
 20
444.2593541628
 30
0.0
  0
SPLINE
  5
33E
100
AcDbEntity
  8
0
100
AcDbSpline
 62
7
  6
CONTINUOUS
 70
0
 71
3
 72
17
 73
13
 74
0
 42
0.0000001
 43
0.0000001
 44
0.0000000001
 40
0.0
 40
0.0
 40
0.0
 40
0.0
 40
0.128680444
 40
0.2702734524
 40
0.4174302495
 40
0.5617773798
 40
0.6954484859
 40
0.8127135545
 40
0.8646780272
 40
0.9125115307
 40
0.9571405353
 40
1.0
 40
1.0
 40
1.0
 40
1.0
 10
187.4711988788
 20
443.9272004543
 30
0.0
 10
186.5570597844
 20
443.3994251524
 30
0.0
 10
184.4872030818
 20
442.5454207212
 30
0.0
 10
181.1137491271
 20
441.87035593
 30
0.0
 10
177.5455656285
 20
441.7716192215
 30
0.0
 10
174.074037891
 20
442.259376552
 30
0.0
 10
170.9805512989
 20
443.2926488709
 30
0.0
 10
168.8291096268
 20
444.6023118776
 30
0.0
 10
167.5664171349
 20
445.8694291703
 30
0.0
 10
166.8957559007
 20
446.8560549628
 30
0.0
 10
166.4823943586
 20
447.8966784006
 30
0.0
 10
166.3884234105
 20
448.6174010404
 30
0.0
 10
166.3884071482
 20
448.968973781
 30
0.0
  0
SPLINE
  5
33F
100
AcDbEntity
  8
0
100
AcDbSpline
 62
7
  6
CONTINUOUS
 70
0
 71
3
 72
23
 73
19
 74
0
 42
0.0000001
 43
0.0000001
 44
0.0000000001
 40
0.0
 40
0.0
 40
0.0
 40
0.0
 40
0.0603807593
 40
0.114392887
 40
0.1629750197
 40
0.208347109
 40
0.253719209
 40
0.3023014435
 40
0.3563156421
 40
0.4166948548
 40
0.4832817219
 40
0.5551281532
 40
0.6307534117
 40
0.708347148
 40
0.7859409876
 40
0.8615664137
 40
0.9334112328
 40
1.0
 40
1.0
 40
1.0
 40
1.0
 10
187.8247537414
 20
443.723080077
 30
0.0
 10
188.3888078065
 20
444.0487348995
 30
0.0
 10
189.4119417495
 20
444.7531030336
 30
0.0
 10
190.63409027
 20
446.0379901861
 30
0.0
 10
191.4077593688
 20
447.4602237779
 30
0.0
 10
191.6756085297
 20
448.969002041
 30
0.0
 10
191.4077191121
 20
450.4777894351
 30
0.0
 10
190.6341162577
 20
451.8999925749
 30
0.0
 10
189.4115397474
 20
453.1850546612
 30
0.0
 10
187.7945376429
 20
454.2985245719
 30
0.0
 10
185.842876108
 20
455.2071683333
 30
0.0
 10
183.6273679754
 20
455.8806829985
 30
0.0
 10
181.2294629044
 20
456.2949928081
 30
0.0
 10
178.738349371
 20
456.4348089338
 30
0.0
 10
176.2472883343
 20
456.2950060704
 30
0.0
 10
173.8492435282
 20
455.8805965363
 30
0.0
 10
171.6342607427
 20
455.2073936182
 30
0.0
 10
170.2740807157
 20
454.5740042757
 30
0.0
 10
169.6520338051
 20
454.2148674682
 30
0.0
  0
SPLINE
  5
340
100
AcDbEntity
  8
0
100
AcDbSpline
 62
7
  6
CONTINUOUS
 70
0
 71
3
 72
17
 73
13
 74
0
 42
0.0000001
 43
0.0000001
 44
0.0000000001
 40
0.0
 40
0.0
 40
0.0
 40
0.0
 40
0.1410207677
 40
0.2658548751
 40
0.3775993265
 40
0.4308318661
 40
0.4836616565
 40
0.5372866486
 40
0.5928183322
 40
0.7127338294
 40
0.8482210386
 40
1.0
 40
1.0
 40
1.0
 40
1.0
 10
169.6520338051
 20
454.2148674682
 30
0.0
 10
169.0399942777
 20
453.8615083915
 30
0.0
 10
167.9388516634
 20
453.0924983913
 30
0.0
 10
166.6611684663
 20
451.6693193893
 30
0.0
 10
166.0416835238
 20
450.3226380412
 30
0.0
 10
165.8720126111
 20
449.2385062713
 30
0.0
 10
165.8968128127
 20
448.4339022817
 30
0.0
 10
166.0720703708
 20
447.6366645449
 30
0.0
 10
166.5123692353
 20
446.5708634259
 30
0.0
 10
167.455649423
 20
445.300113062
 30
0.0
 10
169.0541904538
 20
444.0079149091
 30
0.0
 10
170.3360042209
 20
443.3333620298
 30
0.0
 10
171.0341410931
 20
443.0314157669
 30
0.0
  0
SPLINE
  5
341
100
AcDbEntity
  8
0
100
AcDbSpline
 62
7
  6
CONTINUOUS
 70
0
 71
3
 72
9
 73
5
 74
0
 42
0.0000001
 43
0.0000001
 44
0.0000000001
 40
0.0
 40
0.0
 40
0.0
 40
0.0
 40
0.2395882674
 40
1.0
 40
1.0
 40
1.0
 40
1.0
 10
171.087070558
 20
443.0086461059
 30
0.0
 10
171.3952460582
 20
442.8767828357
 30
0.0
 10
172.7000310886
 20
442.370032134
 30
0.0
 10
174.0668248118
 20
442.0290065822
 30
0.0
 10
175.1157100748
 20
441.851066588
 30
0.0
  0
SPLINE
  5
342
100
AcDbEntity
  8
0
100
AcDbSpline
 62
7
  6
CONTINUOUS
 70
0
 71
3
 72
9
 73
5
 74
0
 42
0.0000001
 43
0.0000001
 44
0.0000000001
 40
0.0
 40
0.0
 40
0.0
 40
0.0
 40
0.4999936226
 40
1.0
 40
1.0
 40
1.0
 40
1.0
 10
175.1157100748
 20
441.851066588
 30
0.0
 10
176.3097928968
 20
441.6484942973
 30
0.0
 10
178.7366822978
 20
441.4519715274
 30
0.0
 10
181.1635998472
 20
441.6481198057
 30
0.0
 10
182.3577468858
 20
441.8504981866
 30
0.0
  0
SPLINE
  5
343
100
AcDbEntity
  8
0
100
AcDbSpline
 62
7
  6
CONTINUOUS
 70
0
 71
3
 72
9
 73
5
 74
0
 42
0.0000001
 43
0.0000001
 44
0.0000000001
 40
0.0
 40
0.0
 40
0.0
 40
0.0
 40
0.5220592598
 40
1.0
 40
1.0
 40
1.0
 40
1.0
 10
182.3577468858
 20
441.8504981866
 30
0.0
 10
183.353055695
 20
442.0191784067
 30
0.0
 10
185.2393054302
 20
442.48186148
 30
0.0
 10
187.0243808672
 20
443.260987341
 30
0.0
 10
187.8247537414
 20
443.723080077
 30
0.0
  0
SPLINE
  5
344
100
AcDbEntity
  8
0
100
AcDbSpline
 62
7
  6
CONTINUOUS
 70
0
 71
3
 72
12
 73
8
 74
0
 42
0.0000001
 43
0.0000001
 44
0.0000000001
 40
0.0
 40
0.0
 40
0.0
 40
0.0
 40
0.2906710443
 40
0.5493091434
 40
0.7813087059
 40
0.8913858811
 40
1.0
 40
1.0
 40
1.0
 40
1.0
 10
188.7651052504
 20
442.8578783123
 30
0.0
 10
189.4146195291
 20
443.2328733176
 30
0.0
 10
190.587845477
 20
444.046706048
 30
0.0
 10
191.9690257599
 20
445.5412626347
 30
0.0
 10
192.6751502842
 20
446.9529252801
 30
0.0
 10
192.9115504948
 20
448.0969059614
 30
0.0
 10
192.9264942324
 20
448.6645683768
 30
0.0
 10
192.9088754506
 20
448.9442616159
 30
0.0
  0
SPLINE
  5
345
100
AcDbEntity
  8
0
100
AcDbSpline
 62
7
  6
CONTINUOUS
 70
0
 71
3
 72
20
 73
16
 74
0
 42
0.0000001
 43
0.0000001
 44
0.0000000001
 40
0.0
 40
0.0
 40
0.0
 40
0.0
 40
0.0428858089
 40
0.0878601456
 40
0.1362006143
 40
0.1886926687
 40
0.2456462412
 40
0.3069737639
 40
0.4407522823
 40
0.5845870404
 40
0.7308727408
 40
0.8024721559
 40
0.8717207286
 40
0.9377182035
 40
1.0
 40
1.0
 40
1.0
 40
1.0
 10
192.9088754506
 20
448.9442616159
 30
0.0
 10
192.8837893484
 20
449.3424964801
 30
0.0
 10
192.7271725729
 20
450.1548367301
 30
0.0
 10
192.1959391038
 20
451.3164200599
 30
0.0
 10
191.3838043161
 20
452.413687292
 30
0.0
 10
190.3117401694
 20
453.4259544628
 30
0.0
 10
189.002994624
 20
454.3359330084
 30
0.0
 10
186.9181076103
 20
455.4209946217
 30
0.0
 10
183.8927112199
 20
456.3920008426
 30
0.0
 10
179.9662804875
 20
456.9136606003
 30
0.0
 10
176.585024514
 20
456.8062111004
 30
0.0
 10
173.9447094956
 20
456.3811978939
 30
0.0
 10
172.0764232893
 20
455.9063384189
 30
0.0
 10
170.3466997643
 20
455.2770677809
 30
0.0
 10
169.2700737873
 20
454.7545174785
 30
0.0
 10
168.7668562644
 20
454.4671465336
 30
0.0
  0
SPLINE
  5
346
100
AcDbEntity
  8
0
100
AcDbSpline
 62
7
  6
CONTINUOUS
 70
0
 71
3
 72
12
 73
8
 74
0
 42
0.0000001
 43
0.0000001
 44
0.0000000001
 40
0.0
 40
0.0
 40
0.0
 40
0.0
 40
0.2895886829
 40
0.5486331543
 40
0.7816363674
 40
0.8918378843
 40
1.0
 40
1.0
 40
1.0
 40
1.0
 10
188.8147073566
 20
442.7513139861
 30
0.0
 10
189.4402114865
 20
443.1124468082
 30
0.0
 10
190.5747806091
 20
443.8938374157
 30
0.0
 10
191.9301949936
 20
445.317564192
 30
0.0
 10
192.6579994064
 20
446.6590908539
 30
0.0
 10
192.9414711425
 20
447.753221501
 30
0.0
 10
192.988378594
 20
448.2989754599
 30
0.0
 10
192.9883785304
 20
448.568744738
 30
0.0
  0
SPLINE
  5
347
100
AcDbEntity
  8
0
100
AcDbSpline
 62
7
  6
CONTINUOUS
 70
0
 71
3
 72
19
 73
15
 74
0
 42
0.0000001
 43
0.0000001
 44
0.0000000001
 40
0.0
 40
0.0
 40
0.0
 40
0.0
 40
0.1312079803
 40
0.2758750414
 40
0.4255314748
 40
0.5706928595
 40
0.6389182278
 40
0.7030066437
 40
0.7623887276
 40
0.8168600523
 40
0.8666958382
 40
0.9127612789
 40
0.9565453217
 40
1.0
 40
1.0
 40
1.0
 40
1.0
 10
188.7651052504
 20
442.8578783123
 30
0.0
 10
187.6539980519
 20
442.2163841014
 30
0.0
 10
185.1254687482
 20
441.1948257023
 30
0.0
 10
181.0121848304
 20
440.437281555
 30
0.0
 10
176.6931104631
 20
440.4169977619
 30
0.0
 10
173.1725213927
 20
441.0300172304
 30
0.0
 10
170.598651191
 20
441.9032734864
 30
0.0
 10
168.89955905
 20
442.7060427676
 30
0.0
 10
167.4320898473
 20
443.6516684821
 30
0.0
 10
166.2304565722
 20
444.7204839941
 30
0.0
 10
165.3243904378
 20
445.891219226
 30
0.0
 10
164.7408867755
 20
447.140852034
 30
0.0
 10
164.5039591918
 20
448.437902815
 30
0.0
 10
164.5851698642
 20
449.2993797335
 30
0.0
 10
164.6795135946
 20
449.7136877223
 30
0.0
  0
SPLINE
  5
348
100
AcDbEntity
  8
0
100
AcDbSpline
 62
7
  6
CONTINUOUS
 70
0
 71
3
 72
9
 73
5
 74
0
 42
0.0000001
 43
0.0000001
 44
0.0000000001
 40
0.0
 40
0.0
 40
0.0
 40
0.0
 40
0.2464781239
 40
1.0
 40
1.0
 40
1.0
 40
1.0
 10
164.6795135946
 20
449.7136877223
 30
0.0
 10
164.6978699932
 20
449.7942993598
 30
0.0
 10
164.7804739806
 20
450.1194684858
 30
0.0
 10
164.8953218833
 20
450.436286695
 30
0.0
 10
164.9973567928
 20
450.6675267171
 30
0.0
  0
SPLINE
  5
349
100
AcDbEntity
  8
0
100
AcDbSpline
 62
7
  6
CONTINUOUS
 70
0
 71
3
 72
9
 73
5
 74
0
 42
0.0000001
 43
0.0000001
 44
0.0000000001
 40
0.0
 40
0.0
 40
0.0
 40
0.0
 40
0.2389185096
 40
1.0
 40
1.0
 40
1.0
 40
1.0
 10
164.9973567928
 20
450.6675267171
 30
0.0
 10
165.0681614025
 20
450.827990029
 30
0.0
 10
165.3958792878
 20
451.4857269851
 30
0.0
 10
165.8416416123
 20
452.0813001015
 30
0.0
 10
166.2202635664
 20
452.4921566261
 30
0.0
  0
SPLINE
  5
34A
100
AcDbEntity
  8
0
100
AcDbSpline
 62
7
  6
CONTINUOUS
 70
0
 71
3
 72
9
 73
5
 74
0
 42
0.0000001
 43
0.0000001
 44
0.0000000001
 40
0.0
 40
0.0
 40
0.0
 40
0.0
 40
0.2393055601
 40
1.0
 40
1.0
 40
1.0
 40
1.0
 10
166.2202635664
 20
452.4921566261
 30
0.0
 10
166.3352161643
 20
452.6168958927
 30
0.0
 10
166.8317870379
 20
453.1231558
 30
0.0
 10
167.3876994842
 20
453.5696678081
 30
0.0
 10
167.8304623822
 20
453.8774141215
 30
0.0
  0
SPLINE
  5
34B
100
AcDbEntity
  8
0
100
AcDbSpline
 62
7
  6
CONTINUOUS
 70
0
 71
3
 72
17
 73
13
 74
0
 42
0.0000001
 43
0.0000001
 44
0.0000000001
 40
0.0
 40
0.0
 40
0.0
 40
0.0
 40
0.0428596337
 40
0.0874888005
 40
0.1353225004
 40
0.1872872
 40
0.3045527712
 40
0.4382245045
 40
0.5825721442
 40
0.7297288633
 40
0.8713223023
 40
1.0
 40
1.0
 40
1.0
 40
1.0
 10
212.3016844256
 20
436.7625762579
 30
0.0
 10
212.3016843422
 20
437.1141506125
 30
0.0
 10
212.2076898351
 20
437.8348766184
 30
0.0
 10
211.7943347533
 20
438.8755042656
 30
0.0
 10
211.1236659602
 20
439.8621336813
 30
0.0
 10
209.8609656636
 20
441.1292545781
 30
0.0
 10
207.7095092528
 20
442.4389193038
 30
0.0
 10
204.6160053893
 20
443.4721887515
 30
0.0
 10
201.1444652679
 20
443.9599380369
 30
0.0
 10
197.5762726736
 20
443.8611904317
 30
0.0
 10
194.2028380808
 20
443.1861160308
 30
0.0
 10
192.1330005991
 20
442.3321139561
 30
0.0
 10
191.2188804221
 20
441.8043495762
 30
0.0
  0
SPLINE
  5
34C
100
AcDbEntity
  8
0
100
AcDbSpline
 62
7
  6
CONTINUOUS
 70
0
 71
3
 72
18
 73
14
 74
0
 42
0.0000001
 43
0.0000001
 44
0.0000000001
 40
0.0
 40
0.0
 40
0.0
 40
0.0
 40
0.0433244208
 40
0.0883431824
 40
0.1364428286
 40
0.1885485427
 40
0.245087772
 40
0.3060587701
 40
0.4394624974
 40
0.5834343418
 40
0.7302012928
 40
0.8714713421
 40
1.0
 40
1.0
 40
1.0
 40
1.0
 10
214.2016855277
 20
436.3215221024
 30
0.0
 10
214.2016855277
 20
436.7318330597
 30
0.0
 10
214.0923865138
 20
437.5720546992
 30
0.0
 10
213.6123591188
 20
438.7839023626
 30
0.0
 10
212.8349609429
 20
439.930018736
 30
0.0
 10
211.7836208774
 20
440.988082701
 30
0.0
 10
210.4830387439
 20
441.9404537541
 30
0.0
 10
208.3912810783
 20
443.0798442096
 30
0.0
 10
205.3283008863
 20
444.1051545638
 30
0.0
 10
201.3324487485
 20
444.6678110982
 30
0.0
 10
197.2224717314
 20
444.5552721243
 30
0.0
 10
193.3357747921
 20
443.7778022309
 30
0.0
 10
190.9502554449
 20
442.7933544792
 30
0.0
 10
189.8960831407
 20
442.1847314485
 30
0.0
  0
SPLINE
  5
34D
100
AcDbEntity
  8
0
100
AcDbSpline
 62
7
  6
CONTINUOUS
 70
0
 71
3
 72
11
 73
7
 74
0
 42
0.0000001
 43
0.0000001
 44
0.0000000001
 40
0.0
 40
0.0
 40
0.0
 40
0.0
 40
0.2885462405
 40
0.5473584031
 40
0.7810413815
 40
1.0
 40
1.0
 40
1.0
 40
1.0
 10
189.8960831407
 20
442.1847314485
 30
0.0
 10
189.2689776905
 20
441.8226741092
 30
0.0
 10
188.1301333941
 20
441.0384641728
 30
0.0
 10
186.7681874246
 20
439.6047292536
 30
0.0
 10
185.9037326103
 20
438.0146449363
 30
0.0
 10
185.7016855277
 20
436.8710072012
 30
0.0
 10
185.7016855277
 20
436.3215221024
 30
0.0
  0
SPLINE
  5
34E
100
AcDbEntity
  8
0
100
AcDbSpline
 62
7
  6
CONTINUOUS
 70
0
 71
3
 72
11
 73
7
 74
0
 42
0.0000001
 43
0.0000001
 44
0.0000000001
 40
0.0
 40
0.0
 40
0.0
 40
0.0
 40
0.2897943377
 40
0.549045495
 40
0.7822266761
 40
1.0
 40
1.0
 40
1.0
 40
1.0
 10
191.2188804221
 20
441.8043495762
 30
0.0
 10
190.6768022252
 20
441.4913824514
 30
0.0
 10
189.6934935114
 20
440.814523919
 30
0.0
 10
188.5188739767
 20
439.579285775
 30
0.0
 10
187.7753018099
 20
438.213567825
 30
0.0
 10
187.6016885482
 20
437.2329525716
 30
0.0
 10
187.6016862984
 20
436.7625762579
 30
0.0
  0
SPLINE
  5
34F
100
AcDbEntity
  8
0
100
AcDbSpline
 62
7
  6
CONTINUOUS
 70
0
 71
3
 72
17
 73
13
 74
0
 42
0.0000001
 43
0.0000001
 44
0.0000000001
 40
0.0
 40
0.0
 40
0.0
 40
0.0
 40
0.1406504166
 40
0.2876881119
 40
0.4345874784
 40
0.5748426694
 40
0.7029229104
 40
0.815385057
 40
0.8657734609
 40
0.9127155798
 40
0.9570606135
 40
1.0
 40
1.0
 40
1.0
 40
1.0
 10
206.9872734271
 20
423.4435266826
 30
0.0
 10
205.8698530274
 20
423.077249229
 30
0.0
 10
203.5123472273
 20
422.5377327136
 30
0.0
 10
199.8755229761
 20
422.2800015056
 30
0.0
 10
196.2424749766
 20
422.560092344
 30
0.0
 10
192.8481356723
 20
423.3613087342
 30
0.0
 10
189.9094783079
 20
424.6321763666
 30
0.0
 10
187.916862662
 20
426.0810101466
 30
0.0
 10
186.7670125822
 20
427.4152673807
 30
0.0
 10
186.1583754264
 20
428.4397059775
 30
0.0
 10
185.7858794243
 20
429.5067305565
 30
0.0
 10
185.7017121845
 20
430.238984595
 30
0.0
 10
185.7017059177
 20
430.5979830158
 30
0.0
  0
SPLINE
  5
350
100
AcDbEntity
  8
0
100
AcDbSpline
 62
7
  6
CONTINUOUS
 70
0
 71
3
 72
18
 73
14
 74
0
 42
0.0000001
 43
0.0000001
 44
0.0000000001
 40
0.0
 40
0.0
 40
0.0
 40
0.0
 40
0.0428481578
 40
0.0874653981
 40
0.1352862996
 40
0.187237077
 40
0.2437290859
 40
0.3047358013
 40
0.4383717212
 40
0.5826807747
 40
0.729798307
 40
0.8713543401
 40
1.0
 40
1.0
 40
1.0
 40
1.0
 10
185.7017007706
 20
436.3215221024
 30
0.0
 10
185.7017008663
 20
435.9158609032
 30
0.0
 10
185.8101586879
 20
435.0842628709
 30
0.0
 10
186.2870903908
 20
433.8835141729
 30
0.0
 10
187.060987461
 20
432.7452129509
 30
0.0
 10
188.109902146
 20
431.6919164069
 30
0.0
 10
189.409669997
 20
430.7420667707
 30
0.0
 10
191.5034953207
 20
429.603825172
 30
0.0
 10
194.5715261512
 20
428.579088898
 30
0.0
 10
198.5748529142
 20
428.0170460125
 30
0.0
 10
202.6926257086
 20
428.1307663474
 30
0.0
 10
206.5849014513
 20
428.9097468637
 30
0.0
 10
208.9732291954
 20
429.8951232908
 30
0.0
 10
210.027999111
 20
430.5040913505
 30
0.0
  0
SPLINE
  5
351
100
AcDbEntity
  8
0
100
AcDbSpline
 62
7
  6
CONTINUOUS
 70
0
 71
3
 72
17
 73
13
 74
0
 42
0.0000001
 43
0.0000001
 44
0.0000000001
 40
0.0
 40
0.0
 40
0.0
 40
0.0
 40
0.042861445
 40
0.087492668
 40
0.1353287936
 40
0.1872963454
 40
0.3045687556
 40
0.4382481658
 40
0.5826031581
 40
0.7297648853
 40
0.8713436635
 40
1.0
 40
1.0
 40
1.0
 40
1.0
 10
187.6016862984
 20
436.7625762579
 30
0.0
 10
187.6016846168
 20
436.4109870342
 30
0.0
 10
187.6956902828
 20
435.6902289441
 30
0.0
 10
188.1090799263
 20
434.6495586775
 30
0.0
 10
188.7798052542
 20
433.66289367
 30
0.0
 10
190.0426090538
 20
432.3957346206
 30
0.0
 10
192.1942274373
 20
431.0860566828
 30
0.0
 10
195.2879341075
 20
430.0528236429
 30
0.0
 10
198.7596548278
 20
429.5651659237
 30
0.0
 10
202.3278263656
 20
429.6640480492
 30
0.0
 10
205.7009841641
 20
430.3391969524
 30
0.0
 10
207.7705221769
 20
431.193126155
 30
0.0
 10
208.6844906332
 20
431.7208029395
 30
0.0
  0
SPLINE
  5
352
100
AcDbEntity
  8
0
100
AcDbSpline
 62
7
  6
CONTINUOUS
 70
0
 71
3
 72
11
 73
7
 74
0
 42
0.0000001
 43
0.0000001
 44
0.0000000001
 40
0.0
 40
0.0
 40
0.0
 40
0.0
 40
0.2177705522
 40
0.450950541
 40
0.7101897553
 40
1.0
 40
1.0
 40
1.0
 40
1.0
 10
212.3016721527
 20
436.7217511287
 30
0.0
 10
212.3016939101
 20
436.2513813648
 30
0.0
 10
212.1280675658
 20
435.2707700576
 30
0.0
 10
211.3844976995
 20
433.9051010873
 30
0.0
 10
210.2099210135
 20
432.6698189402
 30
0.0
 10
209.2265979368
 20
431.992961748
 30
0.0
 10
208.6844906332
 20
431.6799778187
 30
0.0
  0
SPLINE
  5
353
100
AcDbEntity
  8
0
100
AcDbSpline
 62
7
  6
CONTINUOUS
 70
0
 71
3
 72
13
 73
9
 74
0
 42
0.0000001
 43
0.0000001
 44
0.0000000001
 40
0.0
 40
0.0
 40
0.0
 40
0.0
 40
0.1129199549
 40
0.2342528336
 40
0.4929971542
 40
0.7555189699
 40
0.8813140154
 40
1.0
 40
1.0
 40
1.0
 40
1.0
 10
208.3633880475
 20
432.0121315272
 30
0.0
 10
207.8331528709
 20
431.7059828308
 30
0.0
 10
206.6805682461
 20
431.15962534
 30
0.0
 10
204.1299608473
 20
430.3409072986
 30
0.0
 10
200.6482346676
 20
429.8685605614
 30
0.0
 10
197.120649489
 20
430.1059629085
 30
0.0
 10
194.440560136
 20
430.7399674448
 30
0.0
 10
193.1926180062
 20
431.2005096792
 30
0.0
 10
192.6064617283
 20
431.4661396078
 30
0.0
  0
SPLINE
  5
354
100
AcDbEntity
  8
0
100
AcDbSpline
 62
7
  6
CONTINUOUS
 70
0
 71
3
 72
17
 73
13
 74
0
 42
0.0000001
 43
0.0000001
 44
0.0000000001
 40
0.0
 40
0.0
 40
0.0
 40
0.0
 40
0.1512593604
 40
0.2864948912
 40
0.4065994415
 40
0.4623760763
 40
0.5163112347
 40
0.5694673589
 40
0.6229872581
 40
0.735023671
 40
0.8596256072
 40
1.0
 40
1.0
 40
1.0
 40
1.0
 10
192.6064617283
 20
431.4661396078
 30
0.0
 10
191.9878949325
 20
431.7464570931
 30
0.0
 10
190.852959623
 20
432.3682197835
 30
0.0
 10
189.4410110121
 20
433.5459955807
 30
0.0
 10
188.609816669
 20
434.6947234076
 30
0.0
 10
188.2207871291
 20
435.655177269
 30
0.0
 10
188.0647732781
 20
436.3734981836
 30
0.0
 10
188.0406226523
 20
437.0982336726
 30
0.0
 10
188.1860422143
 20
438.0743565468
 30
0.0
 10
188.7241660485
 20
439.2890558009
 30
0.0
 10
189.843349736
 20
440.5826162604
 30
0.0
 10
190.8129706601
 20
441.288284594
 30
0.0
 10
191.3524359386
 20
441.6141525975
 30
0.0
  0
SPLINE
  5
355
100
AcDbEntity
  8
0
100
AcDbSpline
 62
7
  6
CONTINUOUS
 70
0
 71
3
 72
21
 73
17
 74
0
 42
0.0000001
 43
0.0000001
 44
0.0000000001
 40
0.0
 40
0.0
 40
0.0
 40
0.0
 40
0.0604103608
 40
0.1144524967
 40
0.1630598398
 40
0.2084556409
 40
0.2538515713
 40
0.3024592918
 40
0.3565017425
 40
0.4169125868
 40
0.4835338414
 40
0.5554176038
 40
0.7084564545
 40
0.8614949619
 40
0.9333788027
 40
1.0
 40
1.0
 40
1.0
 40
1.0
 10
206.457094999
 20
433.4150125248
 30
0.0
 10
206.8609193483
 20
433.6481592299
 30
0.0
 10
207.5934313377
 20
434.152457501
 30
0.0
 10
208.4684552651
 20
435.0723599051
 30
0.0
 10
209.0223554404
 20
436.0906350066
 30
0.0
 10
209.2141421402
 20
437.1708488986
 30
0.0
 10
209.0223260855
 20
438.2510729033
 30
0.0
 10
208.4684742927
 20
439.2693112504
 30
0.0
 10
207.593154832
 20
440.189364567
 30
0.0
 10
206.4354597368
 20
440.9865126362
 30
0.0
 10
205.0381096273
 20
441.6371954055
 30
0.0
 10
202.8791880991
 20
442.2929077637
 30
0.0
 10
199.9517126345
 20
442.6113236008
 30
0.0
 10
197.0239112816
 20
442.2927917135
 30
0.0
 10
194.8654847502
 20
441.6373341772
 30
0.0
 10
193.8916179036
 20
441.1837591086
 30
0.0
 10
193.4462760563
 20
440.926642408
 30
0.0
  0
SPLINE
  5
356
100
AcDbEntity
  8
0
100
AcDbSpline
 62
7
  6
CONTINUOUS
 70
0
 71
3
 72
21
 73
17
 74
0
 42
0.0000001
 43
0.0000001
 44
0.0000000001
 40
0.0
 40
0.0
 40
0.0
 40
0.0
 40
0.0604103608
 40
0.1144524967
 40
0.1630598398
 40
0.2084556409
 40
0.2538515713
 40
0.3024592918
 40
0.3565017425
 40
0.4169125868
 40
0.4835338414
 40
0.5554176038
 40
0.7084564545
 40
0.8614949619
 40
0.9333788027
 40
1.0
 40
1.0
 40
1.0
 40
1.0
 10
193.4462760563
 20
440.926642408
 30
0.0
 10
193.0424517071
 20
440.693495703
 30
0.0
 10
192.3099397176
 20
440.1891974319
 30
0.0
 10
191.4349157903
 20
439.2692950277
 30
0.0
 10
190.8810156149
 20
438.2510199263
 30
0.0
 10
190.6892289152
 20
437.1708060342
 30
0.0
 10
190.8810449698
 20
436.0905820295
 30
0.0
 10
191.4348967626
 20
435.0723436825
 30
0.0
 10
192.3102162234
 20
434.1522903659
 30
0.0
 10
193.4679113185
 20
433.3551422966
 30
0.0
 10
194.865261428
 20
432.7044595273
 30
0.0
 10
197.0241829563
 20
432.0487471691
 30
0.0
 10
199.9516584208
 20
431.730331332
 30
0.0
 10
202.8794597738
 20
432.0488632194
 30
0.0
 10
205.0378863052
 20
432.7043207556
 30
0.0
 10
206.0117531518
 20
433.1578958242
 30
0.0
 10
206.457094999
 20
433.4150125248
 30
0.0
  0
SPLINE
  5
357
100
AcDbEntity
  8
0
100
AcDbSpline
 62
7
  6
CONTINUOUS
 70
0
 71
3
 72
11
 73
7
 74
0
 42
0.0000001
 43
0.0000001
 44
0.0000000001
 40
0.0
 40
0.0
 40
0.0
 40
0.0
 40
0.2897809977
 40
0.5490200673
 40
0.7822030282
 40
1.0
 40
1.0
 40
1.0
 40
1.0
 10
208.6844906332
 20
431.7208029395
 30
0.0
 10
209.2265438362
 20
432.0337556341
 30
0.0
 10
210.2098086275
 20
432.7105786445
 30
0.0
 10
211.384412497
 20
433.9457578715
 30
0.0
 10
212.1280373554
 20
435.3114774626
 30
0.0
 10
212.3016845372
 20
436.2921489014
 30
0.0
 10
212.3016844256
 20
436.7625762579
 30
0.0
  0
SPLINE
  5
358
100
AcDbEntity
  8
0
100
AcDbSpline
 62
7
  6
CONTINUOUS
 70
0
 71
3
 72
23
 73
19
 74
0
 42
0.0000001
 43
0.0000001
 44
0.0000000001
 40
0.0
 40
0.0
 40
0.0
 40
0.0
 40
0.0665886714
 40
0.1384326503
 40
0.2140578972
 40
0.2916519266
 40
0.3692459515
 40
0.4448712949
 40
0.5167173575
 40
0.5833037828
 40
0.6436835861
 40
0.6976981415
 40
0.7462804527
 40
0.7916525745
 40
0.8370245551
 40
0.8856071172
 40
0.9396190512
 40
1.0
 40
1.0
 40
1.0
 40
1.0
 10
191.5399830078
 20
441.7249092232
 30
0.0
 10
192.115842404
 20
442.057379816
 30
0.0
 10
193.3750194616
 20
442.6437408365
 30
0.0
 10
195.4255327491
 20
443.2669463055
 30
0.0
 10
197.6455119344
 20
443.6506016051
 30
0.0
 10
199.951616717
 20
443.7800322023
 30
0.0
 10
202.2577705674
 20
443.6505807101
 30
0.0
 10
204.4776346909
 20
443.2670538799
 30
0.0
 10
206.5286403443
 20
442.6435574926
 30
0.0
 10
208.3353774237
 20
441.8023576391
 30
0.0
 10
209.8323403758
 20
440.7715897678
 30
0.0
 10
210.9641554289
 20
439.5819346665
 30
0.0
 10
211.6802915336
 20
438.2653139779
 30
0.0
 10
211.9283273224
 20
436.8685619593
 30
0.0
 10
211.6803609525
 20
435.4718024394
 30
0.0
 10
210.9641261441
 20
434.1551743452
 30
0.0
 10
209.8327284724
 20
432.9656815249
 30
0.0
 10
208.8855711484
 20
432.3135934761
 30
0.0
 10
208.3633880475
 20
432.0121315272
 30
0.0
  0
SPLINE
  5
359
100
AcDbEntity
  8
0
100
AcDbSpline
 62
7
  6
CONTINUOUS
 70
0
 71
3
 72
17
 73
13
 74
0
 42
0.0000001
 43
0.0000001
 44
0.0000000001
 40
0.0
 40
0.0
 40
0.0
 40
0.0
 40
0.128680444
 40
0.2702734524
 40
0.4174302495
 40
0.5617773798
 40
0.6954484859
 40
0.8127135545
 40
0.8646780272
 40
0.9125115307
 40
0.9571405353
 40
1.0
 40
1.0
 40
1.0
 40
1.0
 10
208.6844906332
 20
431.6799778187
 30
0.0
 10
207.7703515388
 20
431.1522025168
 30
0.0
 10
205.7004948362
 20
430.2981980855
 30
0.0
 10
202.3270408815
 20
429.6231332944
 30
0.0
 10
198.7588573829
 20
429.5243965858
 30
0.0
 10
195.2873296454
 20
430.0121539164
 30
0.0
 10
192.1938430533
 20
431.0454262353
 30
0.0
 10
190.0424013812
 20
432.355089242
 30
0.0
 10
188.7797088893
 20
433.6222065347
 30
0.0
 10
188.1090476551
 20
434.6088323272
 30
0.0
 10
187.695686113
 20
435.649455765
 30
0.0
 10
187.6017151649
 20
436.3701784048
 30
0.0
 10
187.6016989026
 20
436.7217511453
 30
0.0
  0
SPLINE
  5
35A
100
AcDbEntity
  8
0
100
AcDbSpline
 62
7
  6
CONTINUOUS
 70
0
 71
3
 72
23
 73
19
 74
0
 42
0.0000001
 43
0.0000001
 44
0.0000000001
 40
0.0
 40
0.0
 40
0.0
 40
0.0
 40
0.0603807593
 40
0.114392887
 40
0.1629750197
 40
0.208347109
 40
0.253719209
 40
0.3023014435
 40
0.3563156421
 40
0.4166948548
 40
0.4832817219
 40
0.5551281532
 40
0.6307534117
 40
0.708347148
 40
0.7859409876
 40
0.8615664137
 40
0.9334112328
 40
1.0
 40
1.0
 40
1.0
 40
1.0
 10
209.0380454958
 20
431.4758574414
 30
0.0
 10
209.602099561
 20
431.8015122639
 30
0.0
 10
210.6252335039
 20
432.505880398
 30
0.0
 10
211.8473820244
 20
433.7907675505
 30
0.0
 10
212.6210511232
 20
435.2130011423
 30
0.0
 10
212.8889002841
 20
436.7217794054
 30
0.0
 10
212.6210108665
 20
438.2305667995
 30
0.0
 10
211.8474080121
 20
439.6527699393
 30
0.0
 10
210.6248315018
 20
440.9378320255
 30
0.0
 10
209.0078293973
 20
442.0513019363
 30
0.0
 10
207.0561678624
 20
442.9599456977
 30
0.0
 10
204.8406597298
 20
443.6334603629
 30
0.0
 10
202.4427546588
 20
444.0477701725
 30
0.0
 10
199.9516411254
 20
444.1875862982
 30
0.0
 10
197.4605800887
 20
444.0477834348
 30
0.0
 10
195.0625352826
 20
443.6333739007
 30
0.0
 10
192.8475524971
 20
442.9601709825
 30
0.0
 10
191.4873724701
 20
442.3267816401
 30
0.0
 10
190.8653255595
 20
441.9676448326
 30
0.0
  0
SPLINE
  5
35B
100
AcDbEntity
  8
0
100
AcDbSpline
 62
7
  6
CONTINUOUS
 70
0
 71
3
 72
17
 73
13
 74
0
 42
0.0000001
 43
0.0000001
 44
0.0000000001
 40
0.0
 40
0.0
 40
0.0
 40
0.0
 40
0.1410207677
 40
0.2658548751
 40
0.3775993265
 40
0.4308318661
 40
0.4836616565
 40
0.5372866486
 40
0.5928183322
 40
0.7127338294
 40
0.8482210386
 40
1.0
 40
1.0
 40
1.0
 40
1.0
 10
190.8653255595
 20
441.9676448326
 30
0.0
 10
190.2532860321
 20
441.6142857559
 30
0.0
 10
189.1521434178
 20
440.8452757556
 30
0.0
 10
187.8744602207
 20
439.4220967537
 30
0.0
 10
187.2549752782
 20
438.0754154056
 30
0.0
 10
187.0853043655
 20
436.9912836357
 30
0.0
 10
187.1101045671
 20
436.1866796461
 30
0.0
 10
187.2853621252
 20
435.3894419093
 30
0.0
 10
187.7256609897
 20
434.3236407903
 30
0.0
 10
188.6689411774
 20
433.0528904264
 30
0.0
 10
190.2674822082
 20
431.7606922735
 30
0.0
 10
191.5492959753
 20
431.0861393942
 30
0.0
 10
192.2474328475
 20
430.7841931313
 30
0.0
  0
SPLINE
  5
35C
100
AcDbEntity
  8
0
100
AcDbSpline
 62
7
  6
CONTINUOUS
 70
0
 71
3
 72
9
 73
5
 74
0
 42
0.0000001
 43
0.0000001
 44
0.0000000001
 40
0.0
 40
0.0
 40
0.0
 40
0.0
 40
0.2395882674
 40
1.0
 40
1.0
 40
1.0
 40
1.0
 10
192.3003623124
 20
430.7614234703
 30
0.0
 10
192.6085378126
 20
430.6295602001
 30
0.0
 10
193.913322843
 20
430.1228094984
 30
0.0
 10
195.2801165662
 20
429.7817839466
 30
0.0
 10
196.3290018292
 20
429.6038439524
 30
0.0
  0
SPLINE
  5
35D
100
AcDbEntity
  8
0
100
AcDbSpline
 62
7
  6
CONTINUOUS
 70
0
 71
3
 72
9
 73
5
 74
0
 42
0.0000001
 43
0.0000001
 44
0.0000000001
 40
0.0
 40
0.0
 40
0.0
 40
0.0
 40
0.4999936226
 40
1.0
 40
1.0
 40
1.0
 40
1.0
 10
196.3290018292
 20
429.6038439524
 30
0.0
 10
197.5230846512
 20
429.4012716617
 30
0.0
 10
199.9499740522
 20
429.2047488918
 30
0.0
 10
202.3768916016
 20
429.4008971701
 30
0.0
 10
203.5710386402
 20
429.603275551
 30
0.0
  0
SPLINE
  5
35E
100
AcDbEntity
  8
0
100
AcDbSpline
 62
7
  6
CONTINUOUS
 70
0
 71
3
 72
9
 73
5
 74
0
 42
0.0000001
 43
0.0000001
 44
0.0000000001
 40
0.0
 40
0.0
 40
0.0
 40
0.0
 40
0.5220592598
 40
1.0
 40
1.0
 40
1.0
 40
1.0
 10
203.5710386402
 20
429.603275551
 30
0.0
 10
204.5663474494
 20
429.771955771
 30
0.0
 10
206.4525971847
 20
430.2346388444
 30
0.0
 10
208.2376726216
 20
431.0137647054
 30
0.0
 10
209.0380454958
 20
431.4758574414
 30
0.0
  0
SPLINE
  5
35F
100
AcDbEntity
  8
0
100
AcDbSpline
 62
7
  6
CONTINUOUS
 70
0
 71
3
 72
12
 73
8
 74
0
 42
0.0000001
 43
0.0000001
 44
0.0000000001
 40
0.0
 40
0.0
 40
0.0
 40
0.0
 40
0.2906710443
 40
0.5493091434
 40
0.7813087059
 40
0.8913858811
 40
1.0
 40
1.0
 40
1.0
 40
1.0
 10
209.9783970048
 20
430.6106556767
 30
0.0
 10
210.6279112835
 20
430.985650682
 30
0.0
 10
211.8011372315
 20
431.7994834124
 30
0.0
 10
213.1823175143
 20
433.2940399991
 30
0.0
 10
213.8884420386
 20
434.7057026445
 30
0.0
 10
214.1248422492
 20
435.8496833258
 30
0.0
 10
214.1397859869
 20
436.4173457412
 30
0.0
 10
214.122167205
 20
436.6970389803
 30
0.0
  0
SPLINE
  5
360
100
AcDbEntity
  8
0
100
AcDbSpline
 62
7
  6
CONTINUOUS
 70
0
 71
3
 72
20
 73
16
 74
0
 42
0.0000001
 43
0.0000001
 44
0.0000000001
 40
0.0
 40
0.0
 40
0.0
 40
0.0
 40
0.0428858089
 40
0.0878601456
 40
0.1362006143
 40
0.1886926687
 40
0.2456462412
 40
0.3069737639
 40
0.4407522823
 40
0.5845870404
 40
0.7308727408
 40
0.8024721559
 40
0.8717207286
 40
0.9377182035
 40
1.0
 40
1.0
 40
1.0
 40
1.0
 10
214.122167205
 20
436.6970389803
 30
0.0
 10
214.0970811028
 20
437.0952738445
 30
0.0
 10
213.9404643274
 20
437.9076140945
 30
0.0
 10
213.4092308582
 20
439.0691974242
 30
0.0
 10
212.5970960705
 20
440.1664646564
 30
0.0
 10
211.5250319238
 20
441.1787318272
 30
0.0
 10
210.2162863784
 20
442.0887103728
 30
0.0
 10
208.1313993647
 20
443.1737719861
 30
0.0
 10
205.1060029743
 20
444.144778207
 30
0.0
 10
201.1795722419
 20
444.6664379646
 30
0.0
 10
197.7983162684
 20
444.5589884647
 30
0.0
 10
195.15800125
 20
444.1339752583
 30
0.0
 10
193.2897150437
 20
443.6591157833
 30
0.0
 10
191.5599915187
 20
443.0298451453
 30
0.0
 10
190.4833655417
 20
442.5072948429
 30
0.0
 10
189.9801480188
 20
442.219923898
 30
0.0
  0
SPLINE
  5
361
100
AcDbEntity
  8
0
100
AcDbSpline
 62
7
  6
CONTINUOUS
 70
0
 71
3
 72
12
 73
8
 74
0
 42
0.0000001
 43
0.0000001
 44
0.0000000001
 40
0.0
 40
0.0
 40
0.0
 40
0.0
 40
0.2895886829
 40
0.5486331543
 40
0.7816363674
 40
0.8918378843
 40
1.0
 40
1.0
 40
1.0
 40
1.0
 10
210.027999111
 20
430.5040913505
 30
0.0
 10
210.6535032409
 20
430.8652241726
 30
0.0
 10
211.7880723636
 20
431.6466147801
 30
0.0
 10
213.143486748
 20
433.0703415564
 30
0.0
 10
213.8712911608
 20
434.4118682183
 30
0.0
 10
214.1547628969
 20
435.5059988654
 30
0.0
 10
214.2016703484
 20
436.0517528243
 30
0.0
 10
214.2016702848
 20
436.3215221024
 30
0.0
  0
SPLINE
  5
362
100
AcDbEntity
  8
0
100
AcDbSpline
 62
7
  6
CONTINUOUS
 70
0
 71
3
 72
19
 73
15
 74
0
 42
0.0000001
 43
0.0000001
 44
0.0000000001
 40
0.0
 40
0.0
 40
0.0
 40
0.0
 40
0.1312079803
 40
0.2758750414
 40
0.4255314748
 40
0.5706928595
 40
0.6389182278
 40
0.7030066437
 40
0.7623887276
 40
0.8168600523
 40
0.8666958382
 40
0.9127612789
 40
0.9565453217
 40
1.0
 40
1.0
 40
1.0
 40
1.0
 10
209.9783970048
 20
430.6106556767
 30
0.0
 10
208.8672898063
 20
429.9691614658
 30
0.0
 10
206.3387605026
 20
428.9476030667
 30
0.0
 10
202.2254765848
 20
428.1900589194
 30
0.0
 10
197.9064022175
 20
428.1697751263
 30
0.0
 10
194.3858131471
 20
428.7827945947
 30
0.0
 10
191.8119429454
 20
429.6560508508
 30
0.0
 10
190.1128508044
 20
430.458820132
 30
0.0
 10
188.6453816017
 20
431.4044458465
 30
0.0
 10
187.4437483266
 20
432.4732613585
 30
0.0
 10
186.5376821922
 20
433.6439965904
 30
0.0
 10
185.9541785299
 20
434.8936293984
 30
0.0
 10
185.7172509462
 20
436.1906801794
 30
0.0
 10
185.7984616186
 20
437.0521570979
 30
0.0
 10
185.892805349
 20
437.4664650867
 30
0.0
  0
SPLINE
  5
363
100
AcDbEntity
  8
0
100
AcDbSpline
 62
7
  6
CONTINUOUS
 70
0
 71
3
 72
9
 73
5
 74
0
 42
0.0000001
 43
0.0000001
 44
0.0000000001
 40
0.0
 40
0.0
 40
0.0
 40
0.0
 40
0.2464781239
 40
1.0
 40
1.0
 40
1.0
 40
1.0
 10
185.892805349
 20
437.4664650867
 30
0.0
 10
185.9111617476
 20
437.5470767242
 30
0.0
 10
185.993765735
 20
437.8722458502
 30
0.0
 10
186.1086136377
 20
438.1890640594
 30
0.0
 10
186.2106485472
 20
438.4203040815
 30
0.0
  0
SPLINE
  5
364
100
AcDbEntity
  8
0
100
AcDbSpline
 62
7
  6
CONTINUOUS
 70
0
 71
3
 72
9
 73
5
 74
0
 42
0.0000001
 43
0.0000001
 44
0.0000000001
 40
0.0
 40
0.0
 40
0.0
 40
0.0
 40
0.2389185096
 40
1.0
 40
1.0
 40
1.0
 40
1.0
 10
186.2106485472
 20
438.4203040815
 30
0.0
 10
186.2814531569
 20
438.5807673933
 30
0.0
 10
186.6091710422
 20
439.2385043495
 30
0.0
 10
187.0549333667
 20
439.8340774659
 30
0.0
 10
187.4335553208
 20
440.2449339904
 30
0.0
  0
SPLINE
  5
365
100
AcDbEntity
  8
0
100
AcDbSpline
 62
7
  6
CONTINUOUS
 70
0
 71
3
 72
9
 73
5
 74
0
 42
0.0000001
 43
0.0000001
 44
0.0000000001
 40
0.0
 40
0.0
 40
0.0
 40
0.0
 40
0.2393055601
 40
1.0
 40
1.0
 40
1.0
 40
1.0
 10
187.4335553208
 20
440.2449339904
 30
0.0
 10
187.5485079187
 20
440.3696732571
 30
0.0
 10
188.0450787923
 20
440.8759331644
 30
0.0
 10
188.6009912386
 20
441.3224451725
 30
0.0
 10
189.0437541366
 20
441.6301914859
 30
0.0
  0
SPLINE
  5
366
100
AcDbEntity
  8
0
100
AcDbSpline
 62
7
  6
CONTINUOUS
 70
0
 71
3
 72
17
 73
13
 74
0
 42
0.0000001
 43
0.0000001
 44
0.0000000001
 40
0.0
 40
0.0
 40
0.0
 40
0.0
 40
0.0428596337
 40
0.0874888005
 40
0.1353225004
 40
0.1872872
 40
0.3045527712
 40
0.4382245045
 40
0.5825721442
 40
0.7297288633
 40
0.8713223023
 40
1.0
 40
1.0
 40
1.0
 40
1.0
 10
233.51497618
 20
424.5153536222
 30
0.0
 10
233.5149760966
 20
424.8669279769
 30
0.0
 10
233.4209815895
 20
425.5876539828
 30
0.0
 10
233.0076265077
 20
426.62828163
 30
0.0
 10
232.3369577146
 20
427.6149110457
 30
0.0
 10
231.074257418
 20
428.8820319425
 30
0.0
 10
228.9228010073
 20
430.1916966682
 30
0.0
 10
225.8292971438
 20
431.2249661158
 30
0.0
 10
222.3577570223
 20
431.7127154013
 30
0.0
 10
218.789564428
 20
431.6139677961
 30
0.0
 10
215.4161298353
 20
430.9388933952
 30
0.0
 10
213.3462923536
 20
430.0848913205
 30
0.0
 10
212.4321721765
 20
429.5571269406
 30
0.0
  0
SPLINE
  5
367
100
AcDbEntity
  8
0
100
AcDbSpline
 62
7
  6
CONTINUOUS
 70
0
 71
3
 72
18
 73
14
 74
0
 42
0.0000001
 43
0.0000001
 44
0.0000000001
 40
0.0
 40
0.0
 40
0.0
 40
0.0
 40
0.0433244208
 40
0.0883431824
 40
0.1364428286
 40
0.1885485427
 40
0.245087772
 40
0.3060587701
 40
0.4394624974
 40
0.5834343418
 40
0.7302012928
 40
0.8714713421
 40
1.0
 40
1.0
 40
1.0
 40
1.0
 10
235.4149772821
 20
424.0742994668
 30
0.0
 10
235.4149772821
 20
424.484610424
 30
0.0
 10
235.3056782683
 20
425.3248320635
 30
0.0
 10
234.8256508732
 20
426.536679727
 30
0.0
 10
234.0482526973
 20
427.6827961004
 30
0.0
 10
232.9969126318
 20
428.7408600654
 30
0.0
 10
231.6963304983
 20
429.6932311185
 30
0.0
 10
229.6045728327
 20
430.8326215739
 30
0.0
 10
226.5415926407
 20
431.8579319282
 30
0.0
 10
222.545740503
 20
432.4205884626
 30
0.0
 10
218.4357634859
 20
432.3080494886
 30
0.0
 10
214.5490665466
 20
431.5305795953
 30
0.0
 10
212.1635471994
 20
430.5461318435
 30
0.0
 10
211.1093748951
 20
429.9375088129
 30
0.0
  0
SPLINE
  5
368
100
AcDbEntity
  8
0
100
AcDbSpline
 62
7
  6
CONTINUOUS
 70
0
 71
3
 72
11
 73
7
 74
0
 42
0.0000001
 43
0.0000001
 44
0.0000000001
 40
0.0
 40
0.0
 40
0.0
 40
0.0
 40
0.2885462405
 40
0.5473584031
 40
0.7810413815
 40
1.0
 40
1.0
 40
1.0
 40
1.0
 10
211.1093748951
 20
429.9375088129
 30
0.0
 10
210.4822694449
 20
429.5754514736
 30
0.0
 10
209.3434251486
 20
428.7912415372
 30
0.0
 10
207.9814791791
 20
427.3575066179
 30
0.0
 10
207.1170243647
 20
425.7674223007
 30
0.0
 10
206.9149772821
 20
424.6237845656
 30
0.0
 10
206.9149772821
 20
424.0742994668
 30
0.0
  0
SPLINE
  5
369
100
AcDbEntity
  8
0
100
AcDbSpline
 62
7
  6
CONTINUOUS
 70
0
 71
3
 72
11
 73
7
 74
0
 42
0.0000001
 43
0.0000001
 44
0.0000000001
 40
0.0
 40
0.0
 40
0.0
 40
0.0
 40
0.2897943377
 40
0.549045495
 40
0.7822266761
 40
1.0
 40
1.0
 40
1.0
 40
1.0
 10
212.4321721765
 20
429.5571269406
 30
0.0
 10
211.8900939796
 20
429.2441598158
 30
0.0
 10
210.9067852659
 20
428.5673012834
 30
0.0
 10
209.7321657311
 20
427.3320631394
 30
0.0
 10
208.9885935643
 20
425.9663451894
 30
0.0
 10
208.8149803026
 20
424.985729936
 30
0.0
 10
208.8149780529
 20
424.5153536222
 30
0.0
  0
SPLINE
  5
36A
100
AcDbEntity
  8
0
100
AcDbSpline
 62
7
  6
CONTINUOUS
 70
0
 71
3
 72
17
 73
13
 74
0
 42
0.0000001
 43
0.0000001
 44
0.0000000001
 40
0.0
 40
0.0
 40
0.0
 40
0.0
 40
0.1406504166
 40
0.2876881119
 40
0.4345874784
 40
0.5748426694
 40
0.7029229104
 40
0.815385057
 40
0.8657734609
 40
0.9127155798
 40
0.9570606135
 40
1.0
 40
1.0
 40
1.0
 40
1.0
 10
228.2005651815
 20
411.1963040469
 30
0.0
 10
227.0831447818
 20
410.8300265934
 30
0.0
 10
224.7256389818
 20
410.290510078
 30
0.0
 10
221.0888147305
 20
410.03277887
 30
0.0
 10
217.455766731
 20
410.3128697084
 30
0.0
 10
214.0614274267
 20
411.1140860986
 30
0.0
 10
211.1227700624
 20
412.384953731
 30
0.0
 10
209.1301544164
 20
413.833787511
 30
0.0
 10
207.9803043366
 20
415.1680447451
 30
0.0
 10
207.3716671808
 20
416.1924833418
 30
0.0
 10
206.9991711787
 20
417.2595079208
 30
0.0
 10
206.9150039389
 20
417.9917619594
 30
0.0
 10
206.9149976721
 20
418.3507603802
 30
0.0
  0
SPLINE
  5
36B
100
AcDbEntity
  8
0
100
AcDbSpline
 62
7
  6
CONTINUOUS
 70
0
 71
3
 72
18
 73
14
 74
0
 42
0.0000001
 43
0.0000001
 44
0.0000000001
 40
0.0
 40
0.0
 40
0.0
 40
0.0
 40
0.0428481578
 40
0.0874653981
 40
0.1352862996
 40
0.187237077
 40
0.2437290859
 40
0.3047358013
 40
0.4383717212
 40
0.5826807747
 40
0.729798307
 40
0.8713543401
 40
1.0
 40
1.0
 40
1.0
 40
1.0
 10
206.914992525
 20
424.0742994668
 30
0.0
 10
206.9149926207
 20
423.6686382675
 30
0.0
 10
207.0234504423
 20
422.8370402352
 30
0.0
 10
207.5003821453
 20
421.6362915373
 30
0.0
 10
208.2742792154
 20
420.4979903153
 30
0.0
 10
209.3231939004
 20
419.4446937713
 30
0.0
 10
210.6229617514
 20
418.4948441351
 30
0.0
 10
212.7167870751
 20
417.3566025363
 30
0.0
 10
215.7848179056
 20
416.3318662623
 30
0.0
 10
219.7881446686
 20
415.7698233769
 30
0.0
 10
223.905917463
 20
415.8835437118
 30
0.0
 10
227.7981932058
 20
416.6625242281
 30
0.0
 10
230.1865209498
 20
417.6479006552
 30
0.0
 10
231.2412908655
 20
418.2568687149
 30
0.0
  0
SPLINE
  5
36C
100
AcDbEntity
  8
0
100
AcDbSpline
 62
7
  6
CONTINUOUS
 70
0
 71
3
 72
17
 73
13
 74
0
 42
0.0000001
 43
0.0000001
 44
0.0000000001
 40
0.0
 40
0.0
 40
0.0
 40
0.0
 40
0.042861445
 40
0.087492668
 40
0.1353287936
 40
0.1872963454
 40
0.3045687556
 40
0.4382481658
 40
0.5826031581
 40
0.7297648853
 40
0.8713436635
 40
1.0
 40
1.0
 40
1.0
 40
1.0
 10
208.8149780529
 20
424.5153536222
 30
0.0
 10
208.8149763713
 20
424.1637643986
 30
0.0
 10
208.9089820373
 20
423.4430063085
 30
0.0
 10
209.3223716808
 20
422.4023360419
 30
0.0
 10
209.9930970087
 20
421.4156710343
 30
0.0
 10
211.2559008083
 20
420.148511985
 30
0.0
 10
213.4075191917
 20
418.8388340472
 30
0.0
 10
216.501225862
 20
417.8056010072
 30
0.0
 10
219.9729465823
 20
417.317943288
 30
0.0
 10
223.5411181201
 20
417.4168254136
 30
0.0
 10
226.9142759185
 20
418.0919743168
 30
0.0
 10
228.9838139313
 20
418.9459035194
 30
0.0
 10
229.8977823877
 20
419.4735803039
 30
0.0
  0
SPLINE
  5
36D
100
AcDbEntity
  8
0
100
AcDbSpline
 62
7
  6
CONTINUOUS
 70
0
 71
3
 72
11
 73
7
 74
0
 42
0.0000001
 43
0.0000001
 44
0.0000000001
 40
0.0
 40
0.0
 40
0.0
 40
0.0
 40
0.2177705522
 40
0.450950541
 40
0.7101897553
 40
1.0
 40
1.0
 40
1.0
 40
1.0
 10
233.5149639072
 20
424.474528493
 30
0.0
 10
233.5149856646
 20
424.0041587291
 30
0.0
 10
233.3413593202
 20
423.0235474219
 30
0.0
 10
232.5977894539
 20
421.6578784517
 30
0.0
 10
231.4232127679
 20
420.4225963046
 30
0.0
 10
230.4398896912
 20
419.7457391124
 30
0.0
 10
229.8977823877
 20
419.4327551831
 30
0.0
  0
SPLINE
  5
36E
100
AcDbEntity
  8
0
100
AcDbSpline
 62
7
  6
CONTINUOUS
 70
0
 71
3
 72
13
 73
9
 74
0
 42
0.0000001
 43
0.0000001
 44
0.0000000001
 40
0.0
 40
0.0
 40
0.0
 40
0.0
 40
0.1129199549
 40
0.2342528336
 40
0.4929971542
 40
0.7555189699
 40
0.8813140154
 40
1.0
 40
1.0
 40
1.0
 40
1.0
 10
229.5766798019
 20
419.7649088916
 30
0.0
 10
229.0464446253
 20
419.4587601951
 30
0.0
 10
227.8938600005
 20
418.9124027043
 30
0.0
 10
225.3432526018
 20
418.093684663
 30
0.0
 10
221.861526422
 20
417.6213379258
 30
0.0
 10
218.3339412434
 20
417.8587402729
 30
0.0
 10
215.6538518905
 20
418.4927448092
 30
0.0
 10
214.4059097606
 20
418.9532870436
 30
0.0
 10
213.8197534827
 20
419.2189169722
 30
0.0
  0
SPLINE
  5
36F
100
AcDbEntity
  8
0
100
AcDbSpline
 62
7
  6
CONTINUOUS
 70
0
 71
3
 72
17
 73
13
 74
0
 42
0.0000001
 43
0.0000001
 44
0.0000000001
 40
0.0
 40
0.0
 40
0.0
 40
0.0
 40
0.1512593604
 40
0.2864948912
 40
0.4065994415
 40
0.4623760763
 40
0.5163112347
 40
0.5694673589
 40
0.6229872581
 40
0.735023671
 40
0.8596256072
 40
1.0
 40
1.0
 40
1.0
 40
1.0
 10
213.8197534827
 20
419.2189169722
 30
0.0
 10
213.201186687
 20
419.4992344575
 30
0.0
 10
212.0662513775
 20
420.1209971479
 30
0.0
 10
210.6543027665
 20
421.2987729451
 30
0.0
 10
209.8231084235
 20
422.447500772
 30
0.0
 10
209.4340788835
 20
423.4079546334
 30
0.0
 10
209.2780650326
 20
424.126275548
 30
0.0
 10
209.2539144067
 20
424.851011037
 30
0.0
 10
209.3993339687
 20
425.8271339112
 30
0.0
 10
209.9374578029
 20
427.0418331653
 30
0.0
 10
211.0566414905
 20
428.3353936248
 30
0.0
 10
212.0262624146
 20
429.0410619583
 30
0.0
 10
212.5657276931
 20
429.3669299619
 30
0.0
  0
SPLINE
  5
370
100
AcDbEntity
  8
0
100
AcDbSpline
 62
7
  6
CONTINUOUS
 70
0
 71
3
 72
21
 73
17
 74
0
 42
0.0000001
 43
0.0000001
 44
0.0000000001
 40
0.0
 40
0.0
 40
0.0
 40
0.0
 40
0.0604103608
 40
0.1144524967
 40
0.1630598398
 40
0.2084556409
 40
0.2538515713
 40
0.3024592918
 40
0.3565017425
 40
0.4169125868
 40
0.4835338414
 40
0.5554176038
 40
0.7084564545
 40
0.8614949619
 40
0.9333788027
 40
1.0
 40
1.0
 40
1.0
 40
1.0
 10
227.6703867535
 20
421.1677898892
 30
0.0
 10
228.0742111027
 20
421.4009365942
 30
0.0
 10
228.8067230922
 20
421.9052348653
 30
0.0
 10
229.6817470195
 20
422.8251372695
 30
0.0
 10
230.2356471948
 20
423.843412371
 30
0.0
 10
230.4274338946
 20
424.923626263
 30
0.0
 10
230.23561784
 20
426.0038502677
 30
0.0
 10
229.6817660471
 20
427.0220886147
 30
0.0
 10
228.8064465864
 20
427.9421419313
 30
0.0
 10
227.6487514913
 20
428.7392900006
 30
0.0
 10
226.2514013818
 20
429.3899727699
 30
0.0
 10
224.0924798535
 20
430.0456851281
 30
0.0
 10
221.165004389
 20
430.3641009652
 30
0.0
 10
218.237203036
 20
430.0455690779
 30
0.0
 10
216.0787765046
 20
429.3901115416
 30
0.0
 10
215.104909658
 20
428.936536473
 30
0.0
 10
214.6595678108
 20
428.6794197724
 30
0.0
  0
SPLINE
  5
371
100
AcDbEntity
  8
0
100
AcDbSpline
 62
7
  6
CONTINUOUS
 70
0
 71
3
 72
21
 73
17
 74
0
 42
0.0000001
 43
0.0000001
 44
0.0000000001
 40
0.0
 40
0.0
 40
0.0
 40
0.0
 40
0.0604103608
 40
0.1144524967
 40
0.1630598398
 40
0.2084556409
 40
0.2538515713
 40
0.3024592918
 40
0.3565017425
 40
0.4169125868
 40
0.4835338414
 40
0.5554176038
 40
0.7084564545
 40
0.8614949619
 40
0.9333788027
 40
1.0
 40
1.0
 40
1.0
 40
1.0
 10
214.6595678108
 20
428.6794197724
 30
0.0
 10
214.2557434615
 20
428.4462730673
 30
0.0
 10
213.5232314721
 20
427.9419747963
 30
0.0
 10
212.6482075447
 20
427.0220723921
 30
0.0
 10
212.0943073694
 20
426.0037972906
 30
0.0
 10
211.9025206696
 20
424.9235833986
 30
0.0
 10
212.0943367242
 20
423.8433593939
 30
0.0
 10
212.6481885171
 20
422.8251210469
 30
0.0
 10
213.5235079778
 20
421.9050677303
 30
0.0
 10
214.6812030729
 20
421.107919661
 30
0.0
 10
216.0785531824
 20
420.4572368917
 30
0.0
 10
218.2374747107
 20
419.8015245335
 30
0.0
 10
221.1649501753
 20
419.4831086964
 30
0.0
 10
224.0927515282
 20
419.8016405837
 30
0.0
 10
226.2511780596
 20
420.45709812
 30
0.0
 10
227.2250449062
 20
420.9106731886
 30
0.0
 10
227.6703867535
 20
421.1677898892
 30
0.0
  0
SPLINE
  5
372
100
AcDbEntity
  8
0
100
AcDbSpline
 62
7
  6
CONTINUOUS
 70
0
 71
3
 72
11
 73
7
 74
0
 42
0.0000001
 43
0.0000001
 44
0.0000000001
 40
0.0
 40
0.0
 40
0.0
 40
0.0
 40
0.2897809977
 40
0.5490200673
 40
0.7822030282
 40
1.0
 40
1.0
 40
1.0
 40
1.0
 10
229.8977823877
 20
419.4735803039
 30
0.0
 10
230.4398355906
 20
419.7865329985
 30
0.0
 10
231.423100382
 20
420.4633560089
 30
0.0
 10
232.5977042514
 20
421.6985352359
 30
0.0
 10
233.3413291099
 20
423.064254827
 30
0.0
 10
233.5149762916
 20
424.0449262658
 30
0.0
 10
233.51497618
 20
424.5153536222
 30
0.0
  0
SPLINE
  5
373
100
AcDbEntity
  8
0
100
AcDbSpline
 62
7
  6
CONTINUOUS
 70
0
 71
3
 72
23
 73
19
 74
0
 42
0.0000001
 43
0.0000001
 44
0.0000000001
 40
0.0
 40
0.0
 40
0.0
 40
0.0
 40
0.0665886714
 40
0.1384326503
 40
0.2140578972
 40
0.2916519266
 40
0.3692459515
 40
0.4448712949
 40
0.5167173575
 40
0.5833037828
 40
0.6436835861
 40
0.6976981415
 40
0.7462804527
 40
0.7916525745
 40
0.8370245551
 40
0.8856071172
 40
0.9396190512
 40
1.0
 40
1.0
 40
1.0
 40
1.0
 10
212.7532747623
 20
429.4776865875
 30
0.0
 10
213.3291341585
 20
429.8101571804
 30
0.0
 10
214.588311216
 20
430.3965182009
 30
0.0
 10
216.6388245036
 20
431.0197236699
 30
0.0
 10
218.8588036888
 20
431.4033789695
 30
0.0
 10
221.1649084714
 20
431.5328095666
 30
0.0
 10
223.4710623218
 20
431.4033580745
 30
0.0
 10
225.6909264453
 20
431.0198312443
 30
0.0
 10
227.7419320987
 20
430.396334857
 30
0.0
 10
229.5486691781
 20
429.5551350035
 30
0.0
 10
231.0456321303
 20
428.5243671322
 30
0.0
 10
232.1774471833
 20
427.3347120309
 30
0.0
 10
232.893583288
 20
426.0180913423
 30
0.0
 10
233.1416190768
 20
424.6213393237
 30
0.0
 10
232.893652707
 20
423.2245798038
 30
0.0
 10
232.1774178986
 20
421.9079517095
 30
0.0
 10
231.0460202269
 20
420.7184588893
 30
0.0
 10
230.0988629028
 20
420.0663708405
 30
0.0
 10
229.5766798019
 20
419.7649088916
 30
0.0
  0
SPLINE
  5
374
100
AcDbEntity
  8
0
100
AcDbSpline
 62
7
  6
CONTINUOUS
 70
0
 71
3
 72
17
 73
13
 74
0
 42
0.0000001
 43
0.0000001
 44
0.0000000001
 40
0.0
 40
0.0
 40
0.0
 40
0.0
 40
0.128680444
 40
0.2702734524
 40
0.4174302495
 40
0.5617773798
 40
0.6954484859
 40
0.8127135545
 40
0.8646780272
 40
0.9125115307
 40
0.9571405353
 40
1.0
 40
1.0
 40
1.0
 40
1.0
 10
229.8977823877
 20
419.4327551831
 30
0.0
 10
228.9836432932
 20
418.9049798812
 30
0.0
 10
226.9137865907
 20
418.0509754499
 30
0.0
 10
223.5403326359
 20
417.3759106588
 30
0.0
 10
219.9721491374
 20
417.2771739502
 30
0.0
 10
216.5006213999
 20
417.7649312807
 30
0.0
 10
213.4071348078
 20
418.7982035997
 30
0.0
 10
211.2556931357
 20
420.1078666064
 30
0.0
 10
209.9930006437
 20
421.3749838991
 30
0.0
 10
209.3223394095
 20
422.3616096915
 30
0.0
 10
208.9089778675
 20
423.4022331294
 30
0.0
 10
208.8150069194
 20
424.1229557692
 30
0.0
 10
208.814990657
 20
424.4745285097
 30
0.0
  0
SPLINE
  5
375
100
AcDbEntity
  8
0
100
AcDbSpline
 62
7
  6
CONTINUOUS
 70
0
 71
3
 72
23
 73
19
 74
0
 42
0.0000001
 43
0.0000001
 44
0.0000000001
 40
0.0
 40
0.0
 40
0.0
 40
0.0
 40
0.0603807593
 40
0.114392887
 40
0.1629750197
 40
0.208347109
 40
0.253719209
 40
0.3023014435
 40
0.3563156421
 40
0.4166948548
 40
0.4832817219
 40
0.5551281532
 40
0.6307534117
 40
0.708347148
 40
0.7859409876
 40
0.8615664137
 40
0.9334112328
 40
1.0
 40
1.0
 40
1.0
 40
1.0
 10
230.2513372503
 20
419.2286348058
 30
0.0
 10
230.8153913154
 20
419.5542896282
 30
0.0
 10
231.8385252584
 20
420.2586577624
 30
0.0
 10
233.0606737789
 20
421.5435449149
 30
0.0
 10
233.8343428776
 20
422.9657785067
 30
0.0
 10
234.1021920386
 20
424.4745567697
 30
0.0
 10
233.8343026209
 20
425.9833441639
 30
0.0
 10
233.0606997665
 20
427.4055473037
 30
0.0
 10
231.8381232562
 20
428.6906093899
 30
0.0
 10
230.2211211517
 20
429.8040793007
 30
0.0
 10
228.2694596169
 20
430.7127230621
 30
0.0
 10
226.0539514843
 20
431.3862377273
 30
0.0
 10
223.6560464132
 20
431.8005475369
 30
0.0
 10
221.1649328798
 20
431.9403636626
 30
0.0
 10
218.6738718432
 20
431.8005607992
 30
0.0
 10
216.275827037
 20
431.3861512651
 30
0.0
 10
214.0608442515
 20
430.7129483469
 30
0.0
 10
212.7006642246
 20
430.0795590045
 30
0.0
 10
212.078617314
 20
429.720422197
 30
0.0
  0
SPLINE
  5
376
100
AcDbEntity
  8
0
100
AcDbSpline
 62
7
  6
CONTINUOUS
 70
0
 71
3
 72
17
 73
13
 74
0
 42
0.0000001
 43
0.0000001
 44
0.0000000001
 40
0.0
 40
0.0
 40
0.0
 40
0.0
 40
0.1410207677
 40
0.2658548751
 40
0.3775993265
 40
0.4308318661
 40
0.4836616565
 40
0.5372866486
 40
0.5928183322
 40
0.7127338294
 40
0.8482210386
 40
1.0
 40
1.0
 40
1.0
 40
1.0
 10
212.078617314
 20
429.720422197
 30
0.0
 10
211.4665777865
 20
429.3670631203
 30
0.0
 10
210.3654351723
 20
428.59805312
 30
0.0
 10
209.0877519751
 20
427.174874118
 30
0.0
 10
208.4682670326
 20
425.82819277
 30
0.0
 10
208.29859612
 20
424.7440610001
 30
0.0
 10
208.3233963215
 20
423.9394570105
 30
0.0
 10
208.4986538796
 20
423.1422192737
 30
0.0
 10
208.9389527441
 20
422.0764181547
 30
0.0
 10
209.8822329318
 20
420.8056677908
 30
0.0
 10
211.4807739627
 20
419.5134696379
 30
0.0
 10
212.7625877298
 20
418.8389167586
 30
0.0
 10
213.460724602
 20
418.5369704957
 30
0.0
  0
SPLINE
  5
377
100
AcDbEntity
  8
0
100
AcDbSpline
 62
7
  6
CONTINUOUS
 70
0
 71
3
 72
9
 73
5
 74
0
 42
0.0000001
 43
0.0000001
 44
0.0000000001
 40
0.0
 40
0.0
 40
0.0
 40
0.0
 40
0.2395882674
 40
1.0
 40
1.0
 40
1.0
 40
1.0
 10
213.5136540669
 20
418.5142008347
 30
0.0
 10
213.8218295671
 20
418.3823375645
 30
0.0
 10
215.1266145974
 20
417.8755868628
 30
0.0
 10
216.4934083206
 20
417.534561311
 30
0.0
 10
217.5422935836
 20
417.3566213168
 30
0.0
  0
SPLINE
  5
378
100
AcDbEntity
  8
0
100
AcDbSpline
 62
7
  6
CONTINUOUS
 70
0
 71
3
 72
9
 73
5
 74
0
 42
0.0000001
 43
0.0000001
 44
0.0000000001
 40
0.0
 40
0.0
 40
0.0
 40
0.0
 40
0.4999936226
 40
1.0
 40
1.0
 40
1.0
 40
1.0
 10
217.5422935836
 20
417.3566213168
 30
0.0
 10
218.7363764057
 20
417.154049026
 30
0.0
 10
221.1632658067
 20
416.9575262562
 30
0.0
 10
223.5901833561
 20
417.1536745345
 30
0.0
 10
224.7843303947
 20
417.3560529154
 30
0.0
  0
SPLINE
  5
379
100
AcDbEntity
  8
0
100
AcDbSpline
 62
7
  6
CONTINUOUS
 70
0
 71
3
 72
9
 73
5
 74
0
 42
0.0000001
 43
0.0000001
 44
0.0000000001
 40
0.0
 40
0.0
 40
0.0
 40
0.0
 40
0.5220592598
 40
1.0
 40
1.0
 40
1.0
 40
1.0
 10
224.7843303947
 20
417.3560529154
 30
0.0
 10
225.7796392038
 20
417.5247331354
 30
0.0
 10
227.6658889391
 20
417.9874162087
 30
0.0
 10
229.4509643761
 20
418.7665420697
 30
0.0
 10
230.2513372503
 20
419.2286348058
 30
0.0
  0
SPLINE
  5
37A
100
AcDbEntity
  8
0
100
AcDbSpline
 62
7
  6
CONTINUOUS
 70
0
 71
3
 72
12
 73
8
 74
0
 42
0.0000001
 43
0.0000001
 44
0.0000000001
 40
0.0
 40
0.0
 40
0.0
 40
0.0
 40
0.2906710443
 40
0.5493091434
 40
0.7813087059
 40
0.8913858811
 40
1.0
 40
1.0
 40
1.0
 40
1.0
 10
231.1916887592
 20
418.3634330411
 30
0.0
 10
231.841203038
 20
418.7384280464
 30
0.0
 10
233.0144289859
 20
419.5522607768
 30
0.0
 10
234.3956092688
 20
421.0468173635
 30
0.0
 10
235.101733793
 20
422.4584800089
 30
0.0
 10
235.3381340037
 20
423.6024606901
 30
0.0
 10
235.3530777413
 20
424.1701231055
 30
0.0
 10
235.3354589595
 20
424.4498163447
 30
0.0
  0
SPLINE
  5
37B
100
AcDbEntity
  8
0
100
AcDbSpline
 62
7
  6
CONTINUOUS
 70
0
 71
3
 72
20
 73
16
 74
0
 42
0.0000001
 43
0.0000001
 44
0.0000000001
 40
0.0
 40
0.0
 40
0.0
 40
0.0
 40
0.0428858089
 40
0.0878601456
 40
0.1362006143
 40
0.1886926687
 40
0.2456462412
 40
0.3069737639
 40
0.4407522823
 40
0.5845870404
 40
0.7308727408
 40
0.8024721559
 40
0.8717207286
 40
0.9377182035
 40
1.0
 40
1.0
 40
1.0
 40
1.0
 10
235.3354589595
 20
424.4498163447
 30
0.0
 10
235.3103728572
 20
424.8480512089
 30
0.0
 10
235.1537560818
 20
425.6603914589
 30
0.0
 10
234.6225226127
 20
426.8219747886
 30
0.0
 10
233.8103878249
 20
427.9192420208
 30
0.0
 10
232.7383236782
 20
428.9315091915
 30
0.0
 10
231.4295781328
 20
429.8414877372
 30
0.0
 10
229.3446911191
 20
430.9265493505
 30
0.0
 10
226.3192947287
 20
431.8975555713
 30
0.0
 10
222.3928639963
 20
432.419215329
 30
0.0
 10
219.0116080228
 20
432.3117658291
 30
0.0
 10
216.3712930045
 20
431.8867526226
 30
0.0
 10
214.5030067981
 20
431.4118931476
 30
0.0
 10
212.7732832732
 20
430.7826225097
 30
0.0
 10
211.6966572962
 20
430.2600722073
 30
0.0
 10
211.1934397732
 20
429.9727012623
 30
0.0
  0
SPLINE
  5
37C
100
AcDbEntity
  8
0
100
AcDbSpline
 62
7
  6
CONTINUOUS
 70
0
 71
3
 72
12
 73
8
 74
0
 42
0.0000001
 43
0.0000001
 44
0.0000000001
 40
0.0
 40
0.0
 40
0.0
 40
0.0
 40
0.2895886829
 40
0.5486331543
 40
0.7816363674
 40
0.8918378843
 40
1.0
 40
1.0
 40
1.0
 40
1.0
 10
231.2412908655
 20
418.2568687149
 30
0.0
 10
231.8667949953
 20
418.618001537
 30
0.0
 10
233.001364118
 20
419.3993921445
 30
0.0
 10
234.3567785024
 20
420.8231189208
 30
0.0
 10
235.0845829152
 20
422.1646455827
 30
0.0
 10
235.3680546513
 20
423.2587762298
 30
0.0
 10
235.4149621029
 20
423.8045301887
 30
0.0
 10
235.4149620392
 20
424.0742994668
 30
0.0
  0
SPLINE
  5
37D
100
AcDbEntity
  8
0
100
AcDbSpline
 62
7
  6
CONTINUOUS
 70
0
 71
3
 72
19
 73
15
 74
0
 42
0.0000001
 43
0.0000001
 44
0.0000000001
 40
0.0
 40
0.0
 40
0.0
 40
0.0
 40
0.1312079803
 40
0.2758750414
 40
0.4255314748
 40
0.5706928595
 40
0.6389182278
 40
0.7030066437
 40
0.7623887276
 40
0.8168600523
 40
0.8666958382
 40
0.9127612789
 40
0.9565453217
 40
1.0
 40
1.0
 40
1.0
 40
1.0
 10
231.1916887592
 20
418.3634330411
 30
0.0
 10
230.0805815607
 20
417.7219388302
 30
0.0
 10
227.5520522571
 20
416.7003804311
 30
0.0
 10
223.4387683392
 20
415.9428362837
 30
0.0
 10
219.1196939719
 20
415.9225524907
 30
0.0
 10
215.5991049015
 20
416.5355719591
 30
0.0
 10
213.0252346999
 20
417.4088282151
 30
0.0
 10
211.3261425589
 20
418.2115974964
 30
0.0
 10
209.8586733561
 20
419.1572232109
 30
0.0
 10
208.6570400811
 20
420.2260387228
 30
0.0
 10
207.7509739466
 20
421.3967739548
 30
0.0
 10
207.1674702843
 20
422.6464067628
 30
0.0
 10
206.9305427007
 20
423.9434575438
 30
0.0
 10
207.011753373
 20
424.8049344623
 30
0.0
 10
207.1060971034
 20
425.2192424511
 30
0.0
  0
SPLINE
  5
37E
100
AcDbEntity
  8
0
100
AcDbSpline
 62
7
  6
CONTINUOUS
 70
0
 71
3
 72
9
 73
5
 74
0
 42
0.0000001
 43
0.0000001
 44
0.0000000001
 40
0.0
 40
0.0
 40
0.0
 40
0.0
 40
0.2464781239
 40
1.0
 40
1.0
 40
1.0
 40
1.0
 10
207.1060971034
 20
425.2192424511
 30
0.0
 10
207.124453502
 20
425.2998540885
 30
0.0
 10
207.2070574895
 20
425.6250232146
 30
0.0
 10
207.3219053922
 20
425.9418414238
 30
0.0
 10
207.4239403016
 20
426.1730814458
 30
0.0
  0
SPLINE
  5
37F
100
AcDbEntity
  8
0
100
AcDbSpline
 62
7
  6
CONTINUOUS
 70
0
 71
3
 72
9
 73
5
 74
0
 42
0.0000001
 43
0.0000001
 44
0.0000000001
 40
0.0
 40
0.0
 40
0.0
 40
0.0
 40
0.2389185096
 40
1.0
 40
1.0
 40
1.0
 40
1.0
 10
207.4239403016
 20
426.1730814458
 30
0.0
 10
207.4947449113
 20
426.3335447577
 30
0.0
 10
207.8224627966
 20
426.9912817139
 30
0.0
 10
208.2682251212
 20
427.5868548302
 30
0.0
 10
208.6468470752
 20
427.9977113548
 30
0.0
  0
SPLINE
  5
380
100
AcDbEntity
  8
0
100
AcDbSpline
 62
7
  6
CONTINUOUS
 70
0
 71
3
 72
9
 73
5
 74
0
 42
0.0000001
 43
0.0000001
 44
0.0000000001
 40
0.0
 40
0.0
 40
0.0
 40
0.0
 40
0.2393055601
 40
1.0
 40
1.0
 40
1.0
 40
1.0
 10
208.6468470752
 20
427.9977113548
 30
0.0
 10
208.7617996732
 20
428.1224506215
 30
0.0
 10
209.2583705468
 20
428.6287105288
 30
0.0
 10
209.814282993
 20
429.0752225369
 30
0.0
 10
210.257045891
 20
429.3829688503
 30
0.0
  0
SPLINE
  5
381
100
AcDbEntity
  8
0
100
AcDbSpline
 62
7
  6
CONTINUOUS
 70
0
 71
3
 72
17
 73
13
 74
0
 42
0.0000001
 43
0.0000001
 44
0.0000000001
 40
0.0
 40
0.0
 40
0.0
 40
0.0
 40
0.0428596337
 40
0.0874888005
 40
0.1353225004
 40
0.1872872
 40
0.3045527712
 40
0.4382245045
 40
0.5825721442
 40
0.7297288633
 40
0.8713223023
 40
1.0
 40
1.0
 40
1.0
 40
1.0
 10
254.7282679344
 20
412.2681309866
 30
0.0
 10
254.728267851
 20
412.6197053413
 30
0.0
 10
254.6342733439
 20
413.3404313472
 30
0.0
 10
254.2209182621
 20
414.3810589944
 30
0.0
 10
253.550249469
 20
415.3676884101
 30
0.0
 10
252.2875491725
 20
416.6348093069
 30
0.0
 10
250.1360927617
 20
417.9444740326
 30
0.0
 10
247.0425888982
 20
418.9777434802
 30
0.0
 10
243.5710487767
 20
419.4654927657
 30
0.0
 10
240.0028561824
 20
419.3667451605
 30
0.0
 10
236.6294215897
 20
418.6916707596
 30
0.0
 10
234.559584108
 20
417.8376686849
 30
0.0
 10
233.645463931
 20
417.3099043049
 30
0.0
  0
SPLINE
  5
382
100
AcDbEntity
  8
0
100
AcDbSpline
 62
7
  6
CONTINUOUS
 70
0
 71
3
 72
18
 73
14
 74
0
 42
0.0000001
 43
0.0000001
 44
0.0000000001
 40
0.0
 40
0.0
 40
0.0
 40
0.0
 40
0.0433244208
 40
0.0883431824
 40
0.1364428286
 40
0.1885485427
 40
0.245087772
 40
0.3060587701
 40
0.4394624974
 40
0.5834343418
 40
0.7302012928
 40
0.8714713421
 40
1.0
 40
1.0
 40
1.0
 40
1.0
 10
256.6282690365
 20
411.8270768312
 30
0.0
 10
256.6282690365
 20
412.2373877884
 30
0.0
 10
256.5189700227
 20
413.0776094279
 30
0.0
 10
256.0389426276
 20
414.2894570914
 30
0.0
 10
255.2615444517
 20
415.4355734648
 30
0.0
 10
254.2102043863
 20
416.4936374298
 30
0.0
 10
252.9096222527
 20
417.4460084829
 30
0.0
 10
250.8178645871
 20
418.5853989383
 30
0.0
 10
247.7548843951
 20
419.6107092926
 30
0.0
 10
243.7590322574
 20
420.173365827
 30
0.0
 10
239.6490552403
 20
420.060826853
 30
0.0
 10
235.762358301
 20
419.2833569597
 30
0.0
 10
233.3768389538
 20
418.2989092079
 30
0.0
 10
232.3226666495
 20
417.6902861773
 30
0.0
  0
SPLINE
  5
383
100
AcDbEntity
  8
0
100
AcDbSpline
 62
7
  6
CONTINUOUS
 70
0
 71
3
 72
11
 73
7
 74
0
 42
0.0000001
 43
0.0000001
 44
0.0000000001
 40
0.0
 40
0.0
 40
0.0
 40
0.0
 40
0.2885462405
 40
0.5473584031
 40
0.7810413815
 40
1.0
 40
1.0
 40
1.0
 40
1.0
 10
232.3226666495
 20
417.6902861773
 30
0.0
 10
231.6955611994
 20
417.328228838
 30
0.0
 10
230.556716903
 20
416.5440189016
 30
0.0
 10
229.1947709335
 20
415.1102839823
 30
0.0
 10
228.3303161191
 20
413.5201996651
 30
0.0
 10
228.1282690365
 20
412.37656193
 30
0.0
 10
228.1282690365
 20
411.8270768312
 30
0.0
  0
SPLINE
  5
384
100
AcDbEntity
  8
0
100
AcDbSpline
 62
7
  6
CONTINUOUS
 70
0
 71
3
 72
11
 73
7
 74
0
 42
0.0000001
 43
0.0000001
 44
0.0000000001
 40
0.0
 40
0.0
 40
0.0
 40
0.0
 40
0.2897943377
 40
0.549045495
 40
0.7822266761
 40
1.0
 40
1.0
 40
1.0
 40
1.0
 10
233.645463931
 20
417.3099043049
 30
0.0
 10
233.103385734
 20
416.9969371802
 30
0.0
 10
232.1200770203
 20
416.3200786478
 30
0.0
 10
230.9454574855
 20
415.0848405038
 30
0.0
 10
230.2018853187
 20
413.7191225538
 30
0.0
 10
230.028272057
 20
412.7385073004
 30
0.0
 10
230.0282698073
 20
412.2681309866
 30
0.0
  0
SPLINE
  5
385
100
AcDbEntity
  8
0
100
AcDbSpline
 62
7
  6
CONTINUOUS
 70
0
 71
3
 72
17
 73
13
 74
0
 42
0.0000001
 43
0.0000001
 44
0.0000000001
 40
0.0
 40
0.0
 40
0.0
 40
0.0
 40
0.1406504166
 40
0.2876881119
 40
0.4345874784
 40
0.5748426694
 40
0.7029229104
 40
0.815385057
 40
0.8657734609
 40
0.9127155798
 40
0.9570606135
 40
1.0
 40
1.0
 40
1.0
 40
1.0
 10
249.4138569359
 20
398.9490814113
 30
0.0
 10
248.2964365362
 20
398.5828039578
 30
0.0
 10
245.9389307362
 20
398.0432874424
 30
0.0
 10
242.3021064849
 20
397.7855562344
 30
0.0
 10
238.6690584854
 20
398.0656470728
 30
0.0
 10
235.2747191811
 20
398.866863463
 30
0.0
 10
232.3360618168
 20
400.1377310953
 30
0.0
 10
230.3434461708
 20
401.5865648754
 30
0.0
 10
229.193596091
 20
402.9208221095
 30
0.0
 10
228.5849589352
 20
403.9452607062
 30
0.0
 10
228.2124629331
 20
405.0122852852
 30
0.0
 10
228.1282956933
 20
405.7445393238
 30
0.0
 10
228.1282894265
 20
406.1035377446
 30
0.0
  0
SPLINE
  5
386
100
AcDbEntity
  8
0
100
AcDbSpline
 62
7
  6
CONTINUOUS
 70
0
 71
3
 72
18
 73
14
 74
0
 42
0.0000001
 43
0.0000001
 44
0.0000000001
 40
0.0
 40
0.0
 40
0.0
 40
0.0
 40
0.0428481578
 40
0.0874653981
 40
0.1352862996
 40
0.187237077
 40
0.2437290859
 40
0.3047358013
 40
0.4383717212
 40
0.5826807747
 40
0.729798307
 40
0.8713543401
 40
1.0
 40
1.0
 40
1.0
 40
1.0
 10
228.1282842794
 20
411.8270768312
 30
0.0
 10
228.1282843751
 20
411.4214156319
 30
0.0
 10
228.2367421967
 20
410.5898175996
 30
0.0
 10
228.7136738997
 20
409.3890689017
 30
0.0
 10
229.4875709698
 20
408.2507676796
 30
0.0
 10
230.5364856548
 20
407.1974711357
 30
0.0
 10
231.8362535059
 20
406.2476214995
 30
0.0
 10
233.9300788295
 20
405.1093799007
 30
0.0
 10
236.99810966
 20
404.0846436267
 30
0.0
 10
241.001436423
 20
403.5226007413
 30
0.0
 10
245.1192092175
 20
403.6363210762
 30
0.0
 10
249.0114849602
 20
404.4153015925
 30
0.0
 10
251.3998127042
 20
405.4006780196
 30
0.0
 10
252.4545826199
 20
406.0096460793
 30
0.0
  0
SPLINE
  5
387
100
AcDbEntity
  8
0
100
AcDbSpline
 62
7
  6
CONTINUOUS
 70
0
 71
3
 72
17
 73
13
 74
0
 42
0.0000001
 43
0.0000001
 44
0.0000000001
 40
0.0
 40
0.0
 40
0.0
 40
0.0
 40
0.042861445
 40
0.087492668
 40
0.1353287936
 40
0.1872963454
 40
0.3045687556
 40
0.4382481658
 40
0.5826031581
 40
0.7297648853
 40
0.8713436635
 40
1.0
 40
1.0
 40
1.0
 40
1.0
 10
230.0282698073
 20
412.2681309866
 30
0.0
 10
230.0282681257
 20
411.916541763
 30
0.0
 10
230.1222737917
 20
411.1957836729
 30
0.0
 10
230.5356634352
 20
410.1551134063
 30
0.0
 10
231.2063887631
 20
409.1684483987
 30
0.0
 10
232.4691925627
 20
407.9012893493
 30
0.0
 10
234.6208109461
 20
406.5916114116
 30
0.0
 10
237.7145176164
 20
405.5583783716
 30
0.0
 10
241.1862383367
 20
405.0707206524
 30
0.0
 10
244.7544098745
 20
405.169602778
 30
0.0
 10
248.1275676729
 20
405.8447516812
 30
0.0
 10
250.1971056857
 20
406.6986808838
 30
0.0
 10
251.1110741421
 20
407.2263576683
 30
0.0
  0
SPLINE
  5
388
100
AcDbEntity
  8
0
100
AcDbSpline
 62
7
  6
CONTINUOUS
 70
0
 71
3
 72
11
 73
7
 74
0
 42
0.0000001
 43
0.0000001
 44
0.0000000001
 40
0.0
 40
0.0
 40
0.0
 40
0.0
 40
0.2177705522
 40
0.450950541
 40
0.7101897553
 40
1.0
 40
1.0
 40
1.0
 40
1.0
 10
254.7282556616
 20
412.2273058574
 30
0.0
 10
254.728277419
 20
411.7569360935
 30
0.0
 10
254.5546510746
 20
410.7763247863
 30
0.0
 10
253.8110812084
 20
409.4106558161
 30
0.0
 10
252.6365045223
 20
408.1753736689
 30
0.0
 10
251.6531814456
 20
407.4985164768
 30
0.0
 10
251.1110741421
 20
407.1855325474
 30
0.0
  0
SPLINE
  5
389
100
AcDbEntity
  8
0
100
AcDbSpline
 62
7
  6
CONTINUOUS
 70
0
 71
3
 72
13
 73
9
 74
0
 42
0.0000001
 43
0.0000001
 44
0.0000000001
 40
0.0
 40
0.0
 40
0.0
 40
0.0
 40
0.1129199345
 40
0.2342528473
 40
0.4929971565
 40
0.7555189708
 40
0.8813140158
 40
1.0
 40
1.0
 40
1.0
 40
1.0
 10
250.7899715564
 20
407.517686256
 30
0.0
 10
250.2597319716
 20
407.211545411
 30
0.0
 10
249.1071545753
 20
406.6651749318
 30
0.0
 10
246.5565426277
 20
405.846465727
 30
0.0
 10
243.0748187638
 20
405.3741139722
 30
0.0
 10
239.5472329184
 20
405.6115177964
 30
0.0
 10
236.8671436592
 20
406.2455221446
 30
0.0
 10
235.619201515
 20
406.706064408
 30
0.0
 10
235.0330452371
 20
406.9716943366
 30
0.0
  0
SPLINE
  5
38A
100
AcDbEntity
  8
0
100
AcDbSpline
 62
7
  6
CONTINUOUS
 70
0
 71
3
 72
17
 73
13
 74
0
 42
0.0000001
 43
0.0000001
 44
0.0000000001
 40
0.0
 40
0.0
 40
0.0
 40
0.0
 40
0.1512593523
 40
0.2864948759
 40
0.4065994199
 40
0.4623760517
 40
0.5163112073
 40
0.5694673286
 40
0.6229872247
 40
0.7350236313
 40
0.8596255493
 40
1.0
 40
1.0
 40
1.0
 40
1.0
 10
235.0330452371
 20
406.9716943366
 30
0.0
 10
234.414478445
 20
407.2520118202
 30
0.0
 10
233.2795431415
 20
407.8737745067
 30
0.0
 10
231.8675945364
 20
409.051550295
 30
0.0
 10
231.0364001912
 20
410.2002781126
 30
0.0
 10
230.6473706494
 20
411.1607319669
 30
0.0
 10
230.4913567887
 20
411.8790528782
 30
0.0
 10
230.4672061622
 20
412.6037883533
 30
0.0
 10
230.6126256925
 20
413.5799112662
 30
0.0
 10
231.1507498075
 20
414.7946100617
 30
0.0
 10
232.2699320814
 20
416.0881726602
 30
0.0
 10
233.2395560469
 20
416.7938369292
 30
0.0
 10
233.779020526
 20
417.1197068172
 30
0.0
  0
SPLINE
  5
38B
100
AcDbEntity
  8
0
100
AcDbSpline
 62
7
  6
CONTINUOUS
 70
0
 71
3
 72
21
 73
17
 74
0
 42
0.0000001
 43
0.0000001
 44
0.0000000001
 40
0.0
 40
0.0
 40
0.0
 40
0.0
 40
0.06041036
 40
0.1144524964
 40
0.1630598395
 40
0.2084556406
 40
0.2538515711
 40
0.3024592916
 40
0.3565017424
 40
0.4169125867
 40
0.4835338413
 40
0.5554176037
 40
0.7084564546
 40
0.861494962
 40
0.9333788015
 40
1.0
 40
1.0
 40
1.0
 40
1.0
 10
248.8836785079
 20
408.9205672536
 30
0.0
 10
249.2875014412
 20
409.1537163982
 30
0.0
 10
250.0200153747
 20
409.6580112732
 30
0.0
 10
250.8950386521
 20
410.5779148482
 30
0.0
 10
251.4489389778
 20
411.5961896838
 30
0.0
 10
251.6407256416
 20
412.6764036407
 30
0.0
 10
251.4489095965
 20
413.7566276283
 30
0.0
 10
250.8950578009
 20
414.7748659802
 30
0.0
 10
250.0197383409
 20
415.6949192956
 30
0.0
 10
248.8620432464
 20
416.4920673638
 30
0.0
 10
247.464693133
 20
417.1427501398
 30
0.0
 10
245.3057716273
 20
417.7984624596
 30
0.0
 10
242.3782959766
 20
418.1168786129
 30
0.0
 10
239.4504952718
 20
417.7983456434
 30
0.0
 10
237.292067532
 20
417.1428901656
 30
0.0
 10
236.3182029754
 20
416.6893111479
 30
0.0
 10
235.8728595652
 20
416.4321971368
 30
0.0
  0
SPLINE
  5
38C
100
AcDbEntity
  8
0
100
AcDbSpline
 62
7
  6
CONTINUOUS
 70
0
 71
3
 72
21
 73
17
 74
0
 42
0.0000001
 43
0.0000001
 44
0.0000000001
 40
0.0
 40
0.0
 40
0.0
 40
0.0
 40
0.06041036
 40
0.1144524964
 40
0.1630598395
 40
0.2084556406
 40
0.2538515711
 40
0.3024592916
 40
0.3565017424
 40
0.4169125867
 40
0.4835338413
 40
0.5554176037
 40
0.7084564546
 40
0.861494962
 40
0.9333788015
 40
1.0
 40
1.0
 40
1.0
 40
1.0
 10
235.8728595652
 20
416.4321971368
 30
0.0
 10
235.4690366319
 20
416.1990479922
 30
0.0
 10
234.7365226983
 20
415.6947531172
 30
0.0
 10
233.8614994209
 20
414.7748495422
 30
0.0
 10
233.3075990952
 20
413.7565747066
 30
0.0
 10
233.1158124315
 20
412.6763607496
 30
0.0
 10
233.3076284765
 20
411.5961367621
 30
0.0
 10
233.8614802721
 20
410.5778984101
 30
0.0
 10
234.7367997322
 20
409.6578450947
 30
0.0
 10
235.8944948267
 20
408.8606970265
 30
0.0
 10
237.2918449401
 20
408.2100142506
 30
0.0
 10
239.4507664457
 20
407.5543019308
 30
0.0
 10
242.3782420964
 20
407.2358857774
 30
0.0
 10
245.3060428012
 20
407.5544187469
 30
0.0
 10
247.464470541
 20
408.2098742248
 30
0.0
 10
248.4383350976
 20
408.6634532424
 30
0.0
 10
248.8836785079
 20
408.9205672536
 30
0.0
  0
SPLINE
  5
38D
100
AcDbEntity
  8
0
100
AcDbSpline
 62
7
  6
CONTINUOUS
 70
0
 71
3
 72
11
 73
7
 74
0
 42
0.0000001
 43
0.0000001
 44
0.0000000001
 40
0.0
 40
0.0
 40
0.0
 40
0.0
 40
0.2897809977
 40
0.5490200673
 40
0.7822030282
 40
1.0
 40
1.0
 40
1.0
 40
1.0
 10
251.1110741421
 20
407.2263576683
 30
0.0
 10
251.653127345
 20
407.5393103629
 30
0.0
 10
252.6363921364
 20
408.2161333733
 30
0.0
 10
253.8109960058
 20
409.4513126003
 30
0.0
 10
254.5546208643
 20
410.8170321914
 30
0.0
 10
254.728268046
 20
411.7977036302
 30
0.0
 10
254.7282679344
 20
412.2681309866
 30
0.0
  0
SPLINE
  5
38E
100
AcDbEntity
  8
0
100
AcDbSpline
 62
7
  6
CONTINUOUS
 70
0
 71
3
 72
23
 73
19
 74
0
 42
0.0000001
 43
0.0000001
 44
0.0000000001
 40
0.0
 40
0.0
 40
0.0
 40
0.0
 40
0.0665886598
 40
0.1384326535
 40
0.214057897
 40
0.2916519258
 40
0.3692459503
 40
0.4448712931
 40
0.5167173552
 40
0.58330378
 40
0.6436835829
 40
0.6976981379
 40
0.7462804488
 40
0.7916525704
 40
0.8370245508
 40
0.8856071106
 40
0.9396190436
 40
1.0
 40
1.0
 40
1.0
 40
1.0
 10
233.9665665167
 20
417.2304639519
 30
0.0
 10
234.5424277811
 20
417.5629310868
 30
0.0
 10
235.8016016635
 20
418.1492978343
 30
0.0
 10
237.8521165299
 20
418.7725002538
 30
0.0
 10
240.0720953659
 20
419.1561565532
 30
0.0
 10
242.3782002523
 20
419.2855868735
 30
0.0
 10
244.6843540683
 20
419.1561354538
 30
0.0
 10
246.9042182017
 20
418.772608605
 30
0.0
 10
248.9552238528
 20
418.149112222
 30
0.0
 10
250.7619609321
 20
417.3079123684
 30
0.0
 10
252.2589238864
 20
416.2771444942
 30
0.0
 10
253.3907389321
 20
415.0874894029
 30
0.0
 10
254.1068750605
 20
413.7708686822
 30
0.0
 10
254.3549107672
 20
412.374116766
 30
0.0
 10
254.1069447355
 20
410.9773568737
 30
0.0
 10
253.3907085766
 20
409.6607304053
 30
0.0
 10
252.2593153976
 20
408.4712312872
 30
0.0
 10
251.3121499647
 20
407.8191564926
 30
0.0
 10
250.7899715564
 20
407.517686256
 30
0.0
  0
SPLINE
  5
38F
100
AcDbEntity
  8
0
100
AcDbSpline
 62
7
  6
CONTINUOUS
 70
0
 71
3
 72
17
 73
13
 74
0
 42
0.0000001
 43
0.0000001
 44
0.0000000001
 40
0.0
 40
0.0
 40
0.0
 40
0.0
 40
0.128680444
 40
0.2702734524
 40
0.4174302495
 40
0.5617773798
 40
0.6954484859
 40
0.8127135545
 40
0.8646780272
 40
0.9125115307
 40
0.9571405353
 40
1.0
 40
1.0
 40
1.0
 40
1.0
 10
251.1110741421
 20
407.1855325474
 30
0.0
 10
250.1969350476
 20
406.6577572456
 30
0.0
 10
248.1270783451
 20
405.8037528143
 30
0.0
 10
244.7536243903
 20
405.1286880232
 30
0.0
 10
241.1854408918
 20
405.0299513146
 30
0.0
 10
237.7139131543
 20
405.5177086451
 30
0.0
 10
234.6204265622
 20
406.550980964
 30
0.0
 10
232.4689848901
 20
407.8606439708
 30
0.0
 10
231.2062923981
 20
409.1277612635
 30
0.0
 10
230.5356311639
 20
410.1143870559
 30
0.0
 10
230.1222696219
 20
411.1550104938
 30
0.0
 10
230.0282986738
 20
411.8757331336
 30
0.0
 10
230.0282824115
 20
412.2273058741
 30
0.0
  0
SPLINE
  5
390
100
AcDbEntity
  8
0
100
AcDbSpline
 62
7
  6
CONTINUOUS
 70
0
 71
3
 72
23
 73
19
 74
0
 42
0.0000001
 43
0.0000001
 44
0.0000000001
 40
0.0
 40
0.0
 40
0.0
 40
0.0
 40
0.0603807593
 40
0.114392887
 40
0.1629750197
 40
0.208347109
 40
0.253719209
 40
0.3023014435
 40
0.3563156421
 40
0.4166948548
 40
0.4832817219
 40
0.5551281532
 40
0.6307534117
 40
0.708347148
 40
0.7859409876
 40
0.8615664137
 40
0.9334112328
 40
1.0
 40
1.0
 40
1.0
 40
1.0
 10
251.4646290047
 20
406.9814121702
 30
0.0
 10
252.0286830698
 20
407.3070669926
 30
0.0
 10
253.0518170128
 20
408.0114351268
 30
0.0
 10
254.2739655333
 20
409.2963222793
 30
0.0
 10
255.047634632
 20
410.718555871
 30
0.0
 10
255.315483793
 20
412.2273341341
 30
0.0
 10
255.0475943754
 20
413.7361215283
 30
0.0
 10
254.2739915209
 20
415.1583246681
 30
0.0
 10
253.0514150106
 20
416.4433867543
 30
0.0
 10
251.4344129061
 20
417.5568566651
 30
0.0
 10
249.4827513713
 20
418.4655004265
 30
0.0
 10
247.2672432387
 20
419.1390150917
 30
0.0
 10
244.8693381676
 20
419.5533249013
 30
0.0
 10
242.3782246342
 20
419.693141027
 30
0.0
 10
239.8871635976
 20
419.5533381636
 30
0.0
 10
237.4891187914
 20
419.1389286295
 30
0.0
 10
235.2741360059
 20
418.4657257113
 30
0.0
 10
233.913955979
 20
417.8323363689
 30
0.0
 10
233.2919090684
 20
417.4731995614
 30
0.0
  0
SPLINE
  5
391
100
AcDbEntity
  8
0
100
AcDbSpline
 62
7
  6
CONTINUOUS
 70
0
 71
3
 72
17
 73
13
 74
0
 42
0.0000001
 43
0.0000001
 44
0.0000000001
 40
0.0
 40
0.0
 40
0.0
 40
0.0
 40
0.1410207677
 40
0.2658548751
 40
0.3775993265
 40
0.4308318661
 40
0.4836616565
 40
0.5372866486
 40
0.5928183322
 40
0.7127338294
 40
0.8482210386
 40
1.0
 40
1.0
 40
1.0
 40
1.0
 10
233.2919090684
 20
417.4731995614
 30
0.0
 10
232.6798695409
 20
417.1198404847
 30
0.0
 10
231.5787269267
 20
416.3508304844
 30
0.0
 10
230.3010437295
 20
414.9276514824
 30
0.0
 10
229.681558787
 20
413.5809701344
 30
0.0
 10
229.5118878744
 20
412.4968383645
 30
0.0
 10
229.5366880759
 20
411.6922343749
 30
0.0
 10
229.7119456341
 20
410.8949966381
 30
0.0
 10
230.1522444985
 20
409.8291955191
 30
0.0
 10
231.0955246862
 20
408.5584451552
 30
0.0
 10
232.6940657171
 20
407.2662470023
 30
0.0
 10
233.9758794842
 20
406.591694123
 30
0.0
 10
234.6740163564
 20
406.28974786
 30
0.0
  0
SPLINE
  5
392
100
AcDbEntity
  8
0
100
AcDbSpline
 62
7
  6
CONTINUOUS
 70
0
 71
3
 72
9
 73
5
 74
0
 42
0.0000001
 43
0.0000001
 44
0.0000000001
 40
0.0
 40
0.0
 40
0.0
 40
0.0
 40
0.2395882674
 40
1.0
 40
1.0
 40
1.0
 40
1.0
 10
234.7269458213
 20
406.2669781991
 30
0.0
 10
235.0351213215
 20
406.1351149288
 30
0.0
 10
236.3399063518
 20
405.6283642272
 30
0.0
 10
237.706700075
 20
405.2873386754
 30
0.0
 10
238.755585338
 20
405.1093986812
 30
0.0
  0
SPLINE
  5
393
100
AcDbEntity
  8
0
100
AcDbSpline
 62
7
  6
CONTINUOUS
 70
0
 71
3
 72
9
 73
5
 74
0
 42
0.0000001
 43
0.0000001
 44
0.0000000001
 40
0.0
 40
0.0
 40
0.0
 40
0.0
 40
0.4999936226
 40
1.0
 40
1.0
 40
1.0
 40
1.0
 10
238.755585338
 20
405.1093986812
 30
0.0
 10
239.9496681601
 20
404.9068263904
 30
0.0
 10
242.3765575611
 20
404.7103036206
 30
0.0
 10
244.8034751105
 20
404.9064518989
 30
0.0
 10
245.9976221491
 20
405.1088302798
 30
0.0
  0
SPLINE
  5
394
100
AcDbEntity
  8
0
100
AcDbSpline
 62
7
  6
CONTINUOUS
 70
0
 71
3
 72
9
 73
5
 74
0
 42
0.0000001
 43
0.0000001
 44
0.0000000001
 40
0.0
 40
0.0
 40
0.0
 40
0.0
 40
0.5220592598
 40
1.0
 40
1.0
 40
1.0
 40
1.0
 10
245.9976221491
 20
405.1088302798
 30
0.0
 10
246.9929309582
 20
405.2775104998
 30
0.0
 10
248.8791806935
 20
405.7401935731
 30
0.0
 10
250.6642561305
 20
406.5193194341
 30
0.0
 10
251.4646290047
 20
406.9814121702
 30
0.0
  0
SPLINE
  5
395
100
AcDbEntity
  8
0
100
AcDbSpline
 62
7
  6
CONTINUOUS
 70
0
 71
3
 72
12
 73
8
 74
0
 42
0.0000001
 43
0.0000001
 44
0.0000000001
 40
0.0
 40
0.0
 40
0.0
 40
0.0
 40
0.2906710443
 40
0.5493091434
 40
0.7813087059
 40
0.8913858811
 40
1.0
 40
1.0
 40
1.0
 40
1.0
 10
252.4049805136
 20
406.1162104055
 30
0.0
 10
253.0544947924
 20
406.4912054108
 30
0.0
 10
254.2277207403
 20
407.3050381412
 30
0.0
 10
255.6089010232
 20
408.7995947279
 30
0.0
 10
256.3150255474
 20
410.2112573733
 30
0.0
 10
256.5514257581
 20
411.3552380545
 30
0.0
 10
256.5663694957
 20
411.9229004699
 30
0.0
 10
256.5487507139
 20
412.2025937091
 30
0.0
  0
SPLINE
  5
396
100
AcDbEntity
  8
0
100
AcDbSpline
 62
7
  6
CONTINUOUS
 70
0
 71
3
 72
20
 73
16
 74
0
 42
0.0000001
 43
0.0000001
 44
0.0000000001
 40
0.0
 40
0.0
 40
0.0
 40
0.0
 40
0.0428858089
 40
0.0878601456
 40
0.1362006143
 40
0.1886926687
 40
0.2456462412
 40
0.3069737639
 40
0.4407522823
 40
0.5845870404
 40
0.7308727408
 40
0.8024721559
 40
0.8717207286
 40
0.9377182035
 40
1.0
 40
1.0
 40
1.0
 40
1.0
 10
256.5487507139
 20
412.2025937091
 30
0.0
 10
256.5236646116
 20
412.6008285733
 30
0.0
 10
256.3670478362
 20
413.4131688233
 30
0.0
 10
255.8358143671
 20
414.574752153
 30
0.0
 10
255.0236795793
 20
415.6720193852
 30
0.0
 10
253.9516154326
 20
416.6842865559
 30
0.0
 10
252.6428698873
 20
417.5942651015
 30
0.0
 10
250.5579828736
 20
418.6793267149
 30
0.0
 10
247.5325864832
 20
419.6503329357
 30
0.0
 10
243.6061557507
 20
420.1719926934
 30
0.0
 10
240.2248997772
 20
420.0645431935
 30
0.0
 10
237.5845847589
 20
419.639529987
 30
0.0
 10
235.7162985525
 20
419.164670512
 30
0.0
 10
233.9865750276
 20
418.5353998741
 30
0.0
 10
232.9099490506
 20
418.0128495717
 30
0.0
 10
232.4067315276
 20
417.7254786267
 30
0.0
  0
SPLINE
  5
397
100
AcDbEntity
  8
0
100
AcDbSpline
 62
7
  6
CONTINUOUS
 70
0
 71
3
 72
12
 73
8
 74
0
 42
0.0000001
 43
0.0000001
 44
0.0000000001
 40
0.0
 40
0.0
 40
0.0
 40
0.0
 40
0.2895886829
 40
0.5486331543
 40
0.7816363674
 40
0.8918378843
 40
1.0
 40
1.0
 40
1.0
 40
1.0
 10
252.4545826199
 20
406.0096460793
 30
0.0
 10
253.0800867497
 20
406.3707789014
 30
0.0
 10
254.2146558724
 20
407.1521695088
 30
0.0
 10
255.5700702568
 20
408.5758962852
 30
0.0
 10
256.2978746696
 20
409.917422947
 30
0.0
 10
256.5813464057
 20
411.0115535942
 30
0.0
 10
256.6282538573
 20
411.5573075531
 30
0.0
 10
256.6282537936
 20
411.8270768312
 30
0.0
  0
SPLINE
  5
398
100
AcDbEntity
  8
0
100
AcDbSpline
 62
7
  6
CONTINUOUS
 70
0
 71
3
 72
19
 73
15
 74
0
 42
0.0000001
 43
0.0000001
 44
0.0000000001
 40
0.0
 40
0.0
 40
0.0
 40
0.0
 40
0.1312079803
 40
0.2758750414
 40
0.4255314748
 40
0.5706928595
 40
0.6389182278
 40
0.7030066437
 40
0.7623887276
 40
0.8168600523
 40
0.8666958382
 40
0.9127612789
 40
0.9565453217
 40
1.0
 40
1.0
 40
1.0
 40
1.0
 10
252.4049805136
 20
406.1162104055
 30
0.0
 10
251.2938733151
 20
405.4747161946
 30
0.0
 10
248.7653440115
 20
404.4531577954
 30
0.0
 10
244.6520600936
 20
403.6956136481
 30
0.0
 10
240.3329857263
 20
403.6753298551
 30
0.0
 10
236.8123966559
 20
404.2883493235
 30
0.0
 10
234.2385264543
 20
405.1616055795
 30
0.0
 10
232.5394343133
 20
405.9643748607
 30
0.0
 10
231.0719651105
 20
406.9100005753
 30
0.0
 10
229.8703318355
 20
407.9788160872
 30
0.0
 10
228.964265701
 20
409.1495513192
 30
0.0
 10
228.3807620387
 20
410.3991841271
 30
0.0
 10
228.1438344551
 20
411.6962349082
 30
0.0
 10
228.2250451274
 20
412.5577118266
 30
0.0
 10
228.3193888578
 20
412.9720198155
 30
0.0
  0
SPLINE
  5
399
100
AcDbEntity
  8
0
100
AcDbSpline
 62
7
  6
CONTINUOUS
 70
0
 71
3
 72
9
 73
5
 74
0
 42
0.0000001
 43
0.0000001
 44
0.0000000001
 40
0.0
 40
0.0
 40
0.0
 40
0.0
 40
0.2464781239
 40
1.0
 40
1.0
 40
1.0
 40
1.0
 10
228.3193888578
 20
412.9720198155
 30
0.0
 10
228.3377452564
 20
413.0526314529
 30
0.0
 10
228.4203492439
 20
413.377800579
 30
0.0
 10
228.5351971466
 20
413.6946187882
 30
0.0
 10
228.6372320561
 20
413.9258588102
 30
0.0
  0
SPLINE
  5
39A
100
AcDbEntity
  8
0
100
AcDbSpline
 62
7
  6
CONTINUOUS
 70
0
 71
3
 72
9
 73
5
 74
0
 42
0.0000001
 43
0.0000001
 44
0.0000000001
 40
0.0
 40
0.0
 40
0.0
 40
0.0
 40
0.2389185096
 40
1.0
 40
1.0
 40
1.0
 40
1.0
 10
228.6372320561
 20
413.9258588102
 30
0.0
 10
228.7080366657
 20
414.0863221221
 30
0.0
 10
229.035754551
 20
414.7440590783
 30
0.0
 10
229.4815168756
 20
415.3396321946
 30
0.0
 10
229.8601388296
 20
415.7504887192
 30
0.0
  0
SPLINE
  5
39B
100
AcDbEntity
  8
0
100
AcDbSpline
 62
7
  6
CONTINUOUS
 70
0
 71
3
 72
9
 73
5
 74
0
 42
0.0000001
 43
0.0000001
 44
0.0000000001
 40
0.0
 40
0.0
 40
0.0
 40
0.0
 40
0.2393055601
 40
1.0
 40
1.0
 40
1.0
 40
1.0
 10
229.8601388296
 20
415.7504887192
 30
0.0
 10
229.9750914276
 20
415.8752279859
 30
0.0
 10
230.4716623012
 20
416.3814878932
 30
0.0
 10
231.0275747474
 20
416.8279999013
 30
0.0
 10
231.4703376454
 20
417.1357462147
 30
0.0
  0
SPLINE
  5
39C
100
AcDbEntity
  8
0
100
AcDbSpline
 62
7
  6
CONTINUOUS
 70
0
 71
3
 72
17
 73
13
 74
0
 42
0.0000001
 43
0.0000001
 44
0.0000000001
 40
0.0
 40
0.0
 40
0.0
 40
0.0
 40
0.0428596337
 40
0.0874888005
 40
0.1353225004
 40
0.1872872
 40
0.3045527712
 40
0.4382245045
 40
0.5825721442
 40
0.7297288633
 40
0.8713223023
 40
1.0
 40
1.0
 40
1.0
 40
1.0
 10
275.9415596889
 20
400.020908351
 30
0.0
 10
275.9415596055
 20
400.3724827056
 30
0.0
 10
275.8475650983
 20
401.0932087116
 30
0.0
 10
275.4342100165
 20
402.1338363588
 30
0.0
 10
274.7635412234
 20
403.1204657745
 30
0.0
 10
273.5008409269
 20
404.3875866713
 30
0.0
 10
271.3493845161
 20
405.697251397
 30
0.0
 10
268.2558806526
 20
406.7305208446
 30
0.0
 10
264.7843405312
 20
407.2182701301
 30
0.0
 10
261.2161479368
 20
407.1195225249
 30
0.0
 10
257.8427133441
 20
406.444448124
 30
0.0
 10
255.7728758624
 20
405.5904460493
 30
0.0
 10
254.8587556854
 20
405.0626816693
 30
0.0
  0
SPLINE
  5
39D
100
AcDbEntity
  8
0
100
AcDbSpline
 62
7
  6
CONTINUOUS
 70
0
 71
3
 72
18
 73
14
 74
0
 42
0.0000001
 43
0.0000001
 44
0.0000000001
 40
0.0
 40
0.0
 40
0.0
 40
0.0
 40
0.0433244208
 40
0.0883431824
 40
0.1364428286
 40
0.1885485427
 40
0.245087772
 40
0.3060587701
 40
0.4394624974
 40
0.5834343418
 40
0.7302012928
 40
0.8714713421
 40
1.0
 40
1.0
 40
1.0
 40
1.0
 10
277.8415607909
 20
399.5798541956
 30
0.0
 10
277.8415607909
 20
399.9901651528
 30
0.0
 10
277.7322617771
 20
400.8303867923
 30
0.0
 10
277.2522343821
 20
402.0422344558
 30
0.0
 10
276.4748362061
 20
403.1883508291
 30
0.0
 10
275.4234961407
 20
404.2464147942
 30
0.0
 10
274.1229140071
 20
405.1987858473
 30
0.0
 10
272.0311563415
 20
406.3381763027
 30
0.0
 10
268.9681761495
 20
407.363486657
 30
0.0
 10
264.9723240118
 20
407.9261431913
 30
0.0
 10
260.8623469947
 20
407.8136042174
 30
0.0
 10
256.9756500554
 20
407.0361343241
 30
0.0
 10
254.5901307082
 20
406.0516865723
 30
0.0
 10
253.5359584039
 20
405.4430635417
 30
0.0
  0
SPLINE
  5
39E
100
AcDbEntity
  8
0
100
AcDbSpline
 62
7
  6
CONTINUOUS
 70
0
 71
3
 72
11
 73
7
 74
0
 42
0.0000001
 43
0.0000001
 44
0.0000000001
 40
0.0
 40
0.0
 40
0.0
 40
0.0
 40
0.2885462405
 40
0.5473584031
 40
0.7810413815
 40
1.0
 40
1.0
 40
1.0
 40
1.0
 10
253.5359584039
 20
405.4430635417
 30
0.0
 10
252.9088529538
 20
405.0810062024
 30
0.0
 10
251.7700086574
 20
404.2967962659
 30
0.0
 10
250.4080626879
 20
402.8630613467
 30
0.0
 10
249.5436078735
 20
401.2729770295
 30
0.0
 10
249.3415607909
 20
400.1293392944
 30
0.0
 10
249.3415607909
 20
399.5798541956
 30
0.0
  0
SPLINE
  5
39F
100
AcDbEntity
  8
0
100
AcDbSpline
 62
7
  6
CONTINUOUS
 70
0
 71
3
 72
11
 73
7
 74
0
 42
0.0000001
 43
0.0000001
 44
0.0000000001
 40
0.0
 40
0.0
 40
0.0
 40
0.0
 40
0.2897943377
 40
0.549045495
 40
0.7822266761
 40
1.0
 40
1.0
 40
1.0
 40
1.0
 10
254.8587556854
 20
405.0626816693
 30
0.0
 10
254.3166774884
 20
404.7497145446
 30
0.0
 10
253.3333687747
 20
404.0728560122
 30
0.0
 10
252.1587492399
 20
402.8376178682
 30
0.0
 10
251.4151770732
 20
401.4718999182
 30
0.0
 10
251.2415638114
 20
400.4912846648
 30
0.0
 10
251.2415615617
 20
400.020908351
 30
0.0
  0
SPLINE
  5
3A0
100
AcDbEntity
  8
0
100
AcDbSpline
 62
7
  6
CONTINUOUS
 70
0
 71
3
 72
17
 73
13
 74
0
 42
0.0000001
 43
0.0000001
 44
0.0000000001
 40
0.0
 40
0.0
 40
0.0
 40
0.0
 40
0.1406504166
 40
0.2876881119
 40
0.4345874784
 40
0.5748426694
 40
0.7029229104
 40
0.815385057
 40
0.8657734609
 40
0.9127155798
 40
0.9570606135
 40
1.0
 40
1.0
 40
1.0
 40
1.0
 10
270.6271486903
 20
386.7018587757
 30
0.0
 10
269.5097282906
 20
386.3355813222
 30
0.0
 10
267.1522224906
 20
385.7960648068
 30
0.0
 10
263.5153982393
 20
385.5383335988
 30
0.0
 10
259.8823502398
 20
385.8184244372
 30
0.0
 10
256.4880109355
 20
386.6196408274
 30
0.0
 10
253.5493535712
 20
387.8905084597
 30
0.0
 10
251.5567379253
 20
389.3393422398
 30
0.0
 10
250.4068878454
 20
390.6735994738
 30
0.0
 10
249.7982506897
 20
391.6980380706
 30
0.0
 10
249.4257546875
 20
392.7650626496
 30
0.0
 10
249.3415874477
 20
393.4973166882
 30
0.0
 10
249.3415811809
 20
393.856315109
 30
0.0
  0
SPLINE
  5
3A1
100
AcDbEntity
  8
0
100
AcDbSpline
 62
7
  6
CONTINUOUS
 70
0
 71
3
 72
18
 73
14
 74
0
 42
0.0000001
 43
0.0000001
 44
0.0000000001
 40
0.0
 40
0.0
 40
0.0
 40
0.0
 40
0.0428481578
 40
0.0874653981
 40
0.1352862996
 40
0.187237077
 40
0.2437290859
 40
0.3047358013
 40
0.4383717212
 40
0.5826807747
 40
0.729798307
 40
0.8713543401
 40
1.0
 40
1.0
 40
1.0
 40
1.0
 10
249.3415760338
 20
399.5798541956
 30
0.0
 10
249.3415761295
 20
399.1741929963
 30
0.0
 10
249.4500339511
 20
398.342594964
 30
0.0
 10
249.9269656541
 20
397.1418462661
 30
0.0
 10
250.7008627242
 20
396.003545044
 30
0.0
 10
251.7497774092
 20
394.9502485001
 30
0.0
 10
253.0495452603
 20
394.0003988639
 30
0.0
 10
255.1433705839
 20
392.8621572651
 30
0.0
 10
258.2114014144
 20
391.8374209911
 30
0.0
 10
262.2147281774
 20
391.2753781057
 30
0.0
 10
266.3325009719
 20
391.3890984406
 30
0.0
 10
270.2247767146
 20
392.1680789569
 30
0.0
 10
272.6131044586
 20
393.153455384
 30
0.0
 10
273.6678743743
 20
393.7624234437
 30
0.0
  0
SPLINE
  5
3A2
100
AcDbEntity
  8
0
100
AcDbSpline
 62
7
  6
CONTINUOUS
 70
0
 71
3
 72
17
 73
13
 74
0
 42
0.0000001
 43
0.0000001
 44
0.0000000001
 40
0.0
 40
0.0
 40
0.0
 40
0.0
 40
0.042861445
 40
0.087492668
 40
0.1353287936
 40
0.1872963454
 40
0.3045687556
 40
0.4382481658
 40
0.5826031581
 40
0.7297648853
 40
0.8713436635
 40
1.0
 40
1.0
 40
1.0
 40
1.0
 10
251.2415615617
 20
400.020908351
 30
0.0
 10
251.2415598801
 20
399.6693191274
 30
0.0
 10
251.3355655461
 20
398.9485610373
 30
0.0
 10
251.7489551896
 20
397.9078907707
 30
0.0
 10
252.4196805175
 20
396.9212257631
 30
0.0
 10
253.6824843171
 20
395.6540667137
 30
0.0
 10
255.8341027006
 20
394.344388776
 30
0.0
 10
258.9278093708
 20
393.311155736
 30
0.0
 10
262.3995300911
 20
392.8234980168
 30
0.0
 10
265.9677016289
 20
392.9223801424
 30
0.0
 10
269.3408594274
 20
393.5975290456
 30
0.0
 10
271.4103974401
 20
394.4514582482
 30
0.0
 10
272.3243658965
 20
394.9791350327
 30
0.0
  0
SPLINE
  5
3A3
100
AcDbEntity
  8
0
100
AcDbSpline
 62
7
  6
CONTINUOUS
 70
0
 71
3
 72
11
 73
7
 74
0
 42
0.0000001
 43
0.0000001
 44
0.0000000001
 40
0.0
 40
0.0
 40
0.0
 40
0.0
 40
0.2177705522
 40
0.450950541
 40
0.7101897553
 40
1.0
 40
1.0
 40
1.0
 40
1.0
 10
275.941547416
 20
399.9800832218
 30
0.0
 10
275.9415691734
 20
399.5097134579
 30
0.0
 10
275.767942829
 20
398.5291021507
 30
0.0
 10
275.0243729628
 20
397.1634331805
 30
0.0
 10
273.8497962767
 20
395.9281510333
 30
0.0
 10
272.8664732
 20
395.2512938412
 30
0.0
 10
272.3243658965
 20
394.9383099118
 30
0.0
  0
SPLINE
  5
3A4
100
AcDbEntity
  8
0
100
AcDbSpline
 62
7
  6
CONTINUOUS
 70
0
 71
3
 72
13
 73
9
 74
0
 42
0.0000001
 43
0.0000001
 44
0.0000000001
 40
0.0
 40
0.0
 40
0.0
 40
0.0
 40
0.1129199345
 40
0.2342528473
 40
0.4929971565
 40
0.7555189708
 40
0.8813140158
 40
1.0
 40
1.0
 40
1.0
 40
1.0
 10
272.0032633108
 20
395.2704636204
 30
0.0
 10
271.473023726
 20
394.9643227754
 30
0.0
 10
270.3204463297
 20
394.4179522962
 30
0.0
 10
267.7698343821
 20
393.5992430914
 30
0.0
 10
264.2881105182
 20
393.1268913366
 30
0.0
 10
260.7605246729
 20
393.3642951608
 30
0.0
 10
258.0804354137
 20
393.998299509
 30
0.0
 10
256.8324932694
 20
394.4588417724
 30
0.0
 10
256.2463369915
 20
394.724471701
 30
0.0
  0
SPLINE
  5
3A5
100
AcDbEntity
  8
0
100
AcDbSpline
 62
7
  6
CONTINUOUS
 70
0
 71
3
 72
17
 73
13
 74
0
 42
0.0000001
 43
0.0000001
 44
0.0000000001
 40
0.0
 40
0.0
 40
0.0
 40
0.0
 40
0.1512593523
 40
0.2864948759
 40
0.4065994199
 40
0.4623760517
 40
0.5163112073
 40
0.5694673286
 40
0.6229872247
 40
0.7350236313
 40
0.8596255493
 40
1.0
 40
1.0
 40
1.0
 40
1.0
 10
256.2463369915
 20
394.724471701
 30
0.0
 10
255.6277701994
 20
395.0047891846
 30
0.0
 10
254.4928348959
 20
395.6265518711
 30
0.0
 10
253.0808862908
 20
396.8043276594
 30
0.0
 10
252.2496919456
 20
397.9530554769
 30
0.0
 10
251.8606624038
 20
398.9135093313
 30
0.0
 10
251.7046485431
 20
399.6318302426
 30
0.0
 10
251.6804979166
 20
400.3565657177
 30
0.0
 10
251.8259174469
 20
401.3326886306
 30
0.0
 10
252.3640415619
 20
402.5473874261
 30
0.0
 10
253.4832238358
 20
403.8409500246
 30
0.0
 10
254.4528478013
 20
404.5466142936
 30
0.0
 10
254.9923122804
 20
404.8724841816
 30
0.0
  0
SPLINE
  5
3A6
100
AcDbEntity
  8
0
100
AcDbSpline
 62
7
  6
CONTINUOUS
 70
0
 71
3
 72
21
 73
17
 74
0
 42
0.0000001
 43
0.0000001
 44
0.0000000001
 40
0.0
 40
0.0
 40
0.0
 40
0.0
 40
0.06041036
 40
0.1144524964
 40
0.1630598395
 40
0.2084556406
 40
0.2538515711
 40
0.3024592916
 40
0.3565017424
 40
0.4169125867
 40
0.4835338413
 40
0.5554176037
 40
0.7084564546
 40
0.861494962
 40
0.9333788015
 40
1.0
 40
1.0
 40
1.0
 40
1.0
 10
270.0969702623
 20
396.673344618
 30
0.0
 10
270.5007931956
 20
396.9064937626
 30
0.0
 10
271.2333071291
 20
397.4107886376
 30
0.0
 10
272.1083304065
 20
398.3306922126
 30
0.0
 10
272.6622307322
 20
399.3489670482
 30
0.0
 10
272.854017396
 20
400.4291810051
 30
0.0
 10
272.6622013509
 20
401.5094049926
 30
0.0
 10
272.1083495553
 20
402.5276433446
 30
0.0
 10
271.2330300953
 20
403.44769666
 30
0.0
 10
270.0753350008
 20
404.2448447282
 30
0.0
 10
268.6779848874
 20
404.8955275042
 30
0.0
 10
266.5190633817
 20
405.551239824
 30
0.0
 10
263.591587731
 20
405.8696559773
 30
0.0
 10
260.6637870262
 20
405.5511230078
 30
0.0
 10
258.5053592864
 20
404.89566753
 30
0.0
 10
257.5314947298
 20
404.4420885123
 30
0.0
 10
257.0861513196
 20
404.1849745012
 30
0.0
  0
SPLINE
  5
3A7
100
AcDbEntity
  8
0
100
AcDbSpline
 62
7
  6
CONTINUOUS
 70
0
 71
3
 72
21
 73
17
 74
0
 42
0.0000001
 43
0.0000001
 44
0.0000000001
 40
0.0
 40
0.0
 40
0.0
 40
0.0
 40
0.06041036
 40
0.1144524964
 40
0.1630598395
 40
0.2084556406
 40
0.2538515711
 40
0.3024592916
 40
0.3565017424
 40
0.4169125867
 40
0.4835338413
 40
0.5554176037
 40
0.7084564546
 40
0.861494962
 40
0.9333788015
 40
1.0
 40
1.0
 40
1.0
 40
1.0
 10
257.0861513196
 20
404.1849745012
 30
0.0
 10
256.6823283863
 20
403.9518253566
 30
0.0
 10
255.9498144527
 20
403.4475304816
 30
0.0
 10
255.0747911753
 20
402.5276269066
 30
0.0
 10
254.5208908496
 20
401.509352071
 30
0.0
 10
254.3291041859
 20
400.429138114
 30
0.0
 10
254.5209202309
 20
399.3489141265
 30
0.0
 10
255.0747720265
 20
398.3306757745
 30
0.0
 10
255.9500914866
 20
397.4106224591
 30
0.0
 10
257.1077865811
 20
396.6134743909
 30
0.0
 10
258.5051366945
 20
395.962791615
 30
0.0
 10
260.6640582001
 20
395.3070792952
 30
0.0
 10
263.5915338508
 20
394.9886631418
 30
0.0
 10
266.5193345556
 20
395.3071961113
 30
0.0
 10
268.6777622955
 20
395.9626515892
 30
0.0
 10
269.651626852
 20
396.4162306068
 30
0.0
 10
270.0969702623
 20
396.673344618
 30
0.0
  0
SPLINE
  5
3A8
100
AcDbEntity
  8
0
100
AcDbSpline
 62
7
  6
CONTINUOUS
 70
0
 71
3
 72
11
 73
7
 74
0
 42
0.0000001
 43
0.0000001
 44
0.0000000001
 40
0.0
 40
0.0
 40
0.0
 40
0.0
 40
0.2897809977
 40
0.5490200673
 40
0.7822030282
 40
1.0
 40
1.0
 40
1.0
 40
1.0
 10
272.3243658965
 20
394.9791350327
 30
0.0
 10
272.8664190995
 20
395.2920877273
 30
0.0
 10
273.8496838908
 20
395.9689107377
 30
0.0
 10
275.0242877603
 20
397.2040899647
 30
0.0
 10
275.7679126187
 20
398.5698095557
 30
0.0
 10
275.9415598004
 20
399.5504809945
 30
0.0
 10
275.9415596889
 20
400.020908351
 30
0.0
  0
SPLINE
  5
3A9
100
AcDbEntity
  8
0
100
AcDbSpline
 62
7
  6
CONTINUOUS
 70
0
 71
3
 72
23
 73
19
 74
0
 42
0.0000001
 43
0.0000001
 44
0.0000000001
 40
0.0
 40
0.0
 40
0.0
 40
0.0
 40
0.0665886598
 40
0.1384326535
 40
0.214057897
 40
0.2916519258
 40
0.3692459503
 40
0.4448712931
 40
0.5167173552
 40
0.58330378
 40
0.6436835829
 40
0.6976981379
 40
0.7462804488
 40
0.7916525704
 40
0.8370245508
 40
0.8856071106
 40
0.9396190436
 40
1.0
 40
1.0
 40
1.0
 40
1.0
 10
255.1798582711
 20
404.9832413163
 30
0.0
 10
255.7557195355
 20
405.3157084512
 30
0.0
 10
257.0148934179
 20
405.9020751987
 30
0.0
 10
259.0654082843
 20
406.5252776182
 30
0.0
 10
261.2853871203
 20
406.9089339176
 30
0.0
 10
263.5914920067
 20
407.0383642379
 30
0.0
 10
265.8976458227
 20
406.9089128181
 30
0.0
 10
268.1175099561
 20
406.5253859694
 30
0.0
 10
270.1685156072
 20
405.9018895864
 30
0.0
 10
271.9752526865
 20
405.0606897328
 30
0.0
 10
273.4722156408
 20
404.0299218586
 30
0.0
 10
274.6040306865
 20
402.8402667673
 30
0.0
 10
275.3201668149
 20
401.5236460466
 30
0.0
 10
275.5682025216
 20
400.1268941303
 30
0.0
 10
275.3202364899
 20
398.7301342381
 30
0.0
 10
274.6040003311
 20
397.4135077697
 30
0.0
 10
273.472607152
 20
396.2240086516
 30
0.0
 10
272.5254417191
 20
395.571933857
 30
0.0
 10
272.0032633108
 20
395.2704636204
 30
0.0
  0
SPLINE
  5
3AA
100
AcDbEntity
  8
0
100
AcDbSpline
 62
7
  6
CONTINUOUS
 70
0
 71
3
 72
17
 73
13
 74
0
 42
0.0000001
 43
0.0000001
 44
0.0000000001
 40
0.0
 40
0.0
 40
0.0
 40
0.0
 40
0.128680444
 40
0.2702734524
 40
0.4174302495
 40
0.5617773798
 40
0.6954484859
 40
0.8127135545
 40
0.8646780272
 40
0.9125115307
 40
0.9571405353
 40
1.0
 40
1.0
 40
1.0
 40
1.0
 10
272.3243658965
 20
394.9383099118
 30
0.0
 10
271.410226802
 20
394.41053461
 30
0.0
 10
269.3403700995
 20
393.5565301787
 30
0.0
 10
265.9669161447
 20
392.8814653876
 30
0.0
 10
262.3987326462
 20
392.782728679
 30
0.0
 10
258.9272049087
 20
393.2704860095
 30
0.0
 10
255.8337183166
 20
394.3037583284
 30
0.0
 10
253.6822766445
 20
395.6134213352
 30
0.0
 10
252.4195841525
 20
396.8805386279
 30
0.0
 10
251.7489229183
 20
397.8671644203
 30
0.0
 10
251.3355613763
 20
398.9077878582
 30
0.0
 10
251.2415904282
 20
399.628510498
 30
0.0
 10
251.2415741659
 20
399.9800832385
 30
0.0
  0
SPLINE
  5
3AB
100
AcDbEntity
  8
0
100
AcDbSpline
 62
7
  6
CONTINUOUS
 70
0
 71
3
 72
23
 73
19
 74
0
 42
0.0000001
 43
0.0000001
 44
0.0000000001
 40
0.0
 40
0.0
 40
0.0
 40
0.0
 40
0.0603807593
 40
0.114392887
 40
0.1629750197
 40
0.208347109
 40
0.253719209
 40
0.3023014435
 40
0.3563156421
 40
0.4166948548
 40
0.4832817219
 40
0.5551281532
 40
0.6307534117
 40
0.708347148
 40
0.7859409876
 40
0.8615664137
 40
0.9334112328
 40
1.0
 40
1.0
 40
1.0
 40
1.0
 10
272.6779207591
 20
394.7341895346
 30
0.0
 10
273.2419748242
 20
395.059844357
 30
0.0
 10
274.2651087672
 20
395.7642124912
 30
0.0
 10
275.4872572877
 20
397.0490996437
 30
0.0
 10
276.2609263864
 20
398.4713332354
 30
0.0
 10
276.5287755474
 20
399.9801114985
 30
0.0
 10
276.2608861298
 20
401.4888988927
 30
0.0
 10
275.4872832754
 20
402.9111020325
 30
0.0
 10
274.264706765
 20
404.1961641187
 30
0.0
 10
272.6477046605
 20
405.3096340295
 30
0.0
 10
270.6960431257
 20
406.2182777909
 30
0.0
 10
268.4805349931
 20
406.8917924561
 30
0.0
 10
266.0826299221
 20
407.3061022657
 30
0.0
 10
263.5915163886
 20
407.4459183914
 30
0.0
 10
261.100455352
 20
407.306115528
 30
0.0
 10
258.7024105458
 20
406.8917059939
 30
0.0
 10
256.4874277603
 20
406.2185030757
 30
0.0
 10
255.1272477334
 20
405.5851137333
 30
0.0
 10
254.5052008228
 20
405.2259769257
 30
0.0
  0
SPLINE
  5
3AC
100
AcDbEntity
  8
0
100
AcDbSpline
 62
7
  6
CONTINUOUS
 70
0
 71
3
 72
17
 73
13
 74
0
 42
0.0000001
 43
0.0000001
 44
0.0000000001
 40
0.0
 40
0.0
 40
0.0
 40
0.0
 40
0.1410207677
 40
0.2658548751
 40
0.3775993265
 40
0.4308318661
 40
0.4836616565
 40
0.5372866486
 40
0.5928183322
 40
0.7127338294
 40
0.8482210386
 40
1.0
 40
1.0
 40
1.0
 40
1.0
 10
254.5052008228
 20
405.2259769257
 30
0.0
 10
253.8931612954
 20
404.8726178491
 30
0.0
 10
252.7920186811
 20
404.1036078488
 30
0.0
 10
251.5143354839
 20
402.6804288468
 30
0.0
 10
250.8948505414
 20
401.3337474988
 30
0.0
 10
250.7251796288
 20
400.2496157289
 30
0.0
 10
250.7499798303
 20
399.4450117393
 30
0.0
 10
250.9252373885
 20
398.6477740025
 30
0.0
 10
251.3655362529
 20
397.5819728835
 30
0.0
 10
252.3088164406
 20
396.3112225195
 30
0.0
 10
253.9073574715
 20
395.0190243667
 30
0.0
 10
255.1891712386
 20
394.3444714874
 30
0.0
 10
255.8873081108
 20
394.0425252244
 30
0.0
  0
SPLINE
  5
3AD
100
AcDbEntity
  8
0
100
AcDbSpline
 62
7
  6
CONTINUOUS
 70
0
 71
3
 72
9
 73
5
 74
0
 42
0.0000001
 43
0.0000001
 44
0.0000000001
 40
0.0
 40
0.0
 40
0.0
 40
0.0
 40
0.2395882674
 40
1.0
 40
1.0
 40
1.0
 40
1.0
 10
255.9402375757
 20
394.0197555635
 30
0.0
 10
256.2484130759
 20
393.8878922932
 30
0.0
 10
257.5531981062
 20
393.3811415916
 30
0.0
 10
258.9199918294
 20
393.0401160398
 30
0.0
 10
259.9688770925
 20
392.8621760455
 30
0.0
  0
SPLINE
  5
3AE
100
AcDbEntity
  8
0
100
AcDbSpline
 62
7
  6
CONTINUOUS
 70
0
 71
3
 72
9
 73
5
 74
0
 42
0.0000001
 43
0.0000001
 44
0.0000000001
 40
0.0
 40
0.0
 40
0.0
 40
0.0
 40
0.4999936226
 40
1.0
 40
1.0
 40
1.0
 40
1.0
 10
259.9688770925
 20
392.8621760455
 30
0.0
 10
261.1629599145
 20
392.6596037548
 30
0.0
 10
263.5898493155
 20
392.463080985
 30
0.0
 10
266.0167668649
 20
392.6592292633
 30
0.0
 10
267.2109139035
 20
392.8616076441
 30
0.0
  0
SPLINE
  5
3AF
100
AcDbEntity
  8
0
100
AcDbSpline
 62
7
  6
CONTINUOUS
 70
0
 71
3
 72
9
 73
5
 74
0
 42
0.0000001
 43
0.0000001
 44
0.0000000001
 40
0.0
 40
0.0
 40
0.0
 40
0.0
 40
0.5220592598
 40
1.0
 40
1.0
 40
1.0
 40
1.0
 10
267.2109139035
 20
392.8616076441
 30
0.0
 10
268.2062227126
 20
393.0302878642
 30
0.0
 10
270.0924724479
 20
393.4929709375
 30
0.0
 10
271.8775478849
 20
394.2720967985
 30
0.0
 10
272.6779207591
 20
394.7341895346
 30
0.0
  0
SPLINE
  5
3B0
100
AcDbEntity
  8
0
100
AcDbSpline
 62
7
  6
CONTINUOUS
 70
0
 71
3
 72
12
 73
8
 74
0
 42
0.0000001
 43
0.0000001
 44
0.0000000001
 40
0.0
 40
0.0
 40
0.0
 40
0.0
 40
0.2906710443
 40
0.5493091434
 40
0.7813087059
 40
0.8913858811
 40
1.0
 40
1.0
 40
1.0
 40
1.0
 10
273.618272268
 20
393.8689877699
 30
0.0
 10
274.2677865468
 20
394.2439827752
 30
0.0
 10
275.4410124947
 20
395.0578155056
 30
0.0
 10
276.8221927776
 20
396.5523720923
 30
0.0
 10
277.5283173018
 20
397.9640347377
 30
0.0
 10
277.7647175125
 20
399.1080154189
 30
0.0
 10
277.7796612501
 20
399.6756778343
 30
0.0
 10
277.7620424683
 20
399.9553710734
 30
0.0
  0
SPLINE
  5
3B1
100
AcDbEntity
  8
0
100
AcDbSpline
 62
7
  6
CONTINUOUS
 70
0
 71
3
 72
20
 73
16
 74
0
 42
0.0000001
 43
0.0000001
 44
0.0000000001
 40
0.0
 40
0.0
 40
0.0
 40
0.0
 40
0.0428858089
 40
0.0878601456
 40
0.1362006143
 40
0.1886926687
 40
0.2456462412
 40
0.3069737639
 40
0.4407522823
 40
0.5845870404
 40
0.7308727408
 40
0.8024721559
 40
0.8717207286
 40
0.9377182035
 40
1.0
 40
1.0
 40
1.0
 40
1.0
 10
277.7620424683
 20
399.9553710734
 30
0.0
 10
277.736956366
 20
400.3536059376
 30
0.0
 10
277.5803395906
 20
401.1659461876
 30
0.0
 10
277.0491061215
 20
402.3275295174
 30
0.0
 10
276.2369713337
 20
403.4247967496
 30
0.0
 10
275.164907187
 20
404.4370639203
 30
0.0
 10
273.8561616417
 20
405.3470424659
 30
0.0
 10
271.771274628
 20
406.4321040792
 30
0.0
 10
268.7458782376
 20
407.4031103001
 30
0.0
 10
264.8194475051
 20
407.9247700578
 30
0.0
 10
261.4381915316
 20
407.8173205579
 30
0.0
 10
258.7978765133
 20
407.3923073514
 30
0.0
 10
256.9295903069
 20
406.9174478764
 30
0.0
 10
255.199866782
 20
406.2881772385
 30
0.0
 10
254.123240805
 20
405.7656269361
 30
0.0
 10
253.6200232821
 20
405.4782559911
 30
0.0
  0
SPLINE
  5
3B2
100
AcDbEntity
  8
0
100
AcDbSpline
 62
7
  6
CONTINUOUS
 70
0
 71
3
 72
12
 73
8
 74
0
 42
0.0000001
 43
0.0000001
 44
0.0000000001
 40
0.0
 40
0.0
 40
0.0
 40
0.0
 40
0.2895886829
 40
0.5486331543
 40
0.7816363674
 40
0.8918378843
 40
1.0
 40
1.0
 40
1.0
 40
1.0
 10
273.6678743743
 20
393.7624234437
 30
0.0
 10
274.2933785041
 20
394.1235562658
 30
0.0
 10
275.4279476268
 20
394.9049468732
 30
0.0
 10
276.7833620113
 20
396.3286736495
 30
0.0
 10
277.511166424
 20
397.6702003114
 30
0.0
 10
277.7946381601
 20
398.7643309586
 30
0.0
 10
277.8415456117
 20
399.3100849174
 30
0.0
 10
277.841545548
 20
399.5798541956
 30
0.0
  0
SPLINE
  5
3B3
100
AcDbEntity
  8
0
100
AcDbSpline
 62
7
  6
CONTINUOUS
 70
0
 71
3
 72
19
 73
15
 74
0
 42
0.0000001
 43
0.0000001
 44
0.0000000001
 40
0.0
 40
0.0
 40
0.0
 40
0.0
 40
0.1312079803
 40
0.2758750414
 40
0.4255314748
 40
0.5706928595
 40
0.6389182278
 40
0.7030066437
 40
0.7623887276
 40
0.8168600523
 40
0.8666958382
 40
0.9127612789
 40
0.9565453217
 40
1.0
 40
1.0
 40
1.0
 40
1.0
 10
273.618272268
 20
393.8689877699
 30
0.0
 10
272.5071650695
 20
393.2274935589
 30
0.0
 10
269.9786357659
 20
392.2059351598
 30
0.0
 10
265.865351848
 20
391.4483910125
 30
0.0
 10
261.5462774807
 20
391.4281072195
 30
0.0
 10
258.0256884103
 20
392.0411266879
 30
0.0
 10
255.4518182087
 20
392.9143829439
 30
0.0
 10
253.7527260677
 20
393.7171522251
 30
0.0
 10
252.2852568649
 20
394.6627779396
 30
0.0
 10
251.0836235899
 20
395.7315934516
 30
0.0
 10
250.1775574554
 20
396.9023286836
 30
0.0
 10
249.5940537932
 20
398.1519614915
 30
0.0
 10
249.3571262095
 20
399.4490122726
 30
0.0
 10
249.4383368818
 20
400.310489191
 30
0.0
 10
249.5326806122
 20
400.7247971799
 30
0.0
  0
SPLINE
  5
3B4
100
AcDbEntity
  8
0
100
AcDbSpline
 62
7
  6
CONTINUOUS
 70
0
 71
3
 72
9
 73
5
 74
0
 42
0.0000001
 43
0.0000001
 44
0.0000000001
 40
0.0
 40
0.0
 40
0.0
 40
0.0
 40
0.2464781239
 40
1.0
 40
1.0
 40
1.0
 40
1.0
 10
249.5326806122
 20
400.7247971799
 30
0.0
 10
249.5510370108
 20
400.8054088173
 30
0.0
 10
249.6336409983
 20
401.1305779434
 30
0.0
 10
249.748488901
 20
401.4473961526
 30
0.0
 10
249.8505238105
 20
401.6786361746
 30
0.0
  0
SPLINE
  5
3B5
100
AcDbEntity
  8
0
100
AcDbSpline
 62
7
  6
CONTINUOUS
 70
0
 71
3
 72
9
 73
5
 74
0
 42
0.0000001
 43
0.0000001
 44
0.0000000001
 40
0.0
 40
0.0
 40
0.0
 40
0.0
 40
0.2389185096
 40
1.0
 40
1.0
 40
1.0
 40
1.0
 10
249.8505238105
 20
401.6786361746
 30
0.0
 10
249.9213284201
 20
401.8390994865
 30
0.0
 10
250.2490463054
 20
402.4968364427
 30
0.0
 10
250.69480863
 20
403.092409559
 30
0.0
 10
251.073430584
 20
403.5032660836
 30
0.0
  0
SPLINE
  5
3B6
100
AcDbEntity
  8
0
100
AcDbSpline
 62
7
  6
CONTINUOUS
 70
0
 71
3
 72
9
 73
5
 74
0
 42
0.0000001
 43
0.0000001
 44
0.0000000001
 40
0.0
 40
0.0
 40
0.0
 40
0.0
 40
0.2393055601
 40
1.0
 40
1.0
 40
1.0
 40
1.0
 10
251.073430584
 20
403.5032660836
 30
0.0
 10
251.188383182
 20
403.6280053503
 30
0.0
 10
251.6849540556
 20
404.1342652576
 30
0.0
 10
252.2408665018
 20
404.5807772657
 30
0.0
 10
252.6836293998
 20
404.888523579
 30
0.0
  0
SPLINE
  5
3B7
100
AcDbEntity
  8
0
100
AcDbSpline
 62
7
  6
CONTINUOUS
 70
0
 71
3
 72
17
 73
13
 74
0
 42
0.0000001
 43
0.0000001
 44
0.0000000001
 40
0.0
 40
0.0
 40
0.0
 40
0.0
 40
0.0428596337
 40
0.0874888005
 40
0.1353225004
 40
0.1872872
 40
0.3045527712
 40
0.4382245045
 40
0.5825721442
 40
0.7297288633
 40
0.8713223023
 40
1.0
 40
1.0
 40
1.0
 40
1.0
 10
297.1548514433
 20
387.7736857154
 30
0.0
 10
297.1548513599
 20
388.12526007
 30
0.0
 10
297.0608568528
 20
388.8459860759
 30
0.0
 10
296.6475017709
 20
389.8866137232
 30
0.0
 10
295.9768329778
 20
390.8732431388
 30
0.0
 10
294.7141326813
 20
392.1403640357
 30
0.0
 10
292.5626762705
 20
393.4500287614
 30
0.0
 10
289.469172407
 20
394.483298209
 30
0.0
 10
285.9976322856
 20
394.9710474945
 30
0.0
 10
282.4294396912
 20
394.8722998893
 30
0.0
 10
279.0560050985
 20
394.1972254884
 30
0.0
 10
276.9861676168
 20
393.3432234137
 30
0.0
 10
276.0720474398
 20
392.8154590337
 30
0.0
  0
SPLINE
  5
3B8
100
AcDbEntity
  8
0
100
AcDbSpline
 62
7
  6
CONTINUOUS
 70
0
 71
3
 72
18
 73
14
 74
0
 42
0.0000001
 43
0.0000001
 44
0.0000000001
 40
0.0
 40
0.0
 40
0.0
 40
0.0
 40
0.0433244208
 40
0.0883431824
 40
0.1364428286
 40
0.1885485427
 40
0.245087772
 40
0.3060587701
 40
0.4394624974
 40
0.5834343418
 40
0.7302012928
 40
0.8714713421
 40
1.0
 40
1.0
 40
1.0
 40
1.0
 10
299.0548525453
 20
387.33263156
 30
0.0
 10
299.0548525453
 20
387.7429425172
 30
0.0
 10
298.9455535315
 20
388.5831641567
 30
0.0
 10
298.4655261365
 20
389.7950118201
 30
0.0
 10
297.6881279605
 20
390.9411281935
 30
0.0
 10
296.6367878951
 20
391.9991921586
 30
0.0
 10
295.3362057615
 20
392.9515632116
 30
0.0
 10
293.2444480959
 20
394.0909536671
 30
0.0
 10
290.1814679039
 20
395.1162640214
 30
0.0
 10
286.1856157662
 20
395.6789205557
 30
0.0
 10
282.0756387491
 20
395.5663815818
 30
0.0
 10
278.1889418098
 20
394.7889116884
 30
0.0
 10
275.8034224626
 20
393.8044639367
 30
0.0
 10
274.7492501584
 20
393.1958409061
 30
0.0
  0
SPLINE
  5
3B9
100
AcDbEntity
  8
0
100
AcDbSpline
 62
7
  6
CONTINUOUS
 70
0
 71
3
 72
11
 73
7
 74
0
 42
0.0000001
 43
0.0000001
 44
0.0000000001
 40
0.0
 40
0.0
 40
0.0
 40
0.0
 40
0.2885462405
 40
0.5473584031
 40
0.7810413815
 40
1.0
 40
1.0
 40
1.0
 40
1.0
 10
274.7492501584
 20
393.1958409061
 30
0.0
 10
274.1221447082
 20
392.8337835668
 30
0.0
 10
272.9833004118
 20
392.0495736303
 30
0.0
 10
271.6213544423
 20
390.6158387111
 30
0.0
 10
270.756899628
 20
389.0257543939
 30
0.0
 10
270.5548525453
 20
387.8821166588
 30
0.0
 10
270.5548525453
 20
387.33263156
 30
0.0
  0
SPLINE
  5
3BA
100
AcDbEntity
  8
0
100
AcDbSpline
 62
7
  6
CONTINUOUS
 70
0
 71
3
 72
10
 73
6
 74
0
 42
0.0000001
 43
0.0000001
 44
0.0000000001
 40
0.0
 40
0.0
 40
0.0
 40
0.0
 40
0.2338768085
 40
0.4749851453
 40
1.0
 40
1.0
 40
1.0
 40
1.0
 10
299.0548357936
 20
381.6090924868
 30
0.0
 10
299.0548226463
 20
381.2606578883
 30
0.0
 10
298.9755597425
 20
380.5505559086
 30
0.0
 10
298.495825919
 20
379.1308223346
 30
0.0
 10
297.8074533442
 20
378.1816632117
 30
0.0
 10
297.2654819998
 20
377.6176864454
 30
0.0
  0
SPLINE
  5
3BB
100
AcDbEntity
  8
0
100
AcDbSpline
 62
7
  6
CONTINUOUS
 70
0
 71
3
 72
9
 73
5
 74
0
 42
0.0000001
 43
0.0000001
 44
0.0000000001
 40
0.0
 40
0.0
 40
0.0
 40
0.0
 40
0.2409190582
 40
1.0
 40
1.0
 40
1.0
 40
1.0
 10
297.2654819998
 20
377.6176864454
 30
0.0
 10
297.1638800117
 20
377.5119591568
 30
0.0
 10
296.7307582308
 20
377.0841061519
 30
0.0
 10
296.2554053678
 20
376.6998291436
 30
0.0
 10
295.8792198326
 20
376.4316223686
 30
0.0
  0
SPLINE
  5
3BC
100
AcDbEntity
  8
0
100
AcDbSpline
 62
7
  6
CONTINUOUS
 70
0
 71
3
 72
11
 73
7
 74
0
 42
0.0000001
 43
0.0000001
 44
0.0000000001
 40
0.0
 40
0.0
 40
0.0
 40
0.0
 40
0.2897943377
 40
0.549045495
 40
0.7822266761
 40
1.0
 40
1.0
 40
1.0
 40
1.0
 10
276.0720474398
 20
392.8154590337
 30
0.0
 10
275.5299692428
 20
392.502491909
 30
0.0
 10
274.5466605291
 20
391.8256333766
 30
0.0
 10
273.3720409943
 20
390.5903952326
 30
0.0
 10
272.6284688276
 20
389.2246772826
 30
0.0
 10
272.4548555659
 20
388.2440620292
 30
0.0
 10
272.4548533161
 20
387.7736857154
 30
0.0
  0
SPLINE
  5
3BD
100
AcDbEntity
  8
0
100
AcDbSpline
 62
7
  6
CONTINUOUS
 70
0
 71
3
 72
9
 73
5
 74
0
 42
0.0000001
 43
0.0000001
 44
0.0000000001
 40
0.0
 40
0.0
 40
0.0
 40
0.0
 40
0.2448721046
 40
1.0
 40
1.0
 40
1.0
 40
1.0
 10
295.8792198326
 20
377.5747257526
 30
0.0
 10
295.8004052753
 20
377.5185338041
 30
0.0
 10
295.4756286113
 20
377.2931658587
 30
0.0
 10
295.1396689849
 20
377.0840109009
 30
0.0
 10
294.8811661287
 20
376.9347650981
 30
0.0
  0
SPLINE
  5
3BE
100
AcDbEntity
  8
0
100
AcDbSpline
 62
7
  6
CONTINUOUS
 70
0
 71
3
 72
9
 73
5
 74
0
 42
0.0000001
 43
0.0000001
 44
0.0000000001
 40
0.0
 40
0.0
 40
0.0
 40
0.0
 40
0.245362621
 40
1.0
 40
1.0
 40
1.0
 40
1.0
 10
294.8811661287
 20
376.9347650981
 30
0.0
 10
294.7926638133
 20
376.8836685675
 30
0.0
 10
294.429594563
 20
376.6795397783
 30
0.0
 10
294.0574395427
 20
376.4916580142
 30
0.0
 10
293.7727142246
 20
376.3585414324
 30
0.0
  0
SPLINE
  5
3BF
100
AcDbEntity
  8
0
100
AcDbSpline
 62
7
  6
CONTINUOUS
 70
0
 71
3
 72
17
 73
13
 74
0
 42
0.0000001
 43
0.0000001
 44
0.0000000001
 40
0.0
 40
0.0
 40
0.0
 40
0.0
 40
0.1336218129
 40
0.2775978335
 40
0.4247920311
 40
0.5675367407
 40
0.6989037716
 40
0.8141082742
 40
0.8653594844
 40
0.9127523976
 40
0.9571865846
 40
1.0
 40
1.0
 40
1.0
 40
1.0
 10
293.7727142246
 20
375.2154380484
 30
0.0
 10
292.6771911082
 20
374.703252151
 30
0.0
 10
290.2766232422
 20
373.8983016445
 30
0.0
 10
286.4579308245
 20
373.3314136429
 30
0.0
 10
282.5141741253
 20
373.381914129
 30
0.0
 10
278.7407252195
 20
374.0478964964
 30
0.0
 10
275.417560128
 20
375.278873765
 30
0.0
 10
273.1293203985
 20
376.7706563793
 30
0.0
 10
271.7955105958
 20
378.1850827434
 30
0.0
 10
271.0881736974
 20
379.2799538792
 30
0.0
 10
270.6534651941
 20
380.4288702184
 30
0.0
 10
270.5548796994
 20
381.2216107364
 30
0.0
 10
270.5548729353
 20
381.6090924734
 30
0.0
  0
SPLINE
  5
3C0
100
AcDbEntity
  8
0
100
AcDbSpline
 62
7
  6
CONTINUOUS
 70
0
 71
3
 72
18
 73
14
 74
0
 42
0.0000001
 43
0.0000001
 44
0.0000000001
 40
0.0
 40
0.0
 40
0.0
 40
0.0
 40
0.0428481578
 40
0.0874653981
 40
0.1352862996
 40
0.187237077
 40
0.2437290859
 40
0.3047358013
 40
0.4383717212
 40
0.5826807747
 40
0.729798307
 40
0.8713543401
 40
1.0
 40
1.0
 40
1.0
 40
1.0
 10
270.5548677882
 20
387.33263156
 30
0.0
 10
270.554867884
 20
386.9269703607
 30
0.0
 10
270.6633257055
 20
386.0953723284
 30
0.0
 10
271.1402574085
 20
384.8946236305
 30
0.0
 10
271.9141544786
 20
383.7563224084
 30
0.0
 10
272.9630691636
 20
382.7030258645
 30
0.0
 10
274.2628370147
 20
381.7531762283
 30
0.0
 10
276.3566623383
 20
380.6149346295
 30
0.0
 10
279.4246931689
 20
379.5901983555
 30
0.0
 10
283.4280199318
 20
379.0281554701
 30
0.0
 10
287.5457927263
 20
379.141875805
 30
0.0
 10
291.438068469
 20
379.9208563213
 30
0.0
 10
293.826396213
 20
380.9062327484
 30
0.0
 10
294.8811661287
 20
381.5152008081
 30
0.0
  0
SPLINE
  5
3C1
100
AcDbEntity
  8
0
100
AcDbSpline
 62
7
  6
CONTINUOUS
 70
0
 71
3
 72
17
 73
13
 74
0
 42
0.0000001
 43
0.0000001
 44
0.0000000001
 40
0.0
 40
0.0
 40
0.0
 40
0.0
 40
0.042861445
 40
0.087492668
 40
0.1353287936
 40
0.1872963454
 40
0.3045687556
 40
0.4382481658
 40
0.5826031581
 40
0.7297648853
 40
0.8713436635
 40
1.0
 40
1.0
 40
1.0
 40
1.0
 10
272.4548533161
 20
387.7736857154
 30
0.0
 10
272.4548516345
 20
387.4220964918
 30
0.0
 10
272.5488573005
 20
386.7013384017
 30
0.0
 10
272.962246944
 20
385.6606681351
 30
0.0
 10
273.6329722719
 20
384.6740031275
 30
0.0
 10
274.8957760715
 20
383.4068440781
 30
0.0
 10
277.047394455
 20
382.0971661404
 30
0.0
 10
280.1411011252
 20
381.0639331004
 30
0.0
 10
283.6128218455
 20
380.5762753812
 30
0.0
 10
287.1809933833
 20
380.6751575068
 30
0.0
 10
290.5541511818
 20
381.35030641
 30
0.0
 10
292.6236891945
 20
382.2042356126
 30
0.0
 10
293.5376576509
 20
382.7319123971
 30
0.0
  0
SPLINE
  5
3C2
100
AcDbEntity
  8
0
100
AcDbSpline
 62
7
  6
CONTINUOUS
 70
0
 71
3
 72
11
 73
7
 74
0
 42
0.0000001
 43
0.0000001
 44
0.0000000001
 40
0.0
 40
0.0
 40
0.0
 40
0.0
 40
0.2177705522
 40
0.450950541
 40
0.7101897553
 40
1.0
 40
1.0
 40
1.0
 40
1.0
 10
297.1548391704
 20
387.7328605862
 30
0.0
 10
297.1548609278
 20
387.2624908223
 30
0.0
 10
296.9812345834
 20
386.2818795151
 30
0.0
 10
296.2376647172
 20
384.9162105448
 30
0.0
 10
295.0630880311
 20
383.6809283977
 30
0.0
 10
294.0797649545
 20
383.0040712056
 30
0.0
 10
293.5376576509
 20
382.6910872762
 30
0.0
  0
SPLINE
  5
3C3
100
AcDbEntity
  8
0
100
AcDbSpline
 62
7
  6
CONTINUOUS
 70
0
 71
3
 72
13
 73
9
 74
0
 42
0.0000001
 43
0.0000001
 44
0.0000000001
 40
0.0
 40
0.0
 40
0.0
 40
0.0
 40
0.1129199345
 40
0.2342528473
 40
0.4929971565
 40
0.7555189708
 40
0.8813140158
 40
1.0
 40
1.0
 40
1.0
 40
1.0
 10
293.2165550652
 20
383.0232409848
 30
0.0
 10
292.6863154804
 20
382.7171001398
 30
0.0
 10
291.5337380841
 20
382.1707296605
 30
0.0
 10
288.9831261365
 20
381.3520204558
 30
0.0
 10
285.5014022726
 20
380.879668701
 30
0.0
 10
281.9738164273
 20
381.1170725252
 30
0.0
 10
279.2937271681
 20
381.7510768733
 30
0.0
 10
278.0457850238
 20
382.2116191368
 30
0.0
 10
277.4596287459
 20
382.4772490654
 30
0.0
  0
SPLINE
  5
3C4
100
AcDbEntity
  8
0
100
AcDbSpline
 62
7
  6
CONTINUOUS
 70
0
 71
3
 72
17
 73
13
 74
0
 42
0.0000001
 43
0.0000001
 44
0.0000000001
 40
0.0
 40
0.0
 40
0.0
 40
0.0
 40
0.1512593523
 40
0.2864948759
 40
0.4065994199
 40
0.4623760517
 40
0.5163112073
 40
0.5694673286
 40
0.6229872247
 40
0.7350236313
 40
0.8596255493
 40
1.0
 40
1.0
 40
1.0
 40
1.0
 10
277.4596287459
 20
382.4772490654
 30
0.0
 10
276.8410619538
 20
382.757566549
 30
0.0
 10
275.7061266503
 20
383.3793292355
 30
0.0
 10
274.2941780452
 20
384.5571050238
 30
0.0
 10
273.4629837
 20
385.7058328413
 30
0.0
 10
273.0739541582
 20
386.6662866957
 30
0.0
 10
272.9179402975
 20
387.384607607
 30
0.0
 10
272.893789671
 20
388.1093430821
 30
0.0
 10
273.0392092013
 20
389.0854659949
 30
0.0
 10
273.5773333163
 20
390.3001647905
 30
0.0
 10
274.6965155902
 20
391.593727389
 30
0.0
 10
275.6661395557
 20
392.299391658
 30
0.0
 10
276.2056040348
 20
392.625261546
 30
0.0
  0
SPLINE
  5
3C5
100
AcDbEntity
  8
0
100
AcDbSpline
 62
7
  6
CONTINUOUS
 70
0
 71
3
 72
21
 73
17
 74
0
 42
0.0000001
 43
0.0000001
 44
0.0000000001
 40
0.0
 40
0.0
 40
0.0
 40
0.0
 40
0.06041036
 40
0.1144524964
 40
0.1630598395
 40
0.2084556406
 40
0.2538515711
 40
0.3024592916
 40
0.3565017424
 40
0.4169125867
 40
0.4835338413
 40
0.5554176037
 40
0.7084564546
 40
0.861494962
 40
0.9333788015
 40
1.0
 40
1.0
 40
1.0
 40
1.0
 10
291.3102620167
 20
384.4261219824
 30
0.0
 10
291.71408495
 20
384.659271127
 30
0.0
 10
292.4465988835
 20
385.163566002
 30
0.0
 10
293.321622161
 20
386.083469577
 30
0.0
 10
293.8755224866
 20
387.1017444126
 30
0.0
 10
294.0673091504
 20
388.1819583695
 30
0.0
 10
293.8754931053
 20
389.262182357
 30
0.0
 10
293.3216413098
 20
390.280420709
 30
0.0
 10
292.4463218497
 20
391.2004740244
 30
0.0
 10
291.2886267552
 20
391.9976220926
 30
0.0
 10
289.8912766418
 20
392.6483048686
 30
0.0
 10
287.7323551361
 20
393.3040171883
 30
0.0
 10
284.8048794855
 20
393.6224333417
 30
0.0
 10
281.8770787806
 20
393.3039003722
 30
0.0
 10
279.7186510408
 20
392.6484448944
 30
0.0
 10
278.7447864842
 20
392.1948658767
 30
0.0
 10
278.299443074
 20
391.9377518656
 30
0.0
  0
SPLINE
  5
3C6
100
AcDbEntity
  8
0
100
AcDbSpline
 62
7
  6
CONTINUOUS
 70
0
 71
3
 72
21
 73
17
 74
0
 42
0.0000001
 43
0.0000001
 44
0.0000000001
 40
0.0
 40
0.0
 40
0.0
 40
0.0
 40
0.06041036
 40
0.1144524964
 40
0.1630598395
 40
0.2084556406
 40
0.2538515711
 40
0.3024592916
 40
0.3565017424
 40
0.4169125867
 40
0.4835338413
 40
0.5554176037
 40
0.7084564546
 40
0.861494962
 40
0.9333788015
 40
1.0
 40
1.0
 40
1.0
 40
1.0
 10
278.299443074
 20
391.9377518656
 30
0.0
 10
277.8956201407
 20
391.704602721
 30
0.0
 10
277.1631062071
 20
391.200307846
 30
0.0
 10
276.2880829297
 20
390.280404271
 30
0.0
 10
275.734182604
 20
389.2621294353
 30
0.0
 10
275.5423959403
 20
388.1819154784
 30
0.0
 10
275.7342119854
 20
387.1016914909
 30
0.0
 10
276.2880637809
 20
386.0834531389
 30
0.0
 10
277.163383241
 20
385.1633998235
 30
0.0
 10
278.3210783355
 20
384.3662517553
 30
0.0
 10
279.7184284489
 20
383.7155689794
 30
0.0
 10
281.8773499545
 20
383.0598566596
 30
0.0
 10
284.8048256052
 20
382.7414405062
 30
0.0
 10
287.73262631
 20
383.0599734757
 30
0.0
 10
289.8910540499
 20
383.7154289536
 30
0.0
 10
290.8649186064
 20
384.1690079712
 30
0.0
 10
291.3102620167
 20
384.4261219824
 30
0.0
  0
SPLINE
  5
3C7
100
AcDbEntity
  8
0
100
AcDbSpline
 62
7
  6
CONTINUOUS
 70
0
 71
3
 72
11
 73
7
 74
0
 42
0.0000001
 43
0.0000001
 44
0.0000000001
 40
0.0
 40
0.0
 40
0.0
 40
0.0
 40
0.2897809977
 40
0.5490200673
 40
0.7822030282
 40
1.0
 40
1.0
 40
1.0
 40
1.0
 10
293.5376576509
 20
382.7319123971
 30
0.0
 10
294.0797108539
 20
383.0448650916
 30
0.0
 10
295.0629756452
 20
383.7216881021
 30
0.0
 10
296.2375795147
 20
384.9568673291
 30
0.0
 10
296.9812043731
 20
386.3225869201
 30
0.0
 10
297.1548515549
 20
387.3032583589
 30
0.0
 10
297.1548514433
 20
387.7736857154
 30
0.0
  0
SPLINE
  5
3C8
100
AcDbEntity
  8
0
100
AcDbSpline
 62
7
  6
CONTINUOUS
 70
0
 71
3
 72
23
 73
19
 74
0
 42
0.0000001
 43
0.0000001
 44
0.0000000001
 40
0.0
 40
0.0
 40
0.0
 40
0.0
 40
0.0665886598
 40
0.1384326535
 40
0.214057897
 40
0.2916519258
 40
0.3692459503
 40
0.4448712931
 40
0.5167173552
 40
0.58330378
 40
0.6436835829
 40
0.6976981379
 40
0.7462804488
 40
0.7916525704
 40
0.8370245508
 40
0.8856071106
 40
0.9396190436
 40
1.0
 40
1.0
 40
1.0
 40
1.0
 10
276.3931500255
 20
392.7360186807
 30
0.0
 10
276.96901129
 20
393.0684858156
 30
0.0
 10
278.2281851724
 20
393.6548525631
 30
0.0
 10
280.2787000387
 20
394.2780549825
 30
0.0
 10
282.4986788747
 20
394.661711282
 30
0.0
 10
284.8047837612
 20
394.7911416022
 30
0.0
 10
287.1109375771
 20
394.6616901825
 30
0.0
 10
289.3308017105
 20
394.2781633338
 30
0.0
 10
291.3818073616
 20
393.6546669508
 30
0.0
 10
293.1885444409
 20
392.8134670972
 30
0.0
 10
294.6855073952
 20
391.782699223
 30
0.0
 10
295.8173224409
 20
390.5930441317
 30
0.0
 10
296.5334585693
 20
389.276423411
 30
0.0
 10
296.781494276
 20
387.8796714947
 30
0.0
 10
296.5335282443
 20
386.4829116024
 30
0.0
 10
295.8172920855
 20
385.1662851341
 30
0.0
 10
294.6858989064
 20
383.976786016
 30
0.0
 10
293.7387334735
 20
383.3247112214
 30
0.0
 10
293.2165550652
 20
383.0232409848
 30
0.0
  0
SPLINE
  5
3C9
100
AcDbEntity
  8
0
100
AcDbSpline
 62
7
  6
CONTINUOUS
 70
0
 71
3
 72
17
 73
13
 74
0
 42
0.0000001
 43
0.0000001
 44
0.0000000001
 40
0.0
 40
0.0
 40
0.0
 40
0.0
 40
0.128680444
 40
0.2702734524
 40
0.4174302495
 40
0.5617773798
 40
0.6954484859
 40
0.8127135545
 40
0.8646780272
 40
0.9125115307
 40
0.9571405353
 40
1.0
 40
1.0
 40
1.0
 40
1.0
 10
293.5376576509
 20
382.6910872762
 30
0.0
 10
292.6235185564
 20
382.1633119743
 30
0.0
 10
290.5536618539
 20
381.3093075431
 30
0.0
 10
287.1802078991
 20
380.634242752
 30
0.0
 10
283.6120244006
 20
380.5355060434
 30
0.0
 10
280.1404966631
 20
381.0232633739
 30
0.0
 10
277.047010071
 20
382.0565356928
 30
0.0
 10
274.8955683989
 20
383.3661986996
 30
0.0
 10
273.6328759069
 20
384.6333159923
 30
0.0
 10
272.9622146727
 20
385.6199417847
 30
0.0
 10
272.5488531307
 20
386.6605652226
 30
0.0
 10
272.4548821826
 20
387.3812878624
 30
0.0
 10
272.4548659203
 20
387.7328606029
 30
0.0
  0
SPLINE
  5
3CA
100
AcDbEntity
  8
0
100
AcDbSpline
 62
7
  6
CONTINUOUS
 70
0
 71
3
 72
23
 73
19
 74
0
 42
0.0000001
 43
0.0000001
 44
0.0000000001
 40
0.0
 40
0.0
 40
0.0
 40
0.0
 40
0.0603807593
 40
0.114392887
 40
0.1629750197
 40
0.208347109
 40
0.253719209
 40
0.3023014435
 40
0.3563156421
 40
0.4166948548
 40
0.4832817219
 40
0.5551281532
 40
0.6307534117
 40
0.708347148
 40
0.7859409876
 40
0.8615664137
 40
0.9334112328
 40
1.0
 40
1.0
 40
1.0
 40
1.0
 10
293.8912125135
 20
382.486966899
 30
0.0
 10
294.4552665786
 20
382.8126217214
 30
0.0
 10
295.4784005216
 20
383.5169898556
 30
0.0
 10
296.7005490421
 20
384.8018770081
 30
0.0
 10
297.4742181409
 20
386.2241105998
 30
0.0
 10
297.7420673018
 20
387.7328888629
 30
0.0
 10
297.4741778842
 20
389.2416762571
 30
0.0
 10
296.7005750298
 20
390.6638793968
 30
0.0
 10
295.4779985194
 20
391.9489414831
 30
0.0
 10
293.860996415
 20
393.0624113938
 30
0.0
 10
291.9093348801
 20
393.9710551553
 30
0.0
 10
289.6938267475
 20
394.6445698205
 30
0.0
 10
287.2959216765
 20
395.0588796301
 30
0.0
 10
284.804808143
 20
395.1986957557
 30
0.0
 10
282.3137471064
 20
395.0588928923
 30
0.0
 10
279.9157023002
 20
394.6444833582
 30
0.0
 10
277.7007195147
 20
393.9712804401
 30
0.0
 10
276.3405394878
 20
393.3378910977
 30
0.0
 10
275.7184925772
 20
392.9787542901
 30
0.0
  0
SPLINE
  5
3CB
100
AcDbEntity
  8
0
100
AcDbSpline
 62
7
  6
CONTINUOUS
 70
0
 71
3
 72
17
 73
13
 74
0
 42
0.0000001
 43
0.0000001
 44
0.0000000001
 40
0.0
 40
0.0
 40
0.0
 40
0.0
 40
0.1410207677
 40
0.2658548751
 40
0.3775993265
 40
0.4308318661
 40
0.4836616565
 40
0.5372866486
 40
0.5928183322
 40
0.7127338294
 40
0.8482210386
 40
1.0
 40
1.0
 40
1.0
 40
1.0
 10
275.7184925772
 20
392.9787542901
 30
0.0
 10
275.1064530498
 20
392.6253952135
 30
0.0
 10
274.0053104355
 20
391.8563852132
 30
0.0
 10
272.7276272383
 20
390.4332062112
 30
0.0
 10
272.1081422958
 20
389.0865248632
 30
0.0
 10
271.9384713832
 20
388.0023930933
 30
0.0
 10
271.9632715847
 20
387.1977891037
 30
0.0
 10
272.1385291429
 20
386.4005513669
 30
0.0
 10
272.5788280073
 20
385.3347502478
 30
0.0
 10
273.522108195
 20
384.0639998839
 30
0.0
 10
275.1206492259
 20
382.7718017311
 30
0.0
 10
276.402462993
 20
382.0972488517
 30
0.0
 10
277.1005998652
 20
381.7953025888
 30
0.0
  0
SPLINE
  5
3CC
100
AcDbEntity
  8
0
100
AcDbSpline
 62
7
  6
CONTINUOUS
 70
0
 71
3
 72
9
 73
5
 74
0
 42
0.0000001
 43
0.0000001
 44
0.0000000001
 40
0.0
 40
0.0
 40
0.0
 40
0.0
 40
0.2395882674
 40
1.0
 40
1.0
 40
1.0
 40
1.0
 10
277.1535293301
 20
381.7725329279
 30
0.0
 10
277.4617048303
 20
381.6406696576
 30
0.0
 10
278.7664898606
 20
381.133918956
 30
0.0
 10
280.1332835838
 20
380.7928934042
 30
0.0
 10
281.1821688469
 20
380.6149534099
 30
0.0
  0
SPLINE
  5
3CD
100
AcDbEntity
  8
0
100
AcDbSpline
 62
7
  6
CONTINUOUS
 70
0
 71
3
 72
9
 73
5
 74
0
 42
0.0000001
 43
0.0000001
 44
0.0000000001
 40
0.0
 40
0.0
 40
0.0
 40
0.0
 40
0.4999936226
 40
1.0
 40
1.0
 40
1.0
 40
1.0
 10
281.1821688469
 20
380.6149534099
 30
0.0
 10
282.3762516689
 20
380.4123811192
 30
0.0
 10
284.8031410699
 20
380.2158583494
 30
0.0
 10
287.2300586193
 20
380.4120066277
 30
0.0
 10
288.4242056579
 20
380.6143850085
 30
0.0
  0
SPLINE
  5
3CE
100
AcDbEntity
  8
0
100
AcDbSpline
 62
7
  6
CONTINUOUS
 70
0
 71
3
 72
9
 73
5
 74
0
 42
0.0000001
 43
0.0000001
 44
0.0000000001
 40
0.0
 40
0.0
 40
0.0
 40
0.0
 40
0.5220592598
 40
1.0
 40
1.0
 40
1.0
 40
1.0
 10
288.4242056579
 20
380.6143850085
 30
0.0
 10
289.419514467
 20
380.7830652286
 30
0.0
 10
291.3057642023
 20
381.2457483019
 30
0.0
 10
293.0908396393
 20
382.0248741629
 30
0.0
 10
293.8912125135
 20
382.486966899
 30
0.0
  0
SPLINE
  5
3CF
100
AcDbEntity
  8
0
100
AcDbSpline
 62
7
  6
CONTINUOUS
 70
0
 71
3
 72
12
 73
8
 74
0
 42
0.0000001
 43
0.0000001
 44
0.0000000001
 40
0.0
 40
0.0
 40
0.0
 40
0.0
 40
0.2906710443
 40
0.5493091434
 40
0.7813087059
 40
0.8913858811
 40
1.0
 40
1.0
 40
1.0
 40
1.0
 10
294.8315640224
 20
381.6217651343
 30
0.0
 10
295.4810783012
 20
381.9967601396
 30
0.0
 10
296.6543042491
 20
382.8105928699
 30
0.0
 10
298.035484532
 20
384.3051494567
 30
0.0
 10
298.7416090562
 20
385.7168121021
 30
0.0
 10
298.9780092669
 20
386.8607927833
 30
0.0
 10
298.9929530045
 20
387.4284551987
 30
0.0
 10
298.9753342227
 20
387.7081484378
 30
0.0
  0
SPLINE
  5
3D0
100
AcDbEntity
  8
0
100
AcDbSpline
 62
7
  6
CONTINUOUS
 70
0
 71
3
 72
20
 73
16
 74
0
 42
0.0000001
 43
0.0000001
 44
0.0000000001
 40
0.0
 40
0.0
 40
0.0
 40
0.0
 40
0.0428858089
 40
0.0878601456
 40
0.1362006143
 40
0.1886926687
 40
0.2456462412
 40
0.3069737639
 40
0.4407522823
 40
0.5845870404
 40
0.7308727408
 40
0.8024721559
 40
0.8717207286
 40
0.9377182035
 40
1.0
 40
1.0
 40
1.0
 40
1.0
 10
298.9753342227
 20
387.7081484378
 30
0.0
 10
298.9502481204
 20
388.106383302
 30
0.0
 10
298.793631345
 20
388.918723552
 30
0.0
 10
298.2623978759
 20
390.0803068818
 30
0.0
 10
297.4502630882
 20
391.1775741139
 30
0.0
 10
296.3781989415
 20
392.1898412847
 30
0.0
 10
295.0694533961
 20
393.0998198303
 30
0.0
 10
292.9845663824
 20
394.1848814436
 30
0.0
 10
289.959169992
 20
395.1558876645
 30
0.0
 10
286.0327392595
 20
395.6775474222
 30
0.0
 10
282.6514832861
 20
395.5700979223
 30
0.0
 10
280.0111682677
 20
395.1450847158
 30
0.0
 10
278.1428820613
 20
394.6702252408
 30
0.0
 10
276.4131585364
 20
394.0409546028
 30
0.0
 10
275.3365325594
 20
393.5184043005
 30
0.0
 10
274.8333150365
 20
393.2310333555
 30
0.0
  0
SPLINE
  5
3D1
100
AcDbEntity
  8
0
100
AcDbSpline
 62
7
  6
CONTINUOUS
 70
0
 71
3
 72
12
 73
8
 74
0
 42
0.0000001
 43
0.0000001
 44
0.0000000001
 40
0.0
 40
0.0
 40
0.0
 40
0.0
 40
0.2895886829
 40
0.5486331543
 40
0.7816363674
 40
0.8918378843
 40
1.0
 40
1.0
 40
1.0
 40
1.0
 10
294.8811661287
 20
381.5152008081
 30
0.0
 10
295.5066702585
 20
381.8763336302
 30
0.0
 10
296.6412393812
 20
382.6577242376
 30
0.0
 10
297.9966537657
 20
384.0814510139
 30
0.0
 10
298.7244581784
 20
385.4229776758
 30
0.0
 10
299.0079299145
 20
386.517108323
 30
0.0
 10
299.0548373661
 20
387.0628622818
 30
0.0
 10
299.0548373024
 20
387.33263156
 30
0.0
  0
SPLINE
  5
3D2
100
AcDbEntity
  8
0
100
AcDbSpline
 62
7
  6
CONTINUOUS
 70
0
 71
3
 72
19
 73
15
 74
0
 42
0.0000001
 43
0.0000001
 44
0.0000000001
 40
0.0
 40
0.0
 40
0.0
 40
0.0
 40
0.1312079803
 40
0.2758750414
 40
0.4255314748
 40
0.5706928595
 40
0.6389182278
 40
0.7030066437
 40
0.7623887276
 40
0.8168600523
 40
0.8666958382
 40
0.9127612789
 40
0.9565453217
 40
1.0
 40
1.0
 40
1.0
 40
1.0
 10
294.8315640224
 20
381.6217651343
 30
0.0
 10
293.7204568239
 20
380.9802709233
 30
0.0
 10
291.1919275203
 20
379.9587125242
 30
0.0
 10
287.0786436024
 20
379.2011683769
 30
0.0
 10
282.7595692352
 20
379.1808845838
 30
0.0
 10
279.2389801647
 20
379.7939040523
 30
0.0
 10
276.6651099631
 20
380.6671603083
 30
0.0
 10
274.9660178221
 20
381.4699295895
 30
0.0
 10
273.4985486193
 20
382.415555304
 30
0.0
 10
272.2969153443
 20
383.484370816
 30
0.0
 10
271.3908492098
 20
384.6551060479
 30
0.0
 10
270.8073455476
 20
385.9047388559
 30
0.0
 10
270.5704179639
 20
387.201789637
 30
0.0
 10
270.6516286362
 20
388.0632665554
 30
0.0
 10
270.7459723666
 20
388.4775745442
 30
0.0
  0
SPLINE
  5
3D3
100
AcDbEntity
  8
0
100
AcDbSpline
 62
7
  6
CONTINUOUS
 70
0
 71
3
 72
9
 73
5
 74
0
 42
0.0000001
 43
0.0000001
 44
0.0000000001
 40
0.0
 40
0.0
 40
0.0
 40
0.0
 40
0.2464781239
 40
1.0
 40
1.0
 40
1.0
 40
1.0
 10
270.7459723666
 20
388.4775745442
 30
0.0
 10
270.7643287653
 20
388.5581861817
 30
0.0
 10
270.8469327527
 20
388.8833553077
 30
0.0
 10
270.9617806554
 20
389.200173517
 30
0.0
 10
271.0638155649
 20
389.431413539
 30
0.0
  0
SPLINE
  5
3D4
100
AcDbEntity
  8
0
100
AcDbSpline
 62
7
  6
CONTINUOUS
 70
0
 71
3
 72
9
 73
5
 74
0
 42
0.0000001
 43
0.0000001
 44
0.0000000001
 40
0.0
 40
0.0
 40
0.0
 40
0.0
 40
0.2389185096
 40
1.0
 40
1.0
 40
1.0
 40
1.0
 10
271.0638155649
 20
389.431413539
 30
0.0
 10
271.1346201745
 20
389.5918768509
 30
0.0
 10
271.4623380598
 20
390.2496138071
 30
0.0
 10
271.9081003844
 20
390.8451869234
 30
0.0
 10
272.2867223384
 20
391.256043448
 30
0.0
  0
SPLINE
  5
3D5
100
AcDbEntity
  8
0
100
AcDbSpline
 62
7
  6
CONTINUOUS
 70
0
 71
3
 72
9
 73
5
 74
0
 42
0.0000001
 43
0.0000001
 44
0.0000000001
 40
0.0
 40
0.0
 40
0.0
 40
0.0
 40
0.2393055601
 40
1.0
 40
1.0
 40
1.0
 40
1.0
 10
272.2867223384
 20
391.256043448
 30
0.0
 10
272.4016749364
 20
391.3807827146
 30
0.0
 10
272.89824581
 20
391.887042622
 30
0.0
 10
273.4541582562
 20
392.3335546301
 30
0.0
 10
273.8969211543
 20
392.6413009434
 30
0.0
  0
SPLINE
  5
3D6
100
AcDbEntity
  8
0
100
AcDbSpline
 62
7
  6
CONTINUOUS
 70
0
 71
3
 72
10
 73
6
 74
0
 42
0.0000001
 43
0.0000001
 44
0.0000000001
 40
0.0
 40
0.0
 40
0.0
 40
0.0
 40
0.3865013393
 40
0.6649235533
 40
1.0
 40
1.0
 40
1.0
 40
1.0
 10
325.400522502
 20
312.6336503705
 30
0.0
 10
325.4652736529
 20
312.7142739741
 30
0.0
 10
325.4893709307
 20
312.9087507125
 30
0.0
 10
325.4656645988
 20
313.1709704388
 30
0.0
 10
325.4339965492
 20
313.3334042944
 30
0.0
 10
325.4138946932
 20
313.4207694114
 30
0.0
  0
SPLINE
  5
3D7
100
AcDbEntity
  8
0
100
AcDbSpline
 62
7
  6
CONTINUOUS
 70
0
 71
3
 72
14
 73
10
 74
0
 42
0.0000001
 43
0.0000001
 44
0.0000000001
 40
0.0
 40
0.0
 40
0.0
 40
0.0
 40
0.2629943356
 40
0.3993710464
 40
0.5321678153
 40
0.658442245
 40
0.7775050272
 40
0.8905843813
 40
1.0
 40
1.0
 40
1.0
 40
1.0
 10
325.4138631893
 20
316.6454105861
 30
0.0
 10
325.4832139679
 20
317.0266361414
 30
0.0
 10
325.5052953916
 20
317.6244755887
 30
0.0
 10
325.373150507
 20
318.3994004371
 30
0.0
 10
325.1813133672
 20
318.9530496469
 30
0.0
 10
324.8979899242
 20
319.4376110782
 30
0.0
 10
324.5292538878
 20
319.8235556946
 30
0.0
 10
324.091826156
 20
320.0851859081
 30
0.0
 10
323.7679181175
 20
320.1654820699
 30
0.0
 10
323.6073513891
 20
320.1798388312
 30
0.0
  0
SPLINE
  5
3D8
100
AcDbEntity
  8
0
100
AcDbSpline
 62
7
  6
CONTINUOUS
 70
0
 71
3
 72
9
 73
5
 74
0
 42
0.0000001
 43
0.0000001
 44
0.0000000001
 40
0.0
 40
0.0
 40
0.0
 40
0.0
 40
0.2405381952
 40
1.0
 40
1.0
 40
1.0
 40
1.0
 10
325.2523257318
 20
314.9400138347
 30
0.0
 10
325.2523257318
 20
315.0774807539
 30
0.0
 10
325.2667865138
 20
315.6489468282
 30
0.0
 10
325.3362201135
 20
316.2185184168
 30
0.0
 10
325.4138400741
 20
316.6455517615
 30
0.0
  0
SPLINE
  5
3D9
100
AcDbEntity
  8
0
100
AcDbSpline
 62
7
  6
CONTINUOUS
 70
0
 71
3
 72
9
 73
5
 74
0
 42
0.0000001
 43
0.0000001
 44
0.0000000001
 40
0.0
 40
0.0
 40
0.0
 40
0.0
 40
0.2383455689
 40
1.0
 40
1.0
 40
1.0
 40
1.0
 10
325.4138929099
 20
313.4207675485
 30
0.0
 10
325.3866416881
 20
313.5392046807
 30
0.0
 10
325.2885201919
 20
314.0398201492
 30
0.0
 10
325.2523257318
 20
314.5516481102
 30
0.0
 10
325.2523257318
 20
314.9400138347
 30
0.0
  0
SPLINE
  5
3DA
100
AcDbEntity
  8
0
100
AcDbSpline
 62
7
  6
CONTINUOUS
 70
0
 71
3
 72
11
 73
7
 74
0
 42
0.0000001
 43
0.0000001
 44
0.0000000001
 40
0.0
 40
0.0
 40
0.0
 40
0.0
 40
0.2542948405
 40
0.5035092678
 40
0.7515506361
 40
1.0
 40
1.0
 40
1.0
 40
1.0
 10
378.5114753253
 20
338.3232048503
 30
0.0
 10
378.5114753253
 20
338.8258976324
 30
0.0
 10
378.419962443
 20
339.8249420819
 30
0.0
 10
377.955709523
 20
341.2514117602
 30
0.0
 10
377.1409431658
 20
342.502161991
 30
0.0
 10
376.3755710135
 20
343.1447380482
 30
0.0
 10
375.9555772221
 20
343.3993380135
 30
0.0
  0
SPLINE
  5
3DB
100
AcDbEntity
  8
0
100
AcDbSpline
 62
7
  6
CONTINUOUS
 70
0
 71
3
 72
9
 73
5
 74
0
 42
0.0000001
 43
0.0000001
 44
0.0000000001
 40
0.0
 40
0.0
 40
0.0
 40
0.0
 40
0.2591931615
 40
1.0
 40
1.0
 40
1.0
 40
1.0
 10
377.2926754247
 20
333.5764318237
 30
0.0
 10
377.4848406459
 20
333.9560054121
 30
0.0
 10
378.1505743698
 20
335.4552674226
 30
0.0
 10
378.5114753253
 20
337.1072287825
 30
0.0
 10
378.5114753253
 20
338.3232048503
 30
0.0
  0
SPLINE
  5
3DC
100
AcDbEntity
  8
0
100
AcDbSpline
 62
7
  6
CONTINUOUS
 70
0
 71
3
 72
17
 73
13
 74
0
 42
0.0000001
 43
0.0000001
 44
0.0000000001
 40
0.0
 40
0.0
 40
0.0
 40
0.0
 40
0.1286891648
 40
0.2702739094
 40
0.4174288814
 40
0.5617736083
 40
0.6954436938
 40
0.8127070691
 40
0.8646728644
 40
0.9125073183
 40
0.9571318206
 40
1.0
 40
1.0
 40
1.0
 40
1.0
 10
334.7623318538
 20
312.347351408
 30
0.0
 10
334.7623318538
 20
312.7832760264
 30
0.0
 10
334.8842902172
 20
313.6998511594
 30
0.0
 10
335.3394318321
 20
315.0456621922
 30
0.0
 10
336.0408200464
 20
316.3421108519
 30
0.0
 10
336.9320542742
 20
317.4828815466
 30
0.0
 10
337.940269364
 20
318.3758865576
 30
0.0
 10
338.8528749008
 20
318.874841236
 30
0.0
 10
339.5667362561
 20
319.064846461
 30
0.0
 10
340.0580547699
 20
319.1009351392
 30
0.0
 10
340.5155726379
 20
319.0339436203
 30
0.0
 10
340.7927683874
 20
318.9187714508
 30
0.0
 10
340.9185111032
 20
318.846138928
 30
0.0
  0
SPLINE
  5
3DD
100
AcDbEntity
  8
0
100
AcDbSpline
 62
7
  6
CONTINUOUS
 70
0
 71
3
 72
11
 73
7
 74
0
 42
0.0000001
 43
0.0000001
 44
0.0000000001
 40
0.0
 40
0.0
 40
0.0
 40
0.0
 40
0.2484425013
 40
0.4964891802
 40
0.745705643
 40
1.0
 40
1.0
 40
1.0
 40
1.0
 10
332.073380285
 20
308.2175901672
 30
0.0
 10
332.5038467269
 20
307.9811870884
 30
0.0
 10
333.4429922353
 20
307.6396731923
 30
0.0
 10
334.9335107966
 20
307.5594373261
 30
0.0
 10
336.4009654735
 20
307.8706091341
 30
0.0
 10
337.3118943734
 20
308.290867105
 30
0.0
 10
337.7472255328
 20
308.5422041668
 30
0.0
  0
SPLINE
  5
3DE
100
AcDbEntity
  8
0
100
AcDbSpline
 62
7
  6
CONTINUOUS
 70
0
 71
3
 72
9
 73
5
 74
0
 42
0.0000001
 43
0.0000001
 44
0.0000000001
 40
0.0
 40
0.0
 40
0.0
 40
0.0
 40
0.4851523181
 40
1.0
 40
1.0
 40
1.0
 40
1.0
 10
349.7793720721
 20
306.8027849864
 30
0.0
 10
349.3012267428
 20
307.1366103803
 30
0.0
 10
348.4104600036
 20
307.968639754
 30
0.0
 10
347.7653381061
 20
308.9977791592
 30
0.0
 10
347.4934307522
 20
309.5536856875
 30
0.0
  0
SPLINE
  5
3DF
100
AcDbEntity
  8
0
100
AcDbSpline
 62
7
  6
CONTINUOUS
 70
0
 71
3
 72
29
 73
25
 74
0
 42
0.0000001
 43
0.0000001
 44
0.0000000001
 40
0.0
 40
0.0
 40
0.0
 40
0.0
 40
0.0002740074
 40
0.0003268448
 40
0.0007383365
 40
0.0015814246
 40
0.0029255071
 40
0.0048436285
 40
0.0106718786
 40
0.0195368042
 40
0.0319650407
 40
0.0483195612
 40
0.0684527323
 40
0.0921875089
 40
0.1192832643
 40
0.1823265684
 40
0.2552038502
 40
0.3355604997
 40
0.4212138762
 40
0.5101135524
 40
0.6002825941
 40
0.6897691057
 40
0.8586138937
 40
1.0
 40
1.0
 40
1.0
 40
1.0
 10
353.8034959372
 20
344.8499185362
 30
0.0
 10
353.8028800214
 20
344.8495629392
 30
0.0
 10
353.8009867586
 20
344.8486989988
 30
0.0
 10
353.803293953
 20
344.8485860793
 30
0.0
 10
353.8054466864
 20
344.8515847678
 30
0.0
 10
353.8108792753
 20
344.855400151
 30
0.0
 10
353.8180246518
 20
344.8634822882
 30
0.0
 10
353.8334312324
 20
344.8812498918
 30
0.0
 10
353.8583287423
 20
344.9166768501
 30
0.0
 10
353.8924647723
 20
344.9783368439
 30
0.0
 10
353.9305342604
 20
345.0685340083
 30
0.0
 10
353.9692660613
 20
345.1895907148
 30
0.0
 10
354.0045548899
 20
345.3420532222
 30
0.0
 10
354.0311888778
 20
345.5245024355
 30
0.0
 10
354.0523186123
 20
345.8195349695
 30
0.0
 10
354.0380838521
 20
346.2436621798
 30
0.0
 10
353.9555744016
 20
346.7999354756
 30
0.0
 10
353.8027018955
 20
347.4018567801
 30
0.0
 10
353.5811543959
 20
348.0262144622
 30
0.0
 10
353.2959368317
 20
348.6522157943
 30
0.0
 10
352.9545759235
 20
349.2609168055
 30
0.0
 10
352.4474131283
 20
350.0110103996
 30
0.0
 10
351.7612606137
 20
350.7957021209
 30
0.0
 10
351.1213319098
 20
351.2974956522
 30
0.0
 10
350.803521858
 20
351.4809792201
 30
0.0
  0
SPLINE
  5
3E0
100
AcDbEntity
  8
0
100
AcDbSpline
 62
7
  6
CONTINUOUS
 70
0
 71
3
 72
20
 73
16
 74
0
 42
0.0000001
 43
0.0000001
 44
0.0000000001
 40
0.0
 40
0.0
 40
0.0
 40
0.0
 40
0.2757638684
 40
0.508374963
 40
0.6953117155
 40
0.7706646493
 40
0.8333189085
 40
0.8839152167
 40
0.9236804855
 40
0.9537162784
 40
0.9749820904
 40
0.9886076473
 40
0.9958854711
 40
0.998037562
 40
1.0
 40
1.0
 40
1.0
 40
1.0
 10
350.803521858
 20
351.4809792201
 30
0.0
 10
350.718610505
 20
351.5300017036
 30
0.0
 10
350.5583513386
 20
351.6142076348
 30
0.0
 10
350.3293233013
 20
351.7083233362
 30
0.0
 10
350.1599221244
 20
351.7574083875
 30
0.0
 10
350.0464630767
 20
351.7795391555
 30
0.0
 10
349.9799541427
 20
351.7883508785
 30
0.0
 10
349.9255700864
 20
351.7917832282
 30
0.0
 10
349.8828448294
 20
351.7915031089
 30
0.0
 10
349.8502549137
 20
351.788553123
 30
0.0
 10
349.8280963026
 20
351.7855157292
 30
0.0
 10
349.8121335992
 20
351.781264786
 30
0.0
 10
349.8063541285
 20
351.7801665777
 30
0.0
 10
349.8003971873
 20
351.7768002958
 30
0.0
 10
349.8029095865
 20
351.7777832388
 30
0.0
 10
349.8035138447
 20
351.7781321053
 30
0.0
  0
SPLINE
  5
3E1
100
AcDbEntity
  8
0
100
AcDbSpline
 62
7
  6
CONTINUOUS
 70
0
 71
3
 72
10
 73
6
 74
0
 42
0.0000001
 43
0.0000001
 44
0.0000000001
 40
0.0
 40
0.0
 40
0.0
 40
0.0
 40
0.2178874613
 40
0.4648596001
 40
1.0
 40
1.0
 40
1.0
 40
1.0
 10
350.9823995469
 20
351.3427120797
 30
0.0
 10
350.9974489661
 20
351.0930392716
 30
0.0
 10
351.0749968487
 20
350.5626574875
 30
0.0
 10
351.3899467667
 20
349.4567391015
 30
0.0
 10
351.7894655406
 20
348.6410166526
 30
0.0
 10
352.1169825408
 20
348.1212849838
 30
0.0
  0
SPLINE
  5
3E2
100
AcDbEntity
  8
0
100
AcDbSpline
 62
7
  6
CONTINUOUS
 70
0
 71
3
 72
11
 73
7
 74
0
 42
0.0000001
 43
0.0000001
 44
0.0000000001
 40
0.0
 40
0.0
 40
0.0
 40
0.0
 40
0.2177723351
 40
0.4509555039
 40
0.7101918381
 40
1.0
 40
1.0
 40
1.0
 40
1.0
 10
349.6319614859
 20
358.6072362282
 30
0.0
 10
349.9618066663
 20
358.7976713093
 30
0.0
 10
350.7197364685
 20
359.0729589514
 30
0.0
 10
351.9784481175
 20
359.1044615433
 30
0.0
 10
353.3202210914
 20
358.7809546176
 30
0.0
 10
354.1929653782
 20
358.3654510818
 30
0.0
 10
354.6319202398
 20
358.1120261075
 30
0.0
  0
SPLINE
  5
3E3
100
AcDbEntity
  8
0
100
AcDbSpline
 62
7
  6
CONTINUOUS
 70
0
 71
3
 72
11
 73
7
 74
0
 42
0.0000001
 43
0.0000001
 44
0.0000000001
 40
0.0
 40
0.0
 40
0.0
 40
0.0
 40
0.2177713797
 40
0.4509541476
 40
0.7101908473
 40
1.0
 40
1.0
 40
1.0
 40
1.0
 10
345.3893384626
 20
356.1577713049
 30
0.0
 10
345.059485907
 20
355.9673319763
 30
0.0
 10
344.4420991224
 20
355.4485772263
 30
0.0
 10
343.7854499436
 20
354.374221154
 30
0.0
 10
343.3947285659
 20
353.0504178099
 30
0.0
 10
343.3181999651
 20
352.0868183891
 30
0.0
 10
343.3181999651
 20
351.5799445582
 30
0.0
  0
SPLINE
  5
3E4
100
AcDbEntity
  8
0
100
AcDbSpline
 62
7
  6
CONTINUOUS
 70
0
 71
3
 72
11
 73
7
 74
0
 42
0.0000001
 43
0.0000001
 44
0.0000000001
 40
0.0
 40
0.0
 40
0.0
 40
0.0
 40
0.2794813591
 40
0.5354191048
 40
0.7728672624
 40
1.0
 40
1.0
 40
1.0
 40
1.0
 10
361.7036241086
 20
338.8572943787
 30
0.0
 10
362.343483156
 20
339.102887613
 30
0.0
 10
363.6086922459
 20
339.4814661123
 30
0.0
 10
365.5079508788
 20
339.6721073641
 30
0.0
 10
367.277453784
 20
339.4469020266
 30
0.0
 10
368.3473498015
 20
339.0108621194
 30
0.0
 10
368.8297182982
 20
338.732352843
 30
0.0
  0
SPLINE
  5
3E5
100
AcDbEntity
  8
0
100
AcDbSpline
 62
7
  6
CONTINUOUS
 70
0
 71
3
 72
11
 73
7
 74
0
 42
0.0000001
 43
0.0000001
 44
0.0000000001
 40
0.0
 40
0.0
 40
0.0
 40
0.0
 40
0.2461902635
 40
0.4936930745
 40
0.7444074287
 40
1.0
 40
1.0
 40
1.0
 40
1.0
 10
347.1573441788
 20
305.5892872744
 30
0.0
 10
347.6234268132
 20
305.3333245348
 30
0.0
 10
348.6060495945
 20
304.9024972793
 30
0.0
 10
350.1756345142
 20
304.5211187206
 30
0.0
 10
351.8058933999
 20
304.3995390383
 30
0.0
 10
352.9005680928
 20
304.4842764461
 30
0.0
 10
353.4468761512
 20
304.5636930419
 30
0.0
  0
SPLINE
  5
3E6
100
AcDbEntity
  8
0
100
AcDbSpline
 62
7
  6
CONTINUOUS
 70
0
 71
3
 72
9
 73
5
 74
0
 42
0.0000001
 43
0.0000001
 44
0.0000000001
 40
0.0
 40
0.0
 40
0.0
 40
0.0
 40
0.480290162
 40
1.0
 40
1.0
 40
1.0
 40
1.0
 10
346.3777552115
 20
315.0308726705
 30
0.0
 10
346.3777552113
 20
316.1317376606
 30
0.0
 10
346.5911859725
 20
318.4257456343
 30
0.0
 10
347.1380695822
 20
320.6594737978
 30
0.0
 10
347.4934683637
 20
321.796440123
 30
0.0
  0
SPLINE
  5
3E7
100
AcDbEntity
  8
0
100
AcDbSpline
 62
7
  6
CONTINUOUS
 70
0
 71
3
 72
9
 73
5
 74
0
 42
0.0000001
 43
0.0000001
 44
0.0000000001
 40
0.0
 40
0.0
 40
0.0
 40
0.0
 40
0.229040795
 40
1.0
 40
1.0
 40
1.0
 40
1.0
 10
347.4934307522
 20
309.5536856875
 30
0.0
 10
347.3049727173
 20
309.9389836108
 30
0.0
 10
346.6055951575
 20
311.6819319059
 30
0.0
 10
346.3777552119
 20
313.5871188502
 30
0.0
 10
346.3777552117
 20
315.0308726703
 30
0.0
  0
SPLINE
  5
3E8
100
AcDbEntity
  8
0
100
AcDbSpline
 62
7
  6
CONTINUOUS
 70
0
 71
3
 72
11
 73
7
 74
0
 42
0.0000001
 43
0.0000001
 44
0.0000000001
 40
0.0
 40
0.0
 40
0.0
 40
0.0
 40
0.289801619
 40
0.5490518238
 40
0.7822290835
 40
1.0
 40
1.0
 40
1.0
 40
1.0
 10
343.3181999651
 20
351.5799445582
 30
0.0
 10
343.3181999651
 20
351.2758276242
 30
0.0
 10
343.2722695298
 20
350.6976643891
 30
0.0
 10
343.0378670321
 20
349.9033679392
 30
0.0
 10
342.6438519729
 20
349.2587617737
 30
0.0
 10
342.2734380685
 20
348.9474952019
 30
0.0
 10
342.0755234676
 20
348.8332370769
 30
0.0
  0
SPLINE
  5
3E9
100
AcDbEntity
  8
0
100
AcDbSpline
 62
7
  6
CONTINUOUS
 70
0
 71
3
 72
9
 73
5
 74
0
 42
0.0000001
 43
0.0000001
 44
0.0000000001
 40
0.0
 40
0.0
 40
0.0
 40
0.0
 40
0.2650780117
 40
1.0
 40
1.0
 40
1.0
 40
1.0
 10
357.460394468
 20
336.3576665335
 30
0.0
 10
357.8022732782
 20
336.6195668291
 30
0.0
 10
359.1202730602
 20
337.5688147078
 30
0.0
 10
360.5596617195
 20
338.3595357202
 30
0.0
 10
361.6714947923
 20
338.7948352755
 30
0.0
  0
SPLINE
  5
3EA
100
AcDbEntity
  8
0
100
AcDbSpline
 62
7
  6
CONTINUOUS
 70
0
 71
3
 72
13
 73
9
 74
0
 42
0.0000001
 43
0.0000001
 44
0.0000000001
 40
0.0
 40
0.0
 40
0.0
 40
0.0
 40
0.1142597238
 40
0.2375365639
 40
0.4999989057
 40
0.7624618467
 40
0.8857393867
 40
1.0
 40
1.0
 40
1.0
 40
1.0
 10
354.6319202398
 20
358.1120261075
 30
0.0
 10
355.1160065338
 20
357.8325450781
 30
0.0
 10
356.0722595163
 20
357.1623410399
 30
0.0
 10
357.862297637
 20
355.4867348467
 30
0.0
 10
359.7533594915
 20
352.9039458466
 30
0.0
 10
361.0446039875
 20
349.9748468199
 30
0.0
 10
361.6007200241
 20
347.5868184496
 30
0.0
 10
361.7030174913
 20
346.4235702858
 30
0.0
 10
361.7030174913
 20
345.864594391
 30
0.0
  0
SPLINE
  5
3EB
100
AcDbEntity
  8
0
100
AcDbSpline
 62
7
  6
CONTINUOUS
 70
0
 71
3
 72
9
 73
5
 74
0
 42
0.0000001
 43
0.0000001
 44
0.0000000001
 40
0.0
 40
0.0
 40
0.0
 40
0.0
 40
0.5047611732
 40
1.0
 40
1.0
 40
1.0
 40
1.0
 10
371.7652330203
 20
337.7446637666
 30
0.0
 10
371.3535497794
 20
338.5863215947
 30
0.0
 10
370.3265302518
 20
340.1627388915
 30
0.0
 10
368.8820290026
 20
341.3802410292
 30
0.0
 10
368.0959178201
 20
341.8567811208
 30
0.0
  0
SPLINE
  5
3EC
100
AcDbEntity
  8
0
100
AcDbSpline
 62
7
  6
CONTINUOUS
 70
0
 71
3
 72
11
 73
7
 74
0
 42
0.0000001
 43
0.0000001
 44
0.0000000001
 40
0.0
 40
0.0
 40
0.0
 40
0.0
 40
0.2525958454
 40
0.5103438108
 40
0.7627497647
 40
1.0
 40
1.0
 40
1.0
 40
1.0
 10
347.4934683637
 20
321.796440123
 30
0.0
 10
347.9427522911
 20
323.2337506065
 30
0.0
 10
349.0830673878
 20
326.0688452196
 30
0.0
 10
351.369149267
 20
330.0164968284
 30
0.0
 10
354.1357082497
 20
333.5283707142
 30
0.0
 10
356.2857663392
 20
335.5274390702
 30
0.0
 10
357.4085779406
 20
336.3875821428
 30
0.0
  0
SPLINE
  5
3ED
100
AcDbEntity
  8
0
100
AcDbSpline
 62
7
  6
CONTINUOUS
 70
0
 71
3
 72
11
 73
7
 74
0
 42
0.0000001
 43
0.0000001
 44
0.0000000001
 40
0.0
 40
0.0
 40
0.0
 40
0.0
 40
0.2177730473
 40
0.450940882
 40
0.7102118565
 40
1.0
 40
1.0
 40
1.0
 40
1.0
 10
335.8186177105
 20
310.0126644994
 30
0.0
 10
335.6504004809
 20
310.1098044998
 30
0.0
 10
335.3355425001
 20
310.3743485329
 30
0.0
 10
335.0005947121
 20
310.9222643363
 30
0.0
 10
334.8013884696
 20
311.5974238777
 30
0.0
 10
334.7623318538
 20
312.0888645932
 30
0.0
 10
334.7623318538
 20
312.347351408
 30
0.0
  0
SPLINE
  5
3EE
100
AcDbEntity
  8
0
100
AcDbSpline
 62
7
  6
CONTINUOUS
 70
0
 71
3
 72
13
 73
9
 74
0
 42
0.0000001
 43
0.0000001
 44
0.0000000001
 40
0.0
 40
0.0
 40
0.0
 40
0.0
 40
0.3071681792
 40
0.5780763358
 40
0.6971495396
 40
0.8054712791
 40
0.9051721811
 40
1.0
 40
1.0
 40
1.0
 40
1.0
 10
371.8781736229
 20
337.3535684086
 30
0.0
 10
372.20596774
 20
337.7682517005
 30
0.0
 10
372.8976718338
 20
338.4932822245
 30
0.0
 10
373.9154343775
 20
339.1599243658
 30
0.0
 10
374.7300912564
 20
339.4412203599
 30
0.0
 10
375.2921916876
 20
339.5181486456
 30
0.0
 10
375.816162714
 20
339.4652204139
 30
0.0
 10
376.1323814252
 20
339.3399415442
 30
0.0
 10
376.2736969973
 20
339.2583363796
 30
0.0
  0
SPLINE
  5
3EF
100
AcDbEntity
  8
0
100
AcDbSpline
 62
7
  6
CONTINUOUS
 70
0
 71
3
 72
8
 73
4
 74
0
 42
0.0000001
 43
0.0000001
 44
0.0000000001
 40
0.0
 40
0.0
 40
0.0
 40
0.0
 40
1.0
 40
1.0
 40
1.0
 40
1.0
 10
330.1041810494
 20
330.9543553968
 30
0.0
 10
333.5262733154
 20
328.9544596278
 30
0.0
 10
336.948386893
 20
326.9546003132
 30
0.0
 10
340.3706299849
 20
324.9549626501
 30
0.0
  0
SPLINE
  5
3F0
100
AcDbEntity
  8
0
100
AcDbSpline
 62
7
  6
CONTINUOUS
 70
0
 71
3
 72
11
 73
7
 74
0
 42
0.0000001
 43
0.0000001
 44
0.0000000001
 40
0.0
 40
0.0
 40
0.0
 40
0.0
 40
0.26514648
 40
0.5323755337
 40
0.7801133339
 40
1.0
 40
1.0
 40
1.0
 40
1.0
 10
325.2655904159
 20
315.1193040058
 30
0.0
 10
325.0462811826
 20
315.271660163
 30
0.0
 10
324.6197105487
 20
315.5982484595
 30
0.0
 10
324.0586785541
 20
316.152816241
 30
0.0
 10
323.640635449
 20
316.7719609163
 30
0.0
 10
323.5011032562
 20
317.2331179943
 30
0.0
 10
323.4792155241
 20
317.4534884477
 30
0.0
  0
SPLINE
  5
3F1
100
AcDbEntity
  8
0
100
AcDbSpline
 62
7
  6
CONTINUOUS
 70
0
 71
3
 72
10
 73
6
 74
0
 42
0.0000001
 43
0.0000001
 44
0.0000000001
 40
0.0
 40
0.0
 40
0.0
 40
0.0
 40
0.5146330902
 40
0.7592060329
 40
1.0
 40
1.0
 40
1.0
 40
1.0
 10
343.9463426536
 20
309.082384271
 30
0.0
 10
344.3089041292
 20
308.3411394032
 30
0.0
 10
344.9895898211
 20
307.3043705914
 30
0.0
 10
346.1667275629
 20
306.207774397
 30
0.0
 10
346.8189513512
 20
305.7751766018
 30
0.0
 10
347.1573662265
 20
305.5893260994
 30
0.0
  0
SPLINE
  5
3F2
100
AcDbEntity
  8
0
100
AcDbSpline
 62
7
  6
CONTINUOUS
 70
0
 71
3
 72
9
 73
5
 74
0
 42
0.0000001
 43
0.0000001
 44
0.0000000001
 40
0.0
 40
0.0
 40
0.0
 40
0.0
 40
0.5000555496
 40
1.0
 40
1.0
 40
1.0
 40
1.0
 10
342.8251682307
 20
313.0251661641
 30
0.0
 10
342.5797057788
 20
313.1566454725
 30
0.0
 10
342.0901617638
 20
313.4220479078
 30
0.0
 10
341.5980563481
 20
313.682670433
 30
0.0
 10
341.3526988401
 20
313.8142145962
 30
0.0
  0
SPLINE
  5
3F3
100
AcDbEntity
  8
0
100
AcDbSpline
 62
7
  6
CONTINUOUS
 70
0
 71
3
 72
9
 73
5
 74
0
 42
0.0000001
 43
0.0000001
 44
0.0000000001
 40
0.0
 40
0.0
 40
0.0
 40
0.0
 40
0.2356879412
 40
1.0
 40
1.0
 40
1.0
 40
1.0
 10
343.9468186692
 20
309.0821438539
 30
0.0
 10
343.8052410346
 20
309.3723372913
 30
0.0
 10
343.2649305704
 20
310.6329986632
 30
0.0
 10
342.9578863312
 20
311.9865115685
 30
0.0
 10
342.8264490931
 20
313.0253213963
 30
0.0
  0
SPLINE
  5
3F4
100
AcDbEntity
  8
0
100
AcDbSpline
 62
7
  6
CONTINUOUS
 70
0
 71
3
 72
13
 73
9
 74
0
 42
0.0000001
 43
0.0000001
 44
0.0000000001
 40
0.0
 40
0.0
 40
0.0
 40
0.0
 40
0.2516632689
 40
0.503402341
 40
0.6289130215
 40
0.7529256232
 40
0.8759620603
 40
1.0
 40
1.0
 40
1.0
 40
1.0
 10
344.9956042492
 20
314.7674138862
 30
0.0
 10
344.9956042493
 20
314.4875188585
 30
0.0
 10
344.8941945978
 20
313.9224298645
 30
0.0
 10
344.4963045119
 20
313.3152541025
 30
0.0
 10
344.0320533751
 20
312.9944589925
 30
0.0
 10
343.6313697195
 20
312.865244793
 30
0.0
 10
343.2115497497
 20
312.8674281321
 30
0.0
 10
342.9467761478
 20
312.9600321892
 30
0.0
 10
342.8251682307
 20
313.0251661641
 30
0.0
  0
SPLINE
  5
3F5
100
AcDbEntity
  8
0
100
AcDbSpline
 62
7
  6
CONTINUOUS
 70
0
 71
3
 72
11
 73
7
 74
0
 42
0.0000001
 43
0.0000001
 44
0.0000000001
 40
0.0
 40
0.0
 40
0.0
 40
0.0
 40
0.2572403506
 40
0.5277636707
 40
0.7731227817
 40
1.0
 40
1.0
 40
1.0
 40
1.0
 10
342.825167402
 20
317.6282015322
 30
0.0
 10
343.102882744
 20
317.4655191414
 30
0.0
 10
343.6535598201
 20
317.0988587005
 30
0.0
 10
344.3809856241
 20
316.4503616363
 30
0.0
 10
344.8833962199
 20
315.6480134875
 30
0.0
 10
344.995604249
 20
315.051280023
 30
0.0
 10
344.9956042492
 20
314.7674138862
 30
0.0
  0
SPLINE
  5
3F6
100
AcDbEntity
  8
0
100
AcDbSpline
 62
7
  6
CONTINUOUS
 70
0
 71
3
 72
11
 73
7
 74
0
 42
0.0000001
 43
0.0000001
 44
0.0000000001
 40
0.0
 40
0.0
 40
0.0
 40
0.0
 40
0.232954734
 40
0.4894029889
 40
0.7513301053
 40
1.0
 40
1.0
 40
1.0
 40
1.0
 10
355.3760875915
 20
339.4945291901
 30
0.0
 10
355.6299323353
 20
339.3428054968
 30
0.0
 10
356.1157593745
 20
338.9434288401
 30
0.0
 10
356.7122381296
 20
338.1921610754
 30
0.0
 10
357.1671066814
 20
337.3250421757
 30
0.0
 10
357.3547018429
 20
336.6986325591
 30
0.0
 10
357.4085779406
 20
336.3875821428
 30
0.0
  0
SPLINE
  5
3F7
100
AcDbEntity
  8
0
100
AcDbSpline
 62
7
  6
CONTINUOUS
 70
0
 71
3
 72
14
 73
10
 74
0
 42
0.0000001
 43
0.0000001
 44
0.0000000001
 40
0.0
 40
0.0
 40
0.0
 40
0.0
 40
0.301726156
 40
0.4471130712
 40
0.5828525752
 40
0.7058624075
 40
0.8148690932
 40
0.9112927851
 40
1.0
 40
1.0
 40
1.0
 40
1.0
 10
341.3528482023
 20
313.8145045237
 30
0.0
 10
341.0548093958
 20
313.1352275004
 30
0.0
 10
340.4817135579
 20
312.1785721839
 30
0.0
 10
339.5194453136
 20
311.1126091614
 30
0.0
 10
338.7509074265
 20
310.476220065
 30
0.0
 10
337.9621462801
 20
310.0235902563
 30
0.0
 10
337.1850172904
 20
309.776762423
 30
0.0
 10
336.4507273796
 20
309.7539361717
 30
0.0
 10
336.0074743975
 20
309.9036058811
 30
0.0
 10
335.8186177105
 20
310.0126644994
 30
0.0
  0
SPLINE
  5
3F8
100
AcDbEntity
  8
0
100
AcDbSpline
 62
7
  6
CONTINUOUS
 70
0
 71
3
 72
11
 73
7
 74
0
 42
0.0000001
 43
0.0000001
 44
0.0000000001
 40
0.0
 40
0.0
 40
0.0
 40
0.0
 40
0.2898081552
 40
0.549044487
 40
0.7822276587
 40
1.0
 40
1.0
 40
1.0
 40
1.0
 10
350.3892972165
 20
355.6625611843
 30
0.0
 10
349.950342365
 20
355.9159861528
 30
0.0
 10
349.077598094
 20
356.3314896852
 30
0.0
 10
347.7358251339
 20
356.6549966136
 30
0.0
 10
346.4771134699
 20
356.6234940396
 30
0.0
 10
345.7191836569
 20
356.3482063836
 30
0.0
 10
345.3893384626
 20
356.1577713049
 30
0.0
  0
SPLINE
  5
3F9
100
AcDbEntity
  8
0
100
AcDbSpline
 62
7
  6
CONTINUOUS
 70
0
 71
3
 72
13
 73
9
 74
0
 42
0.0000001
 43
0.0000001
 44
0.0000000001
 40
0.0
 40
0.0
 40
0.0
 40
0.0
 40
0.114260606
 40
0.2375381392
 40
0.5000010746
 40
0.762463422
 40
0.8857402688
 40
1.0
 40
1.0
 40
1.0
 40
1.0
 10
357.460394468
 20
343.4151294678
 30
0.0
 10
357.460394468
 20
343.9741053266
 30
0.0
 10
357.3580970149
 20
345.1373534213
 30
0.0
 10
356.8019810261
 20
347.5253817031
 30
0.0
 10
355.5107365872
 20
350.4544807172
 30
0.0
 10
353.6196747504
 20
353.0372697731
 30
0.0
 10
351.829636577
 20
354.712876052
 30
0.0
 10
350.8733835418
 20
355.3830801368
 30
0.0
 10
350.3892972165
 20
355.6625611843
 30
0.0
  0
SPLINE
  5
3FA
100
AcDbEntity
  8
0
100
AcDbSpline
 62
7
  6
CONTINUOUS
 70
0
 71
3
 72
18
 73
14
 74
0
 42
0.0000001
 43
0.0000001
 44
0.0000000001
 40
0.0
 40
0.0
 40
0.0
 40
0.0
 40
0.1637319262
 40
0.317038172
 40
0.4532319919
 40
0.5140007938
 40
0.5699532355
 40
0.6218214682
 40
0.6708886062
 40
0.7189069699
 40
0.7678300154
 40
0.8745023067
 40
1.0
 40
1.0
 40
1.0
 40
1.0
 10
347.2270081898
 20
346.0572338727
 30
0.0
 10
346.960087273
 20
346.5559317108
 30
0.0
 10
346.5203719597
 20
347.5659433989
 30
0.0
 10
346.1528805412
 20
349.0961076756
 30
0.0
 10
346.1202177309
 20
350.3197410307
 30
0.0
 10
346.2870962339
 20
351.1807728212
 30
0.0
 10
346.4933151893
 20
351.7289447876
 30
0.0
 10
346.7825562914
 20
352.1921814312
 30
0.0
 10
347.1507109502
 20
352.5588575081
 30
0.0
 10
347.5897859167
 20
352.8179149071
 30
0.0
 10
348.2719580522
 20
353.0159418586
 30
0.0
 10
349.2695650005
 20
352.9413598234
 30
0.0
 10
350.0138282798
 20
352.6133237035
 30
0.0
 10
350.3892972165
 20
352.3965515158
 30
0.0
  0
SPLINE
  5
3FB
100
AcDbEntity
  8
0
100
AcDbSpline
 62
7
  6
CONTINUOUS
 70
0
 71
3
 72
17
 73
13
 74
0
 42
0.0000001
 43
0.0000001
 44
0.0000000001
 40
0.0
 40
0.0
 40
0.0
 40
0.0
 40
0.1275236499
 40
0.2676912576
 40
0.4136296229
 40
0.5574206271
 40
0.6915236859
 40
0.8102111092
 40
0.8630851311
 40
0.9117773831
 40
0.9570313381
 40
1.0
 40
1.0
 40
1.0
 40
1.0
 10
350.3892972165
 20
352.3965515158
 30
0.0
 10
350.8223913109
 20
352.1465101805
 30
0.0
 10
351.6643175049
 20
351.5028313536
 30
0.0
 10
352.7481699444
 20
350.2860857373
 30
0.0
 10
353.6493404965
 20
348.8522137997
 30
0.0
 10
354.29660883
 20
347.3126307973
 30
0.0
 10
354.6403580805
 20
345.7872137192
 30
0.0
 10
354.6508142055
 20
344.5741382008
 30
0.0
 10
354.4659302714
 20
343.7269036134
 30
0.0
 10
354.2470157972
 20
343.1906432759
 30
0.0
 10
353.9456377285
 20
342.7414136325
 30
0.0
 10
353.6887448514
 20
342.5037034437
 30
0.0
 10
353.5515869839
 20
342.4058192033
 30
0.0
  0
SPLINE
  5
3FC
100
AcDbEntity
  8
0
100
AcDbSpline
 62
7
  6
CONTINUOUS
 70
0
 71
3
 72
9
 73
5
 74
0
 42
0.0000001
 43
0.0000001
 44
0.0000000001
 40
0.0
 40
0.0
 40
0.0
 40
0.0
 40
0.2430806409
 40
1.0
 40
1.0
 40
1.0
 40
1.0
 10
341.7384137315
 20
311.8612403004
 30
0.0
 10
341.6957899813
 20
312.0169080148
 30
0.0
 10
341.531696622
 20
312.6603792727
 30
0.0
 10
341.4168931421
 20
313.3160319442
 30
0.0
 10
341.3528482023
 20
313.8145045237
 30
0.0
  0
SPLINE
  5
3FD
100
AcDbEntity
  8
0
100
AcDbSpline
 62
7
  6
CONTINUOUS
 70
0
 71
3
 72
15
 73
11
 74
0
 42
0.0000001
 43
0.0000001
 44
0.0000000001
 40
0.0
 40
0.0
 40
0.0
 40
0.0
 40
0.1449012694
 40
0.2745269813
 40
0.39111686
 40
0.5000029543
 40
0.6088885138
 40
0.7254769709
 40
0.8551007603
 40
1.0
 40
1.0
 40
1.0
 40
1.0
 10
334.459510207
 20
312.1725182923
 30
0.0
 10
334.459510207
 20
311.8923165235
 30
0.0
 10
334.5018634399
 20
311.3595967597
 30
0.0
 10
334.7176828027
 20
310.6278456021
 30
0.0
 10
335.0811692869
 20
310.033650446
 30
0.0
 10
335.585683407
 20
309.6092868528
 30
0.0
 10
336.2054420299
 20
309.3845316916
 30
0.0
 10
336.9017659871
 20
309.3668279504
 30
0.0
 10
337.6433828859
 20
309.5457881775
 30
0.0
 10
338.1259026106
 20
309.775463697
 30
0.0
 10
338.3685614236
 20
309.9155619916
 30
0.0
  0
SPLINE
  5
3FE
100
AcDbEntity
  8
0
100
AcDbSpline
 62
7
  6
CONTINUOUS
 70
0
 71
3
 72
11
 73
7
 74
0
 42
0.0000001
 43
0.0000001
 44
0.0000000001
 40
0.0
 40
0.0
 40
0.0
 40
0.0
 40
0.2372182624
 40
0.4999984
 40
0.7627794086
 40
1.0
 40
1.0
 40
1.0
 40
1.0
 10
338.3685614236
 20
318.9432311938
 30
0.0
 10
337.8136340726
 20
318.6228456508
 30
0.0
 10
336.7633992816
 20
317.7389701115
 30
0.0
 10
335.5376085228
 20
316.0638905131
 30
0.0
 10
334.6998498343
 20
314.164774594
 30
0.0
 10
334.459510207
 20
312.8132985383
 30
0.0
 10
334.459510207
 20
312.1725182923
 30
0.0
  0
SPLINE
  5
3FF
100
AcDbEntity
  8
0
100
AcDbSpline
 62
7
  6
CONTINUOUS
 70
0
 71
3
 72
9
 73
5
 74
0
 42
0.0000001
 43
0.0000001
 44
0.0000000001
 40
0.0
 40
0.0
 40
0.0
 40
0.0
 40
0.2452617768
 40
1.0
 40
1.0
 40
1.0
 40
1.0
 10
341.3528510424
 20
318.4902637206
 30
0.0
 10
341.3748695107
 20
318.6876747127
 30
0.0
 10
341.4742834166
 20
319.4914862525
 30
0.0
 10
341.613734464
 20
320.2902098926
 30
0.0
 10
341.7382138412
 20
320.8886559867
 30
0.0
  0
SPLINE
  5
400
100
AcDbEntity
  8
0
100
AcDbSpline
 62
7
  6
CONTINUOUS
 70
0
 71
3
 72
11
 73
7
 74
0
 42
0.0000001
 43
0.0000001
 44
0.0000000001
 40
0.0
 40
0.0
 40
0.0
 40
0.0
 40
0.2340366619
 40
0.4747278691
 40
0.7284723341
 40
1.0
 40
1.0
 40
1.0
 40
1.0
 10
368.0958996579
 20
341.8567501734
 30
0.0
 10
367.655873768
 20
342.1234921299
 30
0.0
 10
366.6995390257
 20
342.5661066718
 30
0.0
 10
365.1239975443
 20
342.9110638292
 30
0.0
 10
363.4305002022
 20
342.939421693
 30
0.0
 10
362.2842426606
 20
342.7563524381
 30
0.0
 10
361.703125085
 20
342.619601512
 30
0.0
  0
SPLINE
  5
401
100
AcDbEntity
  8
0
100
AcDbSpline
 62
7
  6
CONTINUOUS
 70
0
 71
3
 72
9
 73
5
 74
0
 42
0.0000001
 43
0.0000001
 44
0.0000000001
 40
0.0
 40
0.0
 40
0.0
 40
0.0
 40
0.2650450972
 40
1.0
 40
1.0
 40
1.0
 40
1.0
 10
353.2177125654
 20
345.86450396
 30
0.0
 10
353.2843120554
 20
345.8260535963
 30
0.0
 10
353.539864681
 20
345.6888301095
 30
0.0
 10
353.8140254888
 20
345.5838517679
 30
0.0
 10
354.0216160233
 20
345.535070892
 30
0.0
  0
SPLINE
  5
402
100
AcDbEntity
  8
0
100
AcDbSpline
 62
7
  6
CONTINUOUS
 70
0
 71
3
 72
16
 73
12
 74
0
 42
0.0000001
 43
0.0000001
 44
0.0000000001
 40
0.0
 40
0.0
 40
0.0
 40
0.0
 40
0.1287445382
 40
0.2703889579
 40
0.4176099162
 40
0.5620187429
 40
0.6957473936
 40
0.8130648586
 40
0.9124720859
 40
0.9571216617
 40
1.0
 40
1.0
 40
1.0
 40
1.0
 10
351.803504891
 20
345.0480156522
 30
0.0
 10
351.5074057831
 20
345.2189646845
 30
0.0
 10
350.9326546011
 20
345.661241725
 30
0.0
 10
350.1970205106
 20
346.4981586143
 30
0.0
 10
349.5914920902
 20
347.4830760246
 30
0.0
 10
349.1659992964
 20
348.5354700752
 30
0.0
 10
348.9553232187
 20
349.5716827441
 30
0.0
 10
348.9758472203
 20
350.5112690122
 30
0.0
 10
349.2073338436
 20
351.1853173554
 30
0.0
 10
349.5179571101
 20
351.5781105639
 30
0.0
 10
349.7049102889
 20
351.7211764691
 30
0.0
 10
349.803525203
 20
351.7781124322
 30
0.0
  0
SPLINE
  5
403
100
AcDbEntity
  8
0
100
AcDbSpline
 62
7
  6
CONTINUOUS
 70
0
 71
3
 72
11
 73
7
 74
0
 42
0.0000001
 43
0.0000001
 44
0.0000000001
 40
0.0
 40
0.0
 40
0.0
 40
0.0
 40
0.2304614934
 40
0.4806033359
 40
0.7389550098
 40
1.0
 40
1.0
 40
1.0
 40
1.0
 10
347.2270224542
 20
346.057226227
 30
0.0
 10
347.5407397863
 20
345.8761055384
 30
0.0
 10
348.2507394905
 20
345.5970999146
 30
0.0
 10
349.3838470419
 20
345.3368244454
 30
0.0
 10
350.5828049403
 20
345.1688831644
 30
0.0
 10
351.3951834094
 20
345.0884614283
 30
0.0
 10
351.803504891
 20
345.0480156522
 30
0.0
  0
SPLINE
  5
404
100
AcDbEntity
  8
0
100
AcDbSpline
 62
7
  6
CONTINUOUS
 70
0
 71
3
 72
11
 73
7
 74
0
 42
0.0000001
 43
0.0000001
 44
0.0000000001
 40
0.0
 40
0.0
 40
0.0
 40
0.0
 40
0.286888332
 40
0.5382286495
 40
0.7721694549
 40
1.0
 40
1.0
 40
1.0
 40
1.0
 10
353.5515715362
 20
342.4058287177
 30
0.0
 10
353.2820198006
 20
342.5614509642
 30
0.0
 10
352.8134258144
 20
342.9270212115
 30
0.0
 10
352.320945242
 20
343.6155293789
 30
0.0
 10
352.0166734356
 20
344.3307350421
 30
0.0
 10
351.8739184633
 20
344.8110801912
 30
0.0
 10
351.803504891
 20
345.0480156522
 30
0.0
  0
SPLINE
  5
405
100
AcDbEntity
  8
0
100
AcDbSpline
 62
7
  6
CONTINUOUS
 70
0
 71
3
 72
11
 73
7
 74
0
 42
0.0000001
 43
0.0000001
 44
0.0000000001
 40
0.0
 40
0.0
 40
0.0
 40
0.0
 40
0.2363772111
 40
0.4887138099
 40
0.7468867105
 40
1.0
 40
1.0
 40
1.0
 40
1.0
 10
355.3760875915
 20
339.4945291901
 30
0.0
 10
354.0824473587
 20
338.5314157737
 30
0.0
 10
351.6020634222
 20
336.2728192599
 30
0.0
 10
348.4111373625
 20
332.2768124024
 30
0.0
 10
345.7739922548
 20
327.7633204606
 30
0.0
 10
344.4616301586
 20
324.514047592
 30
0.0
 10
343.9463847565
 20
322.8657208052
 30
0.0
  0
SPLINE
  5
406
100
AcDbEntity
  8
0
100
AcDbSpline
 62
7
  6
CONTINUOUS
 70
0
 71
3
 72
9
 73
5
 74
0
 42
0.0000001
 43
0.0000001
 44
0.0000000001
 40
0.0
 40
0.0
 40
0.0
 40
0.0
 40
0.2409816348
 40
1.0
 40
1.0
 40
1.0
 40
1.0
 10
342.8264483188
 20
317.6284586068
 30
0.0
 10
342.8735500318
 20
318.0564488408
 30
0.0
 10
343.1174787889
 20
319.8270044392
 30
0.0
 10
343.5424824155
 20
321.570968067
 30
0.0
 10
343.9468600484
 20
322.8654545276
 30
0.0
  0
LINE
  5
407
100
AcDbEntity
  8
0
100
AcDbLine
 62
7
  6
CONTINUOUS
 10
341.3526968835
 20
318.4903453024
 11
342.825167402
 21
317.6282015322
  0
SPLINE
  5
408
100
AcDbEntity
  8
0
100
AcDbSpline
 62
7
  6
CONTINUOUS
 70
0
 71
3
 72
11
 73
7
 74
0
 42
0.0000001
 43
0.0000001
 44
0.0000000001
 40
0.0
 40
0.0
 40
0.0
 40
0.0
 40
0.2301398624
 40
0.4838290868
 40
0.7469556627
 40
1.0
 40
1.0
 40
1.0
 40
1.0
 10
340.3706246325
 20
324.9549660722
 30
0.0
 10
340.6702356251
 20
324.7799141553
 30
0.0
 10
341.2042371592
 20
324.2439033065
 30
0.0
 10
341.6727221285
 20
323.2031753807
 30
0.0
 10
341.8672532157
 20
322.048372024
 30
0.0
 10
341.8158904781
 20
321.2621996867
 30
0.0
 10
341.7381901992
 20
320.8886589996
 30
0.0
  0
SPLINE
  5
409
100
AcDbEntity
  8
0
100
AcDbSpline
 62
7
  6
CONTINUOUS
 70
0
 71
3
 72
13
 73
9
 74
0
 42
0.0000001
 43
0.0000001
 44
0.0000000001
 40
0.0
 40
0.0
 40
0.0
 40
0.0
 40
0.1142589505
 40
0.2375354525
 40
0.499998393
 40
0.7624622132
 40
0.8857397422
 40
1.0
 40
1.0
 40
1.0
 40
1.0
 10
336.2842545471
 20
322.5957132862
 30
0.0
 10
335.871440135
 20
322.357376197
 30
0.0
 10
335.0559742773
 20
321.7858379249
 30
0.0
 10
333.5294747828
 20
320.35690916
 30
0.0
 10
331.9168235475
 20
318.1543476208
 30
0.0
 10
330.8156864246
 20
315.6564606832
 30
0.0
 10
330.3414497201
 20
313.6199948356
 30
0.0
 10
330.2542149049
 20
312.6280020427
 30
0.0
 10
330.2542149049
 20
312.1513202763
 30
0.0
  0
SPLINE
  5
40A
100
AcDbEntity
  8
0
100
AcDbSpline
 62
7
  6
CONTINUOUS
 70
0
 71
3
 72
11
 73
7
 74
0
 42
0.0000001
 43
0.0000001
 44
0.0000000001
 40
0.0
 40
0.0
 40
0.0
 40
0.0
 40
0.2367103934
 40
0.4989090333
 40
0.7617002244
 40
1.0
 40
1.0
 40
1.0
 40
1.0
 10
338.3685614235
 20
318.9432145316
 30
0.0
 10
338.3685634478
 20
319.2868470313
 30
0.0
 10
338.2411132072
 20
320.0116103915
 30
0.0
 10
337.7954592612
 20
321.0323704001
 30
0.0
 10
337.1417405698
 20
321.9370124382
 30
0.0
 10
336.5812234815
 20
322.4182765333
 30
0.0
 10
336.2842545471
 20
322.5957132862
 30
0.0
  0
SPLINE
  5
40B
100
AcDbEntity
  8
0
100
AcDbSpline
 62
7
  6
CONTINUOUS
 70
0
 71
3
 72
9
 73
5
 74
0
 42
0.0000001
 43
0.0000001
 44
0.0000000001
 40
0.0
 40
0.0
 40
0.0
 40
0.0
 40
0.2621776772
 40
1.0
 40
1.0
 40
1.0
 40
1.0
 10
321.6550643891
 20
316.9455879662
 30
0.0
 10
321.6550643891
 20
316.8089150025
 30
0.0
 10
321.6680286698
 20
316.2878267941
 30
0.0
 10
321.7350366985
 20
315.7670914844
 30
0.0
 10
321.8225419945
 20
315.3925517412
 30
0.0
  0
SPLINE
  5
40C
100
AcDbEntity
  8
0
100
AcDbSpline
 62
7
  6
CONTINUOUS
 70
0
 71
3
 72
11
 73
7
 74
0
 42
0.0000001
 43
0.0000001
 44
0.0000000001
 40
0.0
 40
0.0
 40
0.0
 40
0.0
 40
0.2902068092
 40
0.5493248579
 40
0.7821745125
 40
1.0
 40
1.0
 40
1.0
 40
1.0
 10
330.2542149049
 20
312.1513202763
 30
0.0
 10
330.2542149049
 20
311.7126640473
 30
0.0
 10
330.3213402107
 20
310.8793590901
 30
0.0
 10
330.6648968285
 20
309.7366680627
 30
0.0
 10
331.2427386168
 20
308.8144106483
 30
0.0
 10
331.7848018366
 20
308.3761071771
 30
0.0
 10
332.0733911811
 20
308.2176093543
 30
0.0
  0
SPLINE
  5
40D
100
AcDbEntity
  8
0
100
AcDbSpline
 62
7
  6
CONTINUOUS
 70
0
 71
3
 72
9
 73
5
 74
0
 42
0.0000001
 43
0.0000001
 44
0.0000000001
 40
0.0
 40
0.0
 40
0.0
 40
0.0
 40
0.2594768634
 40
1.0
 40
1.0
 40
1.0
 40
1.0
 10
321.8225355526
 20
318.6919715407
 30
0.0
 10
321.7950564441
 20
318.5426227438
 30
0.0
 10
321.7009258847
 20
317.9650173082
 30
0.0
 10
321.6550643891
 20
317.3789702896
 30
0.0
 10
321.6550643891
 20
316.9455879662
 30
0.0
  0
SPLINE
  5
40E
100
AcDbEntity
  8
0
100
AcDbSpline
 62
7
  6
CONTINUOUS
 70
0
 71
3
 72
11
 73
7
 74
0
 42
0.0000001
 43
0.0000001
 44
0.0000000001
 40
0.0
 40
0.0
 40
0.0
 40
0.0
 40
0.1809282737
 40
0.3927619551
 40
0.6633220008
 40
1.0
 40
1.0
 40
1.0
 40
1.0
 10
341.6020953666
 20
310.7678037289
 30
0.0
 10
341.6632780825
 20
310.8031144637
 30
0.0
 10
341.774035663
 20
310.9221066154
 30
0.0
 10
341.8362754528
 20
311.1802755798
 30
0.0
 10
341.82314706
 20
311.5016001393
 30
0.0
 10
341.7731431824
 20
311.7344106201
 30
0.0
 10
341.7384257432
 20
311.8611948433
 30
0.0
  0
SPLINE
  5
40F
100
AcDbEntity
  8
0
100
AcDbSpline
 62
7
  6
CONTINUOUS
 70
0
 71
3
 72
11
 73
7
 74
0
 42
0.0000001
 43
0.0000001
 44
0.0000000001
 40
0.0
 40
0.0
 40
0.0
 40
0.0
 40
0.2177751839
 40
0.4509359791
 40
0.7102236071
 40
1.0
 40
1.0
 40
1.0
 40
1.0
 10
337.7472189418
 20
308.5422155826
 30
0.0
 10
337.8461779064
 20
308.5993526842
 30
0.0
 10
338.0313722846
 20
308.7549953052
 30
0.0
 10
338.2284280635
 20
309.0772976609
 30
0.0
 10
338.3455849863
 20
309.4744732566
 30
0.0
 10
338.3685642395
 20
309.7635648668
 30
0.0
 10
338.3685614231
 20
309.9156143845
 30
0.0
  0
SPLINE
  5
410
100
AcDbEntity
  8
0
100
AcDbSpline
 62
7
  6
CONTINUOUS
 70
0
 71
3
 72
9
 73
5
 74
0
 42
0.0000001
 43
0.0000001
 44
0.0000000001
 40
0.0
 40
0.0
 40
0.0
 40
0.0
 40
0.4753799669
 40
1.0
 40
1.0
 40
1.0
 40
1.0
 10
377.329982854
 20
336.923649471
 30
0.0
 10
377.329982854
 20
336.4469348854
 30
0.0
 10
377.1845746149
 20
335.4432998367
 30
0.0
 10
376.8378898825
 20
334.4955899219
 30
0.0
 10
376.6138458464
 20
334.0195878197
 30
0.0
  0
SPLINE
  5
411
100
AcDbEntity
  8
0
100
AcDbSpline
 62
7
  6
CONTINUOUS
 70
0
 71
3
 72
11
 73
7
 74
0
 42
0.0000001
 43
0.0000001
 44
0.0000000001
 40
0.0
 40
0.0
 40
0.0
 40
0.0
 40
0.2177787741
 40
0.4509380228
 40
0.7102294169
 40
1.0
 40
1.0
 40
1.0
 40
1.0
 10
353.8034845789
 20
344.8499382093
 30
0.0
 10
353.6715437018
 20
344.7737612844
 30
0.0
 10
353.3683757259
 20
344.6636879202
 30
0.0
 10
352.8648708247
 20
344.65100295
 30
0.0
 10
352.3281800006
 20
344.7804891414
 30
0.0
 10
351.9790633432
 20
344.9466592256
 30
0.0
 10
351.803504891
 20
345.0480156522
 30
0.0
  0
SPLINE
  5
412
100
AcDbEntity
  8
0
100
AcDbSpline
 62
7
  6
CONTINUOUS
 70
0
 71
3
 72
9
 73
5
 74
0
 42
0.0000001
 43
0.0000001
 44
0.0000000001
 40
0.0
 40
0.0
 40
0.0
 40
0.0
 40
0.2399336724
 40
1.0
 40
1.0
 40
1.0
 40
1.0
 10
323.4792155246
 20
317.4534884435
 30
0.0
 10
323.4705885231
 20
317.5403469754
 30
0.0
 10
323.4442633581
 20
317.9032949801
 30
0.0
 10
323.4546720649
 20
318.2685272389
 30
0.0
 10
323.4792089811
 20
318.5439423083
 30
0.0
  0
SPLINE
  5
413
100
AcDbEntity
  8
0
100
AcDbSpline
 62
7
  6
CONTINUOUS
 70
0
 71
3
 72
15
 73
11
 74
0
 42
0.0000001
 43
0.0000001
 44
0.0000000001
 40
0.0
 40
0.0
 40
0.0
 40
0.0
 40
0.1449012694
 40
0.2745269813
 40
0.39111686
 40
0.5000029543
 40
0.6088885138
 40
0.7254769709
 40
0.8551007603
 40
1.0
 40
1.0
 40
1.0
 40
1.0
 10
377.6328045008
 20
337.0984825867
 30
0.0
 10
377.6328045008
 20
337.3786843555
 30
0.0
 10
377.5904512679
 20
337.9114041194
 30
0.0
 10
377.3746319051
 20
338.643155277
 30
0.0
 10
377.0111454209
 20
339.237350433
 30
0.0
 10
376.5066313008
 20
339.6617140262
 30
0.0
 10
375.8868726779
 20
339.8864691875
 30
0.0
 10
375.1905487207
 20
339.9041729286
 30
0.0
 10
374.4489318219
 20
339.7252127015
 30
0.0
 10
373.9664120972
 20
339.4955371821
 30
0.0
 10
373.7237532842
 20
339.3554388874
 30
0.0
  0
SPLINE
  5
414
100
AcDbEntity
  8
0
100
AcDbSpline
 62
7
  6
CONTINUOUS
 70
0
 71
3
 72
9
 73
5
 74
0
 42
0.0000001
 43
0.0000001
 44
0.0000000001
 40
0.0
 40
0.0
 40
0.0
 40
0.0
 40
0.5247920225
 40
1.0
 40
1.0
 40
1.0
 40
1.0
 10
376.824437034
 20
333.8830918384
 30
0.0
 10
377.0771166115
 20
334.4089974277
 30
0.0
 10
377.4681401902
 20
335.457478336
 30
0.0
 10
377.6328045008
 20
336.5701512569
 30
0.0
 10
377.6328045008
 20
337.0984825867
 30
0.0
  0
SPLINE
  5
415
100
AcDbEntity
  8
0
100
AcDbSpline
 62
7
  6
CONTINUOUS
 70
0
 71
3
 72
11
 73
7
 74
0
 42
0.0000001
 43
0.0000001
 44
0.0000000001
 40
0.0
 40
0.0
 40
0.0
 40
0.0
 40
0.2390575613
 40
0.4820554926
 40
0.7344411345
 40
1.0
 40
1.0
 40
1.0
 40
1.0
 10
323.6073513891
 20
320.1798388312
 30
0.0
 10
323.4055394697
 20
320.197883451
 30
0.0
 10
322.9868560762
 20
320.153855492
 30
0.0
 10
322.4271830013
 20
319.847565983
 30
0.0
 10
322.0088022122
 20
319.3374869167
 30
0.0
 10
321.863255068
 20
318.9133142548
 30
0.0
 10
321.8225305496
 20
318.6919505233
 30
0.0
  0
SPLINE
  5
416
100
AcDbEntity
  8
0
100
AcDbSpline
 62
7
  6
CONTINUOUS
 70
0
 71
3
 72
8
 73
4
 74
0
 42
0.0000001
 43
0.0000001
 44
0.0000000001
 40
0.0
 40
0.0
 40
0.0
 40
0.0
 40
1.0
 40
1.0
 40
1.0
 40
1.0
 10
354.0287667951
 20
345.7817509428
 30
0.0
 10
353.7585832785
 20
345.8109339514
 30
0.0
 10
353.4881441154
 20
345.8377166994
 30
0.0
 10
353.2177125654
 20
345.86450396
 30
0.0
  0
SPLINE
  5
417
100
AcDbEntity
  8
0
100
AcDbSpline
 62
7
  6
CONTINUOUS
 70
0
 71
3
 72
9
 73
5
 74
0
 42
0.0000001
 43
0.0000001
 44
0.0000000001
 40
0.0
 40
0.0
 40
0.0
 40
0.0
 40
0.5117592258
 40
1.0
 40
1.0
 40
1.0
 40
1.0
 10
352.449395363
 20
347.6332560035
 30
0.0
 10
352.6450812134
 20
347.3672182076
 30
0.0
 10
352.9444823173
 20
346.7854098778
 30
0.0
 10
353.1279557528
 20
346.1665277183
 30
0.0
 10
353.2177125654
 20
345.86450396
 30
0.0
  0
SPLINE
  5
418
100
AcDbEntity
  8
0
100
AcDbSpline
 62
7
  6
CONTINUOUS
 70
0
 71
3
 72
19
 73
15
 74
0
 42
0.0000001
 43
0.0000001
 44
0.0000000001
 40
0.0
 40
0.0
 40
0.0
 40
0.0
 40
0.1277640147
 40
0.276014218
 40
0.4372192222
 40
0.5984114576
 40
0.6744498607
 40
0.7450444307
 40
0.8085990579
 40
0.8637785485
 40
0.9097064692
 40
0.9462955772
 40
0.9749699813
 40
1.0
 40
1.0
 40
1.0
 40
1.0
 10
321.8225419956
 20
315.3925517378
 30
0.0
 10
321.8692182788
 20
315.1927681392
 30
0.0
 10
322.0509615249
 20
314.7798854935
 30
0.0
 10
322.4822401975
 20
314.2210881968
 30
0.0
 10
323.0355918549
 20
313.7029088348
 30
0.0
 10
323.548771372
 20
313.3191447666
 30
0.0
 10
323.9634696878
 20
313.0499190423
 30
0.0
 10
324.2545201052
 20
312.8787669799
 30
0.0
 10
324.5241511962
 20
312.7379502477
 30
0.0
 10
324.7661964748
 20
312.6309402745
 30
0.0
 10
324.9766606684
 20
312.5612429689
 30
0.0
 10
325.1537491351
 20
312.5320212374
 30
0.0
 10
325.3015530385
 20
312.5490913713
 30
0.0
 10
325.3753542273
 20
312.6023125955
 30
0.0
 10
325.400522502
 20
312.6336503705
 30
0.0
  0
SPLINE
  5
419
100
AcDbEntity
  8
0
100
AcDbSpline
 62
7
  6
CONTINUOUS
 70
0
 71
3
 72
11
 73
7
 74
0
 42
0.0000001
 43
0.0000001
 44
0.0000000001
 40
0.0
 40
0.0
 40
0.0
 40
0.0
 40
0.2383002053
 40
0.5010918676
 40
0.7632904759
 40
1.0
 40
1.0
 40
1.0
 40
1.0
 10
371.6394464078
 20
343.0079209798
 30
0.0
 10
371.9364182877
 20
342.8304824669
 30
0.0
 10
372.4969403166
 20
342.349212606
 30
0.0
 10
373.1506622639
 20
341.4445600235
 30
0.0
 10
373.5963145453
 20
340.4237899712
 30
0.0
 10
373.7237596491
 20
339.6990205214
 30
0.0
 10
373.7237532838
 20
339.3553864951
 30
0.0
  0
SPLINE
  5
41A
100
AcDbEntity
  8
0
100
AcDbSpline
 62
7
  6
CONTINUOUS
 70
0
 71
3
 72
14
 73
10
 74
0
 42
0.0000001
 43
0.0000001
 44
0.0000000001
 40
0.0
 40
0.0
 40
0.0
 40
0.0
 40
0.1026078095
 40
0.2184108515
 40
0.3453885025
 40
0.4799034754
 40
0.7523909423
 40
0.8814267575
 40
1.0
 40
1.0
 40
1.0
 40
1.0
 10
350.5027434023
 20
351.6137161877
 30
0.0
 10
350.4373532125
 20
351.3930621449
 30
0.0
 10
350.3662391763
 20
350.9025974819
 30
0.0
 10
350.415848038
 20
350.1257195176
 30
0.0
 10
350.6101184515
 20
349.2982703375
 30
0.0
 10
351.0502012518
 20
348.1816045491
 30
0.0
 10
351.7105952063
 20
347.1555513318
 30
0.0
 10
352.5347841116
 20
346.3257230545
 30
0.0
 10
352.9873933889
 20
345.9974757903
 30
0.0
 10
353.2177125654
 20
345.86450396
 30
0.0
  0
SPLINE
  5
41B
100
AcDbEntity
  8
0
100
AcDbSpline
 62
7
  6
CONTINUOUS
 70
0
 71
3
 72
11
 73
7
 74
0
 42
0.0000001
 43
0.0000001
 44
0.0000000001
 40
0.0
 40
0.0
 40
0.0
 40
0.0
 40
0.2178269116
 40
0.4506771703
 40
0.7097946725
 40
1.0
 40
1.0
 40
1.0
 40
1.0
 10
375.9555660522
 20
343.3993189803
 30
0.0
 10
375.6740140673
 20
343.5699847183
 30
0.0
 10
375.0234205416
 20
343.8202556729
 30
0.0
 10
373.9358420819
 20
343.859546736
 30
0.0
 10
372.774511958
 20
343.5857416539
 30
0.0
 10
372.0193176272
 20
343.2272384215
 30
0.0
 10
371.6394464078
 20
343.0079209798
 30
0.0
  0
SPLINE
  5
41C
100
AcDbEntity
  8
0
100
AcDbSpline
 62
7
  6
CONTINUOUS
 70
0
 71
3
 72
11
 73
7
 74
0
 42
0.0000001
 43
0.0000001
 44
0.0000000001
 40
0.0
 40
0.0
 40
0.0
 40
0.0
 40
0.2177730473
 40
0.450940882
 40
0.7102118565
 40
1.0
 40
1.0
 40
1.0
 40
1.0
 10
376.2736969973
 20
339.2583363796
 30
0.0
 10
376.4419142269
 20
339.1611963793
 30
0.0
 10
376.7567722077
 20
338.8966523462
 30
0.0
 10
377.0917199957
 20
338.3487365427
 30
0.0
 10
377.2909262382
 20
337.6735770013
 30
0.0
 10
377.329982854
 20
337.1821362859
 30
0.0
 10
377.329982854
 20
336.923649471
 30
0.0
  0
SPLINE
  5
41D
100
AcDbEntity
  8
0
100
AcDbSpline
 62
7
  6
CONTINUOUS
 70
0
 71
3
 72
11
 73
7
 74
0
 42
0.0000001
 43
0.0000001
 44
0.0000000001
 40
0.0
 40
0.0
 40
0.0
 40
0.0
 40
0.2600469288
 40
0.5122411249
 40
0.7581757794
 40
1.0
 40
1.0
 40
1.0
 40
1.0
 10
323.4792197134
 20
318.5439628132
 30
0.0
 10
323.4922738109
 20
318.6905220643
 30
0.0
 10
323.5491265796
 20
318.9778215467
 30
0.0
 10
323.7349492625
 20
319.3697268478
 30
0.0
 10
324.0114275118
 20
319.6908792917
 30
0.0
 10
324.2454044488
 20
319.8449690353
 30
0.0
 10
324.3689698232
 20
319.9037371902
 30
0.0
  0
LINE
  5
41E
100
AcDbEntity
  8
0
100
AcDbLine
 62
7
  6
CONTINUOUS
 10
355.3760875915
 20
339.4945291901
 11
339.8870401066
 21
348.7523157323
  0
SPLINE
  5
41F
100
AcDbEntity
  8
0
100
AcDbSpline
 62
7
  6
CONTINUOUS
 70
0
 71
3
 72
15
 73
11
 74
0
 42
0.0000001
 43
0.0000001
 44
0.0000000001
 40
0.0
 40
0.0
 40
0.0
 40
0.0
 40
0.08648026
 40
0.1836693216
 40
0.299072426
 40
0.4321540371
 40
0.5772527822
 40
0.7260970787
 40
0.8696629349
 40
1.0
 40
1.0
 40
1.0
 40
1.0
 10
472.883001358
 20
251.4231997676
 30
0.0
 10
472.6129793773
 20
251.5365489696
 30
0.0
 10
472.1005471101
 20
251.9455969583
 30
0.0
 10
471.6946054822
 20
252.904319776
 30
0.0
 10
471.6156742689
 20
254.0867485889
 30
0.0
 10
471.8477372912
 20
255.4094078531
 30
0.0
 10
472.3675356042
 20
256.767017246
 30
0.0
 10
473.1311040291
 20
258.0454226793
 30
0.0
 10
474.0714598885
 20
259.1341289004
 30
0.0
 10
474.8119163735
 20
259.7087663042
 30
0.0
 10
475.1941460412
 20
259.9294453885
 30
0.0
  0
SPLINE
  5
420
100
AcDbEntity
  8
0
100
AcDbSpline
 62
7
  6
CONTINUOUS
 70
0
 71
3
 72
16
 73
12
 74
0
 42
0.0000001
 43
0.0000001
 44
0.0000000001
 40
0.0
 40
0.0
 40
0.0
 40
0.0
 40
0.1258092516
 40
0.2595958637
 40
0.3968985495
 40
0.5316873836
 40
0.6590210664
 40
0.7773505236
 40
0.8894054278
 40
0.9447161282
 40
1.0
 40
1.0
 40
1.0
 40
1.0
 10
465.0996033583
 20
253.4929743918
 30
0.0
 10
465.0996033583
 20
254.4013019345
 30
0.0
 10
465.3458444933
 20
256.2788158565
 30
0.0
 10
466.2839350295
 20
259.0022020686
 30
0.0
 10
467.7186026187
 20
261.5748642459
 30
0.0
 10
469.5520001758
 20
263.8214215694
 30
0.0
 10
471.6846019359
 20
265.5856086585
 30
0.0
 10
474.0363118755
 20
266.7262020374
 30
0.0
 10
476.1349783914
 20
266.9936452078
 30
0.0
 10
477.7260650115
 20
266.6952827401
 30
0.0
 10
478.4662907096
 20
266.3744379442
 30
0.0
 10
478.8119605137
 20
266.1748699045
 30
0.0
  0
SPLINE
  5
421
100
AcDbEntity
  8
0
100
AcDbSpline
 62
7
  6
CONTINUOUS
 70
0
 71
3
 72
11
 73
7
 74
0
 42
0.0000001
 43
0.0000001
 44
0.0000000001
 40
0.0
 40
0.0
 40
0.0
 40
0.0
 40
0.2434597312
 40
0.4884921196
 40
0.7389911705
 40
1.0
 40
1.0
 40
1.0
 40
1.0
 10
478.8146934772
 20
266.1731316597
 30
0.0
 10
479.3019362962
 20
265.8910887009
 30
0.0
 10
480.1933574724
 20
265.1605793565
 30
0.0
 10
481.1337628038
 20
263.7061430631
 30
0.0
 10
481.667408877
 20
262.0223105038
 30
0.0
 10
481.7713175232
 20
260.8351692505
 30
0.0
 10
481.7713175232
 20
260.2316014827
 30
0.0
  0
SPLINE
  5
422
100
AcDbEntity
  8
0
100
AcDbSpline
 62
7
  6
CONTINUOUS
 70
0
 71
3
 72
15
 73
11
 74
0
 42
0.0000001
 43
0.0000001
 44
0.0000000001
 40
0.0
 40
0.0
 40
0.0
 40
0.0
 40
0.1258974567
 40
0.2597788822
 40
0.3971818692
 40
0.532062595
 40
0.6594783369
 40
0.7778839125
 40
0.8899874332
 40
1.0
 40
1.0
 40
1.0
 40
1.0
 10
481.7713175232
 20
260.2316014827
 30
0.0
 10
481.7713175232
 20
259.3231173204
 30
0.0
 10
481.5250064886
 20
257.4452653548
 30
0.0
 10
480.5865349437
 20
254.7214486476
 30
0.0
 10
479.1515142116
 20
252.1483717172
 30
0.0
 10
477.3173197806
 20
249.9018207506
 30
0.0
 10
475.1850072094
 20
248.1371839316
 30
0.0
 10
472.8299046271
 20
246.9990894641
 30
0.0
 10
470.339996211
 20
246.6744260127
 30
0.0
 10
468.7432802933
 20
247.1537401911
 30
0.0
 10
468.0562274043
 20
247.5514442149
 30
0.0
  0
SPLINE
  5
423
100
AcDbEntity
  8
0
100
AcDbSpline
 62
7
  6
CONTINUOUS
 70
0
 71
3
 72
11
 73
7
 74
0
 42
0.0000001
 43
0.0000001
 44
0.0000000001
 40
0.0
 40
0.0
 40
0.0
 40
0.0
 40
0.2434201109
 40
0.4884992452
 40
0.7389720845
 40
1.0
 40
1.0
 40
1.0
 40
1.0
 10
468.0589603678
 20
247.54970597
 30
0.0
 10
467.5712496359
 20
247.8312795223
 30
0.0
 10
466.6793330179
 20
248.562181573
 30
0.0
 10
465.7377451184
 20
250.0166967242
 30
0.0
 10
465.2036909159
 20
251.7014256579
 30
0.0
 10
465.0996033583
 20
252.8890817701
 30
0.0
 10
465.0996033583
 20
253.4929743918
 30
0.0
  0
SPLINE
  5
424
100
AcDbEntity
  8
0
100
AcDbSpline
 62
7
  6
CONTINUOUS
 70
0
 71
3
 72
9
 73
5
 74
0
 42
0.0000001
 43
0.0000001
 44
0.0000000001
 40
0.0
 40
0.0
 40
0.0
 40
0.0
 40
0.2424188136
 40
1.0
 40
1.0
 40
1.0
 40
1.0
 10
451.0759769632
 20
260.0932677871
 30
0.0
 10
451.0759769632
 20
260.3412446638
 30
0.0
 10
451.1078734219
 20
261.364085393
 30
0.0
 10
451.25931665
 20
262.3818561348
 30
0.0
 10
451.4278515386
 20
263.1382584727
 30
0.0
  0
SPLINE
  5
425
100
AcDbEntity
  8
0
100
AcDbSpline
 62
7
  6
CONTINUOUS
 70
0
 71
3
 72
16
 73
12
 74
0
 42
0.0000001
 43
0.0000001
 44
0.0000000001
 40
0.0
 40
0.0
 40
0.0
 40
0.0
 40
0.1342190658
 40
0.2726351289
 40
0.410357882
 40
0.5427345969
 40
0.666741814
 40
0.7822076494
 40
0.8919464996
 40
0.9459844326
 40
1.0
 40
1.0
 40
1.0
 40
1.0
 10
451.4278515386
 20
263.1382584727
 30
0.0
 10
451.6443885894
 20
264.1100995723
 30
0.0
 10
452.2664780726
 20
266.046482105
 30
0.0
 10
453.6455764517
 20
268.7727487761
 30
0.0
 10
455.4159043329
 20
271.2476608585
 30
0.0
 10
457.4866705749
 20
273.3315646802
 30
0.0
 10
459.7760032005
 20
274.9050246403
 30
0.0
 10
462.2168055456
 20
275.855208012
 30
0.0
 10
464.3292535296
 20
275.9933840667
 30
0.0
 10
465.9152732803
 20
275.6405398592
 30
0.0
 10
466.6531177749
 20
275.31040885
 30
0.0
 10
467.0001375811
 20
275.110061404
 30
0.0
  0
SPLINE
  5
426
100
AcDbEntity
  8
0
100
AcDbSpline
 62
7
  6
CONTINUOUS
 70
0
 71
3
 72
10
 73
6
 74
0
 42
0.0000001
 43
0.0000001
 44
0.0000000001
 40
0.0
 40
0.0
 40
0.0
 40
0.0
 40
0.2448019886
 40
0.4912866846
 40
1.0
 40
1.0
 40
1.0
 40
1.0
 10
467.0000466104
 20
275.110113813
 30
0.0
 10
467.4656354505
 20
274.8413389291
 30
0.0
 10
468.3291006602
 20
274.1674284998
 30
0.0
 10
469.6555644629
 20
272.3922672755
 30
0.0
 10
470.1335517609
 20
270.7390444904
 30
0.0
 10
470.2644518622
 20
269.6295762822
 30
0.0
  0
SPLINE
  5
427
100
AcDbEntity
  8
0
100
AcDbSpline
 62
7
  6
CONTINUOUS
 70
0
 71
3
 72
10
 73
6
 74
0
 42
0.0000001
 43
0.0000001
 44
0.0000000001
 40
0.0
 40
0.0
 40
0.0
 40
0.0
 40
0.5086803022
 40
0.755167048
 40
1.0
 40
1.0
 40
1.0
 40
1.0
 10
460.7975110724
 20
253.2263096226
 30
0.0
 10
459.770835523
 20
252.7841557903
 30
0.0
 10
458.0992033322
 20
252.3704738635
 30
0.0
 10
455.897062567
 20
252.6311536601
 30
0.0
 10
454.8808833942
 20
253.0421405228
 30
0.0
 10
454.4149241658
 20
253.3111292243
 30
0.0
  0
SPLINE
  5
428
100
AcDbEntity
  8
0
100
AcDbSpline
 62
7
  6
CONTINUOUS
 70
0
 71
3
 72
11
 73
7
 74
0
 42
0.0000001
 43
0.0000001
 44
0.0000000001
 40
0.0
 40
0.0
 40
0.0
 40
0.0
 40
0.2411797425
 40
0.4850726406
 40
0.7362315062
 40
1.0
 40
1.0
 40
1.0
 40
1.0
 10
454.4148331951
 20
253.3111816333
 30
0.0
 10
453.8646771825
 20
253.6288071697
 30
0.0
 10
452.8575242667
 20
254.4573221135
 30
0.0
 10
451.7963155437
 20
256.1116918132
 30
0.0
 10
451.1933597483
 20
258.0373535528
 30
0.0
 10
451.0759769632
 20
259.3985076888
 30
0.0
 10
451.0759769632
 20
260.0932677871
 30
0.0
  0
SPLINE
  5
429
100
AcDbEntity
  8
0
100
AcDbSpline
 62
7
  6
CONTINUOUS
 70
0
 71
3
 72
9
 73
5
 74
0
 42
0.0000001
 43
0.0000001
 44
0.0000000001
 40
0.0
 40
0.0
 40
0.0
 40
0.0
 40
0.2448077519
 40
1.0
 40
1.0
 40
1.0
 40
1.0
 10
437.0523505681
 20
266.6935611823
 30
0.0
 10
437.0523505681
 20
266.8636661321
 30
0.0
 10
437.0653340836
 20
267.5584869068
 30
0.0
 10
437.1282846675
 20
268.2521260825
 30
0.0
 10
437.2001249221
 20
268.7719313925
 30
0.0
  0
SPLINE
  5
42A
100
AcDbEntity
  8
0
100
AcDbSpline
 62
7
  6
CONTINUOUS
 70
0
 71
3
 72
11
 73
7
 74
0
 42
0.0000001
 43
0.0000001
 44
0.0000000001
 40
0.0
 40
0.0
 40
0.0
 40
0.0
 40
0.2440740018
 40
0.5001001108
 40
0.7560716243
 40
1.0
 40
1.0
 40
1.0
 40
1.0
 10
437.2001249221
 20
268.7719313925
 30
0.0
 10
437.377975693
 20
270.0587833882
 30
0.0
 10
438.0475088769
 20
272.6576602266
 30
0.0
 10
439.7595858489
 20
276.3212149069
 30
0.0
 10
442.0798148656
 20
279.6323338657
 30
0.0
 10
443.9977160097
 20
281.5080848452
 30
0.0
 10
445.0237548469
 20
282.3036035654
 30
0.0
  0
SPLINE
  5
42B
100
AcDbEntity
  8
0
100
AcDbSpline
 62
7
  6
CONTINUOUS
 70
0
 71
3
 72
11
 73
7
 74
0
 42
0.0000001
 43
0.0000001
 44
0.0000000001
 40
0.0
 40
0.0
 40
0.0
 40
0.0
 40
0.2726516238
 40
0.5259231944
 40
0.7658030998
 40
1.0
 40
1.0
 40
1.0
 40
1.0
 10
445.0237548469
 20
282.3036035654
 30
0.0
 10
445.807169338
 20
282.9110083446
 30
0.0
 10
447.427847618
 20
283.9536651423
 30
0.0
 10
450.0781032878
 20
284.9018968189
 30
0.0
 10
452.7663357306
 20
285.032877158
 30
0.0
 10
454.4508996917
 20
284.4709899957
 30
0.0
 10
455.1883146485
 20
284.0452529034
 30
0.0
  0
SPLINE
  5
42C
100
AcDbEntity
  8
0
100
AcDbSpline
 62
7
  6
CONTINUOUS
 70
0
 71
3
 72
10
 73
6
 74
0
 42
0.0000001
 43
0.0000001
 44
0.0000000001
 40
0.0
 40
0.0
 40
0.0
 40
0.0
 40
0.244584811
 40
0.4911269555
 40
1.0
 40
1.0
 40
1.0
 40
1.0
 10
455.1851388523
 20
284.0469363658
 30
0.0
 10
455.6581560465
 20
283.7744409539
 30
0.0
 10
456.541269269
 20
283.1014122887
 30
0.0
 10
457.9454939943
 20
281.3445774623
 30
0.0
 10
458.5211766501
 20
279.6991404875
 30
0.0
 10
458.7220316965
 20
278.5812796595
 30
0.0
  0
SPLINE
  5
42D
100
AcDbEntity
  8
0
100
AcDbSpline
 62
7
  6
CONTINUOUS
 70
0
 71
3
 72
10
 73
6
 74
0
 42
0.0000001
 43
0.0000001
 44
0.0000000001
 40
0.0
 40
0.0
 40
0.0
 40
0.0
 40
0.509400925
 40
0.7557360042
 40
1.0
 40
1.0
 40
1.0
 40
1.0
 10
447.4448310712
 20
258.8092805825
 30
0.0
 10
446.3536733136
 20
258.39493392
 30
0.0
 10
444.5987598823
 20
258.0329723732
 30
0.0
 10
442.3115488989
 20
258.3559723524
 30
0.0
 10
441.2588429806
 20
258.7915977496
 30
0.0
 10
440.7738818186
 20
259.0709738342
 30
0.0
  0
SPLINE
  5
42E
100
AcDbEntity
  8
0
100
AcDbSpline
 62
7
  6
CONTINUOUS
 70
0
 71
3
 72
11
 73
7
 74
0
 42
0.0000001
 43
0.0000001
 44
0.0000000001
 40
0.0
 40
0.0
 40
0.0
 40
0.0
 40
0.2392118887
 40
0.4821078729
 40
0.7338641536
 40
1.0
 40
1.0
 40
1.0
 40
1.0
 10
440.7707060224
 20
259.0726572966
 30
0.0
 10
440.1586533287
 20
259.42601809
 30
0.0
 10
439.0368554602
 20
260.3514818157
 30
0.0
 10
437.8561506074
 20
262.2048911172
 30
0.0
 10
437.1830648242
 20
264.3717453869
 30
0.0
 10
437.0523505681
 20
265.9072827912
 30
0.0
 10
437.0523505681
 20
266.6935611823
 30
0.0
  0
SPLINE
  5
42F
100
AcDbEntity
  8
0
100
AcDbSpline
 62
7
  6
CONTINUOUS
 70
0
 71
3
 72
11
 73
7
 74
0
 42
0.0000001
 43
0.0000001
 44
0.0000000001
 40
0.0
 40
0.0
 40
0.0
 40
0.0
 40
0.2375195591
 40
0.479584464
 40
0.7318943524
 40
1.0
 40
1.0
 40
1.0
 40
1.0
 10
427.1265788498
 20
264.8341329599
 30
0.0
 10
426.4529366519
 20
265.2230516657
 30
0.0
 10
425.2168171716
 20
266.2450559611
 30
0.0
 10
423.9162306695
 20
268.2970277084
 30
0.0
 10
423.1730422676
 20
270.7054873038
 30
0.0
 10
423.028724173
 20
272.4158378696
 30
0.0
 10
423.028724173
 20
273.2938545775
 30
0.0
  0
SPLINE
  5
430
100
AcDbEntity
  8
0
100
AcDbSpline
 62
7
  6
CONTINUOUS
 70
0
 71
3
 72
10
 73
6
 74
0
 42
0.0000001
 43
0.0000001
 44
0.0000000001
 40
0.0
 40
0.0
 40
0.0
 40
0.0
 40
0.5096138326
 40
0.7559324908
 40
1.0
 40
1.0
 40
1.0
 40
1.0
 10
433.9898244554
 20
264.3765156138
 30
0.0
 10
432.851103484
 20
264.0017270389
 30
0.0
 10
431.0402790093
 20
263.7043451586
 30
0.0
 10
428.702679087
 20
264.0902655153
 30
0.0
 10
427.6278230316
 20
264.5455562797
 30
0.0
 10
427.1303105976
 20
264.8321249533
 30
0.0
  0
SPLINE
  5
431
100
AcDbEntity
  8
0
100
AcDbSpline
 62
7
  6
CONTINUOUS
 70
0
 71
3
 72
10
 73
6
 74
0
 42
0.0000001
 43
0.0000001
 44
0.0000000001
 40
0.0
 40
0.0
 40
0.0
 40
0.0
 40
0.2442075507
 40
0.490634745
 40
1.0
 40
1.0
 40
1.0
 40
1.0
 10
443.372759968
 20
292.9824524094
 30
0.0
 10
443.8643531823
 20
292.6992932242
 30
0.0
 10
444.7859847073
 20
292.0062914691
 30
0.0
 10
446.2800751865
 20
290.2064595169
 30
0.0
 10
446.9331170263
 20
288.5169171069
 30
0.0
 10
447.1842674517
 20
287.3605842671
 30
0.0
  0
SPLINE
  5
432
100
AcDbEntity
  8
0
100
AcDbSpline
 62
7
  6
CONTINUOUS
 70
0
 71
3
 72
17
 73
13
 74
0
 42
0.0000001
 43
0.0000001
 44
0.0000000001
 40
0.0
 40
0.0
 40
0.0
 40
0.0
 40
0.1265149707
 40
0.2625489938
 40
0.4027579297
 40
0.5403738047
 40
0.6694853543
 40
0.787231175
 40
0.8424103418
 40
0.895820722
 40
0.9481163322
 40
1.0
 40
1.0
 40
1.0
 40
1.0
 10
423.028724173
 20
273.2938545775
 30
0.0
 10
423.028724173
 20
274.6696403937
 30
0.0
 10
423.4050605652
 20
277.5290792582
 30
0.0
 10
424.8279699699
 20
281.6944477172
 30
0.0
 10
427.0090279755
 20
285.6568495257
 30
0.0
 10
429.7911221286
 20
289.1289655719
 30
0.0
 10
432.9938609224
 20
291.8588204214
 30
0.0
 10
435.9631656944
 20
293.3695352448
 30
0.0
 10
438.3717754102
 20
293.9298555609
 30
0.0
 10
440.1316059533
 20
294.003481687
 30
0.0
 10
441.83417875
 20
293.7123461911
 30
0.0
 10
442.887870111
 20
293.262543836
 30
0.0
 10
443.3764917159
 20
292.9804444028
 30
0.0
  0
SPLINE
  5
433
100
AcDbEntity
  8
0
100
AcDbSpline
 62
7
  6
CONTINUOUS
 70
0
 71
3
 72
18
 73
14
 74
0
 42
0.0000001
 43
0.0000001
 44
0.0000000001
 40
0.0
 40
0.0
 40
0.0
 40
0.0
 40
0.126658754
 40
0.2631538444
 40
0.4039587932
 40
0.5421537982
 40
0.6716358849
 40
0.7320822098
 40
0.7895484909
 40
0.8444010637
 40
0.8972891604
 40
0.9488967279
 40
1.0
 40
1.0
 40
1.0
 40
1.0
 10
409.0050977779
 20
279.8941479728
 30
0.0
 10
409.0050977779
 20
281.4260724618
 30
0.0
 10
409.425009403
 20
284.6136350893
 30
0.0
 10
411.0101347602
 20
289.2606920891
 30
0.0
 10
413.4419839583
 20
293.6877566841
 30
0.0
 10
416.5394662382
 20
297.5674792151
 30
0.0
 10
419.5798634807
 20
300.170055541
 30
0.0
 10
422.1713505456
 20
301.6807902037
 30
0.0
 10
424.1101440464
 20
302.4802445949
 30
0.0
 10
426.0641163914
 20
302.9427431254
 30
0.0
 10
428.0023938801
 20
303.0311593082
 30
0.0
 10
429.8732227664
 20
302.716744145
 30
0.0
 10
431.0293851751
 20
302.2246750461
 30
0.0
 10
431.5646687832
 20
301.9156359022
 30
0.0
  0
SPLINE
  5
434
100
AcDbEntity
  8
0
100
AcDbSpline
 62
7
  6
CONTINUOUS
 70
0
 71
3
 72
10
 73
6
 74
0
 42
0.0000001
 43
0.0000001
 44
0.0000000001
 40
0.0
 40
0.0
 40
0.0
 40
0.0
 40
0.2439333586
 40
0.4902794777
 40
1.0
 40
1.0
 40
1.0
 40
1.0
 10
431.5604485675
 20
301.9179316381
 30
0.0
 10
432.071080214
 20
301.6238247886
 30
0.0
 10
433.0316586632
 20
300.9095162627
 30
0.0
 10
434.6128512219
 20
299.0629918951
 30
0.0
 10
435.3376963946
 20
297.3273996845
 30
0.0
 10
435.6351967565
 20
296.132539108
 30
0.0
  0
SPLINE
  5
435
100
AcDbEntity
  8
0
100
AcDbSpline
 62
7
  6
CONTINUOUS
 70
0
 71
3
 72
10
 73
6
 74
0
 42
0.0000001
 43
0.0000001
 44
0.0000000001
 40
0.0
 40
0.0
 40
0.0
 40
0.0
 40
0.5097788002
 40
0.7560717366
 40
1.0
 40
1.0
 40
1.0
 40
1.0
 10
420.5499634469
 20
269.969053239
 30
0.0
 10
419.3644435199
 20
269.6263070914
 30
0.0
 10
417.4956937701
 20
269.3819450315
 30
0.0
 10
415.0996996018
 20
269.8235550069
 30
0.0
 10
413.9983670686
 20
270.2985934803
 30
0.0
 10
413.4866718928
 20
270.5933128873
 30
0.0
  0
SPLINE
  5
436
100
AcDbEntity
  8
0
100
AcDbSpline
 62
7
  6
CONTINUOUS
 70
0
 71
3
 72
11
 73
7
 74
0
 42
0.0000001
 43
0.0000001
 44
0.0000000001
 40
0.0
 40
0.0
 40
0.0
 40
0.0
 40
0.2360523026
 40
0.4774113542
 40
0.7302102862
 40
1.0
 40
1.0
 40
1.0
 40
1.0
 10
413.4824516771
 20
270.5956086232
 30
0.0
 10
412.7474581089
 20
271.0199477578
 30
0.0
 10
411.3972669992
 20
272.1381869464
 30
0.0
 10
409.9767154543
 20
274.3883688038
 30
0.0
 10
409.1631111311
 20
277.0386291711
 30
0.0
 10
409.0050977779
 20
278.9241572134
 30
0.0
 10
409.0050977779
 20
279.8941479728
 30
0.0
  0
SPLINE
  5
437
100
AcDbEntity
  8
0
100
AcDbSpline
 62
7
  6
CONTINUOUS
 70
0
 71
3
 72
11
 73
7
 74
0
 42
0.0000001
 43
0.0000001
 44
0.0000000001
 40
0.0
 40
0.0
 40
0.0
 40
0.0
 40
0.2918148399
 40
0.5502299847
 40
0.7814012588
 40
1.0
 40
1.0
 40
1.0
 40
1.0
 10
475.1941460412
 20
259.9294453885
 30
0.0
 10
475.4326741375
 20
260.0671588271
 30
0.0
 10
475.9068295876
 20
260.2889425759
 30
0.0
 10
476.6368148338
 20
260.4420840498
 30
0.0
 10
477.3144752885
 20
260.3792313222
 30
0.0
 10
477.7052771161
 20
260.1851917983
 30
0.0
 10
477.8695711146
 20
260.0603845905
 30
0.0
  0
SPLINE
  5
438
100
AcDbEntity
  8
0
100
AcDbSpline
 62
7
  6
CONTINUOUS
 70
0
 71
3
 72
15
 73
11
 74
0
 42
0.0000001
 43
0.0000001
 44
0.0000000001
 40
0.0
 40
0.0
 40
0.0
 40
0.0
 40
0.0880262789
 40
0.1898815754
 40
0.3090955246
 40
0.4434291102
 40
0.5871614348
 40
0.7328569299
 40
0.8727200242
 40
1.0
 40
1.0
 40
1.0
 40
1.0
 10
477.8695711146
 20
260.0603845905
 30
0.0
 10
478.0972687669
 20
259.8874123062
 30
0.0
 10
478.4910009733
 20
259.3803305705
 30
0.0
 10
478.7509487942
 20
258.3925607429
 30
0.0
 10
478.7304317316
 20
257.2275227468
 30
0.0
 10
478.4371227141
 20
255.9628269454
 30
0.0
 10
477.895702078
 20
254.6904055208
 30
0.0
 10
477.1467045019
 20
253.506596951
 30
0.0
 10
476.2486323135
 20
252.502505341
 30
0.0
 10
475.5522131413
 20
251.9711501199
 30
0.0
 10
475.1941460412
 20
251.7644212172
 30
0.0
  0
SPLINE
  5
439
100
AcDbEntity
  8
0
100
AcDbSpline
 62
7
  6
CONTINUOUS
 70
0
 71
3
 72
11
 73
7
 74
0
 42
0.0000001
 43
0.0000001
 44
0.0000000001
 40
0.0
 40
0.0
 40
0.0
 40
0.0
 40
0.2185768039
 40
0.4498053601
 40
0.7081543582
 40
1.0
 40
1.0
 40
1.0
 40
1.0
 10
457.916719349
 20
254.4979597136
 30
0.0
 10
457.5432636931
 20
254.6555677338
 30
0.0
 10
456.8295884158
 20
255.130577772
 30
0.0
 10
456.0581981442
 20
256.222770579
 30
0.0
 10
455.6018515497
 20
257.6153621416
 30
0.0
 10
455.5136889484
 20
258.6400453311
 30
0.0
 10
455.5136889484
 20
259.1812734671
 30
0.0
  0
SPLINE
  5
43A
100
AcDbEntity
  8
0
100
AcDbSpline
 62
7
  6
CONTINUOUS
 70
0
 71
3
 72
11
 73
7
 74
0
 42
0.0000001
 43
0.0000001
 44
0.0000000001
 40
0.0
 40
0.0
 40
0.0
 40
0.0
 40
0.2918620308
 40
0.5501845265
 40
0.781423798
 40
1.0
 40
1.0
 40
1.0
 40
1.0
 10
449.7381959359
 20
280.0678322534
 30
0.0
 10
450.2942737176
 20
280.388881994
 30
0.0
 10
451.3992711053
 20
280.9061445665
 30
0.0
 10
453.1007012897
 20
281.2631920249
 30
0.0
 10
454.6802957769
 20
281.1186114305
 30
0.0
 10
455.59171126
 20
280.6671961776
 30
0.0
 10
455.9751065644
 20
280.3769446094
 30
0.0
  0
SPLINE
  5
43B
100
AcDbEntity
  8
0
100
AcDbSpline
 62
7
  6
CONTINUOUS
 70
0
 71
3
 72
11
 73
7
 74
0
 42
0.0000001
 43
0.0000001
 44
0.0000000001
 40
0.0
 40
0.0
 40
0.0
 40
0.0
 40
0.2372196254
 40
0.500001618
 40
0.76278273
 40
1.0
 40
1.0
 40
1.0
 40
1.0
 10
441.4900625533
 20
265.7815668623
 30
0.0
 10
441.4900625533
 20
267.13361395
 30
0.0
 10
441.9971712455
 20
269.985242608
 30
0.0
 10
443.7648474141
 20
273.9924048166
 30
0.0
 10
446.3512871711
 20
277.5268410112
 30
0.0
 10
448.5672986895
 20
279.3918184483
 30
0.0
 10
449.7381959359
 20
280.0678322534
 30
0.0
  0
SPLINE
  5
43C
100
AcDbEntity
  8
0
100
AcDbSpline
 62
7
  6
CONTINUOUS
 70
0
 71
3
 72
11
 73
7
 74
0
 42
0.0000001
 43
0.0000001
 44
0.0000000001
 40
0.0
 40
0.0
 40
0.0
 40
0.0
 40
0.2918440848
 40
0.5501925206
 40
0.7814217288
 40
1.0
 40
1.0
 40
1.0
 40
1.0
 10
462.4661709885
 20
271.2233924466
 30
0.0
 10
462.9348693074
 20
271.493993932
 30
0.0
 10
463.8663154925
 20
271.9299645606
 30
0.0
 10
465.3004531552
 20
272.2310395778
 30
0.0
 10
466.6319684682
 20
272.1091012362
 30
0.0
 10
467.4001562344
 20
271.7285685476
 30
0.0
 10
467.7233717248
 20
271.483964148
 30
0.0
  0
SPLINE
  5
43D
100
AcDbEntity
  8
0
100
AcDbSpline
 62
7
  6
CONTINUOUS
 70
0
 71
3
 72
11
 73
7
 74
0
 42
0.0000001
 43
0.0000001
 44
0.0000000001
 40
0.0
 40
0.0
 40
0.0
 40
0.0
 40
0.2372262259
 40
0.500001618
 40
0.7627761295
 40
1.0
 40
1.0
 40
1.0
 40
1.0
 10
455.5136889484
 20
259.1812734671
 30
0.0
 10
455.5136889484
 20
260.3209666341
 30
0.0
 10
455.9411345953
 20
262.7246550559
 30
0.0
 10
457.4311891708
 20
266.1022908328
 30
0.0
 10
459.6112579936
 20
269.0815360466
 30
0.0
 10
461.4791760804
 20
270.6535540722
 30
0.0
 10
462.4661709885
 20
271.2233924466
 30
0.0
  0
SPLINE
  5
43E
100
AcDbEntity
  8
0
100
AcDbSpline
 62
7
  6
CONTINUOUS
 70
0
 71
3
 72
11
 73
7
 74
0
 42
0.0000001
 43
0.0000001
 44
0.0000000001
 40
0.0
 40
0.0
 40
0.0
 40
0.0
 40
0.2185747353
 40
0.4498133514
 40
0.7081364152
 40
1.0
 40
1.0
 40
1.0
 40
1.0
 10
444.340927571
 20
260.2254996132
 30
0.0
 10
443.8978477557
 20
260.4124008481
 30
0.0
 10
443.0511668469
 20
260.9760095682
 30
0.0
 10
442.1361224287
 20
262.2717307945
 30
0.0
 10
441.5946000947
 20
263.9238008288
 30
0.0
 10
441.4900625533
 20
265.1394375331
 30
0.0
 10
441.4900625533
 20
265.7815668623
 30
0.0
  0
SPLINE
  5
43F
100
AcDbEntity
  8
0
100
AcDbSpline
 62
7
  6
CONTINUOUS
 70
0
 71
3
 72
11
 73
7
 74
0
 42
0.0000001
 43
0.0000001
 44
0.0000000001
 40
0.0
 40
0.0
 40
0.0
 40
0.0
 40
0.2185747353
 40
0.4498133514
 40
0.7081364152
 40
1.0
 40
1.0
 40
1.0
 40
1.0
 10
430.7651269949
 20
265.953022691
 30
0.0
 10
430.2524463463
 20
266.1692831549
 30
0.0
 10
429.2727652536
 20
266.8214258936
 30
0.0
 10
428.2139818251
 20
268.3206844378
 30
0.0
 10
427.5873948945
 20
270.2322685534
 30
0.0
 10
427.4664361582
 20
271.6388625634
 30
0.0
 10
427.4664361582
 20
272.3818602576
 30
0.0
  0
SPLINE
  5
440
100
AcDbEntity
  8
0
100
AcDbSpline
 62
7
  6
CONTINUOUS
 70
0
 71
3
 72
11
 73
7
 74
0
 42
0.0000001
 43
0.0000001
 44
0.0000000001
 40
0.0
 40
0.0
 40
0.0
 40
0.0
 40
0.2918620308
 40
0.5501845265
 40
0.781423798
 40
1.0
 40
1.0
 40
1.0
 40
1.0
 10
424.2822458306
 20
297.7567118669
 30
0.0
 10
425.0130256669
 20
298.1786252837
 30
0.0
 10
426.4651782915
 20
298.8583953995
 30
0.0
 10
428.7011440369
 20
299.3276158787
 30
0.0
 10
430.7769971618
 20
299.1376126335
 30
0.0
 10
431.9747505686
 20
298.544376983
 30
0.0
 10
432.4785965539
 20
298.1629375504
 30
0.0
  0
SPLINE
  5
441
100
AcDbEntity
  8
0
100
AcDbSpline
 62
7
  6
CONTINUOUS
 70
0
 71
3
 72
11
 73
7
 74
0
 42
0.0000001
 43
0.0000001
 44
0.0000000001
 40
0.0
 40
0.0
 40
0.0
 40
0.0
 40
0.2372196254
 40
0.500001618
 40
0.76278273
 40
1.0
 40
1.0
 40
1.0
 40
1.0
 10
413.4428097631
 20
278.9821536528
 30
0.0
 10
413.4428097631
 20
280.7589711807
 30
0.0
 10
414.1092359705
 20
284.5064913884
 30
0.0
 10
416.4322600935
 20
289.7725772478
 30
0.0
 10
419.8312774334
 20
294.417421528
 30
0.0
 10
422.7434896957
 20
296.8683159013
 30
0.0
 10
424.2822458306
 20
297.7567118669
 30
0.0
  0
SPLINE
  5
442
100
AcDbEntity
  8
0
100
AcDbSpline
 62
7
  6
CONTINUOUS
 70
0
 71
3
 72
11
 73
7
 74
0
 42
0.0000001
 43
0.0000001
 44
0.0000000001
 40
0.0
 40
0.0
 40
0.0
 40
0.0
 40
0.2185747353
 40
0.4498133514
 40
0.7081364152
 40
1.0
 40
1.0
 40
1.0
 40
1.0
 10
417.1893264189
 20
271.6805457689
 30
0.0
 10
416.6070449368
 20
271.9261654616
 30
0.0
 10
415.4943636602
 20
272.666842219
 30
0.0
 10
414.2918412215
 20
274.3696380811
 30
0.0
 10
413.5801896943
 20
276.5407362781
 30
0.0
 10
413.4428097631
 20
278.1382875938
 30
0.0
 10
413.4428097631
 20
278.9821536528
 30
0.0
  0
SPLINE
  5
443
100
AcDbEntity
  8
0
100
AcDbSpline
 62
7
  6
CONTINUOUS
 70
0
 71
3
 72
17
 73
13
 74
0
 42
0.0000001
 43
0.0000001
 44
0.0000000001
 40
0.0
 40
0.0
 40
0.0
 40
0.0
 40
0.1290745859
 40
0.2711124013
 40
0.418645149
 40
0.563141876
 40
0.6966401816
 40
0.8134193343
 40
0.8650865834
 40
0.9126477632
 40
0.9571110166
 40
1.0
 40
1.0
 40
1.0
 40
1.0
 10
415.8886278008
 20
303.5667845489
 30
0.0
 10
414.6559813079
 20
302.8551643704
 30
0.0
 10
412.2648403736
 20
301.0108261296
 30
0.0
 10
409.210288165
 20
297.5200975279
 30
0.0
 10
406.7049156508
 20
293.4145841872
 30
0.0
 10
404.9587713132
 20
289.0326975245
 30
0.0
 10
404.113561069
 20
284.7356188447
 30
0.0
 10
404.2299613642
 20
281.3603387837
 30
0.0
 10
404.893495741
 20
279.0605087277
 30
0.0
 10
405.619999034
 20
277.6392753652
 30
0.0
 10
406.5839419782
 20
276.4883098196
 30
0.0
 10
407.3779219674
 20
275.9209230569
 30
0.0
 10
407.7952186041
 20
275.698357995
 30
0.0
  0
SPLINE
  5
444
100
AcDbEntity
  8
0
100
AcDbSpline
 62
7
  6
CONTINUOUS
 70
0
 71
3
 72
11
 73
7
 74
0
 42
0.0000001
 43
0.0000001
 44
0.0000000001
 40
0.0
 40
0.0
 40
0.0
 40
0.0
 40
0.2875169682
 40
0.5471924796
 40
0.7820370301
 40
1.0
 40
1.0
 40
1.0
 40
1.0
 10
416.4110938469
 20
303.2262274137
 30
0.0
 10
417.0787410386
 20
303.6116652615
 30
0.0
 10
418.4070543796
 20
304.2536014537
 30
0.0
 10
420.446766018
 20
304.8009278019
 30
0.0
 10
422.3763567942
 20
304.8590796472
 30
0.0
 10
423.5724739609
 20
304.5481018476
 30
0.0
 10
424.1073550118
 20
304.3126172169
 30
0.0
  0
SPLINE
  5
445
100
AcDbEntity
  8
0
100
AcDbSpline
 62
7
  6
CONTINUOUS
 70
0
 71
3
 72
17
 73
13
 74
0
 42
0.0000001
 43
0.0000001
 44
0.0000000001
 40
0.0
 40
0.0
 40
0.0
 40
0.0
 40
0.0429316114
 40
0.0880130683
 40
0.1365011071
 40
0.1891596917
 40
0.3075195045
 40
0.441531082
 40
0.585462807
 40
0.7316944379
 40
0.8722079014
 40
1.0
 40
1.0
 40
1.0
 40
1.0
 10
407.8376504734
 20
275.742386703
 30
0.0
 10
407.4541763185
 20
276.0031113383
 30
0.0
 10
406.7338408722
 20
276.6407378235
 30
0.0
 10
405.8839986783
 20
277.8595977769
 30
0.0
 10
405.2619441545
 20
279.3220489043
 30
0.0
 10
404.7280662422
 20
281.642157046
 30
0.0
 10
404.7320834985
 20
284.9777494478
 30
0.0
 10
405.6580283664
 20
289.1812076669
 30
0.0
 10
407.4284207168
 20
293.4312821841
 30
0.0
 10
409.9058273129
 20
297.3938072937
 30
0.0
 10
412.8925754694
 20
300.7571991767
 30
0.0
 10
415.2156860982
 20
302.5361139822
 30
0.0
 10
416.4110902026
 20
303.226229946
 30
0.0
  0
SPLINE
  5
446
100
AcDbEntity
  8
0
100
AcDbSpline
 62
7
  6
CONTINUOUS
 70
0
 71
3
 72
17
 73
13
 74
0
 42
0.0000001
 43
0.0000001
 44
0.0000000001
 40
0.0
 40
0.0
 40
0.0
 40
0.0
 40
0.1286836269
 40
0.2702723077
 40
0.4174279841
 40
0.561774479
 40
0.6954461875
 40
0.8127110669
 40
0.8646758594
 40
0.9125101386
 40
0.9571399036
 40
1.0
 40
1.0
 40
1.0
 40
1.0
 10
364.5314740557
 20
334.8419061022
 30
0.0
 10
363.1620634865
 20
334.0513019792
 30
0.0
 10
360.5038856651
 20
332.0057105848
 30
0.0
 10
357.1014689634
 20
328.1349829661
 30
0.0
 10
354.3008936378
 20
323.5799964149
 30
0.0
 10
352.333594695
 20
318.711064305
 30
0.0
 10
351.3570269656
 20
313.9239897144
 30
0.0
 10
351.4447576699
 20
310.1520001866
 30
0.0
 10
352.1428706535
 20
307.5648551326
 30
0.0
 10
352.9204975888
 20
305.9558166908
 30
0.0
 10
353.9608939144
 20
304.6401004658
 30
0.0
 10
354.8255691331
 20
303.9784462086
 30
0.0
 10
355.2816482736
 20
303.7150807203
 30
0.0
  0
SPLINE
  5
447
100
AcDbEntity
  8
0
100
AcDbSpline
 62
7
  6
CONTINUOUS
 70
0
 71
3
 72
11
 73
7
 74
0
 42
0.0000001
 43
0.0000001
 44
0.0000000001
 40
0.0
 40
0.0
 40
0.0
 40
0.0
 40
0.2178735031
 40
0.4505296442
 40
0.7095867255
 40
1.0
 40
1.0
 40
1.0
 40
1.0
 10
424.3019404338
 20
304.2894834126
 30
0.0
 10
423.7567208419
 20
304.6291481249
 30
0.0
 10
422.4927223675
 20
305.1310293312
 30
0.0
 10
420.3715413754
 20
305.2212596744
 30
0.0
 10
418.1043106719
 20
304.6935257192
 30
0.0
 10
416.6301666854
 20
303.9948829751
 30
0.0
 10
415.8886278074
 20
303.5667845448
 30
0.0
  0
SPLINE
  5
448
100
AcDbEntity
  8
0
100
AcDbSpline
 62
7
  6
CONTINUOUS
 70
0
 71
3
 72
11
 73
7
 74
0
 42
0.0000001
 43
0.0000001
 44
0.0000000001
 40
0.0
 40
0.0
 40
0.0
 40
0.0
 40
0.2177722228
 40
0.4509548708
 40
0.7101953931
 40
1.0
 40
1.0
 40
1.0
 40
1.0
 10
373.7812998627
 20
335.7581420358
 30
0.0
 10
373.1711209765
 20
336.1104932969
 30
0.0
 10
371.7689146581
 20
336.6196774349
 30
0.0
 10
369.4403263772
 20
336.6779706106
 30
0.0
 10
366.9580735923
 20
336.0794216252
 30
0.0
 10
365.3435250325
 20
335.3107288678
 30
0.0
 10
364.5314740557
 20
334.8419061022
 30
0.0
  0
SPLINE
  5
449
100
AcDbEntity
  8
0
100
AcDbSpline
 62
7
  6
CONTINUOUS
 70
0
 71
3
 72
11
 73
7
 74
0
 42
0.0000001
 43
0.0000001
 44
0.0000000001
 40
0.0
 40
0.0
 40
0.0
 40
0.0
 40
0.2918620308
 40
0.5501845265
 40
0.781423798
 40
1.0
 40
1.0
 40
1.0
 40
1.0
 10
437.0102208832
 20
288.9122720602
 30
0.0
 10
437.6536496922
 20
289.2837536388
 30
0.0
 10
438.9322246984
 20
289.882269983
 30
0.0
 10
440.9009226633
 20
290.2954039518
 30
0.0
 10
442.7286464694
 20
290.128112032
 30
0.0
 10
443.7832309143
 20
289.6057865803
 30
0.0
 10
444.2268515591
 20
289.2699410799
 30
0.0
  0
SPLINE
  5
44A
100
AcDbEntity
  8
0
100
AcDbSpline
 62
7
  6
CONTINUOUS
 70
0
 71
3
 72
11
 73
7
 74
0
 42
0.0000001
 43
0.0000001
 44
0.0000000001
 40
0.0
 40
0.0
 40
0.0
 40
0.0
 40
0.2372196254
 40
0.500001618
 40
0.76278273
 40
1.0
 40
1.0
 40
1.0
 40
1.0
 10
427.4664361582
 20
272.3818602576
 30
0.0
 10
427.4664361582
 20
273.9462925654
 30
0.0
 10
428.053203608
 20
277.2458669982
 30
0.0
 10
430.0985537538
 20
281.8824910322
 30
0.0
 10
433.0912823022
 20
285.9721312696
 30
0.0
 10
435.6553941926
 20
288.1300671748
 30
0.0
 10
437.0102208832
 20
288.9122720602
 30
0.0
  0
SPLINE
  5
44B
100
AcDbEntity
  8
0
100
AcDbSpline
 62
7
  6
CONTINUOUS
 70
0
 71
3
 72
19
 73
15
 74
0
 42
0.0000001
 43
0.0000001
 44
0.0000000001
 40
0.0
 40
0.0
 40
0.0
 40
0.0
 40
0.0604488125
 40
0.1145388604
 40
0.163176603
 40
0.2086045023
 40
0.2540304876
 40
0.3026715141
 40
0.3567514128
 40
0.4172046004
 40
0.5554527001
 40
0.7085954078
 40
0.8617412198
 40
1.0
 40
1.0
 40
1.0
 40
1.0
 10
469.5373153435
 20
252.5809800719
 30
0.0
 10
469.5373153435
 20
252.17553499
 30
0.0
 10
469.5986696961
 20
251.40462618
 30
0.0
 10
469.9108614203
 20
250.3456621041
 30
0.0
 10
470.4370114959
 20
249.4858638133
 30
0.0
 10
471.1669917715
 20
248.8717359008
 30
0.0
 10
472.0638634436
 20
248.5465303236
 30
0.0
 10
473.0714052476
 20
248.5208609395
 30
0.0
 10
474.1449546827
 20
248.7798271253
 30
0.0
 10
475.6838956578
 20
249.5132505796
 30
0.0
 10
477.5160897189
 20
251.0575294594
 30
0.0
 10
479.2909783187
 20
253.4815526985
 30
0.0
 10
480.5031036518
 20
256.229760232
 30
0.0
 10
480.8509767389
 20
258.1855508232
 30
0.0
 10
480.8509767389
 20
259.1128865338
 30
0.0
  0
SPLINE
  5
44C
100
AcDbEntity
  8
0
100
AcDbSpline
 62
7
  6
CONTINUOUS
 70
0
 71
3
 72
19
 73
15
 74
0
 42
0.0000001
 43
0.0000001
 44
0.0000000001
 40
0.0
 40
0.0
 40
0.0
 40
0.0
 40
0.0604488125
 40
0.1145388604
 40
0.163176603
 40
0.2086045023
 40
0.2540304876
 40
0.3026715141
 40
0.3567514128
 40
0.4172046004
 40
0.5554527001
 40
0.7085954078
 40
0.8617412198
 40
1.0
 40
1.0
 40
1.0
 40
1.0
 10
480.8509767389
 20
259.1128865338
 30
0.0
 10
480.8509767389
 20
259.5183316157
 30
0.0
 10
480.7896223862
 20
260.2892404257
 30
0.0
 10
480.477430662
 20
261.3482045015
 30
0.0
 10
479.9512805865
 20
262.2080027924
 30
0.0
 10
479.2213003109
 20
262.8221307049
 30
0.0
 10
478.3244286387
 20
263.147336282
 30
0.0
 10
477.3168868347
 20
263.1730056662
 30
0.0
 10
476.2433373997
 20
262.9140394804
 30
0.0
 10
474.7043964245
 20
262.1806160261
 30
0.0
 10
472.8722023635
 20
260.6363371463
 30
0.0
 10
471.0973137636
 20
258.2123139072
 30
0.0
 10
469.8851884306
 20
255.4641063737
 30
0.0
 10
469.5373153435
 20
253.5083157825
 30
0.0
 10
469.5373153435
 20
252.5809800719
 30
0.0
  0
SPLINE
  5
44D
100
AcDbEntity
  8
0
100
AcDbSpline
 62
7
  6
CONTINUOUS
 70
0
 71
3
 72
11
 73
7
 74
0
 42
0.0000001
 43
0.0000001
 44
0.0000000001
 40
0.0
 40
0.0
 40
0.0
 40
0.0
 40
0.2869704658
 40
0.5467996335
 40
0.7818883709
 40
1.0
 40
1.0
 40
1.0
 40
1.0
 10
475.1941460412
 20
251.7644212172
 30
0.0
 10
474.9941128355
 20
251.6489326814
 30
0.0
 10
474.5958380132
 20
251.4561872695
 30
0.0
 10
473.9845516865
 20
251.2892894396
 30
0.0
 10
473.4052587747
 20
251.2669233721
 30
0.0
 10
473.0448724849
 20
251.3552498806
 30
0.0
 10
472.883001358
 20
251.4231997676
 30
0.0
  0
SPLINE
  5
44E
100
AcDbEntity
  8
0
100
AcDbSpline
 62
7
  6
CONTINUOUS
 70
0
 71
3
 72
10
 73
6
 74
0
 42
0.0000001
 43
0.0000001
 44
0.0000000001
 40
0.0
 40
0.0
 40
0.0
 40
0.0
 40
0.2277802463
 40
0.4657997672
 40
1.0
 40
1.0
 40
1.0
 40
1.0
 10
296.9623981173
 20
311.6327462676
 30
0.0
 10
296.6776708697
 20
311.7970828393
 30
0.0
 10
296.139051876
 20
312.2152658981
 30
0.0
 10
295.2566697691
 20
313.3729378977
 30
0.0
 10
294.9144503443
 20
314.4738337212
 30
0.0
 10
294.7928042298
 20
315.2351740591
 30
0.0
  0
SPLINE
  5
44F
100
AcDbEntity
  8
0
100
AcDbSpline
 62
7
  6
CONTINUOUS
 70
0
 71
3
 72
10
 73
6
 74
0
 42
0.0000001
 43
0.0000001
 44
0.0000000001
 40
0.0
 40
0.0
 40
0.0
 40
0.0
 40
0.2277802463
 40
0.4657997672
 40
1.0
 40
1.0
 40
1.0
 40
1.0
 10
190.8959393453
 20
372.8688594457
 30
0.0
 10
190.6112120976
 20
373.0331960174
 30
0.0
 10
190.0725931039
 20
373.4513790761
 30
0.0
 10
189.1902109971
 20
374.6090510757
 30
0.0
 10
188.8479915722
 20
375.7099468992
 30
0.0
 10
188.7263454577
 20
376.4712872372
 30
0.0
  0
SPLINE
  5
450
100
AcDbEntity
  8
0
100
AcDbSpline
 62
7
  6
CONTINUOUS
 70
0
 71
3
 72
10
 73
6
 74
0
 42
0.0000001
 43
0.0000001
 44
0.0000000001
 40
0.0
 40
0.0
 40
0.0
 40
0.0
 40
0.2277802463
 40
0.4657997672
 40
1.0
 40
1.0
 40
1.0
 40
1.0
 10
84.8294805732
 20
434.1049726237
 30
0.0
 10
84.5447533256
 20
434.2693091954
 30
0.0
 10
84.0061343319
 20
434.6874922542
 30
0.0
 10
83.123752225
 20
435.8451642538
 30
0.0
 10
82.7815328002
 20
436.9460600773
 30
0.0
 10
82.6598866857
 20
437.7074004152
 30
0.0
  0
SPLINE
  5
451
100
AcDbEntity
  8
0
100
AcDbSpline
 62
7
  6
CONTINUOUS
 70
0
 71
3
 72
9
 73
5
 74
0
 42
0.0000001
 43
0.0000001
 44
0.0000000001
 40
0.0
 40
0.0
 40
0.0
 40
0.0
 40
0.2536099884
 40
1.0
 40
1.0
 40
1.0
 40
1.0
 10
62.2823741586
 20
467.2718116731
 30
0.0
 10
62.2361607646
 20
467.1166653455
 30
0.0
 10
62.0786451986
 20
466.4978469372
 30
0.0
 10
62.026869631
 20
465.851940555
 30
0.0
 10
62.0512430721
 20
465.37613306
 30
0.0
  0
SPLINE
  5
452
100
AcDbEntity
  8
0
100
AcDbSpline
 62
7
  6
CONTINUOUS
 70
0
 71
3
 72
9
 73
5
 74
0
 42
0.0000001
 43
0.0000001
 44
0.0000000001
 40
0.0
 40
0.0
 40
0.0
 40
0.0
 40
0.4382230832
 40
1.0
 40
1.0
 40
1.0
 40
1.0
 10
186.1986015633
 20
375.8497827364
 30
0.0
 10
186.6281621076
 20
375.7733661332
 30
0.0
 10
187.6180827242
 20
375.6603065469
 30
0.0
 10
188.6067150645
 20
375.5407741605
 30
0.0
 10
189.1584757069
 20
375.4491423775
 30
0.0
  0
SPLINE
  5
453
100
AcDbEntity
  8
0
100
AcDbSpline
 62
7
  6
CONTINUOUS
 70
0
 71
3
 72
9
 73
5
 74
0
 42
0.0000001
 43
0.0000001
 44
0.0000000001
 40
0.0
 40
0.0
 40
0.0
 40
0.0
 40
0.5617952299
 40
1.0
 40
1.0
 40
1.0
 40
1.0
 10
83.0920665524
 20
436.6850970099
 30
0.0
 10
82.5402723844
 20
436.776718711
 30
0.0
 10
81.5516325918
 20
436.8963671568
 30
0.0
 10
80.5616955124
 20
437.0094807029
 30
0.0
 10
80.1321427913
 20
437.0858959145
 30
0.0
  0
SPLINE
  5
454
100
AcDbEntity
  8
0
100
AcDbSpline
 62
7
  6
CONTINUOUS
 70
0
 71
3
 72
9
 73
5
 74
0
 42
0.0000001
 43
0.0000001
 44
0.0000000001
 40
0.0
 40
0.0
 40
0.0
 40
0.0
 40
0.4382230832
 40
1.0
 40
1.0
 40
1.0
 40
1.0
 10
292.2650603354
 20
314.6136695584
 30
0.0
 10
292.6946208797
 20
314.5372529551
 30
0.0
 10
293.6845414963
 20
314.4241933688
 30
0.0
 10
294.6731738365
 20
314.3046609824
 30
0.0
 10
295.224934479
 20
314.2130291994
 30
0.0
  0
SPLINE
  5
455
100
AcDbEntity
  8
0
100
AcDbSpline
 62
7
  6
CONTINUOUS
 70
0
 71
3
 72
9
 73
5
 74
0
 42
0.0000001
 43
0.0000001
 44
0.0000000001
 40
0.0
 40
0.0
 40
0.0
 40
0.0
 40
0.2546322637
 40
1.0
 40
1.0
 40
1.0
 40
1.0
 10
67.0780202966
 20
460.0723242098
 30
0.0
 10
67.0050628374
 20
460.1218174043
 30
0.0
 10
66.7206160457
 20
460.3192196126
 30
0.0
 10
66.4446484426
 20
460.5289101808
 30
0.0
 10
66.244923322
 20
460.6923386471
 30
0.0
  0
SPLINE
  5
456
100
AcDbEntity
  8
0
100
AcDbSpline
 62
7
  6
CONTINUOUS
 70
0
 71
3
 72
9
 73
5
 74
0
 42
0.0000001
 43
0.0000001
 44
0.0000000001
 40
0.0
 40
0.0
 40
0.0
 40
0.0
 40
0.5292332128
 40
1.0
 40
1.0
 40
1.0
 40
1.0
 10
66.244923322
 20
460.6923386471
 30
0.0
 10
65.6641963781
 20
461.167528315
 30
0.0
 10
64.6531852303
 20
462.1840819236
 30
0.0
 10
63.967448782
 20
463.4576296518
 30
0.0
 10
63.7634941963
 20
464.0931757739
 30
0.0
  0
SPLINE
  5
457
100
AcDbEntity
  8
0
100
AcDbSpline
 62
7
  6
CONTINUOUS
 70
0
 71
3
 72
11
 73
7
 74
0
 42
0.0000001
 43
0.0000001
 44
0.0000000001
 40
0.0
 40
0.0
 40
0.0
 40
0.0
 40
0.2384922002
 40
0.496214394
 40
0.7557531157
 40
1.0
 40
1.0
 40
1.0
 40
1.0
 10
302.5040843756
 20
311.1928885024
 30
0.0
 10
303.9118544405
 20
310.2489069559
 30
0.0
 10
307.1488803943
 20
308.7327217561
 30
0.0
 10
312.442038771
 20
307.6157345415
 30
0.0
 10
317.8926037433
 20
307.6260972774
 30
0.0
 10
321.4252961304
 20
308.4320115413
 30
0.0
 10
323.0471278721
 20
309.0507974723
 30
0.0
  0
SPLINE
  5
458
100
AcDbEntity
  8
0
100
AcDbSpline
 62
7
  6
CONTINUOUS
 70
0
 71
3
 72
9
 73
5
 74
0
 42
0.0000001
 43
0.0000001
 44
0.0000000001
 40
0.0
 40
0.0
 40
0.0
 40
0.0
 40
0.2489997016
 40
1.0
 40
1.0
 40
1.0
 40
1.0
 10
66.8765428494
 20
458.9246557664
 30
0.0
 10
66.9310941313
 20
457.8660913462
 30
0.0
 10
67.2349844609
 20
453.6195518432
 30
0.0
 10
67.8768193477
 20
449.3977307543
 30
0.0
 10
68.5383944214
 20
446.269992958
 30
0.0
  0
SPLINE
  5
459
100
AcDbEntity
  8
0
100
AcDbSpline
 62
7
  6
CONTINUOUS
 70
0
 71
3
 72
9
 73
5
 74
0
 42
0.0000001
 43
0.0000001
 44
0.0000000001
 40
0.0
 40
0.0
 40
0.0
 40
0.0
 40
0.2389899095
 40
1.0
 40
1.0
 40
1.0
 40
1.0
 10
302.5040842897
 20
311.1928877434
 30
0.0
 10
302.5206641274
 20
312.1190659108
 30
0.0
 10
302.581348804
 20
315.9946075013
 30
0.0
 10
302.6109510215
 20
319.8705951231
 30
0.0
 10
302.6216077056
 20
322.8202562922
 30
0.0
  0
SPLINE
  5
45A
100
AcDbEntity
  8
0
100
AcDbSpline
 62
7
  6
CONTINUOUS
 70
0
 71
3
 72
11
 73
7
 74
0
 42
0.0000001
 43
0.0000001
 44
0.0000000001
 40
0.0
 40
0.0
 40
0.0
 40
0.0
 40
0.230378663
 40
0.4713873928
 40
0.7280291747
 40
1.0
 40
1.0
 40
1.0
 40
1.0
 10
70.7643745149
 20
442.2253329985
 30
0.0
 10
70.4462788163
 20
442.4089171279
 30
0.0
 10
69.852122228
 20
442.8900077852
 30
0.0
 10
69.1797862693
 20
443.8515051519
 30
0.0
 10
68.7351694571
 20
445.0052163656
 30
0.0
 10
68.5836248488
 20
445.8387624393
 30
0.0
 10
68.5384120647
 20
446.2699761328
 30
0.0
  0
SPLINE
  5
45B
100
AcDbEntity
  8
0
100
AcDbSpline
 62
7
  6
CONTINUOUS
 70
0
 71
3
 72
11
 73
7
 74
0
 42
0.0000001
 43
0.0000001
 44
0.0000000001
 40
0.0
 40
0.0
 40
0.0
 40
0.0
 40
0.2151745734
 40
0.4488980029
 40
0.7094625261
 40
1.0
 40
1.0
 40
1.0
 40
1.0
 10
63.9876589149
 20
451.0725583011
 30
0.0
 10
64.0928413842
 20
450.5941582635
 30
0.0
 10
64.4744607861
 20
449.6271229231
 30
0.0
 10
65.4657646727
 20
448.332132774
 30
0.0
 10
66.847282716
 20
447.1811123725
 30
0.0
 10
67.9428019757
 20
446.5575518298
 30
0.0
 10
68.5383964233
 20
446.2699834938
 30
0.0
  0
SPLINE
  5
45C
100
AcDbEntity
  8
0
100
AcDbSpline
 62
7
  6
CONTINUOUS
 70
0
 71
3
 72
11
 73
7
 74
0
 42
0.0000001
 43
0.0000001
 44
0.0000000001
 40
0.0
 40
0.0
 40
0.0
 40
0.0
 40
0.2177662146
 40
0.4517057486
 40
0.711252422
 40
1.0
 40
1.0
 40
1.0
 40
1.0
 10
62.0512430721
 20
465.37613306
 30
0.0
 10
62.0823558251
 20
464.7687637101
 30
0.0
 10
62.3635726943
 20
463.5127583497
 30
0.0
 10
63.3710436722
 20
461.77300188
 30
0.0
 10
64.9085390906
 20
460.1963712027
 30
0.0
 10
66.1801009057
 20
459.326719415
 30
0.0
 10
66.878466042
 20
458.9235260665
 30
0.0
  0
SPLINE
  5
45D
100
AcDbEntity
  8
0
100
AcDbSpline
 62
7
  6
CONTINUOUS
 70
0
 71
3
 72
10
 73
6
 74
0
 42
0.0000001
 43
0.0000001
 44
0.0000000001
 40
0.0
 40
0.0
 40
0.0
 40
0.0
 40
0.5237719957
 40
0.7664823745
 40
1.0
 40
1.0
 40
1.0
 40
1.0
 10
302.5041064811
 20
311.192875331
 30
0.0
 10
302.5908677029
 20
310.3653988665
 30
0.0
 10
302.8942080355
 20
309.1426051576
 30
0.0
 10
303.8068986104
 20
307.8234252466
 30
0.0
 10
304.4040083632
 20
307.3370047214
 30
0.0
 10
304.7250802931
 20
307.1512318321
 30
0.0
  0
SPLINE
  5
45E
100
AcDbEntity
  8
0
100
AcDbSpline
 62
7
  6
CONTINUOUS
 70
0
 71
3
 72
10
 73
6
 74
0
 42
0.0000001
 43
0.0000001
 44
0.0000000001
 40
0.0
 40
0.0
 40
0.0
 40
0.0
 40
0.5342002328
 40
0.7722197537
 40
1.0
 40
1.0
 40
1.0
 40
1.0
 10
76.7201649945
 20
441.1366227532
 30
0.0
 10
76.841811109
 20
440.3752824152
 30
0.0
 10
77.1840305338
 20
439.2743865918
 30
0.0
 10
78.0664126406
 20
438.1167145922
 30
0.0
 10
78.6050316343
 20
437.6985315334
 30
0.0
 10
78.889758882
 20
437.5341949617
 30
0.0
  0
SPLINE
  5
45F
100
AcDbEntity
  8
0
100
AcDbSpline
 62
7
  6
CONTINUOUS
 70
0
 71
3
 72
10
 73
6
 74
0
 42
0.0000001
 43
0.0000001
 44
0.0000000001
 40
0.0
 40
0.0
 40
0.0
 40
0.0
 40
0.5342002328
 40
0.7722197537
 40
1.0
 40
1.0
 40
1.0
 40
1.0
 10
182.7866237665
 20
379.9005095751
 30
0.0
 10
182.908269881
 20
379.1391692372
 30
0.0
 10
183.2504893058
 20
378.0382734137
 30
0.0
 10
184.1328714127
 20
376.8806014141
 30
0.0
 10
184.6714904064
 20
376.4624183553
 30
0.0
 10
184.956217654
 20
376.2980817836
 30
0.0
  0
SPLINE
  5
460
100
AcDbEntity
  8
0
100
AcDbSpline
 62
7
  6
CONTINUOUS
 70
0
 71
3
 72
10
 73
6
 74
0
 42
0.0000001
 43
0.0000001
 44
0.0000000001
 40
0.0
 40
0.0
 40
0.0
 40
0.0
 40
0.5342002328
 40
0.7722197537
 40
1.0
 40
1.0
 40
1.0
 40
1.0
 10
288.8530825386
 20
318.6643963971
 30
0.0
 10
288.9747286531
 20
317.9030560592
 30
0.0
 10
289.3169480779
 20
316.8021602357
 30
0.0
 10
290.1993301847
 20
315.6444882361
 30
0.0
 10
290.7379491784
 20
315.2263051773
 30
0.0
 10
291.0226764261
 20
315.0619686056
 30
0.0
  0
SPLINE
  5
461
100
AcDbEntity
  8
0
100
AcDbSpline
 62
7
  6
CONTINUOUS
 70
0
 71
3
 72
9
 73
5
 74
0
 42
0.0000001
 43
0.0000001
 44
0.0000000001
 40
0.0
 40
0.0
 40
0.0
 40
0.0
 40
0.2517170325
 40
1.0
 40
1.0
 40
1.0
 40
1.0
 10
314.5753389221
 20
320.8803634841
 30
0.0
 10
314.2442593484
 20
320.8767689703
 30
0.0
 10
312.9288463397
 20
320.8875738493
 30
0.0
 10
311.614064827
 20
320.9989256189
 30
0.0
 10
310.6400743037
 20
321.1407581444
 30
0.0
  0
SPLINE
  5
462
100
AcDbEntity
  8
0
100
AcDbSpline
 62
7
  6
CONTINUOUS
 70
0
 71
3
 72
9
 73
5
 74
0
 42
0.0000001
 43
0.0000001
 44
0.0000000001
 40
0.0
 40
0.0
 40
0.0
 40
0.0
 40
0.2533148193
 40
1.0
 40
1.0
 40
1.0
 40
1.0
 10
310.6400743037
 20
321.1407581444
 30
0.0
 10
310.4413292343
 20
321.1696994066
 30
0.0
 10
309.658203309
 20
321.2936320006
 30
0.0
 10
308.8811869057
 20
321.4567162034
 30
0.0
 10
308.3071951164
 20
321.6016661809
 30
0.0
  0
SPLINE
  5
463
100
AcDbEntity
  8
0
100
AcDbSpline
 62
7
  6
CONTINUOUS
 70
0
 71
3
 72
9
 73
5
 74
0
 42
0.0000001
 43
0.0000001
 44
0.0000000001
 40
0.0
 40
0.0
 40
0.0
 40
0.0
 40
0.2593006289
 40
1.0
 40
1.0
 40
1.0
 40
1.0
 10
308.3071951164
 20
321.6016661809
 30
0.0
 10
307.9912590163
 20
321.6814494313
 30
0.0
 10
306.7800399403
 20
322.0162355977
 30
0.0
 10
305.598147535
 20
322.4625148187
 30
0.0
 10
304.7585223212
 20
322.8643104404
 30
0.0
  0
SPLINE
  5
464
100
AcDbEntity
  8
0
100
AcDbSpline
 62
7
  6
CONTINUOUS
 70
0
 71
3
 72
9
 73
5
 74
0
 42
0.0000001
 43
0.0000001
 44
0.0000000001
 40
0.0
 40
0.0
 40
0.0
 40
0.0
 40
0.2436073201
 40
1.0
 40
1.0
 40
1.0
 40
1.0
 10
302.6203359914
 20
322.8209730351
 30
0.0
 10
302.7600260657
 20
322.740324471
 30
0.0
 10
303.3385986456
 20
322.4182256967
 30
0.0
 10
303.9364531383
 20
322.1310922226
 30
0.0
 10
304.396089496
 20
321.9321838945
 30
0.0
  0
SPLINE
  5
465
100
AcDbEntity
  8
0
100
AcDbSpline
 62
7
  6
CONTINUOUS
 70
0
 71
3
 72
9
 73
5
 74
0
 42
0.0000001
 43
0.0000001
 44
0.0000000001
 40
0.0
 40
0.0
 40
0.0
 40
0.0
 40
0.4846438645
 40
1.0
 40
1.0
 40
1.0
 40
1.0
 10
304.396089496
 20
321.9321838945
 30
0.0
 10
306.4042715265
 20
321.0631400873
 30
0.0
 10
310.8520530966
 20
319.9616369998
 30
0.0
 10
315.4131140076
 20
319.9549251952
 30
0.0
 10
317.7225132798
 20
320.2391401916
 30
0.0
  0
SPLINE
  5
466
100
AcDbEntity
  8
0
100
AcDbSpline
 62
7
  6
CONTINUOUS
 70
0
 71
3
 72
11
 73
7
 74
0
 42
0.0000001
 43
0.0000001
 44
0.0000000001
 40
0.0
 40
0.0
 40
0.0
 40
0.0
 40
0.2226967623
 40
0.4610802319
 40
0.7210289652
 40
1.0
 40
1.0
 40
1.0
 40
1.0
 10
319.8771972566
 20
305.1393813007
 30
0.0
 10
320.254522934
 20
305.238414018
 30
0.0
 10
321.0002759696
 20
305.5983325617
 30
0.0
 10
321.9102368152
 20
306.499161118
 30
0.0
 10
322.6040152565
 20
307.6840167058
 30
0.0
 10
322.9188929562
 20
308.5792230729
 30
0.0
 10
323.0471023658
 20
309.0507877408
 30
0.0
  0
SPLINE
  5
467
100
AcDbEntity
  8
0
100
AcDbSpline
 62
7
  6
CONTINUOUS
 70
0
 71
3
 72
11
 73
7
 74
0
 42
0.0000001
 43
0.0000001
 44
0.0000000001
 40
0.0
 40
0.0
 40
0.0
 40
0.0
 40
0.2184740402
 40
0.4605812381
 40
0.7226054129
 40
1.0
 40
1.0
 40
1.0
 40
1.0
 10
317.2151693366
 20
385.1901456989
 30
0.0
 10
314.9555345623
 20
383.6115279996
 30
0.0
 10
310.0749619403
 20
380.4497260273
 30
0.0
 10
302.1686649171
 20
375.9035691922
 30
0.0
 10
293.4086411432
 20
371.3712119599
 30
0.0
 10
287.246290306
 20
368.4781243169
 30
0.0
 10
284.0502932002
 20
367.0517889426
 30
0.0
  0
SPLINE
  5
468
100
AcDbEntity
  8
0
100
AcDbSpline
 62
7
  6
CONTINUOUS
 70
0
 71
3
 72
9
 73
5
 74
0
 42
0.0000001
 43
0.0000001
 44
0.0000000001
 40
0.0
 40
0.0
 40
0.0
 40
0.0
 40
0.5203457965
 40
1.0
 40
1.0
 40
1.0
 40
1.0
 10
314.5635141173
 20
320.9502670399
 30
0.0
 10
312.8440101135
 20
320.9450654125
 30
0.0
 10
309.5307822845
 20
321.2605209496
 30
0.0
 10
306.3448401113
 20
322.272769456
 30
0.0
 10
304.9193431645
 20
322.9658233018
 30
0.0
  0
SPLINE
  5
469
100
AcDbEntity
  8
0
100
AcDbSpline
 62
7
  6
CONTINUOUS
 70
0
 71
3
 72
9
 73
5
 74
0
 42
0.0000001
 43
0.0000001
 44
0.0000000001
 40
0.0
 40
0.0
 40
0.0
 40
0.0
 40
0.274110763
 40
1.0
 40
1.0
 40
1.0
 40
1.0
 10
66.9954192538
 20
461.3054189013
 30
0.0
 10
66.5850099536
 20
461.5427799849
 30
0.0
 10
65.131022516
 20
462.474326787
 30
0.0
 10
63.8410435923
 20
463.7117350639
 30
0.0
 10
63.1710946455
 20
464.77355779
 30
0.0
  0
SPLINE
  5
46A
100
AcDbEntity
  8
0
100
AcDbSpline
 62
7
  6
CONTINUOUS
 70
0
 71
3
 72
9
 73
5
 74
0
 42
0.0000001
 43
0.0000001
 44
0.0000000001
 40
0.0
 40
0.0
 40
0.0
 40
0.0
 40
0.5138665461
 40
1.0
 40
1.0
 40
1.0
 40
1.0
 10
63.1710946455
 20
464.77355779
 30
0.0
 10
62.8383441154
 20
465.3009443567
 30
0.0
 10
62.3144462374
 20
466.4159333117
 30
0.0
 10
62.1571900604
 20
467.6432827156
 30
0.0
 10
62.1786012189
 20
468.2328254506
 30
0.0
  0
SPLINE
  5
46B
100
AcDbEntity
  8
0
100
AcDbSpline
 62
7
  6
CONTINUOUS
 70
0
 71
3
 72
9
 73
5
 74
0
 42
0.0000001
 43
0.0000001
 44
0.0000000001
 40
0.0
 40
0.0
 40
0.0
 40
0.0
 40
0.5255108054
 40
1.0
 40
1.0
 40
1.0
 40
1.0
 10
314.7815575428
 20
322.3524896946
 30
0.0
 10
312.6186011206
 20
322.3316392548
 30
0.0
 10
308.4871606612
 20
322.7493324783
 30
0.0
 10
304.5477854893
 20
324.1592989999
 30
0.0
 10
302.8556523979
 20
325.1345307365
 30
0.0
  0
SPLINE
  5
46C
100
AcDbEntity
  8
0
100
AcDbSpline
 62
7
  6
CONTINUOUS
 70
0
 71
3
 72
9
 73
5
 74
0
 42
0.0000001
 43
0.0000001
 44
0.0000000001
 40
0.0
 40
0.0
 40
0.0
 40
0.0
 40
0.4903968701
 40
1.0
 40
1.0
 40
1.0
 40
1.0
 10
98.882768288
 20
473.955890802
 30
0.0
 10
101.8877399101
 20
477.9640557988
 30
0.0
 10
109.2104266768
 20
485.305116022
 30
0.0
 10
118.2598816521
 20
490.3300597485
 30
0.0
 10
123.0847444083
 20
492.2845750382
 30
0.0
  0
SPLINE
  5
46D
100
AcDbEntity
  8
0
100
AcDbSpline
 62
7
  6
CONTINUOUS
 70
0
 71
3
 72
9
 73
5
 74
0
 42
0.0000001
 43
0.0000001
 44
0.0000000001
 40
0.0
 40
0.0
 40
0.0
 40
0.0
 40
0.2452369639
 40
1.0
 40
1.0
 40
1.0
 40
1.0
 10
123.0847444083
 20
492.2845750382
 30
0.0
 10
124.2419622038
 20
492.7533551858
 30
0.0
 10
129.0158459842
 20
494.5277429505
 30
0.0
 10
133.9865097334
 20
495.7573238326
 30
0.0
 10
137.7734793347
 20
496.4093192649
 30
0.0
  0
SPLINE
  5
46E
100
AcDbEntity
  8
0
100
AcDbSpline
 62
7
  6
CONTINUOUS
 70
0
 71
3
 72
11
 73
7
 74
0
 42
0.0000001
 43
0.0000001
 44
0.0000000001
 40
0.0
 40
0.0
 40
0.0
 40
0.0
 40
0.22819203
 40
0.484647581
 40
0.7492469191
 40
1.0
 40
1.0
 40
1.0
 40
1.0
 10
302.9103645095
 20
338.7112147827
 30
0.0
 10
304.3560785696
 20
338.0254116348
 30
0.0
 10
307.6450795494
 20
337.0253102172
 30
0.0
 10
312.9007209042
 20
336.5272978844
 30
0.0
 10
318.3221856989
 20
336.9505576664
 30
0.0
 10
321.8449440222
 20
337.8637852842
 30
0.0
 10
323.4913388785
 20
338.4811320673
 30
0.0
  0
SPLINE
  5
46F
100
AcDbEntity
  8
0
100
AcDbSpline
 62
7
  6
CONTINUOUS
 70
0
 71
3
 72
11
 73
7
 74
0
 42
0.0000001
 43
0.0000001
 44
0.0000000001
 40
0.0
 40
0.0
 40
0.0
 40
0.0
 40
0.2333474062
 40
0.4981165971
 40
0.7641062634
 40
1.0
 40
1.0
 40
1.0
 40
1.0
 10
309.350670867
 20
350.268463075
 30
0.0
 10
308.5164658842
 20
349.6251499065
 30
0.0
 10
306.8970303468
 20
348.0378763458
 30
0.0
 10
304.9265771956
 20
345.1829621455
 30
0.0
 10
303.5105815587
 20
342.0032225054
 30
0.0
 10
303.0095269594
 20
339.7715514101
 30
0.0
 10
302.9103664956
 20
338.7112360202
 30
0.0
  0
SPLINE
  5
470
100
AcDbEntity
  8
0
100
AcDbSpline
 62
7
  6
CONTINUOUS
 70
0
 71
3
 72
9
 73
5
 74
0
 42
0.0000001
 43
0.0000001
 44
0.0000000001
 40
0.0
 40
0.0
 40
0.0
 40
0.0
 40
0.2603139889
 40
1.0
 40
1.0
 40
1.0
 40
1.0
 10
323.4915136979
 20
338.4808934588
 30
0.0
 10
325.1254442675
 20
339.3575663527
 30
0.0
 10
331.3886995242
 20
342.7504093257
 30
0.0
 10
337.6075752485
 20
346.2254318246
 30
0.0
 10
342.1762715812
 20
348.8500135187
 30
0.0
  0
SPLINE
  5
471
100
AcDbEntity
  8
0
100
AcDbSpline
 62
7
  6
CONTINUOUS
 70
0
 71
3
 72
11
 73
7
 74
0
 42
0.0000001
 43
0.0000001
 44
0.0000000001
 40
0.0
 40
0.0
 40
0.0
 40
0.0
 40
0.2184480573
 40
0.4856333711
 40
0.7608612109
 40
1.0
 40
1.0
 40
1.0
 40
1.0
 10
316.4118791854
 20
350.6406118827
 30
0.0
 10
317.1967492882
 20
349.9622535353
 30
0.0
 10
318.7637369847
 20
348.2495589425
 30
0.0
 10
320.7866076676
 20
345.2436673588
 30
0.0
 10
322.4411671204
 20
341.9098225174
 30
0.0
 10
323.2275079778
 20
339.5854329226
 30
0.0
 10
323.4914321383
 20
338.4808709916
 30
0.0
  0
SPLINE
  5
472
100
AcDbEntity
  8
0
100
AcDbSpline
 62
7
  6
CONTINUOUS
 70
0
 71
3
 72
11
 73
7
 74
0
 42
0.0000001
 43
0.0000001
 44
0.0000000001
 40
0.0
 40
0.0
 40
0.0
 40
0.0
 40
0.2877793135
 40
0.5443240487
 40
0.7772816604
 40
1.0
 40
1.0
 40
1.0
 40
1.0
 10
359.8629873926
 20
359.4801873546
 30
0.0
 10
360.3583188826
 20
359.9182292253
 30
0.0
 10
361.2357228879
 20
360.8210151995
 30
0.0
 10
362.1893041459
 20
362.3515774358
 30
0.0
 10
362.6557273527
 20
363.9448297324
 30
0.0
 10
362.6145005284
 20
365.0132891894
 30
0.0
 10
362.5113956293
 20
365.5145396439
 30
0.0
  0
SPLINE
  5
473
100
AcDbEntity
  8
0
100
AcDbSpline
 62
7
  6
CONTINUOUS
 70
0
 71
3
 72
11
 73
7
 74
0
 42
0.0000001
 43
0.0000001
 44
0.0000000001
 40
0.0
 40
0.0
 40
0.0
 40
0.0
 40
0.4938461395
 40
0.6291065152
 40
0.760884456
 40
1.0
 40
1.0
 40
1.0
 40
1.0
 10
351.8731476519
 20
371.113883236
 30
0.0
 10
354.0984871056
 20
370.1641831817
 30
0.0
 10
356.5630318023
 20
367.9557384928
 30
0.0
 10
358.453132641
 20
364.7465623254
 30
0.0
 10
359.4273395583
 20
362.4588756816
 30
0.0
 10
359.8021420809
 20
360.65011337
 30
0.0
 10
359.8629873926
 20
359.4801873546
 30
0.0
  0
SPLINE
  5
474
100
AcDbEntity
  8
0
100
AcDbSpline
 62
7
  6
CONTINUOUS
 70
0
 71
3
 72
9
 73
5
 74
0
 42
0.0000001
 43
0.0000001
 44
0.0000000001
 40
0.0
 40
0.0
 40
0.0
 40
0.0
 40
0.4786358407
 40
1.0
 40
1.0
 40
1.0
 40
1.0
 10
355.7001677838
 20
374.521475197
 30
0.0
 10
355.1028608038
 20
374.865727412
 30
0.0
 10
353.6238899259
 20
375.2088563243
 30
0.0
 10
352.1889831838
 20
374.8651241915
 30
0.0
 10
351.4878279835
 20
374.5962139654
 30
0.0
  0
SPLINE
  5
475
100
AcDbEntity
  8
0
100
AcDbSpline
 62
7
  6
CONTINUOUS
 70
0
 71
3
 72
9
 73
5
 74
0
 42
0.0000001
 43
0.0000001
 44
0.0000000001
 40
0.0
 40
0.0
 40
0.0
 40
0.0
 40
0.5209467608
 40
1.0
 40
1.0
 40
1.0
 40
1.0
 10
117.0693148816
 20
509.9347438412
 30
0.0
 10
117.7460773345
 20
510.194301703
 30
0.0
 10
119.1276698962
 20
510.5309256638
 30
0.0
 10
120.5579388825
 20
510.2411918041
 30
0.0
 10
121.1488762256
 20
509.9328596618
 30
0.0
  0
SPLINE
  5
476
100
AcDbEntity
  8
0
100
AcDbSpline
 62
7
  6
CONTINUOUS
 70
0
 71
3
 72
9
 73
5
 74
0
 42
0.0000001
 43
0.0000001
 44
0.0000000001
 40
0.0
 40
0.0
 40
0.0
 40
0.0
 40
0.2543298694
 40
1.0
 40
1.0
 40
1.0
 40
1.0
 10
311.0205266904
 20
380.9752438776
 30
0.0
 10
311.3178466837
 20
381.2223164957
 30
0.0
 10
312.4767656335
 20
382.2058569303
 30
0.0
 10
313.5943112843
 20
383.2383948174
 30
0.0
 10
314.3993324041
 20
384.0362476004
 30
0.0
  0
SPLINE
  5
477
100
AcDbEntity
  8
0
100
AcDbSpline
 62
7
  6
CONTINUOUS
 70
0
 71
3
 72
9
 73
5
 74
0
 42
0.0000001
 43
0.0000001
 44
0.0000000001
 40
0.0
 40
0.0
 40
0.0
 40
0.0
 40
0.2486626234
 40
1.0
 40
1.0
 40
1.0
 40
1.0
 10
361.3816379032
 20
349.1421416283
 30
0.0
 10
361.3121359823
 20
350.0057617735
 30
0.0
 10
360.9753477407
 20
353.4740170943
 30
0.0
 10
360.409373733
 20
356.91966546
 30
0.0
 10
359.8630323584
 20
359.4798971852
 30
0.0
  0
SPLINE
  5
478
100
AcDbEntity
  8
0
100
AcDbSpline
 62
7
  6
CONTINUOUS
 70
0
 71
3
 72
9
 73
5
 74
0
 42
0.0000001
 43
0.0000001
 44
0.0000000001
 40
0.0
 40
0.0
 40
0.0
 40
0.0
 40
0.242877679
 40
1.0
 40
1.0
 40
1.0
 40
1.0
 10
302.8558331171
 20
325.1343779067
 30
0.0
 10
302.8660451151
 20
326.233508431
 30
0.0
 10
302.9002702348
 20
330.7590312311
 30
0.0
 10
302.909327868
 20
335.2847058734
 30
0.0
 10
302.9102510746
 20
338.7111720017
 30
0.0
  0
SPLINE
  5
479
100
AcDbEntity
  8
0
100
AcDbSpline
 62
7
  6
CONTINUOUS
 70
0
 71
3
 72
11
 73
7
 74
0
 42
0.0000001
 43
0.0000001
 44
0.0000000001
 40
0.0
 40
0.0
 40
0.0
 40
0.0
 40
0.2707167004
 40
0.5265959062
 40
0.7677116979
 40
1.0
 40
1.0
 40
1.0
 40
1.0
 10
110.0081064238
 20
510.7515159411
 30
0.0
 10
109.7134159948
 20
510.9853714703
 30
0.0
 10
109.1060608068
 20
511.3998822303
 30
0.0
 10
108.1243787899
 20
511.8369183794
 30
0.0
 10
107.11655687
 20
512.0209210185
 30
0.0
 10
106.4508234368
 20
511.9536953429
 30
0.0
 10
106.1383507002
 20
511.8726847959
 30
0.0
  0
SPLINE
  5
47A
100
AcDbEntity
  8
0
100
AcDbSpline
 62
7
  6
CONTINUOUS
 70
0
 71
3
 72
11
 73
7
 74
0
 42
0.0000001
 43
0.0000001
 44
0.0000000001
 40
0.0
 40
0.0
 40
0.0
 40
0.0
 40
0.2809916767
 40
0.5445341851
 40
0.7828938968
 40
1.0
 40
1.0
 40
1.0
 40
1.0
 10
74.5468380964
 20
490.2782871813
 30
0.0
 10
73.9143740654
 20
490.5170120996
 30
0.0
 10
72.6480414341
 20
490.8845169933
 30
0.0
 10
70.7522364057
 20
491.021752197
 30
0.0
 10
69.0282412584
 20
490.662449723
 30
0.0
 10
68.0894892278
 20
490.0319381073
 30
0.0
 10
67.7257454167
 20
489.6570930061
 30
0.0
  0
SPLINE
  5
47B
100
AcDbEntity
  8
0
100
AcDbSpline
 62
7
  6
CONTINUOUS
 70
0
 71
3
 72
11
 73
7
 74
0
 42
0.0000001
 43
0.0000001
 44
0.0000000001
 40
0.0
 40
0.0
 40
0.0
 40
0.0
 40
0.2358935872
 40
0.501883149
 40
0.7666523781
 40
1.0
 40
1.0
 40
1.0
 40
1.0
 10
68.4918210986
 20
474.0497845566
 30
0.0
 10
68.5909826018
 20
475.1100993011
 30
0.0
 10
69.0920406519
 20
477.3417689214
 30
0.0
 10
70.5080441232
 20
480.5215046373
 30
0.0
 10
72.4785071032
 20
483.3764135502
 30
0.0
 10
74.0979495277
 20
484.9636821994
 30
0.0
 10
74.9321577647
 20
485.6069929509
 30
0.0
  0
SPLINE
  5
47C
100
AcDbEntity
  8
0
100
AcDbSpline
 62
7
  6
CONTINUOUS
 70
0
 71
3
 72
10
 73
6
 74
0
 42
0.0000001
 43
0.0000001
 44
0.0000000001
 40
0.0
 40
0.0
 40
0.0
 40
0.0
 40
0.4723584447
 40
0.7381393966
 40
1.0
 40
1.0
 40
1.0
 40
1.0
 10
309.3507395991
 20
350.2685075534
 30
0.0
 10
310.3460711569
 20
349.6942681234
 30
0.0
 10
312.2543784352
 20
349.4246728211
 30
0.0
 10
314.6469655879
 20
349.849025769
 30
0.0
 10
315.8518908201
 20
350.3343231955
 30
0.0
 10
316.410827149
 20
350.6399246579
 30
0.0
  0
SPLINE
  5
47D
100
AcDbEntity
  8
0
100
AcDbSpline
 62
7
  6
CONTINUOUS
 70
0
 71
3
 72
11
 73
7
 74
0
 42
0.0000001
 43
0.0000001
 44
0.0000000001
 40
0.0
 40
0.0
 40
0.0
 40
0.0
 40
0.2749125295
 40
0.513892072
 40
0.7438300306
 40
1.0
 40
1.0
 40
1.0
 40
1.0
 10
74.5460376466
 20
490.2773796506
 30
0.0
 10
74.1910088628
 20
489.9177408555
 30
0.0
 10
73.6123930874
 20
489.1419821726
 30
0.0
 10
73.3159517873
 20
487.7461548936
 30
0.0
 10
73.8066785838
 20
486.4325426021
 30
0.0
 10
74.5244760634
 20
485.8426184014
 30
0.0
 10
74.9322211881
 20
485.6070469697
 30
0.0
  0
SPLINE
  5
47E
100
AcDbEntity
  8
0
100
AcDbSpline
 62
7
  6
CONTINUOUS
 70
0
 71
3
 72
9
 73
5
 74
0
 42
0.0000001
 43
0.0000001
 44
0.0000000001
 40
0.0
 40
0.0
 40
0.0
 40
0.0
 40
0.5035515592
 40
1.0
 40
1.0
 40
1.0
 40
1.0
 10
110.0092524023
 20
510.7518251622
 30
0.0
 10
103.3141245276
 20
508.945319644
 30
0.0
 10
90.3975573541
 20
503.6801189333
 30
0.0
 10
79.3515756649
 20
495.1403490571
 30
0.0
 10
74.5461744643
 20
490.2773027648
 30
0.0
  0
SPLINE
  5
47F
100
AcDbEntity
  8
0
100
AcDbSpline
 62
7
  6
CONTINUOUS
 70
0
 71
3
 72
11
 73
7
 74
0
 42
0.0000001
 43
0.0000001
 44
0.0000000001
 40
0.0
 40
0.0
 40
0.0
 40
0.0
 40
0.2311861863
 40
0.4896218653
 40
0.7531882777
 40
1.0
 40
1.0
 40
1.0
 40
1.0
 10
117.0692461494
 20
509.934723555
 30
0.0
 10
116.5849454995
 20
510.2142013643
 30
0.0
 10
115.4768922541
 20
510.6642699153
 30
0.0
 10
113.6836454287
 20
511.0273891158
 30
0.0
 10
111.8167386872
 20
511.087907982
 30
0.0
 10
110.5855494064
 20
510.9072318588
 30
0.0
 10
110.0091571369
 20
510.7519290127
 30
0.0
  0
SPLINE
  5
480
100
AcDbEntity
  8
0
100
AcDbSpline
 62
7
  6
CONTINUOUS
 70
0
 71
3
 72
13
 73
9
 74
0
 42
0.0000001
 43
0.0000001
 44
0.0000000001
 40
0.0
 40
0.0
 40
0.0
 40
0.0
 40
0.1402912757
 40
0.262598777
 40
0.3710781124
 40
0.4739869168
 40
0.7006388165
 40
1.0
 40
1.0
 40
1.0
 40
1.0
 10
351.87394859
 20
371.1144531794
 30
0.0
 10
352.0534210775
 20
371.2258423763
 30
0.0
 10
352.3747347269
 20
371.4604806778
 30
0.0
 10
352.7505430498
 20
371.8814984626
 30
0.0
 10
352.9676379071
 20
372.3443753579
 30
0.0
 10
353.0202065272
 20
373.0187373638
 30
0.0
 10
352.5342546936
 20
373.9061007772
 30
0.0
 10
351.8780687935
 20
374.3707464441
 30
0.0
 10
351.4877645601
 20
374.596186
 30
0.0
  0
SPLINE
  5
481
100
AcDbEntity
  8
0
100
AcDbSpline
 62
7
  6
CONTINUOUS
 70
0
 71
3
 72
9
 73
5
 74
0
 42
0.0000001
 43
0.0000001
 44
0.0000000001
 40
0.0
 40
0.0
 40
0.0
 40
0.0
 40
0.5386089789
 40
1.0
 40
1.0
 40
1.0
 40
1.0
 10
316.4107317429
 20
350.639984058
 30
0.0
 10
322.8608063468
 20
354.1691452928
 30
0.0
 10
334.7623258615
 20
360.856385682
 30
0.0
 10
346.520883981
 20
367.7955256353
 30
0.0
 10
351.8738115833
 20
371.1144823387
 30
0.0
  0
SPLINE
  5
482
100
AcDbEntity
  8
0
100
AcDbSpline
 62
7
  6
CONTINUOUS
 70
0
 71
3
 72
9
 73
5
 74
0
 42
0.0000001
 43
0.0000001
 44
0.0000000001
 40
0.0
 40
0.0
 40
0.0
 40
0.0
 40
0.2590205324
 40
1.0
 40
1.0
 40
1.0
 40
1.0
 10
121.6039261604
 20
473.0772703014
 30
0.0
 10
120.9052656186
 20
472.5934562101
 30
0.0
 10
118.2452666416
 20
470.6729017282
 30
0.0
 10
115.7389284807
 20
468.5347433208
 30
0.0
 10
114.0124986409
 20
466.8231208193
 30
0.0
  0
SPLINE
  5
483
100
AcDbEntity
  8
0
100
AcDbSpline
 62
7
  6
CONTINUOUS
 70
0
 71
3
 72
11
 73
7
 74
0
 42
0.0000001
 43
0.0000001
 44
0.0000000001
 40
0.0
 40
0.0
 40
0.0
 40
0.0
 40
0.2210520607
 40
0.4538085806
 40
0.7115225112
 40
1.0
 40
1.0
 40
1.0
 40
1.0
 10
63.9453800738
 20
482.6502284146
 30
0.0
 10
63.7890672139
 20
481.9081280565
 30
0.0
 10
63.7532566977
 20
480.3094340755
 30
0.0
 10
64.5892425198
 20
477.9687355555
 30
0.0
 10
66.2141297717
 20
475.8074607793
 30
0.0
 10
67.6743065876
 20
474.6076107604
 30
0.0
 10
68.4918191585
 20
474.0497638107
 30
0.0
  0
ELLIPSE
  5
484
100
AcDbEntity
  8
0
100
AcDbEllipse
 62
7
  6
CONTINUOUS
 10
471.0672925652
 20
256.3696631318
 30
0.0
 11
21.9474361245
 21
-6.1001842619
 31
0.0
 40
0.2932398668
 41
-1.8052859087
 42
-1.7853435867
  0
ELLIPSE
  5
485
100
AcDbEntity
  8
0
100
AcDbEllipse
 62
7
  6
CONTINUOUS
 10
470.2140549602
 20
257.9561798884
 30
0.0
 11
12.8967631182
 21
-0.1156929923
 31
0.0
 40
0.5681504167
 41
-2.0120490178
 42
-1.9815522855
  0
ELLIPSE
  5
486
100
AcDbEntity
  8
0
100
AcDbEllipse
 62
7
  6
CONTINUOUS
 10
469.5798585203
 20
258.6221495322
 30
0.0
 11
10.2576203849
 21
2.799267136
 31
0.0
 40
0.6885391451
 41
-2.2103630762
 42
-2.1602993747
  0
ELLIPSE
  5
487
100
AcDbEntity
  8
0
100
AcDbEllipse
 62
7
  6
CONTINUOUS
 10
469.9079743762
 20
257.004477229
 30
0.0
 11
22.3545996386
 21
-6.2133518799
 31
0.0
 40
0.2932399526
 41
-1.8041752696
 42
-1.7846019054
  0
ELLIPSE
  5
488
100
AcDbEntity
  8
0
100
AcDbEllipse
 62
7
  6
CONTINUOUS
 10
468.6207536532
 20
259.0515429387
 30
0.0
 11
11.5397331371
 21
1.5242341572
 31
0.0
 40
0.6453583998
 41
-2.1249971293
 42
-2.0850963356
  0
ELLIPSE
  5
489
100
AcDbEntity
  8
0
100
AcDbEllipse
 62
7
  6
CONTINUOUS
 10
468.1764484998
 20
259.5011386475
 30
0.0
 11
9.6073167944
 21
3.9181972862
 31
0.0
 40
0.7092527706
 41
-2.3052354541
 42
-2.2913158256
  0
ELLIPSE
  5
48A
100
AcDbEntity
  8
0
100
AcDbEllipse
 62
7
  6
CONTINUOUS
 10
458.6732634869
 20
267.254785041
 30
0.0
 11
-7.2385108499
 21
16.1803291634
 31
0.0
 40
0.2272994466
 41
-3.5389417743
 42
-3.5189288534
  0
ELLIPSE
  5
48B
100
AcDbEntity
  8
0
100
AcDbEllipse
 62
7
  6
CONTINUOUS
 10
453.8369812027
 20
270.6788494294
 30
0.0
 11
-12.1512704499
 21
19.2573957428
 31
0.0
 40
0.2320901386
 41
-3.6162830338
 42
-3.5968999248
  0
ENDSEC
  0
SECTION
  2
OBJECTS
  0
DICTIONARY
  5
C
100
AcDbDictionary
280
0
281
1
  3
ACAD_GROUP
350
D
  3
ACAD_MLINESTYLE
350
17
  3
ACAD_LAYOUT
350
1A
  3
ACAD_PLOTSETTINGS
350
19
  3
ACAD_PLOTSTYLENAME
350
E
  0
DICTIONARY
  5
D
102
{ACAD_REACTORS
330
C
102
}
100
AcDbDictionary
280
0
281
1
  0
ACDBDICTIONARYWDFLT
  5
E
102
{ACAD_REACTORS
330
C
102
}
100
AcDbDictionary
281
1
  3
Normal
350
F
100
AcDbDictionaryWithDefault
340
F
  0
DICTIONARY
  5
17
102
{ACAD_REACTORS
330
C
102
}
100
AcDbDictionary
280
0
281
1
  3
Standard
350
18
  0
DICTIONARY
  5
19
102
{ACAD_REACTORS
330
C
102
}
100
AcDbDictionary
281
1
  0
DICTIONARY
  5
1A
102
{ACAD_REACTORS
330
C
102
}
100
AcDbDictionary
281
1
  3
Model
350
48C
  3
Layout1
350
48D
  0
ACDBPLACEHOLDER
  5
F
102
{ACAD_REACTORS
330
E
102
}
  0
MLINESTYLE
  5
18
102
{ACAD_REACTORS
330
17
102
}
100
AcDbMlineStyle
  2
STANDARD
 70
0
  3

 62
256
 51
90.0
 52
90.0
 71
2
 49
0.5
 62
256
  6
BYLAYER
 49
-0.5
 62
256
  6
BYLAYER
  0
LAYOUT
  5
48C
102
{ACAD_REACTORS
330
1A
102
}
100
AcDbPlotSettings
  1

  2
none_device
  4

  6

 40
0.0
 41
0.0
 42
0.0
 43
0.0
 44
210.0
 45
297.0
 46
0.0
 47
0.0
 48
0.0
 49
0.0
140
0.0
141
0.0
142
1.0
143
1.0
 70
1024
 72
1
 73
0
 74
0
  7

 75
0
147
1.0
148
0.0
149
0.0
100
AcDbLayout
  1
Model
 70
0
 71
0
 10
0.0
 20
0.0
 11
210.0
 21
297.0
 12
0.0
 22
0.0
 32
0.0
 14
0.0
 24
0.0
 34
0.0
 15
0.0
 25
0.0
 35
0.0
146
0.0
 13
0.0
 23
0.0
 33
0.0
 16
1.0
 26
0.0
 36
0.0
 17
0.0
 27
1.0
 37
0.0
 76
0
330
210
345
0
346
0
  0
LAYOUT
  5
48D
102
{ACAD_REACTORS
330
1A
102
}
100
AcDbPlotSettings
  1

  2
none_device
  4

  6

 40
0.0
 41
0.0
 42
0.0
 43
0.0
 44
210.0
 45
297.0
 46
0.0
 47
0.0
 48
0.0
 49
0.0
140
0.0
141
0.0
142
1.0
143
1.0
 70
0
 72
1
 73
0
 74
0
  7

 75
0
147
1.0
148
0.0
149
0.0
100
AcDbLayout
  1
Layout1
 70
0
 71
1
 10
0.0
 20
0.0
 11
210.0
 21
297.0
 12
0.0
 22
0.0
 32
0.0
 14
0.0
 24
0.0
 34
0.0
 15
0.0
 25
0.0
 35
0.0
146
0.0
 13
0.0
 23
0.0
 33
0.0
 16
1.0
 26
0.0
 36
0.0
 17
0.0
 27
1.0
 37
0.0
 76
0
330
211
345
0
346
0
  0
ENDSEC
  0
EOF
