999
DXF file: Y:\001_SCHNEIDER_PARIS\maxime fuentes - génération CAD 2D\TRAVAIL\XACA2013_2D-Views\xaca2013_2d-views_3.dxf
999
Pro/ENGINEER 2018260 by Parametric Technology Corporation
  0
SECTION
  2
HEADER
  9
$ACADVER
  1
AC1027
  9
$DWGCODEPAGE
  3
ANSI_1252
  9
$EXTMAX
 10
558.8
 20
431.8
 30
0.0
  9
$EXTMIN
 10
0.0
 20
0.0
 30
0.0
  9
$LIMMIN
 10
0.0
 20
0.0
  9
$LIMMAX
 10
558.8
 20
431.8
  9
$VIEWCTR
 10
279.4
 20
215.9
  9
$VIEWSIZE
 40
431.8
  9
$CLAYER
  8
0
  9
$LTSCALE
 40
30.734
  9
$CELTYPE
  6
BYLAYER
  9
$DIMSCALE
 40
1.0
  9
$DIMASZ
 40
3.5
  9
$DIMEXO
 40
1.0
  9
$DIMDLI
 40
21.2344
  9
$DIMEXE
 40
3.0
  9
$DIMCEN
 40
5.0292
  9
$DIMLFAC
 40
1.0
  9
$DIMBLK
  1
_FILLED
  9
$DIMALT
 70
0
  9
$DIMALTF
 40
0.0393700787
  9
$DIMTXT
 40
4.0
  9
$DIMTOL
 70
1
  9
$DIMLIM
 70
0
  9
$DIMTFAC
 40
1.0
  9
$DIMTP
 40
0.0001
  9
$DIMTM
 40
0.0001
  9
$DIMGAP
 40
0.625
  9
$DIMDSEP
 70
46
  9
$AUNITS
 70
0
  9
$PDMODE
 70
0
  9
$PDSIZE
 40
0.01
  9
$HANDSEED
  5
393
  9
$TILEMODE
 70
1
  9
$MEASUREMENT
 70
1
  9
$INSUNITS
 70
4
  0
ENDSEC
  0
SECTION
  2
CLASSES
  0
CLASS
  1
ACDBDICTIONARYWDFLT
  2
AcDbDictionaryWithDefault
  3
AutoCAD 2000
 90
0
 91
1
280
0
281
0
  0
CLASS
  1
ACDBPLACEHOLDER
  2
AcDbPlaceHolder
  3
AutoCAD 2000
 90
0
 91
1
280
0
281
0
  0
CLASS
  1
LAYOUT
  2
AcDbLayout
  3
AutoCAD 2000
 90
0
 91
0
280
0
281
0
  0
ENDSEC
  0
SECTION
  2
TABLES
  0
TABLE
  2
VPORT
  5
8
100
AcDbSymbolTable
 70
2
  0
VPORT
  5
1F4
100
AcDbSymbolTableRecord
100
AcDbViewportTableRecord
  2
*ACTIVE
 70
0
 10
0.0
 20
0.0
 11
1.0
 21
1.0
 12
279.4
 22
215.9
 13
0.0
 23
0.0
 14
1.0
 24
1.0
 15
0.0
 25
0.0
 16
0.0
 26
0.0
 36
1.0
 17
0.0
 27
0.0
 37
0.0
 40
431.8
 41
1.2941176471
 42
50.0
 43
0.0
 44
0.0
 50
0.0
 51
0.0
 71
0
 72
100
 73
1
 74
1
 75
0
 76
0
 77
0
 78
0
  0
ENDTAB
  0
TABLE
  2
LTYPE
  5
5
100
AcDbSymbolTable
 70
6
  0
LTYPE
  5
14
100
AcDbSymbolTableRecord
100
AcDbLinetypeTableRecord
  2
BYBLOCK
 70
0
  3

 72
65
 73
0
 40
0.0
  0
LTYPE
  5
15
100
AcDbSymbolTableRecord
100
AcDbLinetypeTableRecord
  2
BYLAYER
 70
0
  3

 72
65
 73
0
 40
0.0
  0
LTYPE
  5
16
100
AcDbSymbolTableRecord
100
AcDbLinetypeTableRecord
  2
CONTINUOUS
 70
64
  3
Solid line
 72
65
 73
0
 40
0.0
  0
LTYPE
  5
1F5
100
AcDbSymbolTableRecord
100
AcDbLinetypeTableRecord
  2
CENTER
 70
64
  3
____ _ ____ _ ____ _ ____ _ ____ _ ____ _ ____
 72
65
 73
4
 40
0.6
 49
0.375
 74
0
 49
-0.075
 74
0
 49
0.075
 74
0
 49
-0.075
 74
0
  0
LTYPE
  5
1F6
100
AcDbSymbolTableRecord
100
AcDbLinetypeTableRecord
  2
HIDDEN
 70
64
  3
- - - - - - - - - - - - - - - - - - - -
 72
65
 73
2
 40
0.2
 49
0.1
 74
0
 49
-0.1
 74
0
  0
LTYPE
  5
1F7
100
AcDbSymbolTableRecord
100
AcDbLinetypeTableRecord
  2
PHANTOM
 70
64
  3
_____ _ _ _____ _ _ _____ _ _ _____
 72
65
 73
6
 40
0.8
 49
0.45
 74
0
 49
-0.05
 74
0
 49
0.1
 74
0
 49
-0.05
 74
0
 49
0.1
 74
0
 49
-0.05
 74
0
  0
LTYPE
  5
1F8
100
AcDbSymbolTableRecord
100
AcDbLinetypeTableRecord
  2
DOT
 70
64
  3
. . . . . . . . . . . . . . . . . . . .
 72
65
 73
2
 40
0.2
 49
0.1
 74
0
 49
-0.1
 74
0
  0
LTYPE
  5
1F9
100
AcDbSymbolTableRecord
100
AcDbLinetypeTableRecord
  2
DASHED
 70
64
  3
- - - - - - - - - - - - - - - - - - - -
 72
65
 73
2
 40
0.2
 49
0.1
 74
0
 49
-0.1
 74
0
  0
ENDTAB
  0
TABLE
  2
LAYER
  5
2
100
AcDbSymbolTable
 70
36
  0
LAYER
  5
10
100
AcDbSymbolTableRecord
100
AcDbLayerTableRecord
  2
0
 70
0
 62
7
  6
CONTINUOUS
370
-3
390
F
  0
LAYER
  5
1FA
100
AcDbSymbolTableRecord
100
AcDbLayerTableRecord
  2
DEFAULT_1
 70
0
 62
7
  6
CENTER
370
-3
390
F
  0
LAYER
  5
1FB
100
AcDbSymbolTableRecord
100
AcDbLayerTableRecord
  2
DEFAULT_2
 70
0
 62
8
  6
HIDDEN
370
-3
390
F
  0
LAYER
  5
1FC
100
AcDbSymbolTableRecord
100
AcDbLayerTableRecord
  2
DEFAULT_3
 70
0
 62
7
  6
PHANTOM
370
-3
390
F
  0
LAYER
  5
1FD
100
AcDbSymbolTableRecord
100
AcDbLayerTableRecord
  2
01_ALL_DTM_PLN
 70
0
 62
7
  6
CONTINUOUS
370
-3
390
F
  0
LAYER
  5
1FE
100
AcDbSymbolTableRecord
100
AcDbLayerTableRecord
  2
01__ASM_ALL_DTM_PLN
 70
0
 62
7
  6
CONTINUOUS
370
-3
390
F
  0
LAYER
  5
1FF
100
AcDbSymbolTableRecord
100
AcDbLayerTableRecord
  2
01__ASM_DEF_DTM_PLN
 70
0
 62
7
  6
CONTINUOUS
370
-3
390
F
  0
LAYER
  5
200
100
AcDbSymbolTableRecord
100
AcDbLayerTableRecord
  2
01___PRT_ALL_DTM_PLN
 70
0
 62
7
  6
CONTINUOUS
370
-3
390
F
  0
LAYER
  5
201
100
AcDbSymbolTableRecord
100
AcDbLayerTableRecord
  2
01___PRT_DEF_DTM_PLN
 70
0
 62
7
  6
CONTINUOUS
370
-3
390
F
  0
LAYER
  5
202
100
AcDbSymbolTableRecord
100
AcDbLayerTableRecord
  2
02_ALL_AXES
 70
0
 62
7
  6
CONTINUOUS
370
-3
390
F
  0
LAYER
  5
203
100
AcDbSymbolTableRecord
100
AcDbLayerTableRecord
  2
02__ASM_ALL_AXES
 70
0
 62
7
  6
CONTINUOUS
370
-3
390
F
  0
LAYER
  5
204
100
AcDbSymbolTableRecord
100
AcDbLayerTableRecord
  2
02___PRT_ALL_AXES
 70
0
 62
7
  6
CONTINUOUS
370
-3
390
F
  0
LAYER
  5
205
100
AcDbSymbolTableRecord
100
AcDbLayerTableRecord
  2
03_ALL_CURVES
 70
0
 62
7
  6
CONTINUOUS
370
-3
390
F
  0
LAYER
  5
206
100
AcDbSymbolTableRecord
100
AcDbLayerTableRecord
  2
03__ASM_ALL_CURVES
 70
0
 62
7
  6
CONTINUOUS
370
-3
390
F
  0
LAYER
  5
207
100
AcDbSymbolTableRecord
100
AcDbLayerTableRecord
  2
03___PRT_ALL_CURVES
 70
0
 62
7
  6
CONTINUOUS
370
-3
390
F
  0
LAYER
  5
208
100
AcDbSymbolTableRecord
100
AcDbLayerTableRecord
  2
04_ALL_DTM_PNT
 70
0
 62
7
  6
CONTINUOUS
370
-3
390
F
  0
LAYER
  5
209
100
AcDbSymbolTableRecord
100
AcDbLayerTableRecord
  2
04__ASM_ALL_DTM_PNT
 70
0
 62
7
  6
CONTINUOUS
370
-3
390
F
  0
LAYER
  5
20A
100
AcDbSymbolTableRecord
100
AcDbLayerTableRecord
  2
04___PRT_ALL_DTM_PNT
 70
0
 62
7
  6
CONTINUOUS
370
-3
390
F
  0
LAYER
  5
20B
100
AcDbSymbolTableRecord
100
AcDbLayerTableRecord
  2
05_ALL_DTM_CSYS
 70
0
 62
7
  6
CONTINUOUS
370
-3
390
F
  0
LAYER
  5
20C
100
AcDbSymbolTableRecord
100
AcDbLayerTableRecord
  2
05__ASM_ALL_DTM_CSYS
 70
0
 62
7
  6
CONTINUOUS
370
-3
390
F
  0
LAYER
  5
20D
100
AcDbSymbolTableRecord
100
AcDbLayerTableRecord
  2
05__ASM_DEF_DTM_CSYS
 70
0
 62
7
  6
CONTINUOUS
370
-3
390
F
  0
LAYER
  5
20E
100
AcDbSymbolTableRecord
100
AcDbLayerTableRecord
  2
05___PRT_ALL_DTM_CSYS
 70
0
 62
7
  6
CONTINUOUS
370
-3
390
F
  0
LAYER
  5
20F
100
AcDbSymbolTableRecord
100
AcDbLayerTableRecord
  2
05___PRT_DEF_DTM_CSYS
 70
0
 62
7
  6
CONTINUOUS
370
-3
390
F
  0
LAYER
  5
210
100
AcDbSymbolTableRecord
100
AcDbLayerTableRecord
  2
06_ALL_SURFS
 70
0
 62
7
  6
CONTINUOUS
370
-3
390
F
  0
LAYER
  5
211
100
AcDbSymbolTableRecord
100
AcDbLayerTableRecord
  2
06__ASM_ALL_SURFS
 70
0
 62
7
  6
CONTINUOUS
370
-3
390
F
  0
LAYER
  5
212
100
AcDbSymbolTableRecord
100
AcDbLayerTableRecord
  2
06___PRT_ALL_SURFS
 70
0
 62
7
  6
CONTINUOUS
370
-3
390
F
  0
LAYER
  5
213
100
AcDbSymbolTableRecord
100
AcDbLayerTableRecord
  2
07__ASM_ALL_SKELETONS
 70
0
 62
7
  6
CONTINUOUS
370
-3
390
F
  0
LAYER
  5
214
100
AcDbSymbolTableRecord
100
AcDbLayerTableRecord
  2
CLOSED_SHELL
 70
0
 62
7
  6
CONTINUOUS
370
-3
390
F
  0
LAYER
  5
215
100
AcDbSymbolTableRecord
100
AcDbLayerTableRecord
  2
Colour
 70
0
 62
7
  6
CONTINUOUS
370
-3
390
F
  0
LAYER
  5
216
100
AcDbSymbolTableRecord
100
AcDbLayerTableRecord
  2
ORIENTED_CLOSED_SHE
 70
0
 62
7
  6
CONTINUOUS
370
-3
390
F
  0
ENDTAB
  0
TABLE
  2
STYLE
  5
3
100
AcDbSymbolTable
 70
1
  0
STYLE
  5
11
100
AcDbSymbolTableRecord
100
AcDbTextStyleTableRecord
  2
STANDARD
 70
0
 40
0.0
 41
0.6
 50
0.0
 71
0
 42
0.2
  3
txt
  4

  0
STYLE
  5
217
100
AcDbSymbolTableRecord
100
AcDbTextStyleTableRecord
  2
TEXTSTYLE_1
 70
0
 40
0.0
 41
0.8
 50
0.0
 71
0
 42
0.2
  3
gdt
  4

  0
ENDTAB
  0
TABLE
  2
VIEW
  5
6
100
AcDbSymbolTable
 70
0
  0
ENDTAB
  0
TABLE
  2
UCS
  5
7
100
AcDbSymbolTable
 70
0
  0
ENDTAB
  0
TABLE
  2
APPID
  5
9
100
AcDbSymbolTable
 70
1
  0
APPID
  5
218
100
AcDbSymbolTableRecord
100
AcDbRegAppTableRecord
  2
ACAD
 70
0
  0
ENDTAB
  0
TABLE
  2
BLOCK_RECORD
  5
1
100
AcDbSymbolTable
 70
0
  0
BLOCK_RECORD
  5
219
100
AcDbSymbolTableRecord
100
AcDbBlockTableRecord
  2
*Model_Space
  0
BLOCK_RECORD
  5
21A
100
AcDbSymbolTableRecord
100
AcDbBlockTableRecord
  2
*Paper_Space
  0
BLOCK_RECORD
  5
21B
100
AcDbSymbolTableRecord
100
AcDbBlockTableRecord
  2
_FILLED
  0
ENDTAB
  0
TABLE
  2
DIMSTYLE
  5
A
100
AcDbSymbolTable
 70
1
100
AcDbDimStyleTable
 71
0
  0
DIMSTYLE
105
21C
100
AcDbSymbolTableRecord
100
AcDbDimStyleTableRecord
  2
STANDARD
 70
0
  3

  4

 40
1.0
 41
3.5
 42
1.0
 43
0.38
 44
3.0
 45
0.0
 46
0.0
 47
0.0001
 48
0.0001
140
4.0
141
0.09
142
0.0
143
25.4
144
1.0
145
0.0
146
1.0
147
0.625
 71
1.0
 72
0.0
 73
0
 74
0
 75
0
 76
0
 77
1
 78
8
 79
2
170
0
171
3
172
0
173
0
174
0
175
0
176
0
177
0
178
0
270
2
179
4
271
4
272
4
273
2
274
2
275
0
280
0
281
0
282
0
283
1
284
8
285
0
286
0
287
3
288
0
340
11
278
46
341
21B
342
21B
343
21B
344
21B
  0
ENDTAB
  0
ENDSEC
  0
SECTION
  2
BLOCKS
  0
BLOCK
  5
20
100
AcDbEntity
  8
0
100
AcDbBlockBegin
  2
*Model_Space
 70
0
 10
0.0
 20
0.0
 30
0.0
  3
*Model_Space
  1

  0
ENDBLK
  5
21
100
AcDbEntity
  8
0
100
AcDbBlockEnd
  0
BLOCK
  5
1C
100
AcDbEntity
  8
0
100
AcDbBlockBegin
  2
*Paper_Space
 70
0
 10
0.0
 20
0.0
 30
0.0
  3
*Paper_Space
  1

  0
ENDBLK
  5
1D
100
AcDbEntity
  8
0
100
AcDbBlockEnd
  0
BLOCK
  5
21D
100
AcDbEntity
  8
0
100
AcDbBlockBegin
  2
_FILLED
 70
64
 10
0.0
 20
0.0
  3
_FILLED
  1

  0
SOLID
  5
21E
100
AcDbEntity
  8
0
  6
BYBLOCK
 62
0
100
AcDbTrace
 10
0.0
 20
0.0
 11
-1.0
 21
0.2857142857
 12
-1.0
 22
-0.2857142857
 13
-1.0
 23
-0.2857142857
  0
ENDBLK
  5
21F
100
AcDbEntity
  8
0
  6
BYBLOCK
 62
0
100
AcDbBlockEnd
  0
ENDSEC
  0
SECTION
  2
ENTITIES
  0
LINE
  5
220
100
AcDbEntity
  8
0
100
AcDbLine
 62
7
  6
CONTINUOUS
 10
210.4342657645
 20
100.291852955
 11
213.0942657651
 21
100.291852955
  0
LINE
  5
221
100
AcDbEntity
  8
0
100
AcDbLine
 62
9
  6
CONTINUOUS
 10
219.4553136098
 20
105.2927268242
 11
211.8342657644
 21
105.291852955
  0
LINE
  5
222
100
AcDbEntity
  8
0
100
AcDbLine
 62
9
  6
CONTINUOUS
 10
210.4342657643
 20
105.2936091738
 11
211.8342657644
 21
105.291852955
  0
LINE
  5
223
100
AcDbEntity
  8
0
100
AcDbLine
 62
9
  6
CONTINUOUS
 10
189.1465427883
 20
106.0047700758
 11
180.7842657643
 21
106.220780691
  0
LINE
  5
224
100
AcDbEntity
  8
0
100
AcDbLine
 62
9
  6
CONTINUOUS
 10
210.4342657643
 20
105.2939183519
 11
189.1465427883
 21
106.0047678937
  0
LWPOLYLINE
  5
225
100
AcDbEntity
  8
0
100
AcDbPolyline
 62
9
  6
CONTINUOUS
 90
4
 70
0
 10
210.4342657643
 20
105.2939183519
 10
203.0688712654
 20
105.5407729197
 10
195.9072597084
 20
105.7799140924
 10
189.1465427883
 20
106.0047678937
  0
LINE
  5
226
100
AcDbEntity
  8
0
100
AcDbLine
 62
7
  6
CONTINUOUS
 10
210.4342657645
 20
100.2918529549
 11
185.5977306898
 21
101.2242711606
  0
LINE
  5
227
100
AcDbEntity
  8
0
100
AcDbLine
 62
7
  6
CONTINUOUS
 10
213.094265765
 20
100.2918529553
 11
219.4553136098
 21
101.9310107843
  0
LINE
  5
228
100
AcDbEntity
  8
0
100
AcDbLine
 62
7
  6
CONTINUOUS
 10
213.3342657644
 20
356.7599291664
 11
228.8377865419
 21
365.7108910607
  0
LINE
  5
229
100
AcDbEntity
  8
0
100
AcDbLine
 62
7
  6
CONTINUOUS
 10
214.8342657644
 20
354.161852955
 11
230.3377865418
 21
363.1128148493
  0
LINE
  5
22A
100
AcDbEntity
  8
0
100
AcDbLine
 62
9
  6
CONTINUOUS
 10
198.9212631459
 20
336.961852955
 11
198.187084039
 21
336.1639308953
  0
LINE
  5
22B
100
AcDbEntity
  8
0
100
AcDbLine
 62
9
  6
CONTINUOUS
 10
198.5954880551
 20
336.6069933028
 11
198.187084039
 21
336.1639308953
  0
LINE
  5
22C
100
AcDbEntity
  8
0
100
AcDbLine
 62
7
  6
CONTINUOUS
 10
178.3489843901
 20
320.3240283169
 11
192.2035588199
 21
334.1786027468
  0
LWPOLYLINE
  5
22D
100
AcDbEntity
  8
0
100
AcDbPolyline
 62
9
  6
CONTINUOUS
 90
3
 70
0
 10
174.8342657643
 20
311.8387469431
 10
175.1417722452
 20
311.9489594709
 10
176.0707590671
 20
312.2781720295
  0
LINE
  5
22E
100
AcDbEntity
  8
0
100
AcDbLine
 62
9
  6
CONTINUOUS
 10
179.6877907808
 20
313.5604542854
 11
185.3251384326
 21
315.561852955
  0
LINE
  5
22F
100
AcDbEntity
  8
0
100
AcDbLine
 62
9
  6
CONTINUOUS
 10
182.2713839038
 20
314.4783017289
 11
185.3251384326
 21
315.561852955
  0
LINE
  5
230
100
AcDbEntity
  8
0
100
AcDbLine
 62
9
  6
CONTINUOUS
 10
174.8342657643
 20
311.8387469431
 11
178.8704110406
 21
313.2704654702
  0
LINE
  5
231
100
AcDbEntity
  8
0
100
AcDbLine
 62
9
  6
CONTINUOUS
 10
177.0972513556
 20
312.6416983741
 11
177.5890572956
 21
312.8158686213
  0
LINE
  5
232
100
AcDbEntity
  8
0
100
AcDbLine
 62
9
  6
CONTINUOUS
 10
211.8342657643
 20
175.1418529557
 11
213.0942657651
 21
175.1418529557
  0
LINE
  5
233
100
AcDbEntity
  8
0
100
AcDbLine
 62
7
  6
CONTINUOUS
 10
189.1465427883
 20
175.2318529545
 11
195.5074964287
 21
175.2318529545
  0
LINE
  5
234
100
AcDbEntity
  8
0
100
AcDbLine
 62
9
  6
CONTINUOUS
 10
205.5172224836
 20
175.2318529545
 11
211.8342657643
 21
175.2318529545
  0
LINE
  5
235
100
AcDbEntity
  8
0
100
AcDbLine
 62
9
  6
CONTINUOUS
 10
199.4891870424
 20
326.381073477
 11
193.3342657644
 21
320.2261522014
  0
LINE
  5
236
100
AcDbEntity
  8
0
100
AcDbLine
 62
9
  6
CONTINUOUS
 10
182.1960720609
 20
195.9582743665
 11
178.1547705298
 21
198.2915208933
  0
LINE
  5
237
100
AcDbEntity
  8
0
100
AcDbLine
 62
7
  6
CONTINUOUS
 10
230.0077581129
 20
194.406852955
 11
231.8382027722
 21
194.406852955
  0
LINE
  5
238
100
AcDbEntity
  8
0
100
AcDbLine
 62
9
  6
CONTINUOUS
 10
213.0944923252
 20
194.6210084808
 11
211.8342657643
 21
194.6210084808
  0
LINE
  5
239
100
AcDbEntity
  8
0
100
AcDbLine
 62
9
  6
CONTINUOUS
 10
211.8342657659
 20
195.0126062491
 11
184.2611771295
 21
195.0126060585
  0
LINE
  5
23A
100
AcDbEntity
  8
0
100
AcDbLine
 62
7
  6
CONTINUOUS
 10
180.3667160907
 20
177.8962697214
 11
177.9613143092
 21
189.2127953681
  0
LWPOLYLINE
  5
23B
100
AcDbEntity
  8
0
100
AcDbPolyline
 62
7
  6
CONTINUOUS
 90
3
 70
0
 10
180.3667702567
 20
177.8961964961
 10
180.386767805
 20
177.7991594859
 10
180.4501181502
 20
177.4391015127
  0
LWPOLYLINE
  5
23C
100
AcDbEntity
  8
0
100
AcDbPolyline
 62
7
  6
CONTINUOUS
 90
3
 70
0
 10
174.8342657643
 20
249.2635268014
 10
174.8690476628
 20
248.7371758205
 10
174.9608026647
 20
248.2653868172
  0
LINE
  5
23D
100
AcDbEntity
  8
0
100
AcDbLine
 62
7
  6
CONTINUOUS
 10
174.8342657643
 20
249.2636666877
 11
174.8342657643
 21
311.838746943
  0
LINE
  5
23E
100
AcDbEntity
  8
0
100
AcDbLine
 62
9
  6
CONTINUOUS
 10
174.9816260611
 20
249.1834582834
 11
174.9607049038
 21
248.2657681324
  0
LINE
  5
23F
100
AcDbEntity
  8
0
100
AcDbLine
 62
7
  6
CONTINUOUS
 10
234.6827815841
 20
198.331852955
 11
234.7382027722
 21
198.331852955
  0
LINE
  5
240
100
AcDbEntity
  8
0
100
AcDbLine
 62
9
  6
CONTINUOUS
 10
177.2630859176
 20
221.3699525371
 11
175.918502444
 21
222.5666259116
  0
LINE
  5
241
100
AcDbEntity
  8
0
100
AcDbLine
 62
7
  6
CONTINUOUS
 10
178.6751638537
 20
233.851137351
 11
174.9608025689
 21
248.2653868073
  0
LINE
  5
242
100
AcDbEntity
  8
0
100
AcDbLine
 62
7
  6
CONTINUOUS
 10
178.1547703985
 20
198.2915217508
 11
174.9415914449
 21
219.2897402434
  0
LINE
  5
243
100
AcDbEntity
  8
0
100
AcDbLine
 62
7
  6
CONTINUOUS
 10
180.4498266886
 20
177.4407234579
 11
180.7842657655
 21
175.2465602639
  0
LINE
  5
244
100
AcDbEntity
  8
0
100
AcDbLine
 62
7
  6
CONTINUOUS
 10
180.7842657643
 20
175.2450784209
 11
180.7842657643
 21
106.2207779556
  0
LINE
  5
245
100
AcDbEntity
  8
0
100
AcDbLine
 62
7
  6
CONTINUOUS
 10
201.5092657644
 20
359.811852955
 11
200.0725549666
 21
348.269464512
  0
LWPOLYLINE
  5
246
100
AcDbEntity
  8
0
100
AcDbPolyline
 62
7
  6
CONTINUOUS
 90
4
 70
0
 10
177.972256229
 20
192.5900943083
 10
177.8200410812
 20
191.6076897764
 10
177.822038958
 20
190.1233405358
 10
177.9613681516
 20
189.2128068309
  0
LINE
  5
247
100
AcDbEntity
  8
0
100
AcDbLine
 62
9
  6
CONTINUOUS
 10
210.4342657643
 20
213.561852955
 11
210.0217584027
 21
213.5596823097
  0
LINE
  5
248
100
AcDbEntity
  8
0
100
AcDbLine
 62
9
  6
CONTINUOUS
 10
210.0217584027
 20
213.5596823097
 11
203.6710444808
 21
213.5575116645
  0
LINE
  5
249
100
AcDbEntity
  8
0
100
AcDbLine
 62
9
  6
CONTINUOUS
 10
203.6710635901
 20
213.561852955
 11
195.4832976577
 21
213.5620600793
  0
LINE
  5
24A
100
AcDbEntity
  8
0
100
AcDbLine
 62
9
  6
CONTINUOUS
 10
211.8342657643
 20
213.561852955
 11
210.4342657643
 21
213.561852955
  0
LINE
  5
24B
100
AcDbEntity
  8
0
100
AcDbLine
 62
9
  6
CONTINUOUS
 10
213.0942657643
 20
214.1001640067
 11
211.8342657643
 21
214.1001640067
  0
LINE
  5
24C
100
AcDbEntity
  8
0
100
AcDbLine
 62
9
  6
CONTINUOUS
 10
185.9589641497
 20
229.6458332894
 11
178.6751638537
 21
233.851137351
  0
LINE
  5
24D
100
AcDbEntity
  8
0
100
AcDbLine
 62
9
  6
CONTINUOUS
 10
189.1465427883
 20
106.0047700758
 11
189.1465427883
 21
175.2310242097
  0
LINE
  5
24E
100
AcDbEntity
  8
0
100
AcDbLine
 62
9
  6
CONTINUOUS
 10
190.5087876143
 20
213.6760906209
 11
190.5087876143
 21
219.0561886048
  0
LINE
  5
24F
100
AcDbEntity
  8
0
100
AcDbLine
 62
9
  6
CONTINUOUS
 10
190.5087876152
 20
226.0585472694
 11
190.5087876152
 21
315.561852955
  0
LINE
  5
250
100
AcDbEntity
  8
0
100
AcDbLine
 62
7
  6
CONTINUOUS
 10
193.3342657643
 20
315.5618529539
 11
193.3342657643
 21
324.4361894972
  0
LINE
  5
251
100
AcDbEntity
  8
0
100
AcDbLine
 62
7
  6
CONTINUOUS
 10
200.0725549654
 20
348.2694645028
 11
200.0342757351
 21
347.661852955
  0
LINE
  5
252
100
AcDbEntity
  8
0
100
AcDbLine
 62
7
  6
CONTINUOUS
 10
200.0842757351
 20
347.661852955
 11
200.0842757351
 21
336.961852955
  0
LINE
  5
253
100
AcDbEntity
  8
0
100
AcDbLine
 62
7
  6
CONTINUOUS
 10
203.1842657643
 20
365.311852955
 11
203.1842657643
 21
359.811852955
  0
LINE
  5
254
100
AcDbEntity
  8
0
100
AcDbLine
 62
9
  6
CONTINUOUS
 10
203.6710635901
 20
213.561852955
 11
203.6710253716
 21
326.285162306
  0
LINE
  5
255
100
AcDbEntity
  8
0
100
AcDbLine
 62
7
  6
CONTINUOUS
 10
204.1842657643
 20
373.811852955
 11
204.1842657643
 21
368.311852955
  0
LINE
  5
256
100
AcDbEntity
  8
0
100
AcDbLine
 62
7
  6
CONTINUOUS
 10
205.0842657643
 20
382.311852955
 11
205.0842657643
 21
376.811852955
  0
LINE
  5
257
100
AcDbEntity
  8
0
100
AcDbLine
 62
7
  6
CONTINUOUS
 10
206.1842657643
 20
390.811852955
 11
206.1842657643
 21
385.311852955
  0
LWPOLYLINE
  5
258
100
AcDbEntity
  8
0
100
AcDbPolyline
 62
7
  6
CONTINUOUS
 90
5
 70
0
 10
175.9186062548
 20
222.5665318094
 10
175.6900376675
 20
222.2874875376
 10
175.122293041
 20
221.2223980336
 10
174.8980963634
 20
220.036438228
 10
174.9416157873
 20
219.2898898986
  0
LINE
  5
259
100
AcDbEntity
  8
0
100
AcDbLine
 62
9
  6
CONTINUOUS
 10
210.7529003286
 20
175.231852955
 11
210.4342709031
 21
213.561852955
  0
LINE
  5
25A
100
AcDbEntity
  8
0
100
AcDbLine
 62
7
  6
CONTINUOUS
 10
210.3342657643
 20
335.7726275248
 11
210.3342657643
 21
351.5618529548
  0
LINE
  5
25B
100
AcDbEntity
  8
0
100
AcDbLine
 62
9
  6
CONTINUOUS
 10
210.4342657643
 20
105.2936091738
 11
210.4342657643
 21
175.231852955
  0
LINE
  5
25C
100
AcDbEntity
  8
0
100
AcDbLine
 62
9
  6
CONTINUOUS
 10
210.4342657643
 20
213.561852955
 11
210.4343037035
 21
335.616500959
  0
LINE
  5
25D
100
AcDbEntity
  8
0
100
AcDbLine
 62
9
  6
CONTINUOUS
 10
211.8342657643
 20
175.1418529557
 11
211.8342657643
 21
197.4643427921
  0
LINE
  5
25E
100
AcDbEntity
  8
0
100
AcDbLine
 62
7
  6
CONTINUOUS
 10
211.8342657643
 20
197.4643427921
 11
211.8342657643
 21
214.1001640067
  0
LINE
  5
25F
100
AcDbEntity
  8
0
100
AcDbLine
 62
7
  6
CONTINUOUS
 10
211.8342657643
 20
319.310240269
 11
211.8342657643
 21
320.6134656401
  0
LINE
  5
260
100
AcDbEntity
  8
0
100
AcDbLine
 62
7
  6
CONTINUOUS
 10
213.0942657641
 20
335.674609786
 11
213.0942657641
 21
100.291852955
  0
LINE
  5
261
100
AcDbEntity
  8
0
100
AcDbLine
 62
7
  6
CONTINUOUS
 10
213.3342657643
 20
335.7572877919
 11
213.3342657643
 21
351.5618643676
  0
LINE
  5
262
100
AcDbEntity
  8
0
100
AcDbLine
 62
7
  6
CONTINUOUS
 10
217.4842657643
 20
390.811852955
 11
217.4842657643
 21
385.311852955
  0
LINE
  5
263
100
AcDbEntity
  8
0
100
AcDbLine
 62
7
  6
CONTINUOUS
 10
218.5842657643
 20
382.311852955
 11
218.5842657643
 21
376.811852955
  0
LINE
  5
264
100
AcDbEntity
  8
0
100
AcDbLine
 62
9
  6
CONTINUOUS
 10
219.4553136098
 20
174.3251955057
 11
219.4553136098
 21
105.2927268242
  0
LINE
  5
265
100
AcDbEntity
  8
0
100
AcDbLine
 62
7
  6
CONTINUOUS
 10
219.4842657643
 20
373.811852955
 11
219.4842657643
 21
368.311852955
  0
LINE
  5
266
100
AcDbEntity
  8
0
100
AcDbLine
 62
7
  6
CONTINUOUS
 10
220.4842657643
 20
365.311852955
 11
220.4842657643
 21
360.887983591
  0
LINE
  5
267
100
AcDbEntity
  8
0
100
AcDbLine
 62
7
  6
CONTINUOUS
 10
223.5842557935
 20
347.661852955
 11
223.5842557935
 21
336.0084600776
  0
LINE
  5
268
100
AcDbEntity
  8
0
100
AcDbLine
 62
7
  6
CONTINUOUS
 10
225.8342657643
 20
110.1621198239
 11
225.8342657643
 21
179.2087698636
  0
LINE
  5
269
100
AcDbEntity
  8
0
100
AcDbLine
 62
7
  6
CONTINUOUS
 10
225.83426583
 20
178.0279720977
 11
225.8342657643
 21
178.0263527625
  0
LWPOLYLINE
  5
26A
100
AcDbEntity
  8
0
100
AcDbPolyline
 62
7
  6
CONTINUOUS
 90
3
 70
0
 10
225.834265847
 20
178.0279544485
 10
225.8352685073
 20
178.1963572006
 10
225.8576188063
 20
178.8819839101
  0
LINE
  5
26B
100
AcDbEntity
  8
0
100
AcDbLine
 62
7
  6
CONTINUOUS
 10
259.2842657643
 20
254.581852955
 11
257.2842657648
 21
254.581852955
  0
LINE
  5
26C
100
AcDbEntity
  8
0
100
AcDbLine
 62
7
  6
CONTINUOUS
 10
257.2842657643
 20
255.481852955
 11
243.8094637425
 21
255.481852955
  0
LINE
  5
26D
100
AcDbEntity
  8
0
100
AcDbLine
 62
7
  6
CONTINUOUS
 10
223.5959765632
 20
348.2694645028
 11
223.6342557936
 21
347.661852955
  0
LINE
  5
26E
100
AcDbEntity
  8
0
100
AcDbLine
 62
9
  6
CONTINUOUS
 10
231.8382027722
 20
195.6302517877
 11
231.8382027722
 21
194.406852955
  0
LINE
  5
26F
100
AcDbEntity
  8
0
100
AcDbLine
 62
7
  6
CONTINUOUS
 10
233.8382027722
 20
197.108147341
 11
233.8382027722
 21
196.406852955
  0
LINE
  5
270
100
AcDbEntity
  8
0
100
AcDbLine
 62
9
  6
CONTINUOUS
 10
234.7382027715
 20
198.4279069058
 11
234.7382027715
 21
198.331852955
  0
LINE
  5
271
100
AcDbEntity
  8
0
100
AcDbLine
 62
7
  6
CONTINUOUS
 10
235.2382027722
 20
199.4820883925
 11
235.2382027722
 21
198.831852955
  0
LINE
  5
272
100
AcDbEntity
  8
0
100
AcDbLine
 62
7
  6
CONTINUOUS
 10
225.8573381979
 20
178.8765771269
 11
225.8777052792
 21
179.2090221484
  0
LINE
  5
273
100
AcDbEntity
  8
0
100
AcDbLine
 62
7
  6
CONTINUOUS
 10
225.8778429386
 20
179.2087698636
 11
225.8779239544
 21
179.2099655925
  0
LWPOLYLINE
  5
274
100
AcDbEntity
  8
0
100
AcDbPolyline
 62
7
  6
CONTINUOUS
 90
11
 70
0
 10
225.8779239544
 20
179.2099655925
 10
226.0126504286
 20
180.6735776651
 10
226.2378845045
 20
182.4702032239
 10
226.4816597459
 20
184.1805416234
 10
226.7510404858
 20
185.8473188915
 10
227.0550142913
 20
187.4588382446
 10
227.3963358808
 20
188.97439601
 10
227.7822057205
 20
190.3536968588
 10
228.2162080687
 20
191.5668400959
 10
228.7154792911
 20
192.6468462104
 10
229.3507523103
 20
193.6778646752
  0
LINE
  5
275
100
AcDbEntity
  8
0
100
AcDbLine
 62
7
  6
CONTINUOUS
 10
226.0103503997
 20
180.6433293285
 11
226.0886979137
 21
181.2801859456
  0
LWPOLYLINE
  5
276
100
AcDbEntity
  8
0
100
AcDbPolyline
 62
7
  6
CONTINUOUS
 90
3
 70
0
 10
226.4785096992
 20
184.1577797207
 10
226.7514369331
 20
185.8283882168
 10
227.0048687196
 20
187.1929911297
  0
LINE
  5
277
100
AcDbEntity
  8
0
100
AcDbLine
 62
7
  6
CONTINUOUS
 10
222.3242719496
 20
358.4862100423
 11
223.595976562
 21
348.269464512
  0
LINE
  5
278
100
AcDbEntity
  8
0
100
AcDbLine
 62
9
  6
CONTINUOUS
 10
247.7280552381
 20
287.9158268612
 11
247.7280552381
 21
289.1972314236
  0
LINE
  5
279
100
AcDbEntity
  8
0
100
AcDbLine
 62
7
  6
CONTINUOUS
 10
248.4842657643
 20
287.9158268619
 11
248.4842657643
 21
289.1972314236
  0
LINE
  5
27A
100
AcDbEntity
  8
0
100
AcDbLine
 62
7
  6
CONTINUOUS
 10
248.3994612663
 20
286.7540695006
 11
235.8756997709
 21
201.4281451583
  0
LINE
  5
27B
100
AcDbEntity
  8
0
100
AcDbLine
 62
7
  6
CONTINUOUS
 10
235.6389957342
 20
200.4419148088
 11
235.8756576186
 21
201.427858006
  0
LINE
  5
27C
100
AcDbEntity
  8
0
100
AcDbLine
 62
7
  6
CONTINUOUS
 10
227.7815173297
 20
190.3512361897
 11
228.2132254438
 21
191.5542185971
  0
LINE
  5
27D
100
AcDbEntity
  8
0
100
AcDbLine
 62
7
  6
CONTINUOUS
 10
257.2842657643
 20
254.5819393049
 11
257.2842657643
 21
286.0817666051
  0
LINE
  5
27E
100
AcDbEntity
  8
0
100
AcDbLine
 62
7
  6
CONTINUOUS
 10
259.2842657643
 20
286.0817621431
 11
259.2842657643
 21
254.5819437669
  0
LINE
  5
27F
100
AcDbEntity
  8
0
100
AcDbLine
 62
7
  6
CONTINUOUS
 10
235.2382027722
 20
199.4828148727
 11
235.6389957342
 21
200.4419148088
  0
LWPOLYLINE
  5
280
100
AcDbEntity
  8
0
100
AcDbPolyline
 62
7
  6
CONTINUOUS
 90
3
 70
0
 10
228.2132254438
 20
191.5542185971
 10
228.7097352054
 20
192.6361735399
 10
228.7130125686
 20
192.6415102822
  0
LWPOLYLINE
  5
281
100
AcDbEntity
  8
0
100
AcDbPolyline
 62
7
  6
CONTINUOUS
 90
4
 70
0
 10
234.2504779059
 20
197.5826002201
 10
234.9672851936
 20
198.8249440811
 10
235.6555256095
 20
200.4943568834
 10
235.8756701525
 20
201.427943408
  0
LINE
  5
282
100
AcDbEntity
  8
0
100
AcDbLine
 62
7
  6
CONTINUOUS
 10
234.2504690884
 20
197.5825959648
 11
234.6982844603
 21
198.3549964336
  0
LINE
  5
283
100
AcDbEntity
  8
0
100
AcDbLine
 62
7
  6
CONTINUOUS
 10
229.3505579673
 20
193.6775985214
 11
229.3507523101
 21
193.6778646749
  0
LWPOLYLINE
  5
284
100
AcDbEntity
  8
0
100
AcDbPolyline
 62
7
  6
CONTINUOUS
 90
5
 70
0
 10
229.3505579673
 20
193.6775985214
 10
229.5794529134
 20
193.9711385848
 10
229.9185296005
 20
194.3340537168
 10
230.2972597448
 20
194.6430498575
 10
230.4133823635
 20
194.718588002
  0
LINE
  5
285
100
AcDbEntity
  8
0
100
AcDbLine
 62
7
  6
CONTINUOUS
 10
257.2842657643
 20
285.181852955
 11
248.1686982808
 21
285.181852955
  0
LINE
  5
286
100
AcDbEntity
  8
0
100
AcDbLine
 62
7
  6
CONTINUOUS
 10
259.2842657643
 20
286.081852955
 11
257.2842657645
 21
286.081852955
  0
LINE
  5
287
100
AcDbEntity
  8
0
100
AcDbLine
 62
9
  6
CONTINUOUS
 10
248.4842657643
 20
287.9158268613
 11
247.728055238
 21
287.9158268613
  0
LINE
  5
288
100
AcDbEntity
  8
0
100
AcDbLine
 62
9
  6
CONTINUOUS
 10
247.728055238
 20
289.1972314236
 11
248.4842657643
 21
289.1972314236
  0
LINE
  5
289
100
AcDbEntity
  8
0
100
AcDbLine
 62
9
  6
CONTINUOUS
 10
247.5580435089
 20
290.7266173112
 11
239.5685185935
 21
326.224367097
  0
LINE
  5
28A
100
AcDbEntity
  8
0
100
AcDbLine
 62
7
  6
CONTINUOUS
 10
239.1688969043
 20
331.6881921714
 11
248.2909902133
 21
290.9451025221
  0
LINE
  5
28B
100
AcDbEntity
  8
0
100
AcDbLine
 62
9
  6
CONTINUOUS
 10
237.1043409028
 20
332.6131724864
 11
236.8010589135
 21
333.9807890864
  0
LINE
  5
28C
100
AcDbEntity
  8
0
100
AcDbLine
 62
7
  6
CONTINUOUS
 10
261.2842657643
 20
283.4334212329
 11
261.2842657643
 21
257.2302846772
  0
LINE
  5
28D
100
AcDbEntity
  8
0
100
AcDbLine
 62
7
  6
CONTINUOUS
 10
234.0802661272
 20
197.3576036212
 11
234.2504710894
 21
197.5825994626
  0
LINE
  5
28E
100
AcDbEntity
  8
0
100
AcDbLine
 62
7
  6
CONTINUOUS
 10
229.347286488
 20
193.674379339
 11
229.6837081152
 21
194.0903208276
  0
LINE
  5
28F
100
AcDbEntity
  8
0
100
AcDbLine
 62
7
  6
CONTINUOUS
 10
233.8504486542
 20
197.1115876807
 11
233.9154866478
 21
197.1812098157
  0
LINE
  5
290
100
AcDbEntity
  8
0
100
AcDbLine
 62
7
  6
CONTINUOUS
 10
234.0083838134
 20
197.2806547504
 11
234.0802661272
 21
197.3576036212
  0
LINE
  5
291
100
AcDbEntity
  8
0
100
AcDbLine
 62
7
  6
CONTINUOUS
 10
229.6837081152
 20
194.0903208276
 11
230.0167139632
 21
194.406852955
  0
LWPOLYLINE
  5
292
100
AcDbEntity
  8
0
100
AcDbPolyline
 62
7
  6
CONTINUOUS
 90
5
 70
0
 10
233.3527140314
 20
196.6911959938
 10
233.6318587878
 20
196.9130742805
 10
233.9637440173
 20
197.2268312706
 10
234.2078826686
 20
197.5211962296
 10
234.2504699149
 20
197.5826604259
  0
LINE
  5
293
100
AcDbEntity
  8
0
100
AcDbLine
 62
9
  6
CONTINUOUS
 10
233.3527140314
 20
196.6911959938
 11
233.357416985
 21
196.6947008669
  0
LWPOLYLINE
  5
294
100
AcDbEntity
  8
0
100
AcDbPolyline
 62
7
  6
CONTINUOUS
 90
4
 70
0
 10
230.413785094
 20
194.7179228573
 10
231.4496370048
 20
195.3659873595
 10
232.7643522198
 20
196.2601280525
 10
233.3577528877
 20
196.6939723827
  0
LINE
  5
295
100
AcDbEntity
  8
0
100
AcDbLine
 62
9
  6
CONTINUOUS
 10
214.8342657644
 20
354.161852955
 11
213.3342657644
 21
356.7599291664
  0
LINE
  5
296
100
AcDbEntity
  8
0
100
AcDbLine
 62
9
  6
CONTINUOUS
 10
215.4143927832
 20
357.9608910607
 11
216.9143927832
 21
355.3628148493
  0
LINE
  5
297
100
AcDbEntity
  8
0
100
AcDbLine
 62
7
  6
CONTINUOUS
 10
212.4636752862
 20
319.478890043
 11
211.8342657643
 21
319.310240269
  0
LINE
  5
298
100
AcDbEntity
  8
0
100
AcDbLine
 62
9
  6
CONTINUOUS
 10
185.3251384326
 20
315.561852955
 11
193.3342657644
 21
315.561852955
  0
LINE
  5
299
100
AcDbEntity
  8
0
100
AcDbLine
 62
7
  6
CONTINUOUS
 10
180.8490259917
 20
315.961852955
 11
193.3342657643
 21
315.961852955
  0
LINE
  5
29A
100
AcDbEntity
  8
0
100
AcDbLine
 62
7
  6
CONTINUOUS
 10
211.8342657643
 20
320.6134656401
 11
212.4636752864
 21
320.4448158678
  0
LINE
  5
29B
100
AcDbEntity
  8
0
100
AcDbLine
 62
9
  6
CONTINUOUS
 10
210.4342657643
 20
326.223007992
 11
213.0942657643
 21
326.224367097
  0
LINE
  5
29C
100
AcDbEntity
  8
0
100
AcDbLine
 62
7
  6
CONTINUOUS
 10
193.3342657643
 20
323.961852955
 11
185.694836964
 21
323.961852955
  0
LINE
  5
29D
100
AcDbEntity
  8
0
100
AcDbLine
 62
9
  6
CONTINUOUS
 10
193.3343678772
 20
324.171059302
 11
185.429917356
 21
324.171059302
  0
LINE
  5
29E
100
AcDbEntity
  8
0
100
AcDbLine
 62
9
  6
CONTINUOUS
 10
213.0942657643
 20
326.224367097
 11
239.5685185935
 21
326.224367097
  0
LINE
  5
29F
100
AcDbEntity
  8
0
100
AcDbLine
 62
9
  6
CONTINUOUS
 10
203.6710253716
 20
326.285162306
 11
199.4891870424
 21
326.381073477
  0
LINE
  5
2A0
100
AcDbEntity
  8
0
100
AcDbLine
 62
9
  6
CONTINUOUS
 10
210.434286501
 20
335.6164974726
 11
210.8598411862
 21
335.6165009589
  0
LINE
  5
2A1
100
AcDbEntity
  8
0
100
AcDbLine
 62
9
  6
CONTINUOUS
 10
213.0942657643
 20
335.6180922776
 11
212.8123003072
 21
335.6180922776
  0
LINE
  5
2A2
100
AcDbEntity
  8
0
100
AcDbLine
 62
7
  6
CONTINUOUS
 10
198.9213274737
 20
336.961852955
 11
200.0342657643
 21
336.961852955
  0
LINE
  5
2A3
100
AcDbEntity
  8
0
100
AcDbLine
 62
9
  6
CONTINUOUS
 10
213.3342657643
 20
338.605301962
 11
210.3342657643
 21
338.605301962
  0
LINE
  5
2A4
100
AcDbEntity
  8
0
100
AcDbLine
 62
7
  6
CONTINUOUS
 10
223.6341887595
 20
336.0083982438
 11
223.5842557935
 21
336.0093780893
  0
LINE
  5
2A5
100
AcDbEntity
  8
0
100
AcDbLine
 62
9
  6
CONTINUOUS
 10
213.3662981635
 20
335.6010653868
 11
213.0942657643
 21
335.618092278
  0
LINE
  5
2A6
100
AcDbEntity
  8
0
100
AcDbLine
 62
9
  6
CONTINUOUS
 10
213.3659424917
 20
335.5955715745
 11
213.0942657643
 21
335.618092278
  0
LINE
  5
2A7
100
AcDbEntity
  8
0
100
AcDbLine
 62
7
  6
CONTINUOUS
 10
200.0342657638
 20
336.961852955
 11
200.0842757351
 21
336.9570132726
  0
LINE
  5
2A8
100
AcDbEntity
  8
0
100
AcDbLine
 62
7
  6
CONTINUOUS
 10
223.6342116596
 20
347.661852955
 11
213.3342657643
 21
347.661852955
  0
LINE
  5
2A9
100
AcDbEntity
  8
0
100
AcDbLine
 62
7
  6
CONTINUOUS
 10
210.3342657643
 20
347.661852955
 11
200.034319869
 21
347.661852955
  0
LINE
  5
2AA
100
AcDbEntity
  8
0
100
AcDbLine
 62
9
  6
CONTINUOUS
 10
223.595976562
 20
348.269464512
 11
213.3342657643
 21
348.269464512
  0
LINE
  5
2AB
100
AcDbEntity
  8
0
100
AcDbLine
 62
9
  6
CONTINUOUS
 10
210.3342657643
 20
348.269464512
 11
200.0725549666
 21
348.269464512
  0
LINE
  5
2AC
100
AcDbEntity
  8
0
100
AcDbLine
 62
9
  6
CONTINUOUS
 10
210.3342657643
 20
351.5618643676
 11
213.3342657643
 21
351.5618643676
  0
LINE
  5
2AD
100
AcDbEntity
  8
0
100
AcDbLine
 62
7
  6
CONTINUOUS
 10
201.5099264081
 20
359.811852955
 11
218.6203528271
 21
359.811852955
  0
LINE
  5
2AE
100
AcDbEntity
  8
0
100
AcDbLine
 62
7
  6
CONTINUOUS
 10
220.4842657643
 20
365.311852955
 11
203.1842657643
 21
365.311852955
  0
LINE
  5
2AF
100
AcDbEntity
  8
0
100
AcDbLine
 62
7
  6
CONTINUOUS
 10
203.1842657643
 20
368.311852955
 11
220.4835960441
 21
368.311852955
  0
LINE
  5
2B0
100
AcDbEntity
  8
0
100
AcDbLine
 62
7
  6
CONTINUOUS
 10
219.4842657643
 20
373.811852955
 11
204.1842657643
 21
373.811852955
  0
LINE
  5
2B1
100
AcDbEntity
  8
0
100
AcDbLine
 62
7
  6
CONTINUOUS
 10
204.1842657643
 20
376.811852955
 11
219.4842219249
 21
376.811852955
  0
LINE
  5
2B2
100
AcDbEntity
  8
0
100
AcDbLine
 62
7
  6
CONTINUOUS
 10
218.5842657643
 20
382.311852955
 11
205.0842657643
 21
382.311852955
  0
LINE
  5
2B3
100
AcDbEntity
  8
0
100
AcDbLine
 62
7
  6
CONTINUOUS
 10
205.0842657643
 20
385.311852955
 11
218.5842270822
 21
385.311852955
  0
LINE
  5
2B4
100
AcDbEntity
  8
0
100
AcDbLine
 62
7
  6
CONTINUOUS
 10
217.4842657643
 20
390.811852955
 11
206.1842657643
 21
390.811852955
  0
LINE
  5
2B5
100
AcDbEntity
  8
0
100
AcDbLine
 62
7
  6
CONTINUOUS
 10
217.4842657643
 20
393.811852955
 11
206.1842657643
 21
393.811852955
  0
ARC
  5
2B6
100
AcDbEntity
  8
0
100
AcDbCircle
 62
9
  6
CONTINUOUS
 10
202.5795165774
 20
-171.1653933712
 40
384.7926850095
100
AcDbArc
 50
91.0566901459
 51
91.7952778057
  0
ARC
  5
2B7
100
AcDbEntity
  8
0
100
AcDbCircle
 62
9
  6
CONTINUOUS
 10
201.1700863386
 20
142.9150166743
 40
193.0716471969
100
AcDbArc
 50
79.2736375016
 51
86.3782510306
  0
ARC
  5
2B8
100
AcDbEntity
  8
0
100
AcDbCircle
 62
7
  6
CONTINUOUS
 10
201.1642657601
 20
146.334795309
 40
191.0000000182
100
AcDbArc
 50
79.2467595429
 51
83.2438506603
  0
ARC
  5
2B9
100
AcDbEntity
  8
0
100
AcDbCircle
 62
9
  6
CONTINUOUS
 10
219.3356530751
 20
152.7949183706
 40
23.2021586067
100
AcDbArc
 50
99.8030871405
 51
105.6044823963
  0
ARC
  5
2BA
100
AcDbEntity
  8
0
100
AcDbCircle
 62
7
  6
CONTINUOUS
 10
162.7342657644
 20
195.9318529549
 40
15.6
100
AcDbArc
 50
347.6306008711
 51
8.6999968141
  0
ARC
  5
2BB
100
AcDbEntity
  8
0
100
AcDbCircle
 62
9
  6
CONTINUOUS
 10
195.6742417867
 20
213.5087802042
 40
13.3125950761
100
AcDbArc
 50
177.5359475432
 51
182.1023816544
  0
ARC
  5
2BC
100
AcDbEntity
  8
0
100
AcDbCircle
 62
7
  6
CONTINUOUS
 10
166.7642657643
 20
230.781852955
 40
12.3
100
AcDbArc
 50
318.0944485088
 51
14.45
  0
ARC
  5
2BD
100
AcDbEntity
  8
0
100
AcDbCircle
 62
9
  6
CONTINUOUS
 10
192.8682883726
 20
213.6310438578
 40
11.8507698317
100
AcDbArc
 50
177.5486221349
 51
183.1512881463
  0
ARC
  5
2BE
100
AcDbEntity
  8
0
100
AcDbCircle
 62
7
  6
CONTINUOUS
 10
217.3342657643
 20
110.1621198247
 40
8.5
100
AcDbArc
 50
284.4500000011
 51
359.9999999946
  0
ARC
  5
2BF
100
AcDbEntity
  8
0
100
AcDbCircle
 62
9
  6
CONTINUOUS
 10
187.692152356
 20
192.1652044205
 40
8.4658894229
100
AcDbArc
 50
173.6566508146
 51
190.4625523032
  0
ARC
  5
2C0
100
AcDbEntity
  8
0
100
AcDbCircle
 62
9
  6
CONTINUOUS
 10
178.5134261963
 20
194.8053634901
 40
5.7514857365
100
AcDbArc
 50
2.0649939593
 51
5.4895477207
  0
ARC
  5
2C1
100
AcDbEntity
  8
0
100
AcDbCircle
 62
7
  6
CONTINUOUS
 10
185.7844960532
 20
106.2207779556
 40
4.9999959786
100
AcDbArc
 50
180.0
 51
267.85
  0
ARC
  5
2C2
100
AcDbEntity
  8
0
100
AcDbCircle
 62
9
  6
CONTINUOUS
 10
176.9125930962
 20
178.9859754794
 40
3.7820804075
100
AcDbArc
 50
23.4325326446
 51
29.460240709
  0
ARC
  5
2C3
100
AcDbEntity
  8
0
100
AcDbCircle
 62
9
  6
CONTINUOUS
 10
178.3972557438
 20
250.19760092
 40
3.5629922
100
AcDbArc
 50
180.0639736058
 51
196.5369759351
  0
ARC
  5
2C4
100
AcDbEntity
  8
0
100
AcDbCircle
 62
9
  6
CONTINUOUS
 10
178.6582848302
 20
195.5696762475
 40
3.5590655108
100
AcDbArc
 50
2.8310415567
 51
6.2683618528
  0
ARC
  5
2C5
100
AcDbEntity
  8
0
100
AcDbCircle
 62
9
  6
CONTINUOUS
 10
176.5072445811
 20
249.1497817244
 40
1.5259426632
100
AcDbArc
 50
176.8259967937
 51
178.7397612495
  0
ARC
  5
2C6
100
AcDbEntity
  8
0
100
AcDbCircle
 62
9
  6
CONTINUOUS
 10
203.8471424223
 20
683.5175260115
 40
508.2884167502
100
AcDbArc
 50
269.6226384165
 51
270.1882567219
  0
ARC
  5
2C7
100
AcDbEntity
  8
0
100
AcDbCircle
 62
9
  6
CONTINUOUS
 10
202.4413427898
 20
626.48096528
 40
412.977331776
100
AcDbArc
 50
268.3442668282
 51
269.0346072983
  0
ARC
  5
2C8
100
AcDbEntity
  8
0
100
AcDbCircle
 62
9
  6
CONTINUOUS
 10
210.4553776559
 20
696.5172077218
 40
370.2942003957
100
AcDbArc
 50
268.9501984973
 51
269.996733348
  0
ARC
  5
2C9
100
AcDbEntity
  8
0
100
AcDbCircle
 62
9
  6
CONTINUOUS
 10
210.4694418029
 20
543.9811840454
 40
208.3647062278
100
AcDbArc
 50
268.5414009778
 51
269.9488151655
  0
ARC
  5
2CA
100
AcDbEntity
  8
0
100
AcDbCircle
 62
9
  6
CONTINUOUS
 10
220.7800628477
 20
322.725136851
 40
127.5657346161
100
AcDbArc
 50
274.110396876
 51
274.35213196
  0
ARC
  5
2CB
100
AcDbEntity
  8
0
100
AcDbCircle
 62
7
  6
CONTINUOUS
 10
211.8623990425
 20
456.9036425486
 40
120.5235988629
100
AcDbArc
 50
264.3719230612
 51
269.2692943086
  0
ARC
  5
2CC
100
AcDbEntity
  8
0
100
AcDbCircle
 62
9
  6
CONTINUOUS
 10
178.2528389721
 20
325.8306745819
 40
112.8853980373
100
AcDbArc
 50
271.4124747933
 51
272.0904671713
  0
ARC
  5
2CD
100
AcDbEntity
  8
0
100
AcDbCircle
 62
9
  6
CONTINUOUS
 10
218.0651871589
 20
321.1755865853
 40
22.0880861927
100
AcDbArc
 50
13.2131804536
 51
13.8956417766
  0
ARC
  5
2CE
100
AcDbEntity
  8
0
100
AcDbCircle
 62
9
  6
CONTINUOUS
 10
221.8834682487
 20
322.1247376384
 40
18.1536059638
100
AcDbArc
 50
13.8817620457
 51
15.1519201753
  0
ARC
  5
2CF
100
AcDbEntity
  8
0
100
AcDbCircle
 62
9
  6
CONTINUOUS
 10
203.7912794236
 20
343.2462333349
 40
16.0593898264
100
AcDbArc
 50
224.8514045929
 51
226.7015209533
  0
ARC
  5
2D0
100
AcDbEntity
  8
0
100
AcDbCircle
 62
7
  6
CONTINUOUS
 10
186.8342657643
 20
311.838746943
 40
12.0
100
AcDbArc
 50
135.000000001
 51
180.0
  0
ARC
  5
2D1
100
AcDbEntity
  8
0
100
AcDbCircle
 62
9
  6
CONTINUOUS
 10
229.0120469578
 20
324.2163537363
 40
10.7227374787
100
AcDbArc
 50
18.6337819002
 51
19.5938608453
  0
ARC
  5
2D2
100
AcDbEntity
  8
0
100
AcDbCircle
 62
7
  6
CONTINUOUS
 10
198.9213274737
 20
327.4614528675
 40
9.4999526514
100
AcDbArc
 50
90.0
 51
135.0
  0
ARC
  5
2D3
100
AcDbEntity
  8
0
100
AcDbCircle
 62
9
  6
CONTINUOUS
 10
197.9034338514
 20
327.0041598661
 40
9.1033856565
100
AcDbArc
 50
128.4584232994
 51
134.9707008463
  0
ARC
  5
2D4
100
AcDbEntity
  8
0
100
AcDbCircle
 62
7
  6
CONTINUOUS
 10
216.3342657643
 20
351.563776744
 40
6.0
100
AcDbArc
 50
120.0
 51
180.0183708357
  0
ARC
  5
2D5
100
AcDbEntity
  8
0
100
AcDbCircle
 62
7
  6
CONTINUOUS
 10
185.6946881115
 20
320.3032837469
 40
3.6585803053
100
AcDbArc
 50
89.997582399
 51
91.2206245085
  0
ARC
  5
2D6
100
AcDbEntity
  8
0
100
AcDbCircle
 62
7
  6
CONTINUOUS
 10
216.3342657643
 20
351.563776744
 40
3.0
100
AcDbArc
 50
120.0
 51
180.036741666
  0
ARC
  5
2D7
100
AcDbEntity
  8
0
100
AcDbCircle
 62
7
  6
CONTINUOUS
 10
229.5877865419
 20
364.411852955
 40
1.5
100
AcDbArc
 50
299.999999996
 51
119.999999996
  0
ARC
  5
2D8
100
AcDbEntity
  8
0
100
AcDbCircle
 62
7
  6
CONTINUOUS
 10
220.4842657643
 20
366.811852955
 40
1.5
100
AcDbArc
 50
270.0
 51
89.9999999859
  0
ARC
  5
2D9
100
AcDbEntity
  8
0
100
AcDbCircle
 62
7
  6
CONTINUOUS
 10
203.1842657643
 20
366.811852955
 40
1.5
100
AcDbArc
 50
90.0
 51
270.0
  0
ARC
  5
2DA
100
AcDbEntity
  8
0
100
AcDbCircle
 62
7
  6
CONTINUOUS
 10
219.4842657643
 20
375.311852955
 40
1.5
100
AcDbArc
 50
270.0
 51
89.9999999859
  0
ARC
  5
2DB
100
AcDbEntity
  8
0
100
AcDbCircle
 62
7
  6
CONTINUOUS
 10
204.1842657643
 20
375.311852955
 40
1.5
100
AcDbArc
 50
90.0000000106
 51
270.0
  0
ARC
  5
2DC
100
AcDbEntity
  8
0
100
AcDbCircle
 62
7
  6
CONTINUOUS
 10
218.5842657643
 20
383.811852955
 40
1.5
100
AcDbArc
 50
270.0
 51
90.0
  0
ARC
  5
2DD
100
AcDbEntity
  8
0
100
AcDbCircle
 62
7
  6
CONTINUOUS
 10
205.0842657643
 20
383.811852955
 40
1.5
100
AcDbArc
 50
90.0000000025
 51
270.0
  0
ARC
  5
2DE
100
AcDbEntity
  8
0
100
AcDbCircle
 62
7
  6
CONTINUOUS
 10
206.1842657643
 20
392.311852955
 40
1.5
100
AcDbArc
 50
90.0
 51
270.0
  0
ARC
  5
2DF
100
AcDbEntity
  8
0
100
AcDbCircle
 62
7
  6
CONTINUOUS
 10
217.4842657643
 20
392.311852955
 40
1.5
100
AcDbArc
 50
270.0
 51
89.9999999859
  0
ARC
  5
2E0
100
AcDbEntity
  8
0
100
AcDbCircle
 62
9
  6
CONTINUOUS
 10
181.0982613541
 20
315.5641607656
 40
0.5369271135
100
AcDbArc
 50
168.9693962696
 51
175.0055706481
  0
ARC
  5
2E1
100
AcDbEntity
  8
0
100
AcDbCircle
 62
7
  6
CONTINUOUS
 10
212.3342657643
 20
319.961852955
 40
0.5
100
AcDbArc
 50
284.9999999619
 51
75.0000000397
  0
ARC
  5
2E2
100
AcDbEntity
  8
0
100
AcDbCircle
 62
7
  6
CONTINUOUS
 10
213.2385878007
 20
335.910341031
 40
0.1850353571
100
AcDbArc
 50
303.9131022312
 51
307.1170539726
  0
ARC
  5
2E3
100
AcDbEntity
  8
0
100
AcDbCircle
 62
9
  6
CONTINUOUS
 10
299.3777320293
 20
172.2310961906
 40
79.9498481424
100
AcDbArc
 50
177.2298587569
 51
178.4990993875
  0
ARC
  5
2E4
100
AcDbEntity
  8
0
100
AcDbCircle
 62
9
  6
CONTINUOUS
 10
295.5474522322
 20
160.8495593631
 40
77.1536012864
100
AcDbArc
 50
168.6271078353
 51
169.9732708284
  0
ARC
  5
2E5
100
AcDbEntity
  8
0
100
AcDbCircle
 62
9
  6
CONTINUOUS
 10
240.4199152141
 20
216.8711236977
 40
50.0132956307
100
AcDbArc
 50
183.6627852562
 51
183.9356453316
  0
ARC
  5
2E6
100
AcDbEntity
  8
0
100
AcDbCircle
 62
9
  6
CONTINUOUS
 10
242.5112332391
 20
178.7851766051
 40
16.9856883675
100
AcDbArc
 50
179.7740386836
 51
181.1840059404
  0
ARC
  5
2E7
100
AcDbEntity
  8
0
100
AcDbCircle
 62
9
  6
CONTINUOUS
 10
240.9564731108
 20
178.7524951684
 40
15.4305848975
100
AcDbArc
 50
181.181971385
 51
182.6786469497
  0
ARC
  5
2E8
100
AcDbEntity
  8
0
100
AcDbCircle
 62
9
  6
CONTINUOUS
 10
239.3937681096
 20
178.6788570444
 40
13.866145961
100
AcDbArc
 50
182.6764737862
 51
184.2767879406
  0
ARC
  5
2E9
100
AcDbEntity
  8
0
100
AcDbCircle
 62
9
  6
CONTINUOUS
 10
234.1367689894
 20
189.8727826209
 40
6.8502149537
100
AcDbArc
 50
139.2095397729
 51
141.7857636956
  0
ARC
  5
2EA
100
AcDbEntity
  8
0
100
AcDbCircle
 62
7
  6
CONTINUOUS
 10
231.8382027723
 20
196.406852955
 40
2.0
100
AcDbArc
 50
269.999999998
 51
360.0
  0
ARC
  5
2EB
100
AcDbEntity
  8
0
100
AcDbCircle
 62
7
  6
CONTINUOUS
 10
259.2842657643
 20
257.2302138979
 40
2.0
100
AcDbArc
 50
270.0
 51
360.0
  0
ARC
  5
2EC
100
AcDbEntity
  8
0
100
AcDbCircle
 62
7
  6
CONTINUOUS
 10
234.7382027722
 20
198.831852955
 40
0.5
100
AcDbArc
 50
270.0
 51
360.0
  0
ARC
  5
2ED
100
AcDbEntity
  8
0
100
AcDbCircle
 62
9
  6
CONTINUOUS
 10
263.6731296015
 20
324.9117264508
 40
60.0178208773
100
AcDbArc
 50
177.461626515
 51
178.6887403351
  0
ARC
  5
2EE
100
AcDbEntity
  8
0
100
AcDbCircle
 62
9
  6
CONTINUOUS
 10
247.4332338872
 20
326.1074402987
 40
43.7315967111
100
AcDbArc
 50
173.9455406135
 51
174.1385881994
  0
ARC
  5
2EF
100
AcDbEntity
  8
0
100
AcDbCircle
 62
7
  6
CONTINUOUS
 10
240.4842657643
 20
287.9158268612
 40
8.0
100
AcDbArc
 50
351.6500000001
 51
360.0
  0
ARC
  5
2F0
100
AcDbEntity
  8
0
100
AcDbCircle
 62
7
  6
CONTINUOUS
 10
240.4842657643
 20
289.1972314236
 40
8.0
100
AcDbArc
 50
0.0
 51
12.62
  0
ARC
  5
2F1
100
AcDbEntity
  8
0
100
AcDbCircle
 62
9
  6
CONTINUOUS
 10
240.7417169699
 20
289.1947488201
 40
6.9863387093
100
AcDbArc
 50
0.0203601218
 51
12.6659416838
  0
ARC
  5
2F2
100
AcDbEntity
  8
0
100
AcDbCircle
 62
9
  6
CONTINUOUS
 10
240.7546260932
 20
287.9166666502
 40
6.9734291954
100
AcDbArc
 50
351.6110051894
 51
359.9931000423
  0
ARC
  5
2F3
100
AcDbEntity
  8
0
100
AcDbCircle
 62
7
  6
CONTINUOUS
 10
236.2412210056
 20
331.0334364204
 40
2.9999989826
100
AcDbArc
 50
12.62
 51
79.2467595429
  0
ARC
  5
2F4
100
AcDbEntity
  8
0
100
AcDbCircle
 62
9
  6
CONTINUOUS
 10
236.6118722997
 20
329.7156284514
 40
2.9262216985
100
AcDbArc
 50
12.621353097
 51
29.7791259098
  0
ARC
  5
2F5
100
AcDbEntity
  8
0
100
AcDbCircle
 62
7
  6
CONTINUOUS
 10
259.2842657643
 20
283.4334920121
 40
2.0
100
AcDbArc
 50
0.0
 51
90.0
  0
ARC
  5
2F6
100
AcDbEntity
  8
0
100
AcDbCircle
 62
9
  6
CONTINUOUS
 10
204.2393965621
 20
2382.9807340327
 40
2067.505359867
100
AcDbArc
 50
269.343857302
 51
269.4758243178
  0
ARC
  5
2F7
100
AcDbEntity
  8
0
100
AcDbCircle
 62
9
  6
CONTINUOUS
 10
619.9728705258
 20
720.001991564
 40
666.8028201403
100
AcDbArc
 50
228.4094679698
 51
228.6142998595
  0
SPLINE
  5
2F8
100
AcDbEntity
  8
0
100
AcDbSpline
 62
9
  6
CONTINUOUS
 70
0
 71
3
 72
14
 73
10
 74
0
 42
0.0000001
 43
0.0000001
 44
0.0000000001
 40
0.0
 40
0.0
 40
0.0
 40
0.0
 40
0.0822351312
 40
0.1730419992
 40
0.277723838
 40
0.3982143994
 40
0.5337498711
 40
0.6817840261
 40
1.0
 40
1.0
 40
1.0
 40
1.0
 10
210.3342657643
 20
336.3553019619
 30
0.0
 10
210.3342657643
 20
336.4049970068
 30
0.0
 10
210.356266448
 20
336.5103574951
 30
0.0
 10
210.4478704834
 20
336.6541150359
 30
0.0
 10
210.5908260055
 20
336.7832275695
 30
0.0
 10
210.779170657
 20
336.8950547746
 30
0.0
 10
211.0064744056
 20
336.9864148913
 30
0.0
 10
211.358816701
 20
337.0789346706
 30
0.0
 10
211.6419664772
 20
337.1053019621
 30
0.0
 10
211.8342657643
 20
337.1053019621
 30
0.0
  0
SPLINE
  5
2F9
100
AcDbEntity
  8
0
100
AcDbSpline
 62
9
  6
CONTINUOUS
 70
0
 71
3
 72
14
 73
10
 74
0
 42
0.0000001
 43
0.0000001
 44
0.0000000001
 40
0.0
 40
0.0
 40
0.0
 40
0.0
 40
0.3182159739
 40
0.4662501288
 40
0.6017856006
 40
0.722276162
 40
0.8269580008
 40
0.9177648688
 40
1.0
 40
1.0
 40
1.0
 40
1.0
 10
211.8342657643
 20
337.1053019621
 30
0.0
 10
212.0265650514
 20
337.1053019621
 30
0.0
 10
212.3097148276
 20
337.0789346706
 30
0.0
 10
212.6620571229
 20
336.9864148914
 30
0.0
 10
212.8893608715
 20
336.8950547746
 30
0.0
 10
213.077705523
 20
336.7832275695
 30
0.0
 10
213.2206610451
 20
336.654115036
 30
0.0
 10
213.3122650806
 20
336.5103574952
 30
0.0
 10
213.3342657643
 20
336.404997007
 30
0.0
 10
213.3342657643
 20
336.3553019621
 30
0.0
  0
SPLINE
  5
2FA
100
AcDbEntity
  8
0
100
AcDbSpline
 62
7
  6
CONTINUOUS
 70
0
 71
3
 72
9
 73
5
 74
0
 42
0.0000001
 43
0.0000001
 44
0.0000000001
 40
0.0
 40
0.0
 40
0.0
 40
0.0
 40
0.2048124683
 40
1.0
 40
1.0
 40
1.0
 40
1.0
 10
210.2842618737
 20
335.835903555
 30
0.0
 10
210.2842621513
 20
335.8305779829
 30
0.0
 10
210.2890832867
 20
335.8044383267
 30
0.0
 10
210.3101557359
 20
335.7849442506
 30
0.0
 10
210.3267268527
 20
335.7725781482
 30
0.0
  0
SPLINE
  5
2FB
100
AcDbEntity
  8
0
100
AcDbSpline
 62
7
  6
CONTINUOUS
 70
0
 71
3
 72
8
 73
4
 74
0
 42
0.0000001
 43
0.0000001
 44
0.0000000001
 40
0.0
 40
0.0
 40
0.0
 40
0.0
 40
1.0
 40
1.0
 40
1.0
 40
1.0
 10
210.3267268527
 20
335.7725781482
 30
0.0
 10
210.3362559279
 20
335.7654671296
 30
0.0
 10
210.3463572282
 20
335.7591063309
 30
0.0
 10
210.3566962347
 20
335.7532348059
 30
0.0
  0
SPLINE
  5
2FC
100
AcDbEntity
  8
0
100
AcDbSpline
 62
7
  6
CONTINUOUS
 70
0
 71
3
 72
9
 73
5
 74
0
 42
0.0000001
 43
0.0000001
 44
0.0000000001
 40
0.0
 40
0.0
 40
0.0
 40
0.0
 40
0.185712828
 40
1.0
 40
1.0
 40
1.0
 40
1.0
 10
210.3566962347
 20
335.7532348059
 30
0.0
 10
210.373700312
 20
335.7435781852
 30
0.0
 10
210.4692089597
 20
335.6986465649
 30
0.0
 10
210.5722119341
 20
335.6725239815
 30
0.0
 10
210.6559507198
 20
335.6541030991
 30
0.0
  0
SPLINE
  5
2FD
100
AcDbEntity
  8
0
100
AcDbSpline
 62
7
  6
CONTINUOUS
 70
0
 71
3
 72
9
 73
5
 74
0
 42
0.0000001
 43
0.0000001
 44
0.0000000001
 40
0.0
 40
0.0
 40
0.0
 40
0.0
 40
0.2304127038
 40
1.0
 40
1.0
 40
1.0
 40
1.0
 10
210.6559507198
 20
335.6541030991
 30
0.0
 10
210.6715040884
 20
335.6506816646
 30
0.0
 10
210.7391455275
 20
335.6364667446
 30
0.0
 10
210.8072733633
 20
335.6246188303
 30
0.0
 10
210.8598411859
 20
335.616500959
 30
0.0
  0
SPLINE
  5
2FE
100
AcDbEntity
  8
0
100
AcDbSpline
 62
7
  6
CONTINUOUS
 70
0
 71
3
 72
9
 73
5
 74
0
 42
0.0000001
 43
0.0000001
 44
0.0000000001
 40
0.0
 40
0.0
 40
0.0
 40
0.0
 40
0.3736812968
 40
1.0
 40
1.0
 40
1.0
 40
1.0
 10
213.3487527078
 20
336.3742893995
 30
0.0
 10
214.6247809277
 20
336.3085868981
 30
0.0
 10
218.04056396
 20
336.152429239
 30
0.0
 10
221.4586493801
 20
336.0523420774
 30
0.0
 10
223.5997677767
 20
336.0090991181
 30
0.0
  0
SPLINE
  5
2FF
100
AcDbEntity
  8
0
100
AcDbSpline
 62
7
  6
CONTINUOUS
 70
0
 71
3
 72
9
 73
5
 74
0
 42
0.0000001
 43
0.0000001
 44
0.0000000001
 40
0.0
 40
0.0
 40
0.0
 40
0.0
 40
0.2133363898
 40
1.0
 40
1.0
 40
1.0
 40
1.0
 10
210.8598411859
 20
335.616500959
 30
0.0
 10
210.9285708069
 20
335.6058872758
 30
0.0
 10
211.2515041649
 20
335.561543211
 30
0.0
 10
211.5778257911
 20
335.5388916909
 30
0.0
 10
211.8342657643
 20
335.5388916909
 30
0.0
  0
SPLINE
  5
300
100
AcDbEntity
  8
0
100
AcDbSpline
 62
7
  6
CONTINUOUS
 70
0
 71
3
 72
9
 73
5
 74
0
 42
0.0000001
 43
0.0000001
 44
0.0000000001
 40
0.0
 40
0.0
 40
0.0
 40
0.0
 40
0.3252567373
 40
1.0
 40
1.0
 40
1.0
 40
1.0
 10
213.0942657651
 20
335.6746097862
 30
0.0
 10
213.1221175149
 20
335.6799259158
 30
0.0
 10
213.2067597693
 20
335.6987569022
 30
0.0
 10
213.2930404807
 20
335.7239199954
 30
0.0
 10
213.341825484
 20
335.7567830155
 30
0.0
  0
SPLINE
  5
301
100
AcDbEntity
  8
0
100
AcDbSpline
 62
7
  6
CONTINUOUS
 70
0
 71
3
 72
9
 73
5
 74
0
 42
0.0000001
 43
0.0000001
 44
0.0000000001
 40
0.0
 40
0.0
 40
0.0
 40
0.0
 40
0.3077061382
 40
1.0
 40
1.0
 40
1.0
 40
1.0
 10
213.3502465284
 20
335.7627930323
 30
0.0
 10
213.3555449294
 20
335.7668105835
 30
0.0
 10
213.371924197
 20
335.7804840119
 30
0.0
 10
213.3845024738
 20
335.8015141844
 30
0.0
 10
213.3844936584
 20
335.8164742335
 30
0.0
  0
SPLINE
  5
302
100
AcDbEntity
  8
0
100
AcDbSpline
 62
7
  6
CONTINUOUS
 70
0
 71
3
 72
9
 73
5
 74
0
 42
0.0000001
 43
0.0000001
 44
0.0000000001
 40
0.0
 40
0.0
 40
0.0
 40
0.0
 40
0.2804969986
 40
1.0
 40
1.0
 40
1.0
 40
1.0
 10
212.8123003244
 20
335.6180922885
 30
0.0
 10
212.8388759803
 20
335.6222164906
 30
0.0
 10
212.9334623643
 20
335.6378613214
 30
0.0
 10
213.0275007472
 20
335.6572491608
 30
0.0
 10
213.0942657651
 20
335.6746097862
 30
0.0
  0
SPLINE
  5
303
100
AcDbEntity
  8
0
100
AcDbSpline
 62
7
  6
CONTINUOUS
 70
0
 71
3
 72
9
 73
5
 74
0
 42
0.0000001
 43
0.0000001
 44
0.0000000001
 40
0.0
 40
0.0
 40
0.0
 40
0.0
 40
0.2795752596
 40
1.0
 40
1.0
 40
1.0
 40
1.0
 10
211.8342657643
 20
335.5398043019
 30
0.0
 10
211.9257550496
 20
335.5398043019
 30
0.0
 10
212.2529583854
 20
335.5488149201
 30
0.0
 10
212.5793343361
 20
335.581938938
 30
0.0
 10
212.8123003244
 20
335.6180922885
 30
0.0
  0
SPLINE
  5
304
100
AcDbEntity
  8
0
100
AcDbSpline
 62
7
  6
CONTINUOUS
 70
0
 71
3
 72
14
 73
10
 74
0
 42
0.0000001
 43
0.0000001
 44
0.0000000001
 40
0.0
 40
0.0
 40
0.0
 40
0.0
 40
0.4356233507
 40
0.6074869353
 40
0.7484708311
 40
0.8583724807
 40
0.9369827137
 40
0.9841974313
 40
1.0
 40
1.0
 40
1.0
 40
1.0
 10
181.247215885
 20
175.2318529788
 30
0.0
 10
181.1799325105
 20
175.23185237
 30
0.0
 10
181.0859777152
 20
175.2327716136
 30
0.0
 10
180.9706877803
 20
175.2365431452
 30
0.0
 10
180.9049107559
 20
175.238871987
 30
0.0
 10
180.8554904027
 20
175.2428452455
 30
0.0
 10
180.8159936412
 20
175.242512457
 30
0.0
 10
180.7997426168
 20
175.2489543993
 30
0.0
 10
180.7842830387
 20
175.2449313419
 30
0.0
 10
180.7842469967
 20
175.2473718314
 30
0.0
  0
SPLINE
  5
305
100
AcDbEntity
  8
0
100
AcDbSpline
 62
7
  6
CONTINUOUS
 70
0
 71
3
 72
9
 73
5
 74
0
 42
0.0000001
 43
0.0000001
 44
0.0000000001
 40
0.0
 40
0.0
 40
0.0
 40
0.0
 40
0.6368151718
 40
1.0
 40
1.0
 40
1.0
 40
1.0
 10
189.1465427883
 20
175.2310242097
 30
0.0
 10
187.4697382947
 20
175.2310358514
 30
0.0
 10
184.8366286553
 20
175.239169247
 30
0.0
 10
182.2035215433
 20
175.2318613779
 30
0.0
 10
181.247215885
 20
175.2318529788
 30
0.0
  0
SPLINE
  5
306
100
AcDbEntity
  8
0
100
AcDbSpline
 62
9
  6
CONTINUOUS
 70
0
 71
3
 72
13
 73
9
 74
0
 42
0.0000001
 43
0.0000001
 44
0.0000000001
 40
0.0
 40
0.0
 40
0.0
 40
0.0
 40
0.0799748717
 40
0.1690314872
 40
0.2727138711
 40
0.3929764368
 40
0.6776629721
 40
1.0
 40
1.0
 40
1.0
 40
1.0
 10
191.3509492296
 20
101.0082829908
 30
0.0
 10
191.1942489043
 20
101.014177503
 30
0.0
 10
190.8632474589
 20
101.0991748953
 30
0.0
 10
190.4215660743
 20
101.4155362109
 30
0.0
 10
190.0319373564
 20
101.8965529016
 30
0.0
 10
189.5652719788
 20
102.7831068793
 30
0.0
 10
189.1996864865
 20
104.1782753736
 30
0.0
 10
189.1284927995
 20
105.3730070499
 30
0.0
 10
189.1467835906
 20
106.004766354
 30
0.0
  0
SPLINE
  5
307
100
AcDbEntity
  8
0
100
AcDbSpline
 62
9
  6
CONTINUOUS
 70
0
 71
3
 72
13
 73
9
 74
0
 42
0.0000001
 43
0.0000001
 44
0.0000000001
 40
0.0
 40
0.0
 40
0.0
 40
0.0
 40
0.0189869743
 40
0.0763868512
 40
0.1699513156
 40
0.2951930844
 40
0.6181337528
 40
1.0
 40
1.0
 40
1.0
 40
1.0
 10
234.2484670985
 20
197.5839403626
 30
0.0
 10
234.2482858561
 20
197.5819819163
 30
0.0
 10
234.2374375898
 20
197.5926515153
 30
0.0
 10
234.2264225888
 20
197.595658222
 30
0.0
 10
234.20021222
 20
197.6146231473
 30
0.0
 10
234.1543279753
 20
197.6432416912
 30
0.0
 10
234.0816123156
 20
197.6916563746
 30
0.0
 10
234.0208793955
 20
197.7313900035
 30
0.0
 10
233.9878553118
 20
197.7531646429
 30
0.0
  0
SPLINE
  5
308
100
AcDbEntity
  8
0
100
AcDbSpline
 62
7
  6
CONTINUOUS
 70
0
 71
3
 72
22
 73
18
 74
0
 42
0.0000001
 43
0.0000001
 44
0.0000000001
 40
0.0
 40
0.0
 40
0.0
 40
0.0
 40
0.194994786
 40
0.3825320189
 40
0.5554126269
 40
0.7069854215
 40
0.7729052672
 40
0.8313781223
 40
0.8818442906
 40
0.9238213516
 40
0.9569034134
 40
0.9700037833
 40
0.9807670289
 40
0.9891669513
 40
0.9951797714
 40
0.9987935722
 40
1.0
 40
1.0
 40
1.0
 40
1.0
 10
210.4345868357
 20
105.293608771
 30
0.0
 10
210.4691384636
 20
104.9700986023
 30
0.0
 10
210.5143279446
 20
104.3328456457
 30
0.0
 10
210.5226804893
 20
103.4057881063
 30
0.0
 10
210.4966366068
 20
102.551859067
 30
0.0
 10
210.4707408882
 20
101.9010213292
 30
0.0
 10
210.461225436
 20
101.4406537421
 30
0.0
 10
210.4570525584
 20
101.1489386296
 30
0.0
 10
210.4524364977
 20
100.8971534164
 30
0.0
 10
210.4474524227
 20
100.6878335405
 30
0.0
 10
210.4429461634
 20
100.5406626354
 30
0.0
 10
210.4399444167
 20
100.4459190666
 30
0.0
 10
210.4375323095
 20
100.3916654439
 30
0.0
 10
210.4371854288
 20
100.3508726421
 30
0.0
 10
210.4333251041
 20
100.3181278753
 30
0.0
 10
210.4375669425
 20
100.3047860337
 30
0.0
 10
210.4322528373
 20
100.291852955
 30
0.0
 10
210.4342657697
 20
100.291852955
 30
0.0
  0
SPLINE
  5
309
100
AcDbEntity
  8
0
100
AcDbSpline
 62
9
  6
CONTINUOUS
 70
0
 71
3
 72
9
 73
5
 74
0
 42
0.0000001
 43
0.0000001
 44
0.0000000001
 40
0.0
 40
0.0
 40
0.0
 40
0.0
 40
0.2544572066
 40
1.0
 40
1.0
 40
1.0
 40
1.0
 10
210.0217623918
 20
213.561852955
 30
0.0
 10
210.0383778284
 20
211.9885197353
 30
0.0
 10
210.1036890895
 20
205.8054244095
 30
0.0
 10
210.1698242755
 20
199.6223372289
 30
0.0
 10
210.2213888982
 20
195.0126062491
 30
0.0
  0
SPLINE
  5
30A
100
AcDbEntity
  8
0
100
AcDbSpline
 62
9
  6
CONTINUOUS
 70
0
 71
3
 72
9
 73
5
 74
0
 42
0.0000001
 43
0.0000001
 44
0.0000000001
 40
0.0
 40
0.0
 40
0.0
 40
0.0
 40
0.2544478774
 40
1.0
 40
1.0
 40
1.0
 40
1.0
 10
203.6712633774
 20
213.5575114901
 30
0.0
 10
203.7456081811
 20
211.9845397524
 30
0.0
 10
204.0378509174
 20
205.8026425156
 30
0.0
 10
204.3337761788
 20
199.6209082291
 30
0.0
 10
204.5644806254
 20
195.0126045957
 30
0.0
  0
SPLINE
  5
30B
100
AcDbEntity
  8
0
100
AcDbSpline
 62
9
  6
CONTINUOUS
 70
0
 71
3
 72
9
 73
5
 74
0
 42
0.0000001
 43
0.0000001
 44
0.0000000001
 40
0.0
 40
0.0
 40
0.0
 40
0.0
 40
0.2543949621
 40
1.0
 40
1.0
 40
1.0
 40
1.0
 10
190.5245844273
 20
213.4384145242
 30
0.0
 10
190.7246029575
 20
211.8754473014
 30
0.0
 10
191.5110807838
 20
205.7316255708
 30
0.0
 10
192.3075047025
 20
199.5889981568
 30
0.0
 10
192.92784124
 20
195.0125980778
 30
0.0
  0
SPLINE
  5
30C
100
AcDbEntity
  8
0
100
AcDbSpline
 62
9
  6
CONTINUOUS
 70
0
 71
3
 72
9
 73
5
 74
0
 42
0.0000001
 43
0.0000001
 44
0.0000000001
 40
0.0
 40
0.0
 40
0.0
 40
0.0
 40
0.2543650573
 40
1.0
 40
1.0
 40
1.0
 40
1.0
 10
182.3706093841
 20
213.0204044076
 30
0.0
 10
182.6393749352
 20
211.492638435
 30
0.0
 10
183.6965767076
 20
205.4865651927
 30
0.0
 10
184.7676498448
 20
199.4827961021
 30
0.0
 10
185.6005831007
 20
195.012533538
 30
0.0
  0
SPLINE
  5
30D
100
AcDbEntity
  8
0
100
AcDbSpline
 62
9
  6
CONTINUOUS
 70
0
 71
3
 72
10
 73
6
 74
0
 42
0.0000001
 43
0.0000001
 44
0.0000000001
 40
0.0
 40
0.0
 40
0.0
 40
0.0
 40
0.2678028674
 40
0.650695733
 40
1.0
 40
1.0
 40
1.0
 40
1.0
 10
190.5245843945
 20
213.4384147808
 30
0.0
 10
189.7964543987
 20
213.4061330871
 30
0.0
 10
188.0272942043
 20
213.3266527058
 30
0.0
 10
185.3102737739
 20
213.1684831746
 30
0.0
 10
183.3200997948
 20
213.0674925924
 30
0.0
 10
182.3706093841
 20
213.0204044076
 30
0.0
  0
SPLINE
  5
30E
100
AcDbEntity
  8
0
100
AcDbSpline
 62
9
  6
CONTINUOUS
 70
0
 71
3
 72
9
 73
5
 74
0
 42
0.0000001
 43
0.0000001
 44
0.0000000001
 40
0.0
 40
0.0
 40
0.0
 40
0.0
 40
0.2890783672
 40
1.0
 40
1.0
 40
1.0
 40
1.0
 10
179.902880454
 20
212.7382030156
 30
0.0
 10
179.8245397912
 20
212.7213781228
 30
0.0
 10
179.554105818
 20
212.6605690645
 30
0.0
 10
179.2829612902
 20
212.6030145535
 30
0.0
 10
179.0902559261
 20
212.5618456149
 30
0.0
  0
SPLINE
  5
30F
100
AcDbEntity
  8
0
100
AcDbSpline
 62
9
  6
CONTINUOUS
 70
0
 71
3
 72
9
 73
5
 74
0
 42
0.0000001
 43
0.0000001
 44
0.0000000001
 40
0.0
 40
0.0
 40
0.0
 40
0.0
 40
0.2739448885
 40
1.0
 40
1.0
 40
1.0
 40
1.0
 10
181.0354388606
 20
212.9795758759
 30
0.0
 10
180.9326385465
 20
212.9547746884
 30
0.0
 10
180.5568404712
 20
212.8663669283
 30
0.0
 10
180.1778757774
 20
212.7923519007
 30
0.0
 10
179.902880454
 20
212.7382030156
 30
0.0
  0
SPLINE
  5
310
100
AcDbEntity
  8
0
100
AcDbSpline
 62
9
  6
CONTINUOUS
 70
0
 71
3
 72
9
 73
5
 74
0
 42
0.0000001
 43
0.0000001
 44
0.0000000001
 40
0.0
 40
0.0
 40
0.0
 40
0.0
 40
0.4939545583
 40
1.0
 40
1.0
 40
1.0
 40
1.0
 10
184.2385408268
 20
195.3555707273
 30
0.0
 10
183.960275999
 20
198.2931540297
 30
0.0
 10
182.993044712
 20
204.1996120995
 30
0.0
 10
181.7018154602
 20
210.0309771796
 30
0.0
 10
181.0354450675
 20
212.979576994
 30
0.0
  0
SPLINE
  5
311
100
AcDbEntity
  8
0
100
AcDbSpline
 62
9
  6
CONTINUOUS
 70
0
 71
3
 72
9
 73
5
 74
0
 42
0.0000001
 43
0.0000001
 44
0.0000000001
 40
0.0
 40
0.0
 40
0.0
 40
0.0
 40
0.4561772865
 40
1.0
 40
1.0
 40
1.0
 40
1.0
 10
182.1960625388
 20
195.9582800699
 30
0.0
 10
182.4889951966
 20
195.818691494
 30
0.0
 10
183.1626256044
 20
195.5795849736
 30
0.0
 10
183.8576830138
 20
195.423314287
 30
0.0
 10
184.2385408268
 20
195.3555707273
 30
0.0
  0
SPLINE
  5
312
100
AcDbEntity
  8
0
100
AcDbSpline
 62
9
  6
CONTINUOUS
 70
0
 71
3
 72
11
 73
7
 74
0
 42
0.0000001
 43
0.0000001
 44
0.0000000001
 40
0.0
 40
0.0
 40
0.0
 40
0.0
 40
0.427878013
 40
0.7425249952
 40
0.9349375485
 40
1.0
 40
1.0
 40
1.0
 40
1.0
 10
177.6394670082
 20
216.4092340957
 30
0.0
 10
177.2524396054
 20
216.8179563602
 30
0.0
 10
176.5827402183
 20
217.5290635801
 30
0.0
 10
175.7419589015
 20
218.4267798991
 30
0.0
 10
175.2311032227
 20
218.9794804753
 30
0.0
 10
174.9989772357
 20
219.2261912582
 30
0.0
 10
174.9416388898
 20
219.2897389379
 30
0.0
  0
SPLINE
  5
313
100
AcDbEntity
  8
0
100
AcDbSpline
 62
9
  6
CONTINUOUS
 70
0
 71
3
 72
9
 73
5
 74
0
 42
0.0000001
 43
0.0000001
 44
0.0000000001
 40
0.0
 40
0.0
 40
0.0
 40
0.0
 40
0.2550652314
 40
1.0
 40
1.0
 40
1.0
 40
1.0
 10
179.0899919721
 20
212.5629216016
 30
0.0
 10
178.9643580618
 20
212.8890649814
 30
0.0
 10
178.4749889871
 20
214.1689610613
 30
0.0
 10
177.9956575888
 20
215.4526621378
 30
0.0
 10
177.639429124
 20
216.4092359687
 30
0.0
  0
SPLINE
  5
314
100
AcDbEntity
  8
0
100
AcDbSpline
 62
9
  6
CONTINUOUS
 70
0
 71
3
 72
9
 73
5
 74
0
 42
0.0000001
 43
0.0000001
 44
0.0000000001
 40
0.0
 40
0.0
 40
0.0
 40
0.0
 40
0.492236746
 40
1.0
 40
1.0
 40
1.0
 40
1.0
 10
182.1960399565
 20
195.9582822537
 30
0.0
 10
181.9508586821
 20
198.7209352675
 30
0.0
 10
181.0394617137
 20
204.2947346104
 30
0.0
 10
179.7626634869
 20
209.7821263131
 30
0.0
 10
179.089983769
 20
212.5629172036
 30
0.0
  0
LINE
  5
315
100
AcDbEntity
  8
0
100
AcDbLine
 62
9
  6
CONTINUOUS
 10
177.3474034828
 20
221.294966476
 11
177.2385790699
 21
221.3915653133
  0
SPLINE
  5
316
100
AcDbEntity
  8
0
100
AcDbSpline
 62
9
  6
CONTINUOUS
 70
0
 71
3
 72
9
 73
5
 74
0
 42
0.0000001
 43
0.0000001
 44
0.0000000001
 40
0.0
 40
0.0
 40
0.0
 40
0.0
 40
0.4962871812
 40
1.0
 40
1.0
 40
1.0
 40
1.0
 10
188.1661317328
 20
218.4254511431
 30
0.0
 10
188.3739760939
 20
218.578262859
 30
0.0
 10
188.7449550942
 20
218.9559782795
 30
0.0
 10
188.9870715577
 20
219.4247387023
 30
0.0
 10
189.0751312331
 20
219.671320545
 30
0.0
  0
SPLINE
  5
317
100
AcDbEntity
  8
0
100
AcDbSpline
 62
9
  6
CONTINUOUS
 70
0
 71
3
 72
12
 73
8
 74
0
 42
0.0000001
 43
0.0000001
 44
0.0000000001
 40
0.0
 40
0.0
 40
0.0
 40
0.0
 40
0.2295850498
 40
0.480144135
 40
0.6110741216
 40
0.743082951
 40
1.0
 40
1.0
 40
1.0
 40
1.0
 10
180.6600957874
 20
218.8021984621
 30
0.0
 10
181.216830612
 20
218.6004369818
 30
0.0
 10
182.3987266422
 20
218.2251123379
 30
0.0
 10
183.9419820926
 20
217.8903447867
 30
0.0
 10
185.2635247682
 20
217.7534968621
 30
0.0
 10
186.5982458115
 20
217.7654859489
 30
0.0
 10
187.6322208428
 20
218.0329512492
 30
0.0
 10
188.1661151402
 20
218.425481825
 30
0.0
  0
SPLINE
  5
318
100
AcDbEntity
  8
0
100
AcDbSpline
 62
9
  6
CONTINUOUS
 70
0
 71
3
 72
9
 73
5
 74
0
 42
0.0000001
 43
0.0000001
 44
0.0000000001
 40
0.0
 40
0.0
 40
0.0
 40
0.0
 40
0.2295944777
 40
1.0
 40
1.0
 40
1.0
 40
1.0
 10
179.1331012542
 20
219.7157747084
 30
0.0
 10
179.2349421616
 20
219.6247264562
 30
0.0
 10
179.6966045481
 20
219.2490538161
 30
0.0
 10
180.2294463734
 20
218.9593123115
 30
0.0
 10
180.6600581497
 20
218.8021834816
 30
0.0
  0
SPLINE
  5
319
100
AcDbEntity
  8
0
100
AcDbSpline
 62
9
  6
CONTINUOUS
 70
0
 71
3
 72
9
 73
5
 74
0
 42
0.0000001
 43
0.0000001
 44
0.0000000001
 40
0.0
 40
0.0
 40
0.0
 40
0.0
 40
0.2515155537
 40
1.0
 40
1.0
 40
1.0
 40
1.0
 10
188.264669316
 20
225.4222113952
 30
0.0
 10
188.1098608481
 20
225.7951921908
 30
0.0
 10
187.4495144133
 20
227.2594621577
 30
0.0
 10
186.6312585715
 20
228.6497115138
 30
0.0
 10
185.9589656044
 20
229.6458319014
 30
0.0
  0
SPLINE
  5
31A
100
AcDbEntity
  8
0
100
AcDbSpline
 62
9
  6
CONTINUOUS
 70
0
 71
3
 72
10
 73
6
 74
0
 42
0.0000001
 43
0.0000001
 44
0.0000000001
 40
0.0
 40
0.0
 40
0.0
 40
0.0
 40
0.4830496634
 40
0.73932239
 40
1.0
 40
1.0
 40
1.0
 40
1.0
 10
189.0749938828
 20
219.6713713056
 30
0.0
 10
189.3944917789
 20
220.5653677642
 30
0.0
 10
189.3266707338
 20
222.1072681102
 30
0.0
 10
188.821372011
 20
223.9947857426
 30
0.0
 10
188.4610345584
 20
224.9490041024
 30
0.0
 10
188.2646753122
 20
225.4222099334
 30
0.0
  0
SPLINE
  5
31B
100
AcDbEntity
  8
0
100
AcDbSpline
 62
9
  6
CONTINUOUS
 70
0
 71
3
 72
9
 73
5
 74
0
 42
0.0000001
 43
0.0000001
 44
0.0000000001
 40
0.0
 40
0.0
 40
0.0
 40
0.0
 40
0.2434747023
 40
1.0
 40
1.0
 40
1.0
 40
1.0
 10
180.6602092758
 20
218.8021183589
 30
0.0
 10
180.535536769
 20
218.6282284144
 30
0.0
 10
180.0730821873
 20
217.8794573605
 30
0.0
 10
179.8024585131
 20
217.0145040552
 30
0.0
 10
179.7218520602
 20
216.3545765182
 30
0.0
  0
SPLINE
  5
31C
100
AcDbEntity
  8
0
100
AcDbSpline
 62
9
  6
CONTINUOUS
 70
0
 71
3
 72
9
 73
5
 74
0
 42
0.0000001
 43
0.0000001
 44
0.0000000001
 40
0.0
 40
0.0
 40
0.0
 40
0.0
 40
0.2311705932
 40
1.0
 40
1.0
 40
1.0
 40
1.0
 10
189.0751070549
 20
219.6713157992
 30
0.0
 10
189.1848314413
 20
219.6221968557
 30
0.0
 10
189.6604640133
 20
219.4119229569
 30
0.0
 10
190.1392986503
 20
219.2089245453
 30
0.0
 10
190.5087947964
 20
219.0561909428
 30
0.0
  0
SPLINE
  5
31D
100
AcDbEntity
  8
0
100
AcDbSpline
 62
9
  6
CONTINUOUS
 70
0
 71
3
 72
9
 73
5
 74
0
 42
0.0000001
 43
0.0000001
 44
0.0000000001
 40
0.0
 40
0.0
 40
0.0
 40
0.0
 40
0.2513142341
 40
1.0
 40
1.0
 40
1.0
 40
1.0
 10
190.5091153781
 20
226.0555400364
 30
0.0
 10
190.3615080004
 20
226.5013679281
 30
0.0
 10
189.6965486084
 20
228.2495627783
 30
0.0
 10
188.7636939942
 20
229.8889546256
 30
0.0
 10
187.9697383487
 20
231.0409113957
 30
0.0
  0
SPLINE
  5
31E
100
AcDbEntity
  8
0
100
AcDbSpline
 62
9
  6
CONTINUOUS
 70
0
 71
3
 72
9
 73
5
 74
0
 42
0.0000001
 43
0.0000001
 44
0.0000000001
 40
0.0
 40
0.0
 40
0.0
 40
0.0
 40
0.2095714051
 40
1.0
 40
1.0
 40
1.0
 40
1.0
 10
188.2651921139
 20
225.4209516946
 30
0.0
 10
188.4209579325
 20
225.4687312726
 30
0.0
 10
189.165988524
 20
225.6909279742
 30
0.0
 10
189.9156536735
 20
225.8973101994
 30
0.0
 10
190.5094433916
 20
226.0555400368
 30
0.0
  0
SPLINE
  5
31F
100
AcDbEntity
  8
0
100
AcDbSpline
 62
9
  6
CONTINUOUS
 70
0
 71
3
 72
12
 73
8
 74
0
 42
0.0000001
 43
0.0000001
 44
0.0000000001
 40
0.0
 40
0.0
 40
0.0
 40
0.0
 40
0.2761225658
 40
0.5428226338
 40
0.7918195265
 40
0.90374982
 40
1.0
 40
1.0
 40
1.0
 40
1.0
 10
187.9697383487
 20
231.0409113957
 30
0.0
 10
186.850296988
 20
232.6651047409
 30
0.0
 10
184.7013240443
 20
235.8938541305
 30
0.0
 10
181.6744962574
 20
240.6728260368
 30
0.0
 10
179.3192129483
 20
244.4882711981
 30
0.0
 10
177.5776116877
 20
247.2510478248
 30
0.0
 10
176.7604608422
 20
248.4942879695
 30
0.0
 10
176.3644056837
 20
249.0563737826
 30
0.0
  0
SPLINE
  5
320
100
AcDbEntity
  8
0
100
AcDbSpline
 62
9
  6
CONTINUOUS
 70
0
 71
3
 72
9
 73
5
 74
0
 42
0.0000001
 43
0.0000001
 44
0.0000000001
 40
0.0
 40
0.0
 40
0.0
 40
0.0
 40
0.2651753527
 40
1.0
 40
1.0
 40
1.0
 40
1.0
 10
176.3644056837
 20
249.0563737826
 30
0.0
 10
176.326813006
 20
249.109725722
 30
0.0
 10
176.1843237505
 20
249.3104047318
 30
0.0
 10
176.0387224642
 20
249.5089109168
 30
0.0
 10
175.9288261331
 20
249.6525503823
 30
0.0
  0
SPLINE
  5
321
100
AcDbEntity
  8
0
100
AcDbSpline
 62
9
  6
CONTINUOUS
 70
0
 71
3
 72
16
 73
12
 74
0
 42
0.0000001
 43
0.0000001
 44
0.0000000001
 40
0.0
 40
0.0
 40
0.0
 40
0.0
 40
0.2253732223
 40
0.4162863563
 40
0.5691934342
 40
0.6820607203
 40
0.7572710279
 40
0.7862254298
 40
0.8149137407
 40
0.8888976834
 40
1.0
 40
1.0
 40
1.0
 40
1.0
 10
175.9288261331
 20
249.6525503823
 30
0.0
 10
175.8497105428
 20
249.7559580301
 30
0.0
 10
175.7006925573
 20
249.9448848041
 30
0.0
 10
175.4854316432
 20
250.1933734714
 30
0.0
 10
175.2972385482
 20
250.3797809349
 30
0.0
 10
175.1424335443
 20
250.5001627466
 30
0.0
 10
175.0204211964
 20
250.550209653
 30
0.0
 10
174.9425040121
 20
250.5356946686
 30
0.0
 10
174.8804909636
 20
250.4874086217
 30
0.0
 10
174.8394351574
 20
250.3637714894
 30
0.0
 10
174.8342814215
 20
250.2578062763
 30
0.0
 10
174.8342657643
 20
250.1936208223
 30
0.0
  0
SPLINE
  5
322
100
AcDbEntity
  8
0
100
AcDbSpline
 62
9
  6
CONTINUOUS
 70
0
 71
3
 72
9
 73
5
 74
0
 42
0.0000001
 43
0.0000001
 44
0.0000000001
 40
0.0
 40
0.0
 40
0.0
 40
0.0
 40
0.4261775374
 40
1.0
 40
1.0
 40
1.0
 40
1.0
 10
185.9589637598
 20
229.6458272966
 30
0.0
 10
186.2155014208
 20
229.8810163924
 30
0.0
 10
186.8761745317
 20
230.3663183713
 30
0.0
 10
187.5665157207
 20
230.8021596451
 30
0.0
 10
187.9697353311
 20
231.0409113949
 30
0.0
  0
SPLINE
  5
323
100
AcDbEntity
  8
0
100
AcDbSpline
 62
9
  6
CONTINUOUS
 70
0
 71
3
 72
14
 73
10
 74
0
 42
0.0000001
 43
0.0000001
 44
0.0000000001
 40
0.0
 40
0.0
 40
0.0
 40
0.0
 40
0.0525196388
 40
0.1153383132
 40
0.1984852715
 40
0.3062628945
 40
0.4401828778
 40
0.6006331446
 40
1.0
 40
1.0
 40
1.0
 40
1.0
 10
191.4695665809
 20
333.4446105082
 30
0.0
 10
191.446320941
 20
333.4213648689
 30
0.0
 10
191.4110639148
 20
333.3530309896
 30
0.0
 10
191.4191039538
 20
333.225601893
 30
0.0
 10
191.4725969526
 20
333.0752088913
 30
0.0
 10
191.5715100492
 20
332.896808416
 30
0.0
 10
191.7156040906
 20
332.6901154096
 30
0.0
 10
191.9885656628
 20
332.3520684219
 30
0.0
 10
192.2299478226
 20
332.0973278818
 30
0.0
 10
192.406163419
 20
331.9200188235
 30
0.0
  0
SPLINE
  5
324
100
AcDbEntity
  8
0
100
AcDbSpline
 62
9
  6
CONTINUOUS
 70
0
 71
3
 72
11
 73
7
 74
0
 42
0.0000001
 43
0.0000001
 44
0.0000000001
 40
0.0
 40
0.0
 40
0.0
 40
0.0
 40
0.197971692
 40
0.4377651806
 40
0.7089398599
 40
1.0
 40
1.0
 40
1.0
 40
1.0
 10
192.7777654022
 20
331.5583545497
 30
0.0
 10
193.184676617
 20
331.1738815911
 30
0.0
 10
194.1179680197
 20
330.3593232617
 30
0.0
 10
195.6856912496
 20
329.1092990315
 30
0.0
 10
197.5066308193
 20
327.7567733658
 30
0.0
 10
198.8076998788
 20
326.8425790762
 30
0.0
 10
199.4891870412
 20
326.381073478
 30
0.0
  0
SPLINE
  5
325
100
AcDbEntity
  8
0
100
AcDbSpline
 62
9
  6
CONTINUOUS
 70
0
 71
3
 72
9
 73
5
 74
0
 42
0.0000001
 43
0.0000001
 44
0.0000000001
 40
0.0
 40
0.0
 40
0.0
 40
0.0
 40
0.4846700237
 40
1.0
 40
1.0
 40
1.0
 40
1.0
 10
198.187080067
 20
336.1639254822
 30
0.0
 10
197.156938151
 20
336.1775764427
 30
0.0
 10
195.0113844409
 20
335.8552694807
 30
0.0
 10
193.0990782519
 20
334.8143183819
 30
0.0
 10
192.2416143403
 20
334.1326541135
 30
0.0
  0
SPLINE
  5
326
100
AcDbEntity
  8
0
100
AcDbSpline
 62
9
  6
CONTINUOUS
 70
0
 71
3
 72
14
 73
10
 74
0
 42
0.0000001
 43
0.0000001
 44
0.0000000001
 40
0.0
 40
0.0
 40
0.0
 40
0.0
 40
0.0453693325
 40
0.117885233
 40
0.2200091242
 40
0.3489752266
 40
0.4998278774
 40
0.6643641767
 40
1.0
 40
1.0
 40
1.0
 40
1.0
 10
200.9833849638
 20
335.7881559817
 30
0.0
 10
200.8735296281
 20
335.6928613357
 30
0.0
 10
200.6731288561
 20
335.3594353814
 30
0.0
 10
200.4285266431
 20
334.7006437435
 30
0.0
 10
200.1908210997
 20
333.7537014122
 30
0.0
 10
199.9708277245
 20
332.5495277852
 30
0.0
 10
199.7851287353
 20
331.1366049939
 30
0.0
 10
199.5886349542
 20
329.0588794253
 30
0.0
 10
199.5127034365
 20
327.456210828
 30
0.0
 10
199.4891719901
 20
326.3806136765
 30
0.0
  0
SPLINE
  5
327
100
AcDbEntity
  8
0
100
AcDbSpline
 62
9
  6
CONTINUOUS
 70
0
 71
3
 72
12
 73
8
 74
0
 42
0.0000001
 43
0.0000001
 44
0.0000000001
 40
0.0
 40
0.0
 40
0.0
 40
0.0
 40
0.0508553485
 40
0.1218883478
 40
0.3323197059
 40
0.6313587487
 40
1.0
 40
1.0
 40
1.0
 40
1.0
 10
205.1652295361
 20
335.6839989922
 30
0.0
 10
205.100325036
 20
335.6253168828
 30
0.0
 10
204.9742133192
 20
335.4538217721
 30
0.0
 10
204.722606638
 20
334.9396724894
 30
0.0
 10
204.4442518818
 20
333.9743080523
 30
0.0
 10
204.156863213
 20
332.4916179569
 30
0.0
 10
204.01247083
 20
331.3507044699
 30
0.0
 10
203.9455679865
 20
330.7199738117
 30
0.0
  0
SPLINE
  5
328
100
AcDbEntity
  8
0
100
AcDbSpline
 62
9
  6
CONTINUOUS
 70
0
 71
3
 72
9
 73
5
 74
0
 42
0.0000001
 43
0.0000001
 44
0.0000000001
 40
0.0
 40
0.0
 40
0.0
 40
0.0
 40
0.2458732312
 40
1.0
 40
1.0
 40
1.0
 40
1.0
 10
203.930273775
 20
330.5734242196
 30
0.0
 10
203.9050657985
 20
330.3278902597
 30
0.0
 10
203.8108583546
 20
329.3284209213
 30
0.0
 10
203.7477377685
 20
328.3261261072
 30
0.0
 10
203.7141991877
 20
327.5698247351
 30
0.0
  0
SPLINE
  5
329
100
AcDbEntity
  8
0
100
AcDbSpline
 62
9
  6
CONTINUOUS
 70
0
 71
3
 72
10
 73
6
 74
0
 42
0.0000001
 43
0.0000001
 44
0.0000000001
 40
0.0
 40
0.0
 40
0.0
 40
0.0
 40
0.2504643102
 40
0.6258466005
 40
1.0
 40
1.0
 40
1.0
 40
1.0
 10
190.5087876152
 20
226.0585472694
 30
0.0
 10
190.6578431162
 20
225.4846692185
 30
0.0
 10
190.9702913689
 20
224.0343995435
 30
0.0
 10
191.1668980435
 20
221.6629478574
 30
0.0
 10
190.8406546278
 20
219.8773923325
 30
0.0
 10
190.5087876143
 20
219.0561886048
 30
0.0
  0
SPLINE
  5
32A
100
AcDbEntity
  8
0
100
AcDbSpline
 62
9
  6
CONTINUOUS
 70
0
 71
3
 72
13
 73
9
 74
0
 42
0.0000001
 43
0.0000001
 44
0.0000000001
 40
0.0
 40
0.0
 40
0.0
 40
0.0
 40
0.1413860367
 40
0.28076726
 40
0.4163219933
 40
0.5467115099
 40
0.7883334568
 40
1.0
 40
1.0
 40
1.0
 40
1.0
 10
190.5087876143
 20
219.0561885987
 30
0.0
 10
190.2525352998
 20
218.5575324225
 30
0.0
 10
189.5730629918
 20
217.6426488879
 30
0.0
 10
188.179740412
 20
216.7104165867
 30
0.0
 10
186.6471483679
 20
216.1870938741
 30
0.0
 10
184.6522807688
 20
215.8763048551
 30
0.0
 10
182.3242639643
 20
215.9145349607
 30
0.0
 10
180.5433022701
 20
216.1822083682
 30
0.0
 10
179.7218596784
 20
216.3545765178
 30
0.0
  0
SPLINE
  5
32B
100
AcDbEntity
  8
0
100
AcDbSpline
 62
9
  6
CONTINUOUS
 70
0
 71
3
 72
11
 73
7
 74
0
 42
0.0000001
 43
0.0000001
 44
0.0000000001
 40
0.0
 40
0.0
 40
0.0
 40
0.0
 40
0.2293945514
 40
0.4754849233
 40
0.7340896595
 40
1.0
 40
1.0
 40
1.0
 40
1.0
 10
182.3739648755
 20
214.0813045987
 30
0.0
 10
182.9963831407
 20
214.0580004459
 30
0.0
 10
184.2867043772
 20
214.0151676121
 30
0.0
 10
186.2787739174
 20
213.9458298865
 30
0.0
 10
188.3678959934
 20
213.8264770433
 30
0.0
 10
189.7876850842
 20
213.71197502
 30
0.0
 10
190.5087364632
 20
213.6749291116
 30
0.0
  0
SPLINE
  5
32C
100
AcDbEntity
  8
0
100
AcDbSpline
 62
9
  6
CONTINUOUS
 70
0
 71
3
 72
9
 73
5
 74
0
 42
0.0000001
 43
0.0000001
 44
0.0000000001
 40
0.0
 40
0.0
 40
0.0
 40
0.0
 40
0.2434509894
 40
1.0
 40
1.0
 40
1.0
 40
1.0
 10
181.0283617559
 20
214.1378522229
 30
0.0
 10
181.1375499477
 20
214.1330773757
 30
0.0
 10
181.5860444679
 20
214.1133123626
 30
0.0
 10
182.0345641788
 20
214.0940160741
 30
0.0
 10
182.3739597115
 20
214.0811891098
 30
0.0
  0
SPLINE
  5
32D
100
AcDbEntity
  8
0
100
AcDbSpline
 62
9
  6
CONTINUOUS
 70
0
 71
3
 72
9
 73
5
 74
0
 42
0.0000001
 43
0.0000001
 44
0.0000000001
 40
0.0
 40
0.0
 40
0.0
 40
0.0
 40
0.2534001405
 40
1.0
 40
1.0
 40
1.0
 40
1.0
 10
181.0283630051
 20
214.1379198794
 30
0.0
 10
180.9172036137
 20
214.3246780991
 30
0.0
 10
180.4797421019
 20
215.0624075505
 30
0.0
 10
180.0455582949
 20
215.8020736766
 30
0.0
 10
179.7218596784
 20
216.3545765178
 30
0.0
  0
SPLINE
  5
32E
100
AcDbEntity
  8
0
100
AcDbSpline
 62
9
  6
CONTINUOUS
 70
0
 71
3
 72
9
 73
5
 74
0
 42
0.0000001
 43
0.0000001
 44
0.0000000001
 40
0.0
 40
0.0
 40
0.0
 40
0.0
 40
0.4147307945
 40
1.0
 40
1.0
 40
1.0
 40
1.0
 10
177.6392746795
 20
216.4095896839
 30
0.0
 10
177.9183767511
 20
216.3341547263
 30
0.0
 10
178.6187316895
 20
216.2638007177
 30
0.0
 10
179.3169695339
 20
216.3011019004
 30
0.0
 10
179.7214521099
 20
216.3545767185
 30
0.0
  0
SPLINE
  5
32F
100
AcDbEntity
  8
0
100
AcDbSpline
 62
9
  6
CONTINUOUS
 70
0
 71
3
 72
10
 73
6
 74
0
 42
0.0000001
 43
0.0000001
 44
0.0000000001
 40
0.0
 40
0.0
 40
0.0
 40
0.0
 40
0.259555458
 40
0.5154278832
 40
1.0
 40
1.0
 40
1.0
 40
1.0
 10
179.1331052532
 20
219.715770117
 30
0.0
 10
178.8944914493
 20
219.4993444328
 30
0.0
 10
178.4641294448
 20
219.0185285374
 30
0.0
 10
177.8246340003
 20
217.9504850544
 30
0.0
 10
177.6148316229
 20
217.0105129874
 30
0.0
 10
177.6392746795
 20
216.4095896839
 30
0.0
  0
SPLINE
  5
330
100
AcDbEntity
  8
0
100
AcDbSpline
 62
9
  6
CONTINUOUS
 70
0
 71
3
 72
9
 73
5
 74
0
 42
0.0000001
 43
0.0000001
 44
0.0000000001
 40
0.0
 40
0.0
 40
0.0
 40
0.0
 40
0.2803693707
 40
1.0
 40
1.0
 40
1.0
 40
1.0
 10
179.8023113339
 20
213.2771503031
 30
0.0
 10
179.7296733173
 20
213.2168202318
 30
0.0
 10
179.4752539137
 20
212.9964277736
 30
0.0
 10
179.2376887658
 20
212.7541957707
 30
0.0
 10
179.0902430255
 20
212.5618446048
 30
0.0
  0
SPLINE
  5
331
100
AcDbEntity
  8
0
100
AcDbSpline
 62
9
  6
CONTINUOUS
 70
0
 71
3
 72
9
 73
5
 74
0
 42
0.0000001
 43
0.0000001
 44
0.0000000001
 40
0.0
 40
0.0
 40
0.0
 40
0.0
 40
0.2700598457
 40
1.0
 40
1.0
 40
1.0
 40
1.0
 10
181.0283448128
 20
214.1379198075
 30
0.0
 10
180.9132122931
 20
214.0675934749
 30
0.0
 10
180.4907688073
 20
213.801084437
 30
0.0
 10
180.0828271139
 20
213.5101348751
 30
0.0
 10
179.8023113339
 20
213.2771503031
 30
0.0
  0
SPLINE
  5
332
100
AcDbEntity
  8
0
100
AcDbSpline
 62
9
  6
CONTINUOUS
 70
0
 71
3
 72
12
 73
8
 74
0
 42
0.0000001
 43
0.0000001
 44
0.0000000001
 40
0.0
 40
0.0
 40
0.0
 40
0.0
 40
0.4035700148
 40
0.6973883399
 40
0.8047767379
 40
0.8881644239
 40
1.0
 40
1.0
 40
1.0
 40
1.0
 10
184.4507106937
 20
324.4586209811
 30
0.0
 10
184.3348711086
 20
324.6366683677
 30
0.0
 10
184.1430168523
 20
324.9499501491
 30
0.0
 10
183.9531664605
 20
325.3296436677
 30
0.0
 10
183.8757067304
 20
325.5745665065
 30
0.0
 10
183.8485131825
 20
325.7291861434
 30
0.0
 10
183.8692890297
 20
325.8443325563
 30
0.0
 10
183.9109114198
 20
325.8859553466
 30
0.0
  0
SPLINE
  5
333
100
AcDbEntity
  8
0
100
AcDbSpline
 62
9
  6
CONTINUOUS
 70
0
 71
3
 72
15
 73
11
 74
0
 42
0.0000001
 43
0.0000001
 44
0.0000000001
 40
0.0
 40
0.0
 40
0.0
 40
0.0
 40
0.134154205
 40
0.2739913559
 40
0.4130448998
 40
0.5473884387
 40
0.6743596635
 40
0.7922486736
 40
0.9002595211
 40
1.0
 40
1.0
 40
1.0
 40
1.0
 10
178.5834634005
 20
318.2884838579
 30
0.0
 10
178.6775017895
 20
318.6699672433
 30
0.0
 10
178.984768405
 20
319.4197982433
 30
0.0
 10
179.6094276649
 20
320.4580467401
 30
0.0
 10
180.3490415724
 20
321.4188799678
 30
0.0
 10
181.1405789343
 20
322.2854629622
 30
0.0
 10
181.9538211031
 20
323.0437449211
 30
0.0
 10
182.7724237098
 20
323.6774981398
 30
0.0
 10
183.5959357643
 20
324.1655197563
 30
0.0
 10
184.1691583715
 20
324.380782091
 30
0.0
 10
184.4507108533
 20
324.4586207359
 30
0.0
  0
LINE
  5
334
100
AcDbEntity
  8
0
100
AcDbLine
 62
9
  6
CONTINUOUS
 10
178.81198942
 20
313.2494852331
 11
179.1465220596
 21
313.3682198122
  0
LINE
  5
335
100
AcDbEntity
  8
0
100
AcDbLine
 62
9
  6
CONTINUOUS
 10
179.1465220596
 20
313.3682198122
 11
179.6877907808
 21
313.5604542854
  0
SPLINE
  5
336
100
AcDbEntity
  8
0
100
AcDbSpline
 62
9
  6
CONTINUOUS
 70
0
 71
3
 72
10
 73
6
 74
0
 42
0.0000001
 43
0.0000001
 44
0.0000000001
 40
0.0
 40
0.0
 40
0.0
 40
0.0
 40
0.5428075564
 40
0.7856895495
 40
1.0
 40
1.0
 40
1.0
 40
1.0
 10
193.334265765
 20
324.4338878554
 30
0.0
 10
191.9060895547
 20
324.4515436937
 30
0.0
 10
189.8392113758
 20
324.4994574903
 30
0.0
 10
187.208304574
 20
324.5443049165
 30
0.0
 10
186.0055688463
 20
324.5701158067
 30
0.0
 10
185.4417401742
 20
324.5798929974
 30
0.0
  0
SPLINE
  5
337
100
AcDbEntity
  8
0
100
AcDbSpline
 62
9
  6
CONTINUOUS
 70
0
 71
3
 72
9
 73
5
 74
0
 42
0.0000001
 43
0.0000001
 44
0.0000000001
 40
0.0
 40
0.0
 40
0.0
 40
0.0
 40
0.2458115692
 40
1.0
 40
1.0
 40
1.0
 40
1.0
 10
185.4417401742
 20
324.5798929974
 30
0.0
 10
185.3598000379
 20
324.5815252567
 30
0.0
 10
185.0262445293
 20
324.5760231987
 30
0.0
 10
184.6941377827
 20
324.5216349887
 30
0.0
 10
184.4507049959
 20
324.4586260583
 30
0.0
  0
SPLINE
  5
338
100
AcDbEntity
  8
0
100
AcDbSpline
 62
9
  6
CONTINUOUS
 70
0
 71
3
 72
9
 73
5
 74
0
 42
0.0000001
 43
0.0000001
 44
0.0000000001
 40
0.0
 40
0.0
 40
0.0
 40
0.0
 40
0.2248476156
 40
1.0
 40
1.0
 40
1.0
 40
1.0
 10
185.4295024277
 20
324.1710976438
 30
0.0
 10
185.4177140894
 20
324.1998853161
 30
0.0
 10
185.3783968736
 20
324.3327092002
 30
0.0
 10
185.3945071728
 20
324.4836185714
 30
0.0
 10
185.4417465882
 20
324.5798965583
 30
0.0
  0
SPLINE
  5
339
100
AcDbEntity
  8
0
100
AcDbSpline
 62
9
  6
CONTINUOUS
 70
0
 71
3
 72
9
 73
5
 74
0
 42
0.0000001
 43
0.0000001
 44
0.0000000001
 40
0.0
 40
0.0
 40
0.0
 40
0.0
 40
0.2469814262
 40
1.0
 40
1.0
 40
1.0
 40
1.0
 10
185.4295049975
 20
324.1710975927
 30
0.0
 10
185.3489988441
 20
324.1759779371
 30
0.0
 10
185.0223876596
 20
324.1843503453
 30
0.0
 10
184.6950905709
 20
324.1469388927
 30
0.0
 10
184.4542769875
 20
324.0971595163
 30
0.0
  0
SPLINE
  5
33A
100
AcDbEntity
  8
0
100
AcDbSpline
 62
9
  6
CONTINUOUS
 70
0
 71
3
 72
9
 73
5
 74
0
 42
0.0000001
 43
0.0000001
 44
0.0000000001
 40
0.0
 40
0.0
 40
0.0
 40
0.0
 40
0.4944702094
 40
1.0
 40
1.0
 40
1.0
 40
1.0
 10
185.6948395305
 20
323.9618640491
 30
0.0
 10
185.6366412388
 20
323.961863375
 30
0.0
 10
185.5177272402
 20
324.0127503788
 30
0.0
 10
185.4520525822
 20
324.1160353126
 30
0.0
 10
185.4295049975
 20
324.1710975927
 30
0.0
  0
SPLINE
  5
33B
100
AcDbEntity
  8
0
100
AcDbSpline
 62
9
  6
CONTINUOUS
 70
0
 71
3
 72
19
 73
15
 74
0
 42
0.0000001
 43
0.0000001
 44
0.0000000001
 40
0.0
 40
0.0
 40
0.0
 40
0.0
 40
0.1142318007
 40
0.2418110505
 40
0.3821742725
 40
0.5307929604
 40
0.605827254
 40
0.6785404035
 40
0.7448841396
 40
0.8015809829
 40
0.8506121868
 40
0.8977259832
 40
0.9471157909
 40
1.0
 40
1.0
 40
1.0
 40
1.0
 10
184.7155537723
 20
323.8359504235
 30
0.0
 10
184.2748575269
 20
323.7251078251
 30
0.0
 10
183.3779731899
 20
323.3440835559
 30
0.0
 10
182.1259341343
 20
322.4721829804
 30
0.0
 10
180.8954538311
 20
321.357658289
 30
0.0
 10
179.9411508755
 20
320.2599652827
 30
0.0
 10
179.303183171
 20
319.2655632219
 30
0.0
 10
178.9458116385
 20
318.4881124885
 30
0.0
 10
178.7703729743
 20
317.7211970281
 30
0.0
 10
178.8351137712
 20
317.0216643266
 30
0.0
 10
179.1592569629
 20
316.481739794
 30
0.0
 10
179.6526996536
 20
316.152549909
 30
0.0
 10
180.2304120523
 20
315.9897099216
 30
0.0
 10
180.6385093537
 20
315.9618547035
 30
0.0
 10
180.8488863468
 20
315.9618529551
 30
0.0
  0
SPLINE
  5
33C
100
AcDbEntity
  8
0
100
AcDbSpline
 62
9
  6
CONTINUOUS
 70
0
 71
3
 72
9
 73
5
 74
0
 42
0.0000001
 43
0.0000001
 44
0.0000000001
 40
0.0
 40
0.0
 40
0.0
 40
0.0
 40
0.2458494515
 40
1.0
 40
1.0
 40
1.0
 40
1.0
 10
185.6167519176
 20
323.9610338477
 30
0.0
 10
185.5421167423
 20
323.9594450897
 30
0.0
 10
185.2387568561
 20
323.9437668258
 30
0.0
 10
184.937642253
 20
323.8917790813
 30
0.0
 10
184.7155537723
 20
323.83595291
 30
0.0
  0
SPLINE
  5
33D
100
AcDbEntity
  8
0
100
AcDbSpline
 62
9
  6
CONTINUOUS
 70
0
 71
3
 72
11
 73
7
 74
0
 42
0.0000001
 43
0.0000001
 44
0.0000000001
 40
0.0
 40
0.0
 40
0.0
 40
0.0
 40
0.2052259513
 40
0.4456339237
 40
0.7168386668
 40
1.0
 40
1.0
 40
1.0
 40
1.0
 10
184.4618951247
 20
324.0782374338
 30
0.0
 10
183.8906747527
 20
323.9615911504
 30
0.0
 10
182.7151428638
 20
323.4189696461
 30
0.0
 10
181.1109460642
 20
322.1495342294
 30
0.0
 10
179.6040971722
 20
320.4643066074
 30
0.0
 10
178.7919546783
 20
319.065393465
 30
0.0
 10
178.5835126632
 20
318.2884604027
 30
0.0
  0
SPLINE
  5
33E
100
AcDbEntity
  8
0
100
AcDbSpline
 62
9
  6
CONTINUOUS
 70
0
 71
3
 72
8
 73
4
 74
0
 42
0.0000001
 43
0.0000001
 44
0.0000000001
 40
0.0
 40
0.0
 40
0.0
 40
0.0
 40
1.0
 40
1.0
 40
1.0
 40
1.0
 10
184.7155535998
 20
323.8359529466
 30
0.0
 10
184.6014588497
 20
323.8615234695
 30
0.0
 10
184.5076604922
 20
323.9706417847
 30
0.0
 10
184.4619004604
 20
324.0782404982
 30
0.0
  0
SPLINE
  5
33F
100
AcDbEntity
  8
0
100
AcDbSpline
 62
9
  6
CONTINUOUS
 70
0
 71
3
 72
11
 73
7
 74
0
 42
0.0000001
 43
0.0000001
 44
0.0000000001
 40
0.0
 40
0.0
 40
0.0
 40
0.0
 40
0.2475282429
 40
0.4860337226
 40
0.7337266227
 40
1.0
 40
1.0
 40
1.0
 40
1.0
 10
178.6063249519
 20
316.6894067542
 30
0.0
 10
178.6839142106
 20
316.5124419456
 30
0.0
 10
178.910164334
 20
316.1912433574
 30
0.0
 10
179.4124745757
 20
315.8897772007
 30
0.0
 10
179.9931247821
 20
315.7632108498
 30
0.0
 10
180.3960813903
 20
315.7610751474
 30
0.0
 10
180.6036763389
 20
315.7715655929
 30
0.0
  0
SPLINE
  5
340
100
AcDbEntity
  8
0
100
AcDbSpline
 62
9
  6
CONTINUOUS
 70
0
 71
3
 72
9
 73
5
 74
0
 42
0.0000001
 43
0.0000001
 44
0.0000000001
 40
0.0
 40
0.0
 40
0.0
 40
0.0
 40
0.2812819964
 40
1.0
 40
1.0
 40
1.0
 40
1.0
 10
178.5835126632
 20
318.2884604027
 30
0.0
 10
178.5460478487
 20
318.1419802918
 30
0.0
 10
178.4408483932
 20
317.6171023711
 30
0.0
 10
178.4629035389
 20
317.0481250719
 30
0.0
 10
178.6063249519
 20
316.6894067542
 30
0.0
  0
SPLINE
  5
341
100
AcDbEntity
  8
0
100
AcDbSpline
 62
9
  6
CONTINUOUS
 70
0
 71
3
 72
9
 73
5
 74
0
 42
0.0000001
 43
0.0000001
 44
0.0000000001
 40
0.0
 40
0.0
 40
0.0
 40
0.0
 40
0.2381756335
 40
1.0
 40
1.0
 40
1.0
 40
1.0
 10
184.4618903534
 20
324.0782361163
 30
0.0
 10
184.4499036891
 20
324.106421019
 30
0.0
 10
184.4096560271
 20
324.2282185152
 30
0.0
 10
184.4118799233
 20
324.3688240503
 30
0.0
 10
184.4504062666
 20
324.4588964466
 30
0.0
  0
SPLINE
  5
342
100
AcDbEntity
  8
0
100
AcDbSpline
 62
9
  6
CONTINUOUS
 70
0
 71
3
 72
8
 73
4
 74
0
 42
0.0000001
 43
0.0000001
 44
0.0000000001
 40
0.0
 40
0.0
 40
0.0
 40
0.0
 40
1.0
 40
1.0
 40
1.0
 40
1.0
 10
180.6036873525
 20
315.771565534
 30
0.0
 10
180.5889409962
 20
315.7381469506
 30
0.0
 10
180.5782491627
 20
315.7027441994
 30
0.0
 10
180.5712539017
 20
315.6668927969
 30
0.0
  0
SPLINE
  5
343
100
AcDbEntity
  8
0
100
AcDbSpline
 62
9
  6
CONTINUOUS
 70
0
 71
3
 72
9
 73
5
 74
0
 42
0.0000001
 43
0.0000001
 44
0.0000000001
 40
0.0
 40
0.0
 40
0.0
 40
0.0
 40
0.4889576833
 40
1.0
 40
1.0
 40
1.0
 40
1.0
 10
180.8490336308
 20
315.9623469873
 30
0.0
 10
180.7962097424
 20
315.9623521953
 30
0.0
 10
180.6873394508
 20
315.9157372819
 30
0.0
 10
180.6259759708
 20
315.8220763395
 30
0.0
 10
180.6036874648
 20
315.7715655339
 30
0.0
  0
SPLINE
  5
344
100
AcDbEntity
  8
0
100
AcDbSpline
 62
9
  6
CONTINUOUS
 70
0
 71
3
 72
11
 73
7
 74
0
 42
0.0000001
 43
0.0000001
 44
0.0000000001
 40
0.0
 40
0.0
 40
0.0
 40
0.0
 40
0.3716855706
 40
0.6893424311
 40
0.9055844049
 40
1.0
 40
1.0
 40
1.0
 40
1.0
 10
190.5087876145
 20
315.561852955
 30
0.0
 10
190.5087876145
 20
315.6128361149
 30
0.0
 10
190.5112680978
 20
315.7060151249
 30
0.0
 10
190.5241293619
 20
315.8347899738
 30
0.0
 10
190.5385021123
 20
315.9092457709
 30
0.0
 10
190.5587503772
 20
315.961852955
 30
0.0
 10
190.5717011231
 20
315.961852955
 30
0.0
  0
SPLINE
  5
345
100
AcDbEntity
  8
0
100
AcDbSpline
 62
7
  6
CONTINUOUS
 70
0
 71
3
 72
10
 73
6
 74
0
 42
0.0000001
 43
0.0000001
 44
0.0000000001
 40
0.0
 40
0.0
 40
0.0
 40
0.0
 40
0.3706180011
 40
0.6656150819
 40
1.0
 40
1.0
 40
1.0
 40
1.0
 10
185.499514491
 20
315.961852955
 30
0.0
 10
185.4428211859
 20
315.9618532177
 30
0.0
 10
185.3687266495
 20
315.8523376261
 30
0.0
 10
185.3343479943
 20
315.7112430677
 30
0.0
 10
185.325123993
 20
315.6130036981
 30
0.0
 10
185.325123993
 20
315.561852955
 30
0.0
  0
SPLINE
  5
346
100
AcDbEntity
  8
0
100
AcDbSpline
 62
9
  6
CONTINUOUS
 70
0
 71
3
 72
11
 73
7
 74
0
 42
0.0000001
 43
0.0000001
 44
0.0000000001
 40
0.0
 40
0.0
 40
0.0
 40
0.0
 40
0.2499453487
 40
0.4886554004
 40
0.7357359387
 40
1.0
 40
1.0
 40
1.0
 40
1.0
 10
178.6063249549
 20
316.6894067474
 30
0.0
 10
178.6792063477
 20
316.5057549082
 30
0.0
 10
178.8920961058
 20
316.1692747676
 30
0.0
 10
179.3761729438
 20
315.8256716728
 30
0.0
 10
179.9497751896
 20
315.6496078985
 30
0.0
 10
180.3545401279
 20
315.6159415551
 30
0.0
 10
180.5633831606
 20
315.6109048339
 30
0.0
  0
SPLINE
  5
347
100
AcDbEntity
  8
0
100
AcDbSpline
 62
7
  6
CONTINUOUS
 70
0
 71
3
 72
9
 73
5
 74
0
 42
0.0000001
 43
0.0000001
 44
0.0000000001
 40
0.0
 40
0.0
 40
0.0
 40
0.0
 40
0.2500259822
 40
1.0
 40
1.0
 40
1.0
 40
1.0
 10
236.9157245393
 20
214.1003344986
 30
0.0
 10
237.8099545203
 20
220.1676439963
 30
0.0
 10
241.3875978715
 20
244.4341985684
 30
0.0
 10
244.9678103547
 20
268.7003742797
 30
0.0
 10
247.6534422034
 20
286.8992920775
 30
0.0
  0
SPLINE
  5
348
100
AcDbEntity
  8
0
100
AcDbSpline
 62
7
  6
CONTINUOUS
 70
0
 71
3
 72
16
 73
12
 74
0
 42
0.0000001
 43
0.0000001
 44
0.0000000001
 40
0.0
 40
0.0
 40
0.0
 40
0.0
 40
0.3959920262
 40
0.5688240665
 40
0.7177066979
 40
0.8383425475
 40
0.9272706392
 40
0.9588795666
 40
0.9816275821
 40
0.9953788934
 40
1.0
 40
1.0
 40
1.0
 40
1.0
 10
236.9157754958
 20
214.1003351771
 30
0.0
 10
237.0217030916
 20
214.0846855387
 30
0.0
 10
237.1738569907
 20
214.0620140877
 30
0.0
 10
237.3657952254
 20
214.0336814765
 30
0.0
 10
237.4842710914
 20
214.0163845952
 30
0.0
 10
237.5797868964
 20
214.001943904
 30
0.0
 10
237.6450652882
 20
213.9928080102
 30
0.0
 10
237.6822807839
 20
213.9861817871
 30
0.0
 10
237.702273099
 20
213.9845343134
 30
0.0
 10
237.7100393847
 20
213.9805668844
 30
0.0
 10
237.7182768004
 20
213.9819699168
 30
0.0
 10
237.7181107944
 20
213.9807314324
 30
0.0
  0
SPLINE
  5
349
100
AcDbEntity
  8
0
100
AcDbSpline
 62
9
  6
CONTINUOUS
 70
0
 71
3
 72
14
 73
10
 74
0
 42
0.0000001
 43
0.0000001
 44
0.0000000001
 40
0.0
 40
0.0
 40
0.0
 40
0.0
 40
0.3884203974
 40
0.5654119545
 40
0.7184959789
 40
0.8398245738
 40
0.9273956082
 40
0.9807346794
 40
1.0
 40
1.0
 40
1.0
 40
1.0
 10
247.6534607554
 20
286.8992891706
 30
0.0
 10
247.7508554362
 20
286.88409379
 30
0.0
 10
247.8926357593
 20
286.8611158267
 30
0.0
 10
248.0719269986
 20
286.8297367005
 30
0.0
 10
248.1853643588
 20
286.809023116
 30
0.0
 10
248.2733073223
 20
286.7904590002
 30
0.0
 10
248.3430262511
 20
286.7764008005
 30
0.0
 10
248.3735482037
 20
286.7641547524
 30
0.0
 10
248.4001713092
 20
286.7589068
 30
0.0
 10
248.3994612663
 20
286.7540695006
 30
0.0
  0
SPLINE
  5
34A
100
AcDbEntity
  8
0
100
AcDbSpline
 62
9
  6
CONTINUOUS
 70
0
 71
3
 72
14
 73
10
 74
0
 42
0.0000001
 43
0.0000001
 44
0.0000000001
 40
0.0
 40
0.0
 40
0.0
 40
0.0
 40
0.3850251858
 40
0.5612609755
 40
0.7141928711
 40
0.8359382306
 40
0.9243344003
 40
0.9787922414
 40
1.0
 40
1.0
 40
1.0
 40
1.0
 10
247.5580540394
 20
290.7266198229
 30
0.0
 10
247.6539027156
 20
290.7494252225
 30
0.0
 10
247.7934240854
 20
290.7839851744
 30
0.0
 10
247.9697851282
 20
290.8309622928
 30
0.0
 10
248.0813976066
 20
290.8624664568
 30
0.0
 10
248.1686144704
 20
290.8896887553
 30
0.0
 10
248.2360921676
 20
290.9127886727
 30
0.0
 10
248.2682014185
 20
290.9281057763
 30
0.0
 10
248.2921758969
 20
290.9398067628
 30
0.0
 10
248.2909902133
 20
290.9451025221
 30
0.0
  0
SPLINE
  5
34B
100
AcDbEntity
  8
0
100
AcDbSpline
 62
9
  6
CONTINUOUS
 70
0
 71
3
 72
14
 73
10
 74
0
 42
0.0000001
 43
0.0000001
 44
0.0000000001
 40
0.0
 40
0.0
 40
0.0
 40
0.0
 40
0.3846462535
 40
0.5617445673
 40
0.7155149463
 40
0.8376350165
 40
0.925955177
 40
0.9799609478
 40
1.0
 40
1.0
 40
1.0
 40
1.0
 10
239.5685210168
 20
326.2243670972
 30
0.0
 10
239.6692819221
 20
326.2478772501
 30
0.0
 10
239.8163022391
 20
326.2833697945
 30
0.0
 10
240.0024138511
 20
326.3311994663
 30
0.0
 10
240.1208148476
 20
326.3629596502
 30
0.0
 10
240.2128589389
 20
326.3903747327
 30
0.0
 10
240.2851758286
 20
326.4124182551
 30
0.0
 10
240.3175647147
 20
326.4280129211
 30
0.0
 10
240.3444698837
 20
326.4375908389
 30
0.0
 10
240.3432921737
 20
326.4428509843
 30
0.0
  0
SPLINE
  5
34C
100
AcDbEntity
  8
0
100
AcDbSpline
 62
9
  6
CONTINUOUS
 70
0
 71
3
 72
9
 73
5
 74
0
 42
0.0000001
 43
0.0000001
 44
0.0000000001
 40
0.0
 40
0.0
 40
0.0
 40
0.0
 40
0.4989720803
 40
1.0
 40
1.0
 40
1.0
 40
1.0
 10
237.1043318753
 20
332.6131741483
 30
0.0
 10
237.5240233028
 20
332.5359282086
 30
0.0
 10
238.3417674951
 20
332.196535548
 30
0.0
 10
238.9386978404
 20
331.540781537
 30
0.0
 10
239.1516760469
 20
331.1689592309
 30
0.0
  0
LINE
  5
34D
100
AcDbEntity
  8
0
100
AcDbLine
 62
9
  6
CONTINUOUS
 10
210.2833004907
 20
335.6165609618
 11
210.4342865012
 21
335.6165040341
  0
SPLINE
  5
34E
100
AcDbEntity
  8
0
100
AcDbSpline
 62
9
  6
CONTINUOUS
 70
0
 71
3
 72
8
 73
4
 74
0
 42
0.0000001
 43
0.0000001
 44
0.0000000001
 40
0.0
 40
0.0
 40
0.0
 40
0.0
 40
1.0
 40
1.0
 40
1.0
 40
1.0
 10
200.9833828709
 20
335.7881557848
 30
0.0
 10
202.3774640353
 20
335.7538266537
 30
0.0
 10
203.771535683
 20
335.719108711
 30
0.0
 10
205.165597167
 20
335.683989468
 30
0.0
  0
SPLINE
  5
34F
100
AcDbEntity
  8
0
100
AcDbSpline
 62
9
  6
CONTINUOUS
 70
0
 71
3
 72
19
 73
15
 74
0
 42
0.0000001
 43
0.0000001
 44
0.0000000001
 40
0.0
 40
0.0
 40
0.0
 40
0.0
 40
0.0109142466
 40
0.0230948281
 40
0.0427391951
 40
0.0714206157
 40
0.1094311816
 40
0.1565015205
 40
0.212190052
 40
0.2760108602
 40
0.4257423681
 40
0.6002184522
 40
0.793595872
 40
1.0
 40
1.0
 40
1.0
 40
1.0
 10
198.1870900833
 20
336.1639302946
 30
0.0
 10
198.1799824709
 20
336.1561932161
 30
0.0
 10
198.1689632041
 20
336.1321892011
 30
0.0
 10
198.1986166617
 20
336.0966541414
 30
0.0
 10
198.2490401289
 20
336.069563535
 30
0.0
 10
198.3274790162
 20
336.0399331493
 30
0.0
 10
198.4330525259
 20
336.0113319079
 30
0.0
 10
198.5656135294
 20
335.9826738978
 30
0.0
 10
198.7235564872
 20
335.9549522852
 30
0.0
 10
198.980049741
 20
335.9175056733
 30
0.0
 10
199.3514361041
 20
335.8767143427
 30
0.0
 10
199.8481368198
 20
335.8370436994
 30
0.0
 10
200.4001160355
 20
335.8062818735
 30
0.0
 10
200.7847542915
 20
335.7930004624
 30
0.0
 10
200.9833828709
 20
335.7881560286
 30
0.0
  0
SPLINE
  5
350
100
AcDbEntity
  8
0
100
AcDbSpline
 62
7
  6
CONTINUOUS
 70
0
 71
3
 72
9
 73
5
 74
0
 42
0.0000001
 43
0.0000001
 44
0.0000000001
 40
0.0
 40
0.0
 40
0.0
 40
0.0
 40
0.2026725286
 40
1.0
 40
1.0
 40
1.0
 40
1.0
 10
213.3844936584
 20
335.8164742335
 30
0.0
 10
213.3844905882
 20
335.8216844966
 30
0.0
 10
213.3796270598
 20
335.8475043689
 30
0.0
 10
213.3590582863
 20
335.8668362284
 30
0.0
 10
213.3429003553
 20
335.8794485269
 30
0.0
  0
SPLINE
  5
351
100
AcDbEntity
  8
0
100
AcDbSpline
 62
7
  6
CONTINUOUS
 70
0
 71
3
 72
8
 73
4
 74
0
 42
0.0000001
 43
0.0000001
 44
0.0000000001
 40
0.0
 40
0.0
 40
0.0
 40
0.0
 40
1.0
 40
1.0
 40
1.0
 40
1.0
 10
210.3262018917
 20
335.8969548776
 30
0.0
 10
210.3139993972
 20
335.8883297285
 30
0.0
 10
210.3022652213
 20
335.8782070358
 30
0.0
 10
210.2940245147
 20
335.865741691
 30
0.0
  0
SPLINE
  5
352
100
AcDbEntity
  8
0
100
AcDbSpline
 62
7
  6
CONTINUOUS
 70
0
 71
3
 72
8
 73
4
 74
0
 42
0.0000001
 43
0.0000001
 44
0.0000000001
 40
0.0
 40
0.0
 40
0.0
 40
0.0
 40
1.0
 40
1.0
 40
1.0
 40
1.0
 10
210.2940245147
 20
335.865741691
 30
0.0
 10
210.2882533943
 20
335.8570119777
 30
0.0
 10
210.2842613281
 20
335.8463684355
 30
0.0
 10
210.2842618737
 20
335.835903555
 30
0.0
  0
SPLINE
  5
353
100
AcDbEntity
  8
0
100
AcDbSpline
 62
9
  6
CONTINUOUS
 70
0
 71
3
 72
13
 73
9
 74
0
 42
0.0000001
 43
0.0000001
 44
0.0000000001
 40
0.0
 40
0.0
 40
0.0
 40
0.0
 40
0.1838905853
 40
0.4020703474
 40
0.5268501314
 40
0.666008516
 40
0.8237513514
 40
1.0
 40
1.0
 40
1.0
 40
1.0
 10
179.2780110647
 20
193.1006103616
 30
0.0
 10
179.5536594996
 20
193.0079004086
 30
0.0
 10
180.1991660809
 20
192.9246752576
 30
0.0
 10
181.036557237
 20
193.1484043418
 30
0.0
 10
181.6404218568
 20
193.6332749749
 30
0.0
 10
182.0073271945
 20
194.2044821789
 30
0.0
 10
182.2045173683
 20
194.935409457
 30
0.0
 10
182.2265774926
 20
195.4670522713
 30
0.0
 10
182.2129979794
 20
195.7454572105
 30
0.0
  0
SPLINE
  5
354
100
AcDbEntity
  8
0
100
AcDbSpline
 62
9
  6
CONTINUOUS
 70
0
 71
3
 72
9
 73
5
 74
0
 42
0.0000001
 43
0.0000001
 44
0.0000000001
 40
0.0
 40
0.0
 40
0.0
 40
0.0
 40
0.4950948869
 40
1.0
 40
1.0
 40
1.0
 40
1.0
 10
178.5537732317
 20
192.9593245326
 30
0.0
 10
178.6526467213
 20
193.0375863197
 30
0.0
 10
178.8866116434
 20
193.1644585755
 30
0.0
 10
179.1562626588
 20
193.1420653424
 30
0.0
 10
179.277973093
 20
193.1005462606
 30
0.0
  0
SPLINE
  5
355
100
AcDbEntity
  8
0
100
AcDbSpline
 62
9
  6
CONTINUOUS
 70
0
 71
3
 72
9
 73
5
 74
0
 42
0.0000001
 43
0.0000001
 44
0.0000000001
 40
0.0
 40
0.0
 40
0.0
 40
0.0
 40
0.4596968706
 40
1.0
 40
1.0
 40
1.0
 40
1.0
 10
182.2130050371
 20
195.7454934154
 30
0.0
 10
182.5053741827
 20
195.5838468312
 30
0.0
 10
183.1780279922
 20
195.2990442263
 30
0.0
 10
183.8786276599
 20
195.1011379809
 30
0.0
 10
184.2611768921
 20
195.0126075898
 30
0.0
  0
SPLINE
  5
356
100
AcDbEntity
  8
0
100
AcDbSpline
 62
9
  6
CONTINUOUS
 70
0
 71
3
 72
9
 73
5
 74
0
 42
0.0000001
 43
0.0000001
 44
0.0000000001
 40
0.0
 40
0.0
 40
0.0
 40
0.0
 40
0.5123459581
 40
1.0
 40
1.0
 40
1.0
 40
1.0
 10
179.367024281
 20
190.6278720507
 30
0.0
 10
179.6238901175
 20
188.9063681093
 30
0.0
 10
180.0483428414
 20
185.5340000033
 30
0.0
 10
180.2950832017
 20
182.1443537297
 30
0.0
 10
180.3828002579
 20
180.4899999731
 30
0.0
  0
SPLINE
  5
357
100
AcDbEntity
  8
0
100
AcDbSpline
 62
9
  6
CONTINUOUS
 70
0
 71
3
 72
13
 73
9
 74
0
 42
0.0000001
 43
0.0000001
 44
0.0000000001
 40
0.0
 40
0.0
 40
0.0
 40
0.0
 40
0.1784436676
 40
0.341272412
 40
0.6186730431
 40
0.7360765382
 40
0.8386724175
 40
1.0
 40
1.0
 40
1.0
 40
1.0
 10
184.2611771295
 20
195.0126060585
 30
0.0
 10
184.2665616842
 20
194.5737137041
 30
0.0
 10
184.1259785867
 20
193.7296864854
 30
0.0
 10
183.4879655379
 20
192.3318781122
 30
0.0
 10
182.4382962691
 20
191.3579733958
 30
0.0
 10
181.3285120978
 20
190.8336554094
 30
0.0
 10
180.4245739098
 20
190.5741107464
 30
0.0
 10
179.7569477905
 20
190.5541894453
 30
0.0
 10
179.367024281
 20
190.6278720507
 30
0.0
  0
SPLINE
  5
358
100
AcDbEntity
  8
0
100
AcDbSpline
 62
9
  6
CONTINUOUS
 70
0
 71
3
 72
9
 73
5
 74
0
 42
0.0000001
 43
0.0000001
 44
0.0000000001
 40
0.0
 40
0.0
 40
0.0
 40
0.0
 40
0.2543196342
 40
1.0
 40
1.0
 40
1.0
 40
1.0
 10
189.1466867394
 20
175.2310346347
 30
0.0
 10
188.8515233062
 20
176.9089529621
 30
0.0
 10
187.6906973257
 20
183.5065679904
 30
0.0
 10
186.5155825576
 20
190.1018281956
 30
0.0
 10
185.6005695881
 20
195.0126060585
 30
0.0
  0
SPLINE
  5
359
100
AcDbEntity
  8
0
100
AcDbSpline
 62
9
  6
CONTINUOUS
 70
0
 71
3
 72
10
 73
6
 74
0
 42
0.0000001
 43
0.0000001
 44
0.0000000001
 40
0.0
 40
0.0
 40
0.0
 40
0.0
 40
0.1308365481
 40
0.3446001287
 40
1.0
 40
1.0
 40
1.0
 40
1.0
 10
179.3668667143
 20
190.6278388448
 30
0.0
 10
179.33845132
 20
190.619673516
 30
0.0
 10
179.2850946765
 20
190.551731644
 30
0.0
 10
179.208434576
 20
190.3437143136
 30
0.0
 10
179.1715058538
 20
190.1470904634
 30
0.0
 10
179.1474775115
 20
190.0009511105
 30
0.0
  0
SPLINE
  5
35A
100
AcDbEntity
  8
0
100
AcDbSpline
 62
9
  6
CONTINUOUS
 70
0
 71
3
 72
9
 73
5
 74
0
 42
0.0000001
 43
0.0000001
 44
0.0000000001
 40
0.0
 40
0.0
 40
0.0
 40
0.0
 40
0.4834574723
 40
1.0
 40
1.0
 40
1.0
 40
1.0
 10
180.2056383233
 20
180.8460965244
 30
0.0
 10
180.0906555841
 20
182.3271855263
 30
0.0
 10
179.8107419276
 20
185.387876876
 30
0.0
 10
179.3960854918
 20
188.4338312623
 30
0.0
 10
179.1473833661
 20
190.0014331981
 30
0.0
  0
SPLINE
  5
35B
100
AcDbEntity
  8
0
100
AcDbSpline
 62
9
  6
CONTINUOUS
 70
0
 71
3
 72
14
 73
10
 74
0
 42
0.0000001
 43
0.0000001
 44
0.0000000001
 40
0.0
 40
0.0
 40
0.0
 40
0.0
 40
0.345778252
 40
0.5067060642
 40
0.6556872466
 40
0.7878262452
 40
0.8958671149
 40
0.9699492584
 40
1.0
 40
1.0
 40
1.0
 40
1.0
 10
180.2056831096
 20
180.8461064071
 30
0.0
 10
180.2319887896
 20
180.5065943316
 30
0.0
 10
180.2663019582
 20
180.0087239575
 30
0.0
 10
180.3028950881
 20
179.3640371792
 30
0.0
 10
180.3238579039
 20
178.9291601483
 30
0.0
 10
180.341376412
 20
178.5464337593
 30
0.0
 10
180.3499743542
 20
178.236675697
 30
0.0
 10
180.364114723
 20
178.0288751235
 30
0.0
 10
180.3605358402
 20
177.925188405
 30
0.0
 10
180.3667228422
 20
177.8962477549
 30
0.0
  0
SPLINE
  5
35C
100
AcDbEntity
  8
0
100
AcDbSpline
 62
9
  6
CONTINUOUS
 70
0
 71
3
 72
9
 73
5
 74
0
 42
0.0000001
 43
0.0000001
 44
0.0000000001
 40
0.0
 40
0.0
 40
0.0
 40
0.0
 40
0.2770597786
 40
1.0
 40
1.0
 40
1.0
 40
1.0
 10
180.3828003826
 20
180.4899992167
 30
0.0
 10
180.3921217816
 20
180.2778323112
 30
0.0
 10
180.4233228721
 20
179.5119471873
 30
0.0
 10
180.4401197221
 20
178.7454735458
 30
0.0
 10
180.4442395714
 20
178.1913414797
 30
0.0
  0
SPLINE
  5
35D
100
AcDbEntity
  8
0
100
AcDbSpline
 62
9
  6
CONTINUOUS
 70
0
 71
3
 72
11
 73
7
 74
0
 42
0.0000001
 43
0.0000001
 44
0.0000000001
 40
0.0
 40
0.0
 40
0.0
 40
0.0
 40
0.3916332849
 40
0.702271912
 40
0.9102403733
 40
1.0
 40
1.0
 40
1.0
 40
1.0
 10
180.4442395714
 20
178.1913414797
 30
0.0
 10
180.4449692421
 20
178.0931985932
 30
0.0
 10
180.4463363776
 20
177.9172540151
 30
0.0
 10
180.4457233771
 20
177.6889872893
 30
0.0
 10
180.4492634335
 20
177.5368410197
 30
0.0
 10
180.4470069307
 20
177.4618482199
 30
0.0
 10
180.4500970338
 20
177.4395671898
 30
0.0
  0
SPLINE
  5
35E
100
AcDbEntity
  8
0
100
AcDbSpline
 62
9
  6
CONTINUOUS
 70
0
 71
3
 72
9
 73
5
 74
0
 42
0.0000001
 43
0.0000001
 44
0.0000000001
 40
0.0
 40
0.0
 40
0.0
 40
0.0
 40
0.750413727
 40
1.0
 40
1.0
 40
1.0
 40
1.0
 10
181.2472172186
 20
175.2318529541
 30
0.0
 10
181.031271065
 20
176.5471602334
 30
0.0
 10
180.7434910025
 20
178.2999347081
 30
0.0
 10
180.4548971627
 20
180.0525753376
 30
0.0
 10
180.3828003826
 20
180.4899992167
 30
0.0
  0
SPLINE
  5
35F
100
AcDbEntity
  8
0
100
AcDbSpline
 62
9
  6
CONTINUOUS
 70
0
 71
3
 72
9
 73
5
 74
0
 42
0.0000001
 43
0.0000001
 44
0.0000000001
 40
0.0
 40
0.0
 40
0.0
 40
0.0
 40
0.2429842514
 40
1.0
 40
1.0
 40
1.0
 40
1.0
 10
178.5538326991
 20
192.9595008068
 30
0.0
 10
178.5449277166
 20
192.7141185927
 30
0.0
 10
178.5724510619
 20
191.7024378628
 30
0.0
 10
178.8391237854
 20
190.7014372834
 30
0.0
 10
179.1474912962
 20
190.0013523502
 30
0.0
  0
SPLINE
  5
360
100
AcDbEntity
  8
0
100
AcDbSpline
 62
9
  6
CONTINUOUS
 70
0
 71
3
 72
9
 73
5
 74
0
 42
0.0000001
 43
0.0000001
 44
0.0000000001
 40
0.0
 40
0.0
 40
0.0
 40
0.0
 40
0.2543835629
 40
1.0
 40
1.0
 40
1.0
 40
1.0
 10
195.5074959549
 20
175.2318566581
 30
0.0
 10
195.2927811077
 20
176.9096711472
 30
0.0
 10
194.4485513633
 20
183.5052472619
 30
0.0
 10
193.593808664
 20
190.0995634161
 30
0.0
 10
192.9278499883
 20
195.0125335387
 30
0.0
  0
SPLINE
  5
361
100
AcDbEntity
  8
0
100
AcDbSpline
 62
7
  6
CONTINUOUS
 70
0
 71
3
 72
9
 73
5
 74
0
 42
0.0000001
 43
0.0000001
 44
0.0000000001
 40
0.0
 40
0.0
 40
0.0
 40
0.0
 40
0.5042600341
 40
1.0
 40
1.0
 40
1.0
 40
1.0
 10
200.499476386
 20
175.2401335037
 30
0.0
 10
199.6603803507
 20
175.2359330447
 30
0.0
 10
197.9963330875
 20
175.2725834051
 30
0.0
 10
196.3324252823
 20
175.2318529545
 30
0.0
 10
195.5074964287
 20
175.2318529545
 30
0.0
  0
SPLINE
  5
362
100
AcDbEntity
  8
0
100
AcDbSpline
 62
9
  6
CONTINUOUS
 70
0
 71
3
 72
9
 73
5
 74
0
 42
0.0000001
 43
0.0000001
 44
0.0000000001
 40
0.0
 40
0.0
 40
0.0
 40
0.0
 40
0.2544474583
 40
1.0
 40
1.0
 40
1.0
 40
1.0
 10
205.5172525402
 20
175.2318544406
 30
0.0
 10
205.4379539438
 20
176.9096465869
 30
0.0
 10
205.1262387367
 20
183.5035068204
 30
0.0
 10
204.8105978115
 20
190.0971933555
 30
0.0
 10
204.5645203585
 20
195.0125980975
 30
0.0
  0
SPLINE
  5
363
100
AcDbEntity
  8
0
100
AcDbSpline
 62
9
  6
CONTINUOUS
 70
0
 71
3
 72
9
 73
5
 74
0
 42
0.0000001
 43
0.0000001
 44
0.0000000001
 40
0.0
 40
0.0
 40
0.0
 40
0.0
 40
0.2544572058
 40
1.0
 40
1.0
 40
1.0
 40
1.0
 10
210.4342725722
 20
175.2318528365
 30
0.0
 10
210.4165540655
 20
176.9096413879
 30
0.0
 10
210.3469069026
 20
183.5032392681
 30
0.0
 10
210.2763811161
 20
190.0968284623
 30
0.0
 10
210.2213932077
 20
195.0126045985
 30
0.0
  0
SPLINE
  5
364
100
AcDbEntity
  8
0
100
AcDbSpline
 62
9
  6
CONTINUOUS
 70
0
 71
3
 72
9
 73
5
 74
0
 42
0.0000001
 43
0.0000001
 44
0.0000000001
 40
0.0
 40
0.0
 40
0.0
 40
0.0
 40
0.2161448501
 40
1.0
 40
1.0
 40
1.0
 40
1.0
 10
225.8342657643
 20
178.0263527612
 30
0.0
 10
225.8342657643
 20
177.9918780917
 30
0.0
 10
225.8028842245
 20
177.8319068508
 30
0.0
 10
225.6723818834
 20
177.7108484483
 30
0.0
 10
225.5662334329
 20
177.6447928839
 30
0.0
  0
SPLINE
  5
365
100
AcDbEntity
  8
0
100
AcDbSpline
 62
9
  6
CONTINUOUS
 70
0
 71
3
 72
9
 73
5
 74
0
 42
0.0000001
 43
0.0000001
 44
0.0000000001
 40
0.0
 40
0.0
 40
0.0
 40
0.0
 40
0.2464543318
 40
1.0
 40
1.0
 40
1.0
 40
1.0
 10
225.8342657442
 20
170.9122018205
 30
0.0
 10
225.8342647837
 20
171.4658193818
 30
0.0
 10
225.8113027938
 20
173.7121631169
 30
0.0
 10
225.693026862
 20
175.9569381034
 30
0.0
 10
225.5663821168
 20
177.6449054584
 30
0.0
  0
SPLINE
  5
366
100
AcDbEntity
  8
0
100
AcDbSpline
 62
9
  6
CONTINUOUS
 70
0
 71
3
 72
23
 73
19
 74
0
 42
0.0000001
 43
0.0000001
 44
0.0000000001
 40
0.0
 40
0.0
 40
0.0
 40
0.0
 40
0.008324169
 40
0.0138171512
 40
0.0211832994
 40
0.0421654481
 40
0.0718390166
 40
0.1104804702
 40
0.1581483845
 40
0.2147372535
 40
0.2796278357
 40
0.4311641662
 40
0.6061332018
 40
0.7977215013
 40
0.8474746513
 40
0.897642085
 40
0.9483457727
 40
1.0
 40
1.0
 40
1.0
 40
1.0
 10
225.8342657643
 20
170.9120572068
 30
0.0
 10
225.834258418
 20
170.8920078113
 30
0.0
 10
225.8130178334
 20
170.8565916614
 30
0.0
 10
225.7611845301
 20
170.8474219381
 30
0.0
 10
225.6799022822
 20
170.8488850158
 30
0.0
 10
225.5418242307
 20
170.8757585494
 30
0.0
 10
225.3330999738
 20
170.9264401066
 30
0.0
 10
225.0668742207
 20
171.0123961159
 30
0.0
 10
224.7458406111
 20
171.1367567991
 30
0.0
 10
224.3743900929
 20
171.3045738605
 30
0.0
 10
223.787046347
 20
171.6006061774
 30
0.0
 10
222.9694589616
 20
172.0710760888
 30
0.0
 10
221.9116604255
 20
172.733190641
 30
0.0
 10
221.0738812472
 20
173.2843350238
 30
0.0
 10
220.4919529532
 20
173.6771868156
 30
0.0
 10
220.1891478046
 20
173.8770212577
 30
0.0
 10
219.8775714309
 20
174.0718015728
 30
0.0
 10
219.6771751586
 20
174.2157397029
 30
0.0
 10
219.5722459139
 20
174.2825864367
 30
0.0
  0
SPLINE
  5
367
100
AcDbEntity
  8
0
100
AcDbSpline
 62
9
  6
CONTINUOUS
 70
0
 71
3
 72
13
 73
9
 74
0
 42
0.0000001
 43
0.0000001
 44
0.0000000001
 40
0.0
 40
0.0
 40
0.0
 40
0.0
 40
0.3300736112
 40
0.4733828802
 40
0.6015960957
 40
0.8169109829
 40
0.9107119113
 40
1.0
 40
1.0
 40
1.0
 40
1.0
 10
219.4552955956
 20
105.3204175276
 30
0.0
 10
220.393841011
 20
105.4628888172
 30
0.0
 10
221.72924197
 20
105.8058804765
 30
0.0
 10
223.2909631954
 20
106.5635963151
 30
0.0
 10
224.4522787218
 20
107.3483847051
 30
0.0
 10
225.3268500467
 20
108.3061034515
 30
0.0
 10
225.7637244091
 20
109.3764844719
 30
0.0
 10
225.8342624407
 20
109.9054329821
 30
0.0
 10
225.8342657622
 20
110.1622270673
 30
0.0
  0
SPLINE
  5
368
100
AcDbEntity
  8
0
100
AcDbSpline
 62
9
  6
CONTINUOUS
 70
0
 71
3
 72
8
 73
4
 74
0
 42
0.0000001
 43
0.0000001
 44
0.0000000001
 40
0.0
 40
0.0
 40
0.0
 40
0.0
 40
1.0
 40
1.0
 40
1.0
 40
1.0
 10
219.4553136098
 20
174.3251955059
 30
0.0
 10
219.4966136682
 20
174.3212876343
 30
0.0
 10
219.5366437197
 20
174.3038808032
 30
0.0
 10
219.5722459139
 20
174.2825864367
 30
0.0
  0
SPLINE
  5
369
100
AcDbEntity
  8
0
100
AcDbSpline
 62
9
  6
CONTINUOUS
 70
0
 71
3
 72
9
 73
5
 74
0
 42
0.0000001
 43
0.0000001
 44
0.0000000001
 40
0.0
 40
0.0
 40
0.0
 40
0.0
 40
0.5066616204
 40
1.0
 40
1.0
 40
1.0
 40
1.0
 10
219.4553134471
 20
174.325189297
 30
0.0
 10
218.3709331009
 20
174.3555080368
 30
0.0
 10
216.2294223192
 20
174.4901436113
 30
0.0
 10
214.1213937631
 20
174.8954155605
 30
0.0
 10
213.0942644037
 20
175.1418469047
 30
0.0
  0
SPLINE
  5
36A
100
AcDbEntity
  8
0
100
AcDbSpline
 62
7
  6
CONTINUOUS
 70
0
 71
3
 72
21
 73
17
 74
0
 42
0.0000001
 43
0.0000001
 44
0.0000000001
 40
0.0
 40
0.0
 40
0.0
 40
0.0
 40
0.0565827824
 40
0.0757058255
 40
0.0891805075
 40
0.0990072037
 40
0.1088355903
 40
0.1364291712
 40
0.1755986072
 40
0.2235811307
 40
0.2776744149
 40
0.3369077981
 40
0.4702153542
 40
0.6259212133
 40
0.8037609265
 40
1.0
 40
1.0
 40
1.0
 40
1.0
 10
219.442433851
 20
101.92769253
 30
0.0
 10
219.4081613041
 20
101.9188290192
 30
0.0
 10
219.3618089495
 20
101.9076004378
 30
0.0
 10
219.3061027726
 20
101.9039696197
 30
0.0
 10
219.2792772784
 20
101.9074453978
 30
0.0
 10
219.2615029521
 20
101.9206608044
 30
0.0
 10
219.2544246541
 20
101.9509114709
 30
0.0
 10
219.2688669849
 20
101.9979812825
 30
0.0
 10
219.2949746793
 20
102.0642351326
 30
0.0
 10
219.3285523728
 20
102.1462344275
 30
0.0
 10
219.359473573
 20
102.2423430574
 30
0.0
 10
219.3946364909
 20
102.3929068115
 30
0.0
 10
219.4082870771
 20
102.6113760228
 30
0.0
 10
219.4054245182
 20
102.9032426013
 30
0.0
 10
219.4044420904
 20
103.2346631669
 30
0.0
 10
219.399740185
 20
103.4689471989
 30
0.0
 10
219.3889341494
 20
103.5912446252
 30
0.0
  0
SPLINE
  5
36B
100
AcDbEntity
  8
0
100
AcDbSpline
 62
7
  6
CONTINUOUS
 70
0
 71
3
 72
9
 73
5
 74
0
 42
0.0000001
 43
0.0000001
 44
0.0000000001
 40
0.0
 40
0.0
 40
0.0
 40
0.0
 40
0.242904307
 40
1.0
 40
1.0
 40
1.0
 40
1.0
 10
219.3889341494
 20
103.5912446252
 30
0.0
 10
219.3854995886
 20
103.6301153052
 30
0.0
 10
219.3680931543
 20
103.7898606554
 30
0.0
 10
219.341528027
 20
103.9483877854
 30
0.0
 10
219.3218053877
 20
104.0684040438
 30
0.0
  0
SPLINE
  5
36C
100
AcDbEntity
  8
0
100
AcDbSpline
 62
7
  6
CONTINUOUS
 70
0
 71
3
 72
10
 73
6
 74
0
 42
0.0000001
 43
0.0000001
 44
0.0000000001
 40
0.0
 40
0.0
 40
0.0
 40
0.0
 40
0.4890781175
 40
0.7441337239
 40
1.0
 40
1.0
 40
1.0
 40
1.0
 10
219.3218053877
 20
104.0684040438
 30
0.0
 10
219.2884771755
 20
104.2712129716
 30
0.0
 10
219.2382197658
 20
104.5831863213
 30
0.0
 10
219.2907045995
 20
105.0045662836
 30
0.0
 10
219.3821862968
 20
105.2039559492
 30
0.0
 10
219.4428624582
 20
105.2927251136
 30
0.0
  0
SPLINE
  5
36D
100
AcDbEntity
  8
0
100
AcDbSpline
 62
9
  6
CONTINUOUS
 70
0
 71
3
 72
11
 73
7
 74
0
 42
0.0000001
 43
0.0000001
 44
0.0000000001
 40
0.0
 40
0.0
 40
0.0
 40
0.0
 40
0.2492106117
 40
0.4984767422
 40
0.7485224191
 40
1.0
 40
1.0
 40
1.0
 40
1.0
 10
226.5786797999
 20
189.2386638685
 30
0.0
 10
226.6962384755
 20
189.668842675
 30
0.0
 10
226.9438633124
 20
190.5262214059
 30
0.0
 10
227.4071082518
 20
191.7847490946
 30
0.0
 10
227.9870970287
 20
192.9988788254
 30
0.0
 10
228.4760626562
 20
193.7568499184
 30
0.0
 10
228.7545330922
 20
194.1103505153
 30
0.0
  0
SPLINE
  5
36E
100
AcDbEntity
  8
0
100
AcDbSpline
 62
9
  6
CONTINUOUS
 70
0
 71
3
 72
8
 73
4
 74
0
 42
0.0000001
 43
0.0000001
 44
0.0000000001
 40
0.0
 40
0.0
 40
0.0
 40
0.0
 40
1.0
 40
1.0
 40
1.0
 40
1.0
 10
228.9504449432
 20
194.3479907502
 30
0.0
 10
229.1698262143
 20
194.6020938911
 30
0.0
 10
229.4107814145
 20
194.8417533108
 30
0.0
 10
229.6801066291
 20
195.0421541019
 30
0.0
  0
SPLINE
  5
36F
100
AcDbEntity
  8
0
100
AcDbSpline
 62
9
  6
CONTINUOUS
 70
0
 71
3
 72
8
 73
4
 74
0
 42
0.0000001
 43
0.0000001
 44
0.0000000001
 40
0.0
 40
0.0
 40
0.0
 40
0.0
 40
1.0
 40
1.0
 40
1.0
 40
1.0
 10
219.5213333942
 20
176.0950035889
 30
0.0
 10
219.6508481416
 20
176.1004968828
 30
0.0
 10
219.7818203891
 20
176.0889789721
 30
0.0
 10
219.9089665153
 20
176.0637181591
 30
0.0
  0
SPLINE
  5
370
100
AcDbEntity
  8
0
100
AcDbSpline
 62
9
  6
CONTINUOUS
 70
0
 71
3
 72
9
 73
5
 74
0
 42
0.0000001
 43
0.0000001
 44
0.0000000001
 40
0.0
 40
0.0
 40
0.0
 40
0.0
 40
0.5004173882
 40
1.0
 40
1.0
 40
1.0
 40
1.0
 10
215.3851933771
 20
175.6582959029
 30
0.0
 10
216.0690673259
 20
175.7768428647
 30
0.0
 10
217.4455975335
 20
175.9563791141
 30
0.0
 10
218.8291661282
 20
176.0628236643
 30
0.0
 10
219.5213333942
 20
176.0950035889
 30
0.0
  0
SPLINE
  5
371
100
AcDbEntity
  8
0
100
AcDbSpline
 62
9
  6
CONTINUOUS
 70
0
 71
3
 72
12
 73
8
 74
0
 42
0.0000001
 43
0.0000001
 44
0.0000000001
 40
0.0
 40
0.0
 40
0.0
 40
0.0
 40
0.2562091155
 40
0.5104899714
 40
0.7598096032
 40
0.8820139621
 40
1.0
 40
1.0
 40
1.0
 40
1.0
 10
225.6330087332
 20
181.7532747826
 30
0.0
 10
225.8379592002
 20
182.8075102131
 30
0.0
 10
226.2441569875
 20
184.9087825697
 30
0.0
 10
226.9378100044
 20
188.0169508762
 30
0.0
 10
227.6959751966
 20
190.5368578103
 30
0.0
 10
228.5401480621
 20
192.4101268913
 30
0.0
 10
229.0589682748
 20
193.2781282282
 30
0.0
 10
229.3505608995
 20
193.6775964519
 30
0.0
  0
SPLINE
  5
372
100
AcDbEntity
  8
0
100
AcDbSpline
 62
9
  6
CONTINUOUS
 70
0
 71
3
 72
9
 73
5
 74
0
 42
0.0000001
 43
0.0000001
 44
0.0000000001
 40
0.0
 40
0.0
 40
0.0
 40
0.0
 40
0.5756736682
 40
1.0
 40
1.0
 40
1.0
 40
1.0
 10
225.5257235911
 20
178.8521134851
 30
0.0
 10
225.6181751645
 20
178.8897379265
 30
0.0
 10
225.7760739464
 20
178.9714274238
 30
0.0
 10
225.8721758907
 20
179.1354357158
 30
0.0
 10
225.8775484981
 20
179.2088119257
 30
0.0
  0
SPLINE
  5
373
100
AcDbEntity
  8
0
100
AcDbSpline
 62
9
  6
CONTINUOUS
 70
0
 71
3
 72
14
 73
10
 74
0
 42
0.0000001
 43
0.0000001
 44
0.0000000001
 40
0.0
 40
0.0
 40
0.0
 40
0.0
 40
0.4045638728
 40
0.5810765739
 40
0.7320959879
 40
0.8513907564
 40
0.9347641724
 40
0.983537309
 40
1.0
 40
1.0
 40
1.0
 40
1.0
 10
230.0538037088
 20
195.2927146758
 30
0.0
 10
230.1015461646
 20
195.2150346207
 30
0.0
 10
230.1702129133
 20
195.1034191367
 30
0.0
 10
230.2572807039
 20
194.9635032833
 30
0.0
 10
230.3102899369
 20
194.8773440985
 30
0.0
 10
230.3533725816
 20
194.811677798
 30
0.0
 10
230.382294521
 20
194.7598058442
 30
0.0
 10
230.4032288132
 20
194.7387428918
 30
0.0
 10
230.4089474023
 20
194.7194877966
 30
0.0
 10
230.4126475216
 20
194.7197621783
 30
0.0
  0
SPLINE
  5
374
100
AcDbEntity
  8
0
100
AcDbSpline
 62
9
  6
CONTINUOUS
 70
0
 71
3
 72
9
 73
5
 74
0
 42
0.0000001
 43
0.0000001
 44
0.0000000001
 40
0.0
 40
0.0
 40
0.0
 40
0.0
 40
0.2442648718
 40
1.0
 40
1.0
 40
1.0
 40
1.0
 10
233.0193058365
 20
196.502348725
 30
0.0
 10
232.8253364523
 20
196.3915951717
 30
0.0
 10
232.0073378252
 20
195.9795683378
 30
0.0
 10
231.1287277526
 20
195.7037563861
 30
0.0
 10
230.460645967
 20
195.5270241995
 30
0.0
  0
SPLINE
  5
375
100
AcDbEntity
  8
0
100
AcDbSpline
 62
9
  6
CONTINUOUS
 70
0
 71
3
 72
8
 73
4
 74
0
 42
0.0000001
 43
0.0000001
 44
0.0000000001
 40
0.0
 40
0.0
 40
0.0
 40
0.0
 40
1.0
 40
1.0
 40
1.0
 40
1.0
 10
230.0540159889
 20
195.2928322268
 30
0.0
 10
230.1891112173
 20
195.3716660362
 30
0.0
 10
230.3248692508
 20
195.44935933
 30
0.0
 10
230.4605171932
 20
195.5272382486
 30
0.0
  0
SPLINE
  5
376
100
AcDbEntity
  8
0
100
AcDbSpline
 62
9
  6
CONTINUOUS
 70
0
 71
3
 72
8
 73
4
 74
0
 42
0.0000001
 43
0.0000001
 44
0.0000000001
 40
0.0
 40
0.0
 40
0.0
 40
0.0
 40
1.0
 40
1.0
 40
1.0
 40
1.0
 10
229.6801064218
 20
195.0421583561
 30
0.0
 10
229.7995343674
 20
195.133005264
 30
0.0
 10
229.9242319974
 20
195.2175174844
 30
0.0
 10
230.0540159889
 20
195.2928322268
 30
0.0
  0
LINE
  5
377
100
AcDbEntity
  8
0
100
AcDbLine
 62
9
  6
CONTINUOUS
 10
229.9237804008
 20
195.4875265929
 11
229.6801064218
 21
195.0421583561
  0
SPLINE
  5
378
100
AcDbEntity
  8
0
100
AcDbSpline
 62
9
  6
CONTINUOUS
 70
0
 71
3
 72
9
 73
5
 74
0
 42
0.0000001
 43
0.0000001
 44
0.0000000001
 40
0.0
 40
0.0
 40
0.0
 40
0.0
 40
0.2517162305
 40
1.0
 40
1.0
 40
1.0
 40
1.0
 10
235.7881923415
 20
206.0807823631
 30
0.0
 10
235.2900684106
 20
205.1953330001
 30
0.0
 10
233.3195329123
 20
201.6729676037
 30
0.0
 10
231.3754372898
 20
198.1359013503
 30
0.0
 10
229.9237755083
 20
195.4875277611
 30
0.0
  0
SPLINE
  5
379
100
AcDbEntity
  8
0
100
AcDbSpline
 62
9
  6
CONTINUOUS
 70
0
 71
3
 72
14
 73
10
 74
0
 42
0.0000001
 43
0.0000001
 44
0.0000000001
 40
0.0
 40
0.0
 40
0.0
 40
0.0
 40
0.2415357192
 40
0.3668334203
 40
0.4930714638
 40
0.6197343837
 40
0.7465626217
 40
0.8732713612
 40
1.0
 40
1.0
 40
1.0
 40
1.0
 10
232.7520956601
 20
196.906642039
 30
0.0
 10
232.749912694
 20
197.6882150394
 30
0.0
 10
233.0570252793
 20
198.8687547809
 30
0.0
 10
233.6719966027
 20
200.3360960263
 30
0.0
 10
234.1904552547
 20
201.4459252802
 30
0.0
 10
234.7065946702
 20
202.5606186343
 30
0.0
 10
235.1814154446
 20
203.6967031401
 30
0.0
 10
235.549363337
 20
204.8730395953
 30
0.0
 10
235.7182373721
 20
205.6767169521
 30
0.0
 10
235.7881923415
 20
206.0807823631
 30
0.0
  0
SPLINE
  5
37A
100
AcDbEntity
  8
0
100
AcDbSpline
 62
9
  6
CONTINUOUS
 70
0
 71
3
 72
8
 73
4
 74
0
 42
0.0000001
 43
0.0000001
 44
0.0000000001
 40
0.0
 40
0.0
 40
0.0
 40
0.0
 40
1.0
 40
1.0
 40
1.0
 40
1.0
 10
230.460517312
 20
195.5272380888
 30
0.0
 10
231.2381954698
 20
195.9632600975
 30
0.0
 10
232.0084013433
 20
196.4148928423
 30
0.0
 10
232.7520956601
 20
196.906642039
 30
0.0
  0
SPLINE
  5
37B
100
AcDbEntity
  8
0
100
AcDbSpline
 62
9
  6
CONTINUOUS
 70
0
 71
3
 72
9
 73
5
 74
0
 42
0.0000001
 43
0.0000001
 44
0.0000000001
 40
0.0
 40
0.0
 40
0.0
 40
0.0
 40
0.5421815004
 40
1.0
 40
1.0
 40
1.0
 40
1.0
 10
213.0942712654
 20
194.6210128222
 30
0.0
 10
216.1384263809
 20
194.7190655717
 30
0.0
 10
221.751727061
 20
194.9497768729
 30
0.0
 10
227.3586290397
 20
195.3021216638
 30
0.0
 10
229.9237592527
 20
195.4875018943
 30
0.0
  0
SPLINE
  5
37C
100
AcDbEntity
  8
0
100
AcDbSpline
 62
7
  6
CONTINUOUS
 70
0
 71
3
 72
9
 73
5
 74
0
 42
0.0000001
 43
0.0000001
 44
0.0000000001
 40
0.0
 40
0.0
 40
0.0
 40
0.0
 40
0.4980444715
 40
1.0
 40
1.0
 40
1.0
 40
1.0
 10
236.9157245393
 20
214.1003344986
 30
0.0
 10
232.9618963674
 20
214.0158989102
 30
0.0
 10
225.0220494616
 20
214.2954828184
 30
0.0
 10
217.0760591813
 20
213.9218192029
 30
0.0
 10
213.0942657643
 20
214.1001640069
 30
0.0
  0
SPLINE
  5
37D
100
AcDbEntity
  8
0
100
AcDbSpline
 62
9
  6
CONTINUOUS
 70
0
 71
3
 72
9
 73
5
 74
0
 42
0.0000001
 43
0.0000001
 44
0.0000000001
 40
0.0
 40
0.0
 40
0.0
 40
0.0
 40
0.2483960076
 40
1.0
 40
1.0
 40
1.0
 40
1.0
 10
235.7881982458
 20
206.0807759974
 30
0.0
 10
235.881865603
 20
206.7447421095
 30
0.0
 10
236.2586810907
 20
209.4177950478
 30
0.0
 10
236.6345013933
 20
212.0909886136
 30
0.0
 10
236.915760864
 20
214.1003407406
 30
0.0
  0
SPLINE
  5
37E
100
AcDbEntity
  8
0
100
AcDbSpline
 62
9
  6
CONTINUOUS
 70
0
 71
3
 72
11
 73
7
 74
0
 42
0.0000001
 43
0.0000001
 44
0.0000000001
 40
0.0
 40
0.0
 40
0.0
 40
0.0
 40
0.3729773818
 40
0.6929669851
 40
0.9030853824
 40
1.0
 40
1.0
 40
1.0
 40
1.0
 10
235.7881922942
 20
206.0807816773
 30
0.0
 10
235.8868440647
 20
206.0705640116
 30
0.0
 10
236.0688586274
 20
206.0566229804
 30
0.0
 10
236.3160016514
 20
206.0572646789
 30
0.0
 10
236.4686854881
 20
206.072677111
 30
0.0
 10
236.5631314189
 20
206.1116694347
 30
0.0
 10
236.5668692657
 20
206.1371677689
 30
0.0
  0
SPLINE
  5
37F
100
AcDbEntity
  8
0
100
AcDbSpline
 62
9
  6
CONTINUOUS
 70
0
 71
3
 72
18
 73
14
 74
0
 42
0.0000001
 43
0.0000001
 44
0.0000000001
 40
0.0
 40
0.0
 40
0.0
 40
0.0
 40
0.0039396039
 40
0.0157648753
 40
0.035476582
 40
0.0630732085
 40
0.0985397435
 40
0.1418571584
 40
0.2519762921
 40
0.3933141541
 40
0.5655729655
 40
0.7680335029
 40
1.0
 40
1.0
 40
1.0
 40
1.0
 10
177.9613721077
 20
189.2132145337
 30
0.0
 10
177.9599028857
 20
189.2143735156
 30
0.0
 10
177.973851515
 20
189.2176815226
 30
0.0
 10
177.9811284038
 20
189.2267070987
 30
0.0
 10
178.0094780527
 20
189.2406648441
 30
0.0
 10
178.0415601731
 20
189.2606880753
 30
0.0
 10
178.0857546068
 20
189.2863762806
 30
0.0
 10
178.1623849833
 20
189.3325234136
 30
0.0
 10
178.2819193546
 20
189.4057958565
 30
0.0
 10
178.4516757862
 20
189.5137914907
 30
0.0
 10
178.6562230093
 20
189.6489595804
 30
0.0
 10
178.8929803573
 20
189.813283395
 30
0.0
 10
179.0594930916
 20
189.9352200332
 30
0.0
 10
179.1475363491
 20
190.0014700956
 30
0.0
  0
SPLINE
  5
380
100
AcDbEntity
  8
0
100
AcDbSpline
 62
9
  6
CONTINUOUS
 70
0
 71
3
 72
15
 73
11
 74
0
 42
0.0000001
 43
0.0000001
 44
0.0000000001
 40
0.0
 40
0.0
 40
0.0
 40
0.0
 40
0.0157313344
 40
0.0353681638
 40
0.0628485573
 40
0.1413362313
 40
0.251202023
 40
0.3923481107
 40
0.5643544228
 40
1.0
 40
1.0
 40
1.0
 40
1.0
 10
177.9722098351
 20
192.5898693646
 30
0.0
 10
177.9748508557
 20
192.5873959624
 30
0.0
 10
177.9830941281
 20
192.5974291656
 30
0.0
 10
177.9954530223
 20
192.600730168
 30
0.0
 10
178.0213370321
 20
192.6160060386
 30
0.0
 10
178.0648102963
 20
192.6381932112
 30
0.0
 10
178.1310710023
 20
192.6758446275
 30
0.0
 10
178.2151535684
 20
192.7244991126
 30
0.0
 10
178.3612285665
 20
192.8159484318
 30
0.0
 10
178.4749627448
 20
192.8975317281
 30
0.0
 10
178.5538555616
 20
192.9593107414
 30
0.0
  0
SPLINE
  5
381
100
AcDbEntity
  8
0
100
AcDbSpline
 62
9
  6
CONTINUOUS
 70
0
 71
3
 72
26
 73
22
 74
0
 42
0.0000001
 43
0.0000001
 44
0.0000000001
 40
0.0
 40
0.0
 40
0.0
 40
0.0
 40
0.1603735742
 40
0.3178797318
 40
0.3953139252
 40
0.4716547291
 40
0.5466758259
 40
0.6200203594
 40
0.6912340123
 40
0.7595839017
 40
0.8240298699
 40
0.8824511191
 40
0.9320342142
 40
0.967921464
 40
0.9789870932
 40
0.9827172559
 40
0.985467839
 40
0.9878628549
 40
0.9908107145
 40
0.9948060645
 40
1.0
 40
1.0
 40
1.0
 40
1.0
 10
185.9589672911
 20
229.6458388724
 30
0.0
 10
185.3459294091
 20
230.7138469537
 30
0.0
 10
184.1541345945
 20
232.8442115997
 30
0.0
 10
182.7199689926
 20
235.5196373353
 30
0.0
 10
181.6126745787
 20
237.6378985707
 30
0.0
 10
180.8075281284
 20
239.1993831408
 30
0.0
 10
180.0233940275
 20
240.7363471802
 30
0.0
 10
179.2609398225
 20
242.2401657251
 30
0.0
 10
178.5226454024
 20
243.698799948
 30
0.0
 10
177.8117968684
 20
245.0947388032
 30
0.0
 10
177.1374696345
 20
246.3990409487
 30
0.0
 10
176.5131725353
 20
247.5668767247
 30
0.0
 10
175.9624272604
 20
248.5251738587
 30
0.0
 10
175.5610143501
 20
249.1486296465
 30
0.0
 10
175.295348895
 20
249.4391224953
 30
0.0
 10
175.1814891766
 20
249.5117286611
 30
0.0
 10
175.1119522773
 20
249.529043109
 30
0.0
 10
175.0517889835
 20
249.4998959794
 30
0.0
 10
175.0157561362
 20
249.4350179085
 30
0.0
 10
174.9927062078
 20
249.3446515964
 30
0.0
 10
174.9858769048
 20
249.2740903855
 30
0.0
 10
174.9836427302
 20
249.2342708458
 30
0.0
  0
SPLINE
  5
382
100
AcDbEntity
  8
0
100
AcDbSpline
 62
9
  6
CONTINUOUS
 70
0
 71
3
 72
8
 73
4
 74
0
 42
0.0000001
 43
0.0000001
 44
0.0000000001
 40
0.0
 40
0.0
 40
0.0
 40
0.0
 40
1.0
 40
1.0
 40
1.0
 40
1.0
 10
239.40598536
 20
326.8697143058
 30
0.0
 10
239.3355513676
 20
327.1293962398
 30
0.0
 10
239.2586993876
 20
327.387511367
 30
0.0
 10
239.1727005232
 20
327.6424620475
 30
0.0
  0
SPLINE
  5
383
100
AcDbEntity
  8
0
100
AcDbSpline
 62
9
  6
CONTINUOUS
 70
0
 71
3
 72
9
 73
5
 74
0
 42
0.0000001
 43
0.0000001
 44
0.0000000001
 40
0.0
 40
0.0
 40
0.0
 40
0.0
 40
0.2553055483
 40
1.0
 40
1.0
 40
1.0
 40
1.0
 10
239.1138670645
 20
327.8122304817
 30
0.0
 10
239.0705097768
 20
327.9339908581
 30
0.0
 10
238.8917340658
 20
328.4077618936
 30
0.0
 10
238.6851337276
 20
328.870356588
 30
0.0
 10
238.5285860745
 20
329.2133222519
 30
0.0
  0
LINE
  5
384
100
AcDbEntity
  8
0
100
AcDbLine
 62
9
  6
CONTINUOUS
 10
238.5285860745
 20
329.2133222519
 11
238.4740291336
 21
329.3325932996
  0
SPLINE
  5
385
100
AcDbEntity
  8
0
100
AcDbSpline
 62
9
  6
CONTINUOUS
 70
0
 71
3
 72
12
 73
8
 74
0
 42
0.0000001
 43
0.0000001
 44
0.0000000001
 40
0.0
 40
0.0
 40
0.0
 40
0.0
 40
0.359841157
 40
0.6617562304
 40
0.8816022399
 40
0.9542026775
 40
1.0
 40
1.0
 40
1.0
 40
1.0
 10
238.4740291336
 20
329.3325932996
 30
0.0
 10
238.296156694
 20
329.7206829436
 30
0.0
 10
237.9630611408
 20
330.4317360639
 30
0.0
 10
237.541578476
 20
331.3887742666
 30
0.0
 10
237.2754033513
 20
332.0425697225
 30
0.0
 10
237.1495592839
 20
332.4234628991
 30
0.0
 10
237.1128544894
 20
332.5595134906
 30
0.0
 10
237.1043318752
 20
332.6131741483
 30
0.0
  0
SPLINE
  5
386
100
AcDbEntity
  8
0
100
AcDbSpline
 62
9
  6
CONTINUOUS
 70
0
 71
3
 72
16
 73
12
 74
0
 42
0.0000001
 43
0.0000001
 44
0.0000000001
 40
0.0
 40
0.0
 40
0.0
 40
0.0
 40
0.06677929
 40
0.1337607796
 40
0.2001603227
 40
0.2662786852
 40
0.332097367
 40
0.3974669341
 40
0.5264345173
 40
0.7749308299
 40
1.0
 40
1.0
 40
1.0
 40
1.0
 10
219.9089483633
 20
176.0638106427
 30
0.0
 10
220.0436950164
 20
176.1006084474
 30
0.0
 10
220.291830326
 20
176.2397126363
 30
0.0
 10
220.6409373275
 20
176.4687325861
 30
0.0
 10
221.019423896
 20
176.6471873713
 30
0.0
 10
221.3865363703
 20
176.8399711452
 30
0.0
 10
221.7492728189
 20
177.0369308723
 30
0.0
 10
222.2290677048
 20
177.2936706988
 30
0.0
 10
223.0549893686
 20
177.7129458693
 30
0.0
 10
224.1776300375
 20
178.2868776721
 30
0.0
 10
225.0904151866
 20
178.6732714567
 30
0.0
 10
225.5259285699
 20
178.8520305831
 30
0.0
  0
SPLINE
  5
387
100
AcDbEntity
  8
0
100
AcDbSpline
 62
9
  6
CONTINUOUS
 70
0
 71
3
 72
9
 73
5
 74
0
 42
0.0000001
 43
0.0000001
 44
0.0000000001
 40
0.0
 40
0.0
 40
0.0
 40
0.0
 40
0.2465230523
 40
1.0
 40
1.0
 40
1.0
 40
1.0
 10
225.5259285699
 20
178.8520305831
 30
0.0
 10
225.5265724013
 20
178.9270164125
 30
0.0
 10
225.529527791
 20
179.2311856772
 30
0.0
 10
225.5346415271
 20
179.5353451579
 30
0.0
 10
225.5408758514
 20
179.7644566731
 30
0.0
  0
SPLINE
  5
388
100
AcDbEntity
  8
0
100
AcDbSpline
 62
9
  6
CONTINUOUS
 70
0
 71
3
 72
9
 73
5
 74
0
 42
0.0000001
 43
0.0000001
 44
0.0000000001
 40
0.0
 40
0.0
 40
0.0
 40
0.0
 40
0.2455691578
 40
1.0
 40
1.0
 40
1.0
 40
1.0
 10
225.5408758514
 20
179.7644566731
 30
0.0
 10
225.5453084044
 20
179.9273530629
 30
0.0
 10
225.5686648784
 20
180.5905354906
 30
0.0
 10
225.6011138142
 20
181.2534269428
 30
0.0
 10
225.6334440452
 20
181.7530129927
 30
0.0
  0
SPLINE
  5
389
100
AcDbEntity
  8
0
100
AcDbSpline
 62
9
  6
CONTINUOUS
 70
0
 71
3
 72
11
 73
7
 74
0
 42
0.0000001
 43
0.0000001
 44
0.0000000001
 40
0.0
 40
0.0
 40
0.0
 40
0.0
 40
0.2455371254
 40
0.4951135377
 40
0.7470304069
 40
1.0
 40
1.0
 40
1.0
 40
1.0
 10
225.6334440452
 20
181.7530129927
 30
0.0
 10
225.6741761944
 20
182.3700394499
 30
0.0
 10
225.7607492118
 20
183.6139605898
 30
0.0
 10
225.9137370849
 20
185.4891475302
 30
0.0
 10
226.1652102036
 20
187.3745939247
 30
0.0
 10
226.443450543
 20
188.6161548405
 30
0.0
 10
226.5786110495
 20
189.238739999
 30
0.0
  0
SPLINE
  5
38A
100
AcDbEntity
  8
0
100
AcDbSpline
 62
9
  6
CONTINUOUS
 70
0
 71
3
 72
9
 73
5
 74
0
 42
0.0000001
 43
0.0000001
 44
0.0000000001
 40
0.0
 40
0.0
 40
0.0
 40
0.0
 40
0.2493173887
 40
1.0
 40
1.0
 40
1.0
 40
1.0
 10
226.5786110495
 20
189.238739999
 30
0.0
 10
226.009146545
 20
188.1516208683
 30
0.0
 10
223.7436050926
 20
183.781512195
 30
0.0
 10
221.5417750978
 20
179.3786387063
 30
0.0
 10
219.9089483633
 20
176.0638106427
 30
0.0
  0
SPLINE
  5
38B
100
AcDbEntity
  8
0
100
AcDbSpline
 62
9
  6
CONTINUOUS
 70
0
 71
3
 72
11
 73
7
 74
0
 42
0.0000001
 43
0.0000001
 44
0.0000000001
 40
0.0
 40
0.0
 40
0.0
 40
0.0
 40
0.2529637847
 40
0.5047265242
 40
0.7546146692
 40
1.0
 40
1.0
 40
1.0
 40
1.0
 10
233.9878555884
 20
197.7531644567
 30
0.0
 10
234.2014868102
 20
198.032331224
 30
0.0
 10
234.622704579
 20
198.5935320286
 30
0.0
 10
235.1769027536
 20
199.4866127339
 30
0.0
 10
235.6189265049
 20
200.4269871275
 30
0.0
 10
235.8261303282
 20
201.0905650448
 30
0.0
 10
235.875670326
 20
201.4279445884
 30
0.0
  0
SPLINE
  5
38C
100
AcDbEntity
  8
0
100
AcDbSpline
 62
9
  6
CONTINUOUS
 70
0
 71
3
 72
10
 73
6
 74
0
 42
0.0000001
 43
0.0000001
 44
0.0000000001
 40
0.0
 40
0.0
 40
0.0
 40
0.0
 40
0.252217167
 40
0.5027231344
 40
1.0
 40
1.0
 40
1.0
 40
1.0
 10
233.9878553118
 20
197.7531646429
 30
0.0
 10
233.9620754938
 20
197.7175899736
 30
0.0
 10
233.8973860144
 20
197.6574204783
 30
0.0
 10
233.7711656248
 20
197.5378598728
 30
0.0
 10
233.6672517909
 20
197.4584576584
 30
0.0
 10
233.5966697276
 20
197.4082455703
 30
0.0
  0
SPLINE
  5
38D
100
AcDbEntity
  8
0
100
AcDbSpline
 62
9
  6
CONTINUOUS
 70
0
 71
3
 72
8
 73
4
 74
0
 42
0.0000001
 43
0.0000001
 44
0.0000000001
 40
0.0
 40
0.0
 40
0.0
 40
0.0
 40
1.0
 40
1.0
 40
1.0
 40
1.0
 10
233.5966697276
 20
197.4082455703
 30
0.0
 10
233.4068161162
 20
197.273183689
 30
0.0
 10
233.2067143656
 20
197.1519045917
 30
0.0
 10
233.0009364325
 20
197.0426272024
 30
0.0
  0
SPLINE
  5
38E
100
AcDbEntity
  8
0
100
AcDbSpline
 62
9
  6
CONTINUOUS
 70
0
 71
3
 72
8
 73
4
 74
0
 42
0.0000001
 43
0.0000001
 44
0.0000000001
 40
0.0
 40
0.0
 40
0.0
 40
0.0
 40
1.0
 40
1.0
 40
1.0
 40
1.0
 10
233.0009364325
 20
197.0426272024
 30
0.0
 10
232.9168338484
 20
196.9979649265
 30
0.0
 10
232.8309239927
 20
196.9561876029
 30
0.0
 10
232.7504031798
 20
196.9053509799
 30
0.0
  0
SPLINE
  5
38F
100
AcDbEntity
  8
0
100
AcDbSpline
 62
9
  6
CONTINUOUS
 70
0
 71
3
 72
9
 73
5
 74
0
 42
0.0000001
 43
0.0000001
 44
0.0000000001
 40
0.0
 40
0.0
 40
0.0
 40
0.0
 40
0.3324938948
 40
1.0
 40
1.0
 40
1.0
 40
1.0
 10
232.750433075
 20
196.905312964
 30
0.0
 10
232.7810553198
 20
196.8612156491
 30
0.0
 10
232.8721545044
 20
196.727958804
 30
0.0
 10
232.9646535508
 20
196.5953072827
 30
0.0
 10
233.0192743324
 20
196.5023920628
 30
0.0
  0
SPLINE
  5
390
100
AcDbEntity
  8
0
100
AcDbSpline
 62
9
  6
CONTINUOUS
 70
0
 71
3
 72
9
 73
5
 74
0
 42
0.0000001
 43
0.0000001
 44
0.0000000001
 40
0.0
 40
0.0
 40
0.0
 40
0.0
 40
0.2932701842
 40
1.0
 40
1.0
 40
1.0
 40
1.0
 10
233.0192743516
 20
196.5023920365
 30
0.0
 10
233.051718172
 20
196.5210984228
 30
0.0
 10
233.1644523068
 20
196.5808099902
 30
0.0
 10
233.2800156113
 20
196.6375314228
 30
0.0
 10
233.3526048486
 20
196.6911565675
 30
0.0
  0
ENDSEC
  0
SECTION
  2
OBJECTS
  0
DICTIONARY
  5
C
100
AcDbDictionary
280
0
281
1
  3
ACAD_GROUP
350
D
  3
ACAD_MLINESTYLE
350
17
  3
ACAD_LAYOUT
350
1A
  3
ACAD_PLOTSETTINGS
350
19
  3
ACAD_PLOTSTYLENAME
350
E
  0
DICTIONARY
  5
D
102
{ACAD_REACTORS
330
C
102
}
100
AcDbDictionary
280
0
281
1
  0
ACDBDICTIONARYWDFLT
  5
E
102
{ACAD_REACTORS
330
C
102
}
100
AcDbDictionary
281
1
  3
Normal
350
F
100
AcDbDictionaryWithDefault
340
F
  0
DICTIONARY
  5
17
102
{ACAD_REACTORS
330
C
102
}
100
AcDbDictionary
280
0
281
1
  3
Standard
350
18
  0
DICTIONARY
  5
19
102
{ACAD_REACTORS
330
C
102
}
100
AcDbDictionary
281
1
  0
DICTIONARY
  5
1A
102
{ACAD_REACTORS
330
C
102
}
100
AcDbDictionary
281
1
  3
Model
350
391
  3
Layout1
350
392
  0
ACDBPLACEHOLDER
  5
F
102
{ACAD_REACTORS
330
E
102
}
  0
MLINESTYLE
  5
18
102
{ACAD_REACTORS
330
17
102
}
100
AcDbMlineStyle
  2
STANDARD
 70
0
  3

 62
256
 51
90.0
 52
90.0
 71
2
 49
0.5
 62
256
  6
BYLAYER
 49
-0.5
 62
256
  6
BYLAYER
  0
LAYOUT
  5
391
102
{ACAD_REACTORS
330
1A
102
}
100
AcDbPlotSettings
  1

  2
none_device
  4
ANSI_C_(22.00_x_17.00_Inches)
  6

 40
0.0
 41
0.0
 42
0.0
 43
0.0
 44
558.8
 45
431.8
 46
0.0
 47
0.0
 48
0.0
 49
0.0
140
0.0
141
0.0
142
1.0
143
1.0
 70
1024
 72
1
 73
0
 74
0
  7

 75
0
147
1.0
148
0.0
149
0.0
100
AcDbLayout
  1
Model
 70
0
 71
0
 10
0.0
 20
0.0
 11
558.8
 21
431.8
 12
0.0
 22
0.0
 32
0.0
 14
0.0
 24
0.0
 34
0.0
 15
0.0
 25
0.0
 35
0.0
146
0.0
 13
0.0
 23
0.0
 33
0.0
 16
1.0
 26
0.0
 36
0.0
 17
0.0
 27
1.0
 37
0.0
 76
0
330
219
345
0
346
0
  0
LAYOUT
  5
392
102
{ACAD_REACTORS
330
1A
102
}
100
AcDbPlotSettings
  1

  2
none_device
  4
ANSI_C_(22.00_x_17.00_Inches)
  6

 40
0.0
 41
0.0
 42
0.0
 43
0.0
 44
558.8
 45
431.8
 46
0.0
 47
0.0
 48
0.0
 49
0.0
140
0.0
141
0.0
142
1.0
143
1.0
 70
0
 72
1
 73
0
 74
0
  7

 75
0
147
1.0
148
0.0
149
0.0
100
AcDbLayout
  1
Layout1
 70
0
 71
1
 10
0.0
 20
0.0
 11
558.8
 21
431.8
 12
0.0
 22
0.0
 32
0.0
 14
0.0
 24
0.0
 34
0.0
 15
0.0
 25
0.0
 35
0.0
146
0.0
 13
0.0
 23
0.0
 33
0.0
 16
1.0
 26
0.0
 36
0.0
 17
0.0
 27
1.0
 37
0.0
 76
0
330
21A
345
0
346
0
  0
ENDSEC
  0
EOF
