999
DXF file: C:\Users\sesa63760\Dev\_Creo\CAD\MCADPE0010499_3D-CAD\drw0001_4.dxf
999
Pro/ENGINEER 2019471 by Parametric Technology Corporation
  0
SECTION
  2
HEADER
  9
$ACADVER
  1
AC1024
  9
$DWGCODEPAGE
  3
ANSI_1252
  9
$EXTMAX
 10
42.1389676447
 20
59.5965399546
 30
0.0
  9
$EXTMIN
 10
0.0
 20
0.0
 30
0.0
  9
$LIMMIN
 10
0.0
 20
0.0
  9
$LIMMAX
 10
42.1389676447
 20
59.5965399546
  9
$VIEWCTR
 10
21.0694838223
 20
29.7982699773
  9
$VIEWSIZE
 40
59.5965399546
  9
$CLAYER
  8
0
  9
$LTSCALE
 40
3.8848114933
  9
$CELTYPE
  6
BYLAYER
  9
$DIMSCALE
 40
1.0
  9
$DIMASZ
 40
0.5016543767
  9
$DIMEXO
 40
1.0
  9
$DIMDLI
 40
2.6840515772
  9
$DIMEXE
 40
1.0
  9
$DIMCEN
 40
0.6356964262
  9
$DIMLFAC
 40
1.0
  9
$DIMBLK
  1
_FILLED
  9
$DIMALT
 70
0
  9
$DIMALTF
 40
0.0393700787
  9
$DIMTXT
 40
0.7023161274
  9
$DIMTOL
 70
1
  9
$DIMLIM
 70
0
  9
$DIMTFAC
 40
1.0
  9
$DIMTP
 40
0.01
  9
$DIMTM
 40
0.01
  9
$DIMGAP
 40
0.625
  9
$DIMDSEP
 70
46
  9
$AUNITS
 70
0
  9
$PDMODE
 70
3
  9
$PDSIZE
 40
0.3125
  9
$HANDSEED
  5
2B6
  9
$TILEMODE
 70
1
  9
$MEASUREMENT
 70
1
  9
$INSUNITS
 70
4
  0
ENDSEC
  0
SECTION
  2
CLASSES
  0
CLASS
  1
ACDBDICTIONARYWDFLT
  2
AcDbDictionaryWithDefault
  3
AutoCAD 2000
 90
0
 91
1
280
0
281
0
  0
CLASS
  1
ACDBPLACEHOLDER
  2
AcDbPlaceHolder
  3
AutoCAD 2000
 90
0
 91
1
280
0
281
0
  0
CLASS
  1
LAYOUT
  2
AcDbLayout
  3
AutoCAD 2000
 90
0
 91
0
280
0
281
0
  0
ENDSEC
  0
SECTION
  2
TABLES
  0
TABLE
  2
VPORT
  5
8
100
AcDbSymbolTable
 70
2
  0
VPORT
  5
1F4
100
AcDbSymbolTableRecord
100
AcDbViewportTableRecord
  2
*ACTIVE
 70
0
 10
0.0
 20
0.0
 11
1.0
 21
1.0
 12
21.0694838223
 22
29.7982699773
 13
0.0
 23
0.0
 14
1.0
 24
1.0
 15
0.0
 25
0.0
 16
0.0
 26
0.0
 36
1.0
 17
0.0
 27
0.0
 37
0.0
 40
59.5965399546
 41
0.7070707071
 42
50.0
 43
0.0
 44
0.0
 50
0.0
 51
0.0
 71
0
 72
100
 73
1
 74
1
 75
0
 76
0
 77
0
 78
0
  0
ENDTAB
  0
TABLE
  2
LTYPE
  5
5
100
AcDbSymbolTable
 70
6
  0
LTYPE
  5
14
100
AcDbSymbolTableRecord
100
AcDbLinetypeTableRecord
  2
BYBLOCK
 70
0
  3

 72
65
 73
0
 40
0.0
  0
LTYPE
  5
15
100
AcDbSymbolTableRecord
100
AcDbLinetypeTableRecord
  2
BYLAYER
 70
0
  3

 72
65
 73
0
 40
0.0
  0
LTYPE
  5
16
100
AcDbSymbolTableRecord
100
AcDbLinetypeTableRecord
  2
CONTINUOUS
 70
64
  3
Solid line
 72
65
 73
0
 40
0.0
  0
LTYPE
  5
1F5
100
AcDbSymbolTableRecord
100
AcDbLinetypeTableRecord
  2
CENTER
 70
64
  3
____ _ ____ _ ____ _ ____ _ ____ _ ____ _ ____
 72
65
 73
4
 40
0.6
 49
0.375
 74
0
 49
-0.075
 74
0
 49
0.075
 74
0
 49
-0.075
 74
0
  0
LTYPE
  5
1F6
100
AcDbSymbolTableRecord
100
AcDbLinetypeTableRecord
  2
HIDDEN
 70
64
  3
- - - - - - - - - - - - - - - - - - - -
 72
65
 73
2
 40
0.2
 49
0.1
 74
0
 49
-0.1
 74
0
  0
LTYPE
  5
1F7
100
AcDbSymbolTableRecord
100
AcDbLinetypeTableRecord
  2
PHANTOM
 70
64
  3
_____ _ _ _____ _ _ _____ _ _ _____
 72
65
 73
6
 40
0.8
 49
0.45
 74
0
 49
-0.05
 74
0
 49
0.1
 74
0
 49
-0.05
 74
0
 49
0.1
 74
0
 49
-0.05
 74
0
  0
LTYPE
  5
1F8
100
AcDbSymbolTableRecord
100
AcDbLinetypeTableRecord
  2
DOT
 70
64
  3
. . . . . . . . . . . . . . . . . . . .
 72
65
 73
2
 40
0.2
 49
0.1
 74
0
 49
-0.1
 74
0
  0
LTYPE
  5
1F9
100
AcDbSymbolTableRecord
100
AcDbLinetypeTableRecord
  2
DASHED
 70
64
  3
- - - - - - - - - - - - - - - - - - - -
 72
65
 73
2
 40
0.2
 49
0.1
 74
0
 49
-0.1
 74
0
  0
ENDTAB
  0
TABLE
  2
LAYER
  5
2
100
AcDbSymbolTable
 70
36
  0
LAYER
  5
10
100
AcDbSymbolTableRecord
100
AcDbLayerTableRecord
  2
0
 70
0
 62
7
  6
CONTINUOUS
370
-3
390
F
  0
LAYER
  5
1FA
100
AcDbSymbolTableRecord
100
AcDbLayerTableRecord
  2
DEFAULT_1
 70
0
 62
7
  6
CENTER
370
-3
390
F
  0
LAYER
  5
1FB
100
AcDbSymbolTableRecord
100
AcDbLayerTableRecord
  2
DEFAULT_2
 70
0
 62
7
  6
HIDDEN
370
-3
390
F
  0
LAYER
  5
1FC
100
AcDbSymbolTableRecord
100
AcDbLayerTableRecord
  2
DEFAULT_3
 70
0
 62
7
  6
PHANTOM
370
-3
390
F
  0
LAYER
  5
1FD
100
AcDbSymbolTableRecord
100
AcDbLayerTableRecord
  2
00_COMPONENTS
 70
0
 62
7
  6
CONTINUOUS
370
-3
390
F
  0
LAYER
  5
1FE
100
AcDbSymbolTableRecord
100
AcDbLayerTableRecord
  2
01_1_DEFAULT_DATUMS
 70
0
 62
7
  6
CONTINUOUS
370
-3
390
F
  0
LAYER
  5
1FF
100
AcDbSymbolTableRecord
100
AcDbLayerTableRecord
  2
01_PLANES
 70
0
 62
7
  6
CONTINUOUS
370
-3
390
F
  0
LAYER
  5
200
100
AcDbSymbolTableRecord
100
AcDbLayerTableRecord
  2
02_COORD_SYS
 70
0
 62
7
  6
CONTINUOUS
370
-3
390
F
  0
LAYER
  5
201
100
AcDbSymbolTableRecord
100
AcDbLayerTableRecord
  2
03_AXES
 70
0
 62
7
  6
CONTINUOUS
370
-3
390
F
  0
LAYER
  5
202
100
AcDbSymbolTableRecord
100
AcDbLayerTableRecord
  2
04_POINTS
 70
0
 62
7
  6
CONTINUOUS
370
-3
390
F
  0
LAYER
  5
203
100
AcDbSymbolTableRecord
100
AcDbLayerTableRecord
  2
05_CURVES
 70
0
 62
7
  6
CONTINUOUS
370
-3
390
F
  0
LAYER
  5
204
100
AcDbSymbolTableRecord
100
AcDbLayerTableRecord
  2
06_SURFS
 70
0
 62
7
  6
CONTINUOUS
370
-3
390
F
  0
LAYER
  5
205
100
AcDbSymbolTableRecord
100
AcDbLayerTableRecord
  2
07_COSMETICS
 70
0
 62
7
  6
CONTINUOUS
370
-3
390
F
  0
LAYER
  5
206
100
AcDbSymbolTableRecord
100
AcDbLayerTableRecord
  2
10_NOTES
 70
0
 62
7
  6
CONTINUOUS
370
-3
390
F
  0
LAYER
  5
207
100
AcDbSymbolTableRecord
100
AcDbLayerTableRecord
  2
11_NOTES_PUB
 70
0
 62
7
  6
CONTINUOUS
370
-3
390
F
  0
LAYER
  5
208
100
AcDbSymbolTableRecord
100
AcDbLayerTableRecord
  2
13_REF_GTOL
 70
0
 62
7
  6
CONTINUOUS
370
-3
390
F
  0
LAYER
  5
209
100
AcDbSymbolTableRecord
100
AcDbLayerTableRecord
  2
16_MISC
 70
0
 62
7
  6
CONTINUOUS
370
-3
390
F
  0
LAYER
  5
20A
100
AcDbSymbolTableRecord
100
AcDbLayerTableRecord
  2
17_NO_PRINT
 70
0
 62
7
  6
CONTINUOUS
370
-3
390
F
  0
LAYER
  5
20B
100
AcDbSymbolTableRecord
100
AcDbLayerTableRecord
  2
18_DATUM_CAMS_JOINTS
 70
0
 62
7
  6
CONTINUOUS
370
-3
390
F
  0
LAYER
  5
20C
100
AcDbSymbolTableRecord
100
AcDbLayerTableRecord
  2
19_DATUM_FUNCTIONAL
 70
0
 62
7
  6
CONTINUOUS
370
-3
390
F
  0
LAYER
  5
20D
100
AcDbSymbolTableRecord
100
AcDbLayerTableRecord
  2
20_DATUM_KINEMATIC_SCHEME
 70
0
 62
7
  6
CONTINUOUS
370
-3
390
F
  0
ENDTAB
  0
TABLE
  2
STYLE
  5
3
100
AcDbSymbolTable
 70
1
  0
STYLE
  5
11
100
AcDbSymbolTableRecord
100
AcDbTextStyleTableRecord
  2
STANDARD
 70
0
 40
0.0
 41
1.0
 50
0.0
 71
0
 42
0.2
  3
ARIAL.TTF
  4

  0
STYLE
  5
20E
100
AcDbSymbolTableRecord
100
AcDbTextStyleTableRecord
  2
TEXTSTYLE_1
 70
0
 40
0.0
 41
0.8
 50
0.0
 71
0
 42
0.2
  3
gdt
  4

  0
ENDTAB
  0
TABLE
  2
VIEW
  5
6
100
AcDbSymbolTable
 70
0
  0
ENDTAB
  0
TABLE
  2
UCS
  5
7
100
AcDbSymbolTable
 70
0
  0
ENDTAB
  0
TABLE
  2
APPID
  5
9
100
AcDbSymbolTable
 70
1
  0
APPID
  5
20F
100
AcDbSymbolTableRecord
100
AcDbRegAppTableRecord
  2
ACAD
 70
0
  0
ENDTAB
  0
TABLE
  2
BLOCK_RECORD
  5
1
100
AcDbSymbolTable
 70
0
  0
BLOCK_RECORD
  5
210
100
AcDbSymbolTableRecord
100
AcDbBlockTableRecord
  2
*Model_Space
  0
BLOCK_RECORD
  5
211
100
AcDbSymbolTableRecord
100
AcDbBlockTableRecord
  2
*Paper_Space
  0
BLOCK_RECORD
  5
212
100
AcDbSymbolTableRecord
100
AcDbBlockTableRecord
  2
_FILLED
  0
ENDTAB
  0
TABLE
  2
DIMSTYLE
  5
A
100
AcDbSymbolTable
 70
1
100
AcDbDimStyleTable
 71
0
  0
DIMSTYLE
105
213
100
AcDbSymbolTableRecord
100
AcDbDimStyleTableRecord
  2
STANDARD
 70
0
  3

  4

 40
1.0
 41
0.5016543767
 42
1.0
 43
0.38
 44
1.0
 45
0.0
 46
0.0
 47
0.01
 48
0.01
140
0.7023161274
141
0.09
142
0.0
143
25.4
144
1.0
145
0.0
146
1.0
147
0.625
 71
1
 72
0
 73
0
 74
0
 75
0
 76
0
 77
1
 78
8
 79
2
170
0
171
1
172
0
173
0
174
0
175
0
176
0
177
0
178
0
270
2
179
2
271
2
272
2
273
2
274
2
275
0
280
0
281
0
282
0
283
1
284
8
285
0
286
0
287
3
288
0
340
11
278
46
341
212
342
212
343
212
344
212
  0
ENDTAB
  0
ENDSEC
  0
SECTION
  2
BLOCKS
  0
BLOCK
  5
20
100
AcDbEntity
  8
0
100
AcDbBlockBegin
  2
*Model_Space
 70
0
 10
0.0
 20
0.0
 30
0.0
  3
*Model_Space
  1

  0
ENDBLK
  5
21
100
AcDbEntity
  8
0
100
AcDbBlockEnd
  0
BLOCK
  5
1C
100
AcDbEntity
  8
0
100
AcDbBlockBegin
  2
*Paper_Space
 70
0
 10
0.0
 20
0.0
 30
0.0
  3
*Paper_Space
  1

  0
ENDBLK
  5
1D
100
AcDbEntity
  8
0
100
AcDbBlockEnd
  0
BLOCK
  5
214
100
AcDbEntity
  8
0
100
AcDbBlockBegin
  2
_FILLED
 70
64
 10
0.0
 20
0.0
  3
_FILLED
  1

  0
SOLID
  5
215
100
AcDbEntity
  8
0
  6
BYBLOCK
 62
0
100
AcDbTrace
 10
0.0
 20
0.0
 11
-1.0
 21
0.25
 12
-1.0
 22
-0.25
 13
-1.0
 23
-0.25
  0
ENDBLK
  5
216
100
AcDbEntity
  8
0
  6
BYBLOCK
 62
0
100
AcDbBlockEnd
  0
ENDSEC
  0
SECTION
  2
ENTITIES
  0
LINE
  5
217
100
AcDbEntity
  8
0
100
AcDbLine
 62
7
  6
BYLAYER
 10
24.1915756824
 20
4.264334969
 11
19.0415756824
 21
4.264334969
  0
LINE
  5
218
100
AcDbEntity
  8
0
100
AcDbLine
 62
7
  6
BYLAYER
 10
24.1915756824
 20
4.5144923317
 11
19.0415756824
 21
4.5144923317
  0
LINE
  5
219
100
AcDbEntity
  8
0
100
AcDbLine
 62
7
  6
BYLAYER
 10
19.0415756824
 20
4.6022999135
 11
24.1915756824
 21
4.6022999135
  0
LINE
  5
21A
100
AcDbEntity
  8
0
100
AcDbLine
 62
7
  6
BYLAYER
 10
19.0415756824
 20
4.8084909025
 11
24.1915756824
 21
4.8084909025
  0
LINE
  5
21B
100
AcDbEntity
  8
0
100
AcDbLine
 62
7
  6
BYLAYER
 10
19.0415756824
 20
5.193655581
 11
24.1915756824
 21
5.193655581
  0
LINE
  5
21C
100
AcDbEntity
  8
0
100
AcDbLine
 62
7
  6
BYLAYER
 10
24.1915756824
 20
5.1975483535
 11
19.0415756824
 21
5.1975483535
  0
LINE
  5
21D
100
AcDbEntity
  8
0
100
AcDbLine
 62
7
  6
BYLAYER
 10
19.0415756824
 20
5.2507231815
 11
24.1915756824
 21
5.2507231815
  0
LINE
  5
21E
100
AcDbEntity
  8
0
100
AcDbLine
 62
7
  6
BYLAYER
 10
24.1915756824
 20
5.6849225442
 11
19.0415756824
 21
5.6849225442
  0
LINE
  5
21F
100
AcDbEntity
  8
0
100
AcDbLine
 62
7
  6
BYLAYER
 10
24.1915756824
 20
8.2468253777
 11
23.9733181053
 21
8.2468253777
  0
LINE
  5
220
100
AcDbEntity
  8
0
100
AcDbLine
 62
7
  6
BYLAYER
 10
24.1915756824
 20
8.9171067665
 11
23.9733177315
 21
8.9171075215
  0
LINE
  5
221
100
AcDbEntity
  8
0
100
AcDbLine
 62
7
  6
BYLAYER
 10
22.2415756824
 20
9.293871045
 11
21.3415756824
 21
9.293871045
  0
LINE
  5
222
100
AcDbEntity
  8
0
100
AcDbLine
 62
7
  6
BYLAYER
 10
20.3415761738
 20
10.232052065
 11
19.4145610475
 21
10.0363741019
  0
LINE
  5
223
100
AcDbEntity
  8
0
100
AcDbLine
 62
7
  6
BYLAYER
 10
23.9733181053
 20
10.827445372
 11
24.1915756824
 21
10.827445372
  0
LINE
  5
224
100
AcDbEntity
  8
0
100
AcDbLine
 62
7
  6
BYLAYER
 10
23.241575191
 20
10.232052065
 11
24.1915756824
 21
10.0315222615
  0
LINE
  5
225
100
AcDbEntity
  8
0
100
AcDbLine
 62
7
  6
BYLAYER
 10
19.5998846163
 20
10.6710206136
 11
20.3415756824
 21
10.8275796524
  0
LINE
  5
226
100
AcDbEntity
  8
0
100
AcDbLine
 62
7
  6
BYLAYER
 10
24.1915756824
 20
10.6270499525
 11
23.2415756824
 21
10.8275796524
  0
LINE
  5
227
100
AcDbEntity
  8
0
100
AcDbLine
 62
7
  6
BYLAYER
 10
23.4915756824
 20
13.1847422541
 11
19.6915756824
 21
13.1847422541
  0
LINE
  5
228
100
AcDbEntity
  8
0
100
AcDbLine
 62
7
  6
BYLAYER
 10
23.4915756824
 20
13.5503502844
 11
19.6915756824
 21
13.5503502844
  0
LINE
  5
229
100
AcDbEntity
  8
0
100
AcDbLine
 62
7
  6
BYLAYER
 10
19.6915756824
 20
16.9564178584
 11
23.4915756824
 21
16.9564178584
  0
LINE
  5
22A
100
AcDbEntity
  8
0
100
AcDbLine
 62
7
  6
BYLAYER
 10
19.0415756824
 20
17.5023182418
 11
24.1915756824
 21
17.5023182418
  0
LINE
  5
22B
100
AcDbEntity
  8
0
100
AcDbLine
 62
7
  6
BYLAYER
 10
24.1915756824
 20
17.9966525626
 11
19.0415756824
 21
17.9966525626
  0
LINE
  5
22C
100
AcDbEntity
  8
0
100
AcDbLine
 62
7
  6
BYLAYER
 10
19.0415756824
 20
18.7516695848
 11
24.1915756824
 21
18.7516695848
  0
LINE
  5
22D
100
AcDbEntity
  8
0
100
AcDbLine
 62
7
  6
BYLAYER
 10
24.1915756824
 20
19.2757077615
 11
23.6165756824
 21
19.2757077615
  0
LINE
  5
22E
100
AcDbEntity
  8
0
100
AcDbLine
 62
7
  6
BYLAYER
 10
19.6165756824
 20
19.2757077615
 11
19.0415756824
 21
19.2757077615
  0
LINE
  5
22F
100
AcDbEntity
  8
0
100
AcDbLine
 62
7
  6
BYLAYER
 10
23.6165756824
 20
20.762513751
 11
19.7715756824
 21
20.762513751
  0
LINE
  5
230
100
AcDbEntity
  8
0
100
AcDbLine
 62
7
  6
BYLAYER
 10
19.7715756824
 20
20.8281271087
 11
19.6165756824
 21
20.8281271087
  0
LINE
  5
231
100
AcDbEntity
  8
0
100
AcDbLine
 62
7
  6
BYLAYER
 10
20.5665756824
 20
21.1347185579
 11
22.6665756824
 21
21.1347185579
  0
LINE
  5
232
100
AcDbEntity
  8
0
100
AcDbLine
 62
7
  6
BYLAYER
 10
20.5665756824
 20
21.3754445671
 11
22.6665756824
 21
21.3754445671
  0
LINE
  5
233
100
AcDbEntity
  8
0
100
AcDbLine
 62
7
  6
BYLAYER
 10
22.6665756824
 20
21.3988411459
 11
20.5665756824
 21
21.3988411459
  0
LINE
  5
234
100
AcDbEntity
  8
0
100
AcDbLine
 62
7
  6
BYLAYER
 10
19.6165756824
 20
22.4022281391
 11
23.6165756824
 21
22.4022281391
  0
LINE
  5
235
100
AcDbEntity
  8
0
100
AcDbLine
 62
7
  6
BYLAYER
 10
19.6165756824
 20
24.0895565969
 11
23.6165756824
 21
24.0895565969
  0
LINE
  5
236
100
AcDbEntity
  8
0
100
AcDbLine
 62
7
  6
BYLAYER
 10
19.7715756824
 20
25.5763625864
 11
23.6165756824
 21
25.5763625864
  0
LINE
  5
237
100
AcDbEntity
  8
0
100
AcDbLine
 62
7
  6
BYLAYER
 10
19.6165756824
 20
25.6419759441
 11
19.7715756824
 21
25.6419759441
  0
LINE
  5
238
100
AcDbEntity
  8
0
100
AcDbLine
 62
7
  6
BYLAYER
 10
20.5665756824
 20
25.9485673933
 11
22.6665756824
 21
25.9485673933
  0
LINE
  5
239
100
AcDbEntity
  8
0
100
AcDbLine
 62
7
  6
BYLAYER
 10
20.5665756824
 20
26.1892934026
 11
22.6665756824
 21
26.1892934026
  0
LINE
  5
23A
100
AcDbEntity
  8
0
100
AcDbLine
 62
7
  6
BYLAYER
 10
22.6665756824
 20
26.2126899813
 11
20.5665756824
 21
26.2126899813
  0
LINE
  5
23B
100
AcDbEntity
  8
0
100
AcDbLine
 62
7
  6
BYLAYER
 10
19.0415756824
 20
4.2645630128
 11
19.0415756824
 21
54.9644955396
  0
LINE
  5
23C
100
AcDbEntity
  8
0
100
AcDbLine
 62
7
  6
BYLAYER
 10
19.3915756824
 20
45.7154426022
 11
19.3915756824
 21
45.1199149112
  0
LINE
  5
23D
100
AcDbEntity
  8
0
100
AcDbLine
 62
7
  6
BYLAYER
 10
19.3915756824
 20
9.8348992204
 11
19.3915756824
 21
9.2393715294
  0
LINE
  5
23E
100
AcDbEntity
  8
0
100
AcDbLine
 62
7
  6
BYLAYER
 10
19.6165756824
 20
26.6920387979
 11
19.6165756824
 21
24.0895565969
  0
LINE
  5
23F
100
AcDbEntity
  8
0
100
AcDbLine
 62
7
  6
BYLAYER
 10
19.6165756824
 20
22.4022281391
 11
19.6165756824
 21
19.2757077614
  0
LINE
  5
240
100
AcDbEntity
  8
0
100
AcDbLine
 62
7
  6
BYLAYER
 10
19.6915756824
 20
41.7700718774
 11
19.6915756824
 21
37.9983962732
  0
LINE
  5
241
100
AcDbEntity
  8
0
100
AcDbLine
 62
7
  6
BYLAYER
 10
19.6915756824
 20
16.9564178584
 11
19.6915756824
 21
13.1847422542
  0
LINE
  5
242
100
AcDbEntity
  8
0
100
AcDbLine
 62
7
  6
BYLAYER
 10
19.7715756824
 20
20.762513751
 11
19.7715756824
 21
22.4022281391
  0
LINE
  5
243
100
AcDbEntity
  8
0
100
AcDbLine
 62
7
  6
BYLAYER
 10
19.7715756824
 20
25.5763625864
 11
19.7715756824
 21
26.6920387979
  0
LINE
  5
244
100
AcDbEntity
  8
0
100
AcDbLine
 62
7
  6
BYLAYER
 10
19.0415756824
 20
26.6920387979
 11
24.1915756824
 21
26.6920387979
  0
LINE
  5
245
100
AcDbEntity
  8
0
100
AcDbLine
 62
7
  6
BYLAYER
 10
19.0415756824
 20
27.1071251734
 11
24.1915756824
 21
27.1071251734
  0
LINE
  5
246
100
AcDbEntity
  8
0
100
AcDbLine
 62
7
  6
BYLAYER
 10
24.1915756824
 20
27.5270343734
 11
19.0415756824
 21
27.5270343734
  0
LINE
  5
247
100
AcDbEntity
  8
0
100
AcDbLine
 62
7
  6
BYLAYER
 10
20.3415756824
 20
46.8310559289
 11
20.3415756824
 21
44.7825694574
  0
LINE
  5
248
100
AcDbEntity
  8
0
100
AcDbLine
 62
7
  6
BYLAYER
 10
20.3415756824
 20
10.1068483963
 11
20.3415756824
 21
11.7192527959
  0
LINE
  5
249
100
AcDbEntity
  8
0
100
AcDbLine
 62
7
  6
BYLAYER
 10
20.4665756824
 20
26.6920387979
 11
20.4665756824
 21
26.0631767509
  0
LINE
  5
24A
100
AcDbEntity
  8
0
100
AcDbLine
 62
7
  6
BYLAYER
 10
20.4665756824
 20
22.4022281391
 11
20.4665756824
 21
21.2493279154
  0
LINE
  5
24B
100
AcDbEntity
  8
0
100
AcDbLine
 62
7
  6
BYLAYER
 10
20.5665756824
 20
21.1347185579
 11
20.5665756824
 21
21.3988411459
  0
LINE
  5
24C
100
AcDbEntity
  8
0
100
AcDbLine
 62
7
  6
BYLAYER
 10
20.5665756824
 20
25.9485673933
 11
20.5665756824
 21
26.2126899813
  0
LINE
  5
24D
100
AcDbEntity
  8
0
100
AcDbLine
 62
7
  6
BYLAYER
 10
21.3415756824
 20
9.1657468369
 11
21.3415756824
 21
9.293871045
  0
LINE
  5
24E
100
AcDbEntity
  8
0
100
AcDbLine
 62
7
  6
BYLAYER
 10
19.0415756824
 20
28.2094098526
 11
24.1915756824
 21
28.2094098526
  0
LINE
  5
24F
100
AcDbEntity
  8
0
100
AcDbLine
 62
7
  6
BYLAYER
 10
24.1915756824
 20
29.1909235161
 11
19.0415756824
 21
29.1909235161
  0
LINE
  5
250
100
AcDbEntity
  8
0
100
AcDbLine
 62
7
  6
BYLAYER
 10
22.2415756824
 20
9.293871045
 11
22.2415756824
 21
9.1657468369
  0
LINE
  5
251
100
AcDbEntity
  8
0
100
AcDbLine
 62
7
  6
BYLAYER
 10
22.6665756824
 20
26.2126899813
 11
22.6665756824
 21
25.9485673933
  0
LINE
  5
252
100
AcDbEntity
  8
0
100
AcDbLine
 62
7
  6
BYLAYER
 10
22.6665756824
 20
21.3988411459
 11
22.6665756824
 21
21.1347185579
  0
LINE
  5
253
100
AcDbEntity
  8
0
100
AcDbLine
 62
7
  6
BYLAYER
 10
22.7665756824
 20
21.2493279154
 11
22.7665756824
 21
22.4022281391
  0
LINE
  5
254
100
AcDbEntity
  8
0
100
AcDbLine
 62
7
  6
BYLAYER
 10
22.7665756824
 20
26.0631767509
 11
22.7665756824
 21
26.6920387979
  0
LINE
  5
255
100
AcDbEntity
  8
0
100
AcDbLine
 62
7
  6
BYLAYER
 10
23.2415756824
 20
10.1068484225
 11
23.2415756824
 21
11.7234026863
  0
LINE
  5
256
100
AcDbEntity
  8
0
100
AcDbLine
 62
7
  6
BYLAYER
 10
23.2415756824
 20
44.7825694574
 11
23.2415756824
 21
46.8310557396
  0
LINE
  5
257
100
AcDbEntity
  8
0
100
AcDbLine
 62
7
  6
BYLAYER
 10
23.4915756824
 20
13.1847422542
 11
23.4915756824
 21
16.9564178584
  0
LINE
  5
258
100
AcDbEntity
  8
0
100
AcDbLine
 62
7
  6
BYLAYER
 10
23.4915756824
 20
37.9983962732
 11
23.4915756824
 21
41.7700718774
  0
LINE
  5
259
100
AcDbEntity
  8
0
100
AcDbLine
 62
7
  6
BYLAYER
 10
19.0415756824
 20
29.8990461213
 11
24.1915756824
 21
29.8990461213
  0
LINE
  5
25A
100
AcDbEntity
  8
0
100
AcDbLine
 62
7
  6
BYLAYER
 10
19.0415756824
 20
29.9229065869
 11
24.1915756824
 21
29.9229065869
  0
LINE
  5
25B
100
AcDbEntity
  8
0
100
AcDbLine
 62
7
  6
BYLAYER
 10
23.6165756824
 20
19.2757077615
 11
23.6165756824
 21
22.4022281391
  0
LINE
  5
25C
100
AcDbEntity
  8
0
100
AcDbLine
 62
7
  6
BYLAYER
 10
23.6165756824
 20
24.0895565969
 11
23.6165756824
 21
26.6920387979
  0
LINE
  5
25D
100
AcDbEntity
  8
0
100
AcDbLine
 62
7
  6
BYLAYER
 10
23.9733177315
 20
8.9171075215
 11
23.9733181053
 21
8.2468253777
  0
LINE
  5
25E
100
AcDbEntity
  8
0
100
AcDbLine
 62
7
  6
BYLAYER
 10
23.9733181053
 20
44.1273687596
 11
23.9733181053
 21
44.7976501483
  0
LINE
  5
25F
100
AcDbEntity
  8
0
100
AcDbLine
 62
7
  6
BYLAYER
 10
24.1915756824
 20
4.2645630128
 11
24.1915756824
 21
54.9644955396
  0
LINE
  5
260
100
AcDbEntity
  8
0
100
AcDbLine
 62
7
  6
BYLAYER
 10
19.0415756824
 20
35.3297488049
 11
24.1915756824
 21
35.3297488049
  0
LINE
  5
261
100
AcDbEntity
  8
0
100
AcDbLine
 62
7
  6
BYLAYER
 10
24.1915756824
 20
35.3369388853
 11
19.0415756824
 21
35.3369388853
  0
LINE
  5
262
100
AcDbEntity
  8
0
100
AcDbLine
 62
7
  6
BYLAYER
 10
19.0415756824
 20
35.7357751142
 11
24.1915756824
 21
35.7357751142
  0
LINE
  5
263
100
AcDbEntity
  8
0
100
AcDbLine
 62
7
  6
BYLAYER
 10
24.1915756824
 20
36.5716111802
 11
19.0415756824
 21
36.5716111802
  0
LINE
  5
264
100
AcDbEntity
  8
0
100
AcDbLine
 62
7
  6
BYLAYER
 10
19.6915756824
 20
37.9983962732
 11
23.4915756824
 21
37.9983962732
  0
LINE
  5
265
100
AcDbEntity
  8
0
100
AcDbLine
 62
7
  6
BYLAYER
 10
23.4915756824
 20
38.3640043034
 11
19.6915756824
 21
38.3640043034
  0
LINE
  5
266
100
AcDbEntity
  8
0
100
AcDbLine
 62
7
  6
BYLAYER
 10
23.4915756824
 20
41.7700718774
 11
19.6915756824
 21
41.7700718774
  0
LINE
  5
267
100
AcDbEntity
  8
0
100
AcDbLine
 62
7
  6
BYLAYER
 10
23.9733181053
 20
44.1273687596
 11
24.1915756824
 21
44.1273687596
  0
LINE
  5
268
100
AcDbEntity
  8
0
100
AcDbLine
 62
7
  6
BYLAYER
 10
23.9733181053
 20
44.7976501483
 11
24.1915756824
 21
44.7976501483
  0
LINE
  5
269
100
AcDbEntity
  8
0
100
AcDbLine
 62
7
  6
BYLAYER
 10
20.3415756824
 20
45.0579766327
 11
23.2415756824
 21
45.0579766327
  0
LINE
  5
26A
100
AcDbEntity
  8
0
100
AcDbLine
 62
7
  6
BYLAYER
 10
19.4145610475
 20
45.9169174837
 11
20.3415756824
 21
46.1125953433
  0
LINE
  5
26B
100
AcDbEntity
  8
0
100
AcDbLine
 62
7
  6
BYLAYER
 10
20.3415761739
 20
46.7081231382
 11
19.5998846164
 21
46.5515639954
  0
LINE
  5
26C
100
AcDbEntity
  8
0
100
AcDbLine
 62
7
  6
BYLAYER
 10
24.1915756824
 20
46.7079887538
 11
23.9733181053
 21
46.7079887538
  0
LINE
  5
26D
100
AcDbEntity
  8
0
100
AcDbLine
 62
7
  6
BYLAYER
 10
24.1915756824
 20
45.9120656433
 11
23.2415756824
 21
46.1125953433
  0
LINE
  5
26E
100
AcDbEntity
  8
0
100
AcDbLine
 62
7
  6
BYLAYER
 10
23.2415751909
 20
46.7081231382
 11
24.1915756824
 21
46.5075933344
  0
LINE
  5
26F
100
AcDbEntity
  8
0
100
AcDbLine
 62
7
  6
BYLAYER
 10
19.0415756824
 20
49.2698915874
 11
24.1915756824
 21
49.2698915874
  0
LINE
  5
270
100
AcDbEntity
  8
0
100
AcDbLine
 62
7
  6
BYLAYER
 10
24.1915756824
 20
49.7944181864
 11
19.0415756824
 21
49.7944181864
  0
LINE
  5
271
100
AcDbEntity
  8
0
100
AcDbLine
 62
7
  6
BYLAYER
 10
19.0415756824
 20
49.9375467151
 11
24.1915756824
 21
49.9375467151
  0
LINE
  5
272
100
AcDbEntity
  8
0
100
AcDbLine
 62
7
  6
BYLAYER
 10
19.0415756824
 20
49.9666731733
 11
24.1915756824
 21
49.9666731733
  0
LINE
  5
273
100
AcDbEntity
  8
0
100
AcDbLine
 62
7
  6
BYLAYER
 10
19.0415756824
 20
50.7352673964
 11
24.1915756824
 21
50.7352673964
  0
LINE
  5
274
100
AcDbEntity
  8
0
100
AcDbLine
 62
7
  6
BYLAYER
 10
24.1915756824
 20
51.3861626204
 11
19.0415756824
 21
51.3861626204
  0
LINE
  5
275
100
AcDbEntity
  8
0
100
AcDbLine
 62
7
  6
BYLAYER
 10
19.0415756824
 20
51.8990524133
 11
24.1915756824
 21
51.8990524133
  0
LINE
  5
276
100
AcDbEntity
  8
0
100
AcDbLine
 62
7
  6
BYLAYER
 10
24.1915756824
 20
52.0699283784
 11
19.0415756824
 21
52.0699283784
  0
LINE
  5
277
100
AcDbEntity
  8
0
100
AcDbLine
 62
7
  6
BYLAYER
 10
19.0415756824
 20
52.1637102579
 11
24.1915756824
 21
52.1637102579
  0
LINE
  5
278
100
AcDbEntity
  8
0
100
AcDbLine
 62
7
  6
BYLAYER
 10
24.1915756824
 20
52.5050594782
 11
19.0415756824
 21
52.5050594782
  0
LINE
  5
279
100
AcDbEntity
  8
0
100
AcDbLine
 62
7
  6
BYLAYER
 10
19.0415756824
 20
53.0155891375
 11
24.1915756824
 21
53.0155891375
  0
LINE
  5
27A
100
AcDbEntity
  8
0
100
AcDbLine
 62
7
  6
BYLAYER
 10
19.0415756824
 20
53.0304968342
 11
24.1915756824
 21
53.0304968342
  0
LINE
  5
27B
100
AcDbEntity
  8
0
100
AcDbLine
 62
7
  6
BYLAYER
 10
19.0415756824
 20
54.3384077638
 11
24.1915756824
 21
54.3384077638
  0
LINE
  5
27C
100
AcDbEntity
  8
0
100
AcDbLine
 62
7
  6
BYLAYER
 10
24.1915756824
 20
54.5764512607
 11
19.0415756824
 21
54.5764512607
  0
LINE
  5
27D
100
AcDbEntity
  8
0
100
AcDbLine
 62
7
  6
BYLAYER
 10
19.0415756824
 20
54.9495878428
 11
24.1915756824
 21
54.9495878428
  0
LINE
  5
27E
100
AcDbEntity
  8
0
100
AcDbLine
 62
7
  6
BYLAYER
 10
24.1915756824
 20
54.9644955396
 11
19.0415756824
 21
54.9644955396
  0
ARC
  5
27F
100
AcDbEntity
  8
0
100
AcDbCircle
 62
7
  6
BYLAYER
 10
21.7577160576
 20
45.9121034712
 40
2.3661081272
100
AcDbArc
 50
182.4100378498
 51
197.9744179574
  0
ARC
  5
280
100
AcDbEntity
  8
0
100
AcDbCircle
 62
7
  6
BYLAYER
 10
21.7577160576
 20
10.0315600893
 40
2.3661081272
100
AcDbArc
 50
182.4100378498
 51
197.9744179576
  0
ARC
  5
281
100
AcDbEntity
  8
0
100
AcDbCircle
 62
7
  6
BYLAYER
 10
21.7527268522
 20
45.7152104037
 40
2.3611511812
100
AcDbArc
 50
175.2511132963
 51
179.9943654633
  0
ARC
  5
282
100
AcDbEntity
  8
0
100
AcDbCircle
 62
7
  6
BYLAYER
 10
21.7527268523
 20
9.8346670219
 40
2.3611511813
100
AcDbArc
 50
175.2511132965
 51
179.9943654631
  0
ARC
  5
283
100
AcDbEntity
  8
0
100
AcDbCircle
 62
7
  6
BYLAYER
 10
21.8951245116
 20
46.5075789875
 40
2.2964511709
100
AcDbArc
 50
0.0003579511
 51
5.2821337794
  0
ARC
  5
284
100
AcDbEntity
  8
0
100
AcDbCircle
 62
7
  6
BYLAYER
 10
21.9129568875
 20
10.6279572182
 40
2.2786189756
100
AcDbArc
 50
359.9771868431
 51
5.2718345125
  0
ARC
  5
285
100
AcDbEntity
  8
0
100
AcDbCircle
 62
7
  6
BYLAYER
 10
21.3319291958
 20
10.2871234291
 40
0.9903729808
100
AcDbArc
 50
183.0110504454
 51
190.0775987166
  0
ARC
  5
286
100
AcDbEntity
  8
0
100
AcDbCircle
 62
7
  6
BYLAYER
 10
22.2512222295
 20
10.2871234862
 40
0.9903729192
100
AcDbArc
 50
349.9224578549
 51
356.9898140659
  0
SPLINE
  5
287
100
AcDbEntity
  8
0
100
AcDbSpline
 62
7
  6
BYLAYER
 70
0
 71
3
 72
15
 73
11
 74
0
 42
0.0000001
 43
0.0000001
 44
0.0000000001
 40
0.0
 40
0.0
 40
0.0
 40
0.0
 40
0.1281544411
 40
0.2586929023
 40
0.3897723952
 40
0.5194807093
 40
0.6462157924
 40
0.7688782332
 40
0.8868645016
 40
1.0
 40
1.0
 40
1.0
 40
1.0
 10
23.2415756824
 20
46.8310559167
 30
0.0
 10
23.2415756842
 20
46.8986864992
 30
0.0
 10
23.2268806682
 20
47.035605586
 30
0.0
 10
23.1629334305
 20
47.2325413865
 30
0.0
 10
23.0606831233
 20
47.413526341
 30
0.0
 10
22.9270462352
 20
47.5699353573
 30
0.0
 10
22.7704858086
 20
47.6962481349
 30
0.0
 10
22.5995758463
 20
47.7898768256
 30
0.0
 10
22.4221168071
 20
47.8505804948
 30
0.0
 10
22.301097738
 20
47.8703805438
 30
0.0
 10
22.2415756824
 20
47.8750467509
 30
0.0
  0
SPLINE
  5
288
100
AcDbEntity
  8
0
100
AcDbSpline
 62
7
  6
BYLAYER
 70
0
 71
3
 72
15
 73
11
 74
0
 42
0.0000001
 43
0.0000001
 44
0.0000000001
 40
0.0
 40
0.0
 40
0.0
 40
0.0
 40
0.1252527014
 40
0.250592176
 40
0.3757776816
 40
0.5008701369
 40
0.6258422681
 40
0.7506759938
 40
0.8754600945
 40
1.0
 40
1.0
 40
1.0
 40
1.0
 10
21.7915756824
 20
48.0975533661
 30
0.0
 10
21.9055274178
 20
48.0975533661
 30
0.0
 10
22.1338316748
 20
48.0813139366
 30
0.0
 10
22.4691058388
 20
48.0091112753
 30
0.0
 10
22.7907265066
 20
47.8902101831
 30
0.0
 10
23.0919522777
 20
47.7271326875
 30
0.0
 10
23.3668614933
 20
47.5233208412
 30
0.0
 10
23.6098284289
 20
47.2826731365
 30
0.0
 10
23.8157212083
 20
47.0102185889
 30
0.0
 10
23.9258160019
 20
46.8108536022
 30
0.0
 10
23.9733181053
 20
46.7079887538
 30
0.0
  0
SPLINE
  5
289
100
AcDbEntity
  8
0
100
AcDbSpline
 62
7
  6
BYLAYER
 70
0
 71
3
 72
16
 73
12
 74
0
 42
0.0000001
 43
0.0000001
 44
0.0000000001
 40
0.0
 40
0.0
 40
0.0
 40
0.0
 40
0.1245772954
 40
0.1869315862
 40
0.2493028945
 40
0.3740381324
 40
0.4989390818
 40
0.6240146503
 40
0.7492307635
 40
0.8746053823
 40
1.0
 40
1.0
 40
1.0
 40
1.0
 10
19.3996812401
 20
45.9106873795
 30
0.0
 10
19.4118961645
 20
46.0578360963
 30
0.0
 10
19.451026587
 20
46.2776475996
 30
0.0
 10
19.5432924501
 20
46.5586866245
 30
0.0
 10
19.6614195217
 20
46.8301596841
 30
0.0
 10
19.8561680525
 20
47.1472720206
 30
0.0
 10
20.1564465494
 20
47.4779204226
 30
0.0
 10
20.5131807474
 20
47.7477064168
 30
0.0
 10
20.9140252014
 20
47.9474112304
 30
0.0
 10
21.345005048
 20
48.0699619526
 30
0.0
 10
21.6429521224
 20
48.0975533661
 30
0.0
 10
21.7915756824
 20
48.0975533661
 30
0.0
  0
SPLINE
  5
28A
100
AcDbEntity
  8
0
100
AcDbSpline
 62
7
  6
BYLAYER
 70
0
 71
3
 72
15
 73
11
 74
0
 42
0.0000001
 43
0.0000001
 44
0.0000000001
 40
0.0
 40
0.0
 40
0.0
 40
0.0
 40
0.1130582916
 40
0.2310582356
 40
0.3536508716
 40
0.4804370105
 40
0.6101852741
 40
0.741272507
 40
0.871880821
 40
1.0
 40
1.0
 40
1.0
 40
1.0
 10
21.3415756824
 20
47.8750467509
 30
0.0
 10
21.2820947826
 20
47.8703837702
 30
0.0
 10
21.1611185524
 20
47.8505561662
 30
0.0
 10
20.9837014672
 20
47.7899566208
 30
0.0
 10
20.8127957855
 20
47.6963238492
 30
0.0
 10
20.6562120227
 20
47.5700270813
 30
0.0
 10
20.5225327751
 20
47.4135860061
 30
0.0
 10
20.420241261
 20
47.2325559885
 30
0.0
 10
20.3562760709
 20
47.035602855
 30
0.0
 10
20.3415756806
 20
46.898667281
 30
0.0
 10
20.3415756824
 20
46.8310559168
 30
0.0
  0
SPLINE
  5
28B
100
AcDbEntity
  8
0
100
AcDbSpline
 62
7
  6
BYLAYER
 70
0
 71
3
 72
9
 73
5
 74
0
 42
0.0000001
 43
0.0000001
 44
0.0000000001
 40
0.0
 40
0.0
 40
0.0
 40
0.0
 40
0.2315789676
 40
1.0
 40
1.0
 40
1.0
 40
1.0
 10
22.2415756824
 20
47.8750467509
 30
0.0
 10
22.2069119095
 20
47.8777642032
 30
0.0
 10
22.0571430156
 20
47.8883498396
 30
0.0
 10
21.906949271
 20
47.8933397206
 30
0.0
 10
21.7915756824
 20
47.8933397206
 30
0.0
  0
SPLINE
  5
28C
100
AcDbEntity
  8
0
100
AcDbSpline
 62
7
  6
BYLAYER
 70
0
 71
3
 72
9
 73
5
 74
0
 42
0.0000001
 43
0.0000001
 44
0.0000000001
 40
0.0
 40
0.0
 40
0.0
 40
0.0
 40
0.2656306744
 40
1.0
 40
1.0
 40
1.0
 40
1.0
 10
21.7915756824
 20
47.8933397206
 30
0.0
 10
21.7516919311
 20
47.8933397206
 30
0.0
 10
21.6015448456
 20
47.8916516829
 30
0.0
 10
21.4515020462
 20
47.8836643832
 30
0.0
 10
21.3415756824
 20
47.8750467509
 30
0.0
  0
SPLINE
  5
28D
100
AcDbEntity
  8
0
100
AcDbSpline
 62
7
  6
BYLAYER
 70
0
 71
3
 72
9
 73
5
 74
0
 42
0.0000001
 43
0.0000001
 44
0.0000000001
 40
0.0
 40
0.0
 40
0.0
 40
0.0
 40
0.539952814
 40
1.0
 40
1.0
 40
1.0
 40
1.0
 10
21.7915756824
 20
12.1044714123
 30
0.0
 10
21.6589450294
 20
12.1044714123
 30
0.0
 10
21.413249939
 20
12.0959407058
 30
0.0
 10
21.1685226644
 20
12.0740491859
 30
0.0
 10
21.0561670125
 20
12.0619696521
 30
0.0
  0
SPLINE
  5
28E
100
AcDbEntity
  8
0
100
AcDbSpline
 62
7
  6
BYLAYER
 70
0
 71
3
 72
9
 73
5
 74
0
 42
0.0000001
 43
0.0000001
 44
0.0000000001
 40
0.0
 40
0.0
 40
0.0
 40
0.0
 40
0.4670315508
 40
1.0
 40
1.0
 40
1.0
 40
1.0
 10
22.4240460325
 20
12.0724440273
 30
0.0
 10
22.3258794475
 20
12.0818449976
 30
0.0
 10
22.1153097691
 20
12.0982915078
 30
0.0
 10
21.9041142413
 20
12.1044714123
 30
0.0
 10
21.7915756824
 20
12.1044714123
 30
0.0
  0
SPLINE
  5
28F
100
AcDbEntity
  8
0
100
AcDbSpline
 62
7
  6
BYLAYER
 70
0
 71
3
 72
15
 73
11
 74
0
 42
0.0000001
 43
0.0000001
 44
0.0000000001
 40
0.0
 40
0.0
 40
0.0
 40
0.0
 40
0.1252527014
 40
0.250592176
 40
0.3757776816
 40
0.5008701369
 40
0.625842268
 40
0.7506759936
 40
0.8754600945
 40
1.0
 40
1.0
 40
1.0
 40
1.0
 10
21.7915756824
 20
12.2170099843
 30
0.0
 10
21.9055274178
 20
12.2170099843
 30
0.0
 10
22.1338316748
 20
12.2007705548
 30
0.0
 10
22.4691058388
 20
12.1285678935
 30
0.0
 10
22.7907265066
 20
12.0096668012
 30
0.0
 10
23.0919522778
 20
11.8465893059
 30
0.0
 10
23.3668614933
 20
11.6427774595
 30
0.0
 10
23.6098284276
 20
11.4021297535
 30
0.0
 10
23.8157212105
 20
11.1296752087
 30
0.0
 10
23.9258160052
 20
10.9303102219
 30
0.0
 10
23.9733181053
 20
10.827445372
 30
0.0
  0
SPLINE
  5
290
100
AcDbEntity
  8
0
100
AcDbSpline
 62
7
  6
BYLAYER
 70
0
 71
3
 72
16
 73
12
 74
0
 42
0.0000001
 43
0.0000001
 44
0.0000000001
 40
0.0
 40
0.0
 40
0.0
 40
0.0
 40
0.1245772954
 40
0.1869315862
 40
0.2493028945
 40
0.3740381324
 40
0.4989390818
 40
0.6240146503
 40
0.7492307635
 40
0.8746053823
 40
1.0
 40
1.0
 40
1.0
 40
1.0
 10
19.3996812401
 20
10.0301439976
 30
0.0
 10
19.4118961645
 20
10.1772927144
 30
0.0
 10
19.451026587
 20
10.3971042178
 30
0.0
 10
19.5432924501
 20
10.6781432426
 30
0.0
 10
19.6614195217
 20
10.9496163022
 30
0.0
 10
19.8561680525
 20
11.2667286388
 30
0.0
 10
20.1564465494
 20
11.5973770408
 30
0.0
 10
20.5131807474
 20
11.8671630349
 30
0.0
 10
20.9140252014
 20
12.0668678486
 30
0.0
 10
21.345005048
 20
12.1894185708
 30
0.0
 10
21.6429521224
 20
12.2170099843
 30
0.0
 10
21.7915756824
 20
12.2170099843
 30
0.0
  0
SPLINE
  5
291
100
AcDbEntity
  8
0
100
AcDbSpline
 62
7
  6
BYLAYER
 70
0
 71
3
 72
15
 73
11
 74
0
 42
0.0000001
 43
0.0000001
 44
0.0000000001
 40
0.0
 40
0.0
 40
0.0
 40
0.0
 40
0.1254492362
 40
0.2508570861
 40
0.376107133
 40
0.5011984201
 40
0.6261072228
 40
0.750837826
 40
0.8754679332
 40
1.0
 40
1.0
 40
1.0
 40
1.0
 10
21.7915756824
 20
6.8572607654
 30
0.0
 10
21.6347715293
 20
6.8572607654
 30
0.0
 10
21.3203629735
 20
6.8879768391
 30
0.0
 10
20.8674683284
 20
7.0243000292
 30
0.0
 10
20.4498862177
 20
7.2458170378
 30
0.0
 10
20.083833368
 20
7.5438682909
 30
0.0
 10
19.7834043995
 20
7.9071478523
 30
0.0
 10
19.5600506683
 20
8.3216970012
 30
0.0
 10
19.4225636442
 20
8.771405588
 30
0.0
 10
19.3915756824
 20
9.083713784
 30
0.0
 10
19.3915756824
 20
9.2393715294
 30
0.0
  0
SPLINE
  5
292
100
AcDbEntity
  8
0
100
AcDbSpline
 62
7
  6
BYLAYER
 70
0
 71
3
 72
15
 73
11
 74
0
 42
0.0000001
 43
0.0000001
 44
0.0000000001
 40
0.0
 40
0.0
 40
0.0
 40
0.0
 40
0.1245399264
 40
0.2493240728
 40
0.3741578186
 40
0.4991299491
 40
0.6242224053
 40
0.7494078908
 40
0.8747473195
 40
1.0
 40
1.0
 40
1.0
 40
1.0
 10
23.9733181053
 20
8.2468253777
 30
0.0
 10
23.9258159939
 20
8.1439605121
 30
0.0
 10
23.8157211458
 20
7.9445954867
 30
0.0
 10
23.6098283318
 20
7.6721408662
 30
0.0
 10
23.3668613233
 20
7.4314931478
 30
0.0
 10
23.0919520759
 20
7.2276813156
 30
0.0
 10
22.7907263052
 20
7.0646038547
 30
0.0
 10
22.4691056806
 20
6.9457028224
 30
0.0
 10
22.1338315973
 20
6.873500162
 30
0.0
 10
21.9055273987
 20
6.8572607654
 30
0.0
 10
21.7915756824
 20
6.8572607654
 30
0.0
  0
SPLINE
  5
293
100
AcDbEntity
  8
0
100
AcDbSpline
 62
7
  6
BYLAYER
 70
0
 71
3
 72
15
 73
11
 74
0
 42
0.0000001
 43
0.0000001
 44
0.0000000001
 40
0.0
 40
0.0
 40
0.0
 40
0.0
 40
0.1245438275
 40
0.2492244488
 40
0.3740441414
 40
0.4990102341
 40
0.624116254
 40
0.7493215199
 40
0.8746831186
 40
1.0
 40
1.0
 40
1.0
 40
1.0
 10
19.5070872695
 20
45.1819406617
 30
0.0
 10
19.5456583917
 20
45.0630609479
 30
0.0
 10
19.6418769484
 20
44.8308739672
 30
0.0
 10
19.8392034807
 20
44.5098215287
 30
0.0
 10
20.0848302576
 20
44.2233513535
 30
0.0
 10
20.3726410227
 20
43.978678296
 30
0.0
 10
20.6954968007
 20
43.7818271142
 30
0.0
 10
21.0454981893
 20
43.6375954258
 30
0.0
 10
21.4138265391
 20
43.5497116625
 30
0.0
 10
21.6658194484
 20
43.5299548794
 30
0.0
 10
21.7915756824
 20
43.5299548794
 30
0.0
  0
SPLINE
  5
294
100
AcDbEntity
  8
0
100
AcDbSpline
 62
7
  6
BYLAYER
 70
0
 71
3
 72
9
 73
5
 74
0
 42
0.0000001
 43
0.0000001
 44
0.0000000001
 40
0.0
 40
0.0
 40
0.0
 40
0.0
 40
0.2665657799
 40
1.0
 40
1.0
 40
1.0
 40
1.0
 10
22.6346064206
 20
44.8687047678
 30
0.0
 10
22.6887029784
 20
44.8622928597
 30
0.0
 10
22.8914569539
 20
44.8366732911
 30
0.0
 10
23.0935808042
 20
44.8062925337
 30
0.0
 10
23.2415756824
 20
44.7825694574
 30
0.0
  0
SPLINE
  5
295
100
AcDbEntity
  8
0
100
AcDbSpline
 62
7
  6
BYLAYER
 70
0
 71
3
 72
9
 73
5
 74
0
 42
0.0000001
 43
0.0000001
 44
0.0000000001
 40
0.0
 40
0.0
 40
0.0
 40
0.0
 40
0.5465525525
 40
1.0
 40
1.0
 40
1.0
 40
1.0
 10
21.7915756824
 20
44.9233826736
 30
0.0
 10
21.9455520947
 20
44.9233826736
 30
0.0
 10
22.2273582419
 20
44.9119338954
 30
0.0
 10
22.5077478451
 20
44.8837409466
 30
0.0
 10
22.6346064206
 20
44.8687047678
 30
0.0
  0
SPLINE
  5
296
100
AcDbEntity
  8
0
100
AcDbSpline
 62
7
  6
BYLAYER
 70
0
 71
3
 72
9
 73
5
 74
0
 42
0.0000001
 43
0.0000001
 44
0.0000000001
 40
0.0
 40
0.0
 40
0.0
 40
0.0
 40
0.4534474203
 40
1.0
 40
1.0
 40
1.0
 40
1.0
 10
20.9485449442
 20
44.8687047678
 30
0.0
 10
21.0754035121
 20
44.8837409457
 30
0.0
 10
21.3557931153
 20
44.9119338939
 30
0.0
 10
21.6375992624
 20
44.9233826736
 30
0.0
 10
21.7915756824
 20
44.9233826736
 30
0.0
  0
SPLINE
  5
297
100
AcDbEntity
  8
0
100
AcDbSpline
 62
7
  6
BYLAYER
 70
0
 71
3
 72
9
 73
5
 74
0
 42
0.0000001
 43
0.0000001
 44
0.0000000001
 40
0.0
 40
0.0
 40
0.0
 40
0.0
 40
0.2362188995
 40
1.0
 40
1.0
 40
1.0
 40
1.0
 10
20.3415756824
 20
44.7825694574
 30
0.0
 10
20.3892401464
 20
44.7902099091
 30
0.0
 10
20.5911230793
 20
44.8218914333
 30
0.0
 10
20.7935460147
 20
44.8503331944
 30
0.0
 10
20.9485449442
 20
44.8687047678
 30
0.0
  0
SPLINE
  5
298
100
AcDbEntity
  8
0
100
AcDbSpline
 62
7
  6
BYLAYER
 70
0
 71
3
 72
15
 73
11
 74
0
 42
0.0000001
 43
0.0000001
 44
0.0000000001
 40
0.0
 40
0.0
 40
0.0
 40
0.0
 40
0.1246115497
 40
0.2492250411
 40
0.3739957563
 40
0.498936858
 40
0.6240269877
 40
0.7492411474
 40
0.8746630644
 40
1.0
 40
1.0
 40
1.0
 40
1.0
 10
20.3568360172
 20
10.1138261868
 30
0.0
 10
20.366936054
 20
10.0569932272
 30
0.0
 10
20.3972195841
 20
9.9448574046
 30
0.0
 10
20.4713241528
 20
9.7873222818
 30
0.0
 10
20.5718545406
 20
9.6449420466
 30
0.0
 10
20.6957428015
 20
9.5220537986
 30
0.0
 10
20.8392145398
 20
9.4223743381
 30
0.0
 10
20.9979806998
 20
9.348914676
 30
0.0
 10
21.1671130912
 20
9.3040070528
 30
0.0
 10
21.2835162196
 20
9.293871045
 30
0.0
 10
21.3415756824
 20
9.293871045
 30
0.0
  0
SPLINE
  5
299
100
AcDbEntity
  8
0
100
AcDbSpline
 62
7
  6
BYLAYER
 70
0
 71
3
 72
15
 73
11
 74
0
 42
0.0000001
 43
0.0000001
 44
0.0000000001
 40
0.0
 40
0.0
 40
0.0
 40
0.0
 40
0.125336907
 40
0.2507587588
 40
0.3759728916
 40
0.5010630184
 40
0.626004124
 40
0.7507748504
 40
0.8753883766
 40
1.0
 40
1.0
 40
1.0
 40
1.0
 10
22.2415756824
 20
9.293871045
 30
0.0
 10
22.2996351754
 20
9.293871045
 30
0.0
 10
22.4160383504
 20
9.3040070401
 30
0.0
 10
22.5851708045
 20
9.3489147277
 30
0.0
 10
22.7439370296
 20
9.4223744511
 30
0.0
 10
22.8874088513
 20
9.5220540065
 30
0.0
 10
23.011297135
 20
9.6449424271
 30
0.0
 10
23.111827547
 20
9.7873228327
 30
0.0
 10
23.1859320849
 20
9.944858181
 30
0.0
 10
23.2162155266
 20
10.0569941714
 30
0.0
 10
23.2263155185
 20
10.1138272175
 30
0.0
  0
SPLINE
  5
29A
100
AcDbEntity
  8
0
100
AcDbSpline
 62
7
  6
BYLAYER
 70
0
 71
3
 72
9
 73
5
 74
0
 42
0.0000001
 43
0.0000001
 44
0.0000000001
 40
0.0
 40
0.0
 40
0.0
 40
0.0
 40
0.2656306744
 40
1.0
 40
1.0
 40
1.0
 40
1.0
 10
21.7915756824
 20
9.1840398066
 30
0.0
 10
21.8314594337
 20
9.1840398066
 30
0.0
 10
21.9816065192
 20
9.1823517689
 30
0.0
 10
22.1316493186
 20
9.1743644692
 30
0.0
 10
22.2415756824
 20
9.1657468369
 30
0.0
  0
SPLINE
  5
29B
100
AcDbEntity
  8
0
100
AcDbSpline
 62
7
  6
BYLAYER
 70
0
 71
3
 72
15
 73
11
 74
0
 42
0.0000001
 43
0.0000001
 44
0.0000000001
 40
0.0
 40
0.0
 40
0.0
 40
0.0
 40
0.1254471373
 40
0.2508537355
 40
0.3761052187
 40
0.5011984265
 40
0.626109143
 40
0.7508411635
 40
0.8754700191
 40
1.0
 40
1.0
 40
1.0
 40
1.0
 10
21.7915756824
 20
43.5299548794
 30
0.0
 10
21.9483774638
 20
43.5299548794
 30
0.0
 10
22.2627825297
 20
43.5606672761
 30
0.0
 10
22.7156763387
 20
43.6969875772
 30
0.0
 10
23.1332638077
 20
43.918501903
 30
0.0
 10
23.4993228323
 20
44.2165575869
 30
0.0
 10
23.799756271
 20
44.5798432688
 30
0.0
 10
24.0231073212
 20
44.9943977711
 30
0.0
 10
24.1605914288
 20
45.4441055321
 30
0.0
 10
24.1915756824
 20
45.7564102552
 30
0.0
 10
24.1915756824
 20
45.9120656434
 30
0.0
  0
SPLINE
  5
29C
100
AcDbEntity
  8
0
100
AcDbSpline
 62
7
  6
BYLAYER
 70
0
 71
3
 72
9
 73
5
 74
0
 42
0.0000001
 43
0.0000001
 44
0.0000000001
 40
0.0
 40
0.0
 40
0.0
 40
0.0
 40
0.2315789676
 40
1.0
 40
1.0
 40
1.0
 40
1.0
 10
21.3415756824
 20
9.1657468369
 30
0.0
 10
21.3762394553
 20
9.1684642892
 30
0.0
 10
21.5260083491
 20
9.1790499256
 30
0.0
 10
21.6762020938
 20
9.1840398066
 30
0.0
 10
21.7915756824
 20
9.1840398066
 30
0.0
  0
SPLINE
  5
29D
100
AcDbEntity
  8
0
100
AcDbSpline
 62
7
  6
BYLAYER
 70
0
 71
3
 72
15
 73
11
 74
0
 42
0.0000001
 43
0.0000001
 44
0.0000000001
 40
0.0
 40
0.0
 40
0.0
 40
0.0
 40
0.11442079
 40
0.2313403914
 40
0.3511960653
 40
0.474672155
 40
0.6018448149
 40
0.7324212989
 40
0.8656448537
 40
1.0
 40
1.0
 40
1.0
 40
1.0
 10
22.2415756824
 20
9.1657468369
 30
0.0
 10
22.3002873534
 20
9.1611441595
 30
0.0
 10
22.4201435567
 20
9.1627147263
 30
0.0
 10
22.5982795141
 20
9.1993271255
 30
0.0
 10
22.7700575164
 20
9.2725296807
 30
0.0
 10
22.927446134
 20
9.3827076013
 30
0.0
 10
23.0616267187
 20
9.5279670732
 30
0.0
 10
23.163943488
 20
9.7031069026
 30
0.0
 10
23.227483646
 20
9.8995242353
 30
0.0
 10
23.2415756842
 20
10.0376964378
 30
0.0
 10
23.2415756824
 20
10.1068483582
 30
0.0
  0
SPLINE
  5
29E
100
AcDbEntity
  8
0
100
AcDbSpline
 62
7
  6
BYLAYER
 70
0
 71
3
 72
15
 73
11
 74
0
 42
0.0000001
 43
0.0000001
 44
0.0000000001
 40
0.0
 40
0.0
 40
0.0
 40
0.0
 40
0.1254471373
 40
0.2508537355
 40
0.3761052187
 40
0.5011984265
 40
0.626109143
 40
0.7508411635
 40
0.8754700191
 40
1.0
 40
1.0
 40
1.0
 40
1.0
 10
21.7915756824
 20
7.6494114976
 30
0.0
 10
21.9483774638
 20
7.6494114976
 30
0.0
 10
22.2627825297
 20
7.6801238943
 30
0.0
 10
22.7156763387
 20
7.8164441954
 30
0.0
 10
23.1332638077
 20
8.0379585212
 30
0.0
 10
23.4993228323
 20
8.3360142051
 30
0.0
 10
23.799756271
 20
8.6992998869
 30
0.0
 10
24.0231073212
 20
9.1138543893
 30
0.0
 10
24.1605914288
 20
9.5635621502
 30
0.0
 10
24.1915756824
 20
9.8758668733
 30
0.0
 10
24.1915756824
 20
10.0315222615
 30
0.0
  0
SPLINE
  5
29F
100
AcDbEntity
  8
0
100
AcDbSpline
 62
7
  6
BYLAYER
 70
0
 71
3
 72
17
 73
13
 74
0
 42
0.0000001
 43
0.0000001
 44
0.0000000001
 40
0.0
 40
0.0
 40
0.0
 40
0.0
 40
0.16356057
 40
0.3255803495
 40
0.4805371519
 40
0.6240140365
 40
0.7519092903
 40
0.8600535044
 40
0.9053728724
 40
0.944137442
 40
0.9758407307
 40
1.0
 40
1.0
 40
1.0
 40
1.0
 10
24.1915756824
 20
10.0315222615
 30
0.0
 10
24.1915756824
 20
9.9705575039
 30
0.0
 10
24.186818586
 20
9.8491606863
 30
0.0
 10
24.1670945423
 20
9.671003645
 30
0.0
 10
24.1370516958
 20
9.5019133876
 30
0.0
 10
24.1004778886
 20
9.3472025908
 30
0.0
 10
24.0618178276
 20
9.2110923852
 30
0.0
 10
24.030029977
 20
9.1111461842
 30
0.0
 10
24.0078080982
 20
9.0430303242
 30
0.0
 10
23.9945901492
 20
9.0019443172
 30
0.0
 10
23.984249226
 20
8.9682254831
 30
0.0
 10
23.9787277395
 20
8.948135329
 30
0.0
 10
23.9767191455
 20
8.9393571918
 30
0.0
  0
SPLINE
  5
2A0
100
AcDbEntity
  8
0
100
AcDbSpline
 62
7
  6
BYLAYER
 70
0
 71
3
 72
15
 73
11
 74
0
 42
0.0000001
 43
0.0000001
 44
0.0000000001
 40
0.0
 40
0.0
 40
0.0
 40
0.0
 40
0.1144193051
 40
0.2313360876
 40
0.3511906039
 40
0.4746662373
 40
0.6018411401
 40
0.7324204027
 40
0.8656454976
 40
1.0
 40
1.0
 40
1.0
 40
1.0
 10
21.3415756824
 20
9.1657468369
 30
0.0
 10
21.2828647743
 20
9.1611442193
 30
0.0
 10
21.1630108354
 20
9.1627141165
 30
0.0
 10
20.9848774329
 20
9.1993253851
 30
0.0
 10
20.8131017102
 20
9.2725268225
 30
0.0
 10
20.6557100812
 20
9.382701086
 30
0.0
 10
20.5215283618
 20
9.5279630544
 30
0.0
 10
20.4192088989
 20
9.703105036
 30
0.0
 10
20.3556672891
 20
9.8995240604
 30
0.0
 10
20.3415756806
 20
10.0376967704
 30
0.0
 10
20.3415756824
 20
10.1068483582
 30
0.0
  0
SPLINE
  5
2A1
100
AcDbEntity
  8
0
100
AcDbSpline
 62
7
  6
BYLAYER
 70
0
 71
3
 72
11
 73
7
 74
0
 42
0.0000001
 43
0.0000001
 44
0.0000000001
 40
0.0
 40
0.0
 40
0.0
 40
0.0
 40
0.2411235948
 40
0.4877572943
 40
0.7414590571
 40
1.0
 40
1.0
 40
1.0
 40
1.0
 10
20.4665756824
 20
21.4714337031
 30
0.0
 10
20.4665756824
 20
21.4591413828
 30
0.0
 10
20.4717598602
 20
21.4340217839
 30
0.0
 10
20.4937011549
 20
21.4020470343
 30
0.0
 10
20.5270276724
 20
21.3805735083
 30
0.0
 10
20.5533954373
 20
21.3754445671
 30
0.0
 10
20.5665756824
 20
21.3754445671
 30
0.0
  0
SPLINE
  5
2A2
100
AcDbEntity
  8
0
100
AcDbSpline
 62
7
  6
BYLAYER
 70
0
 71
3
 72
20
 73
16
 74
0
 42
0.0000001
 43
0.0000001
 44
0.0000000001
 40
0.0
 40
0.0
 40
0.0
 40
0.0
 40
0.0063915401
 40
0.0150282109
 40
0.0389957552
 40
0.0716528969
 40
0.1125072005
 40
0.1608980977
 40
0.216150549
 40
0.2775931982
 40
0.3445685605
 40
0.4925223547
 40
0.6548902278
 40
0.8262350763
 40
1.0
 40
1.0
 40
1.0
 40
1.0
 10
23.9733181053
 20
44.7976501483
 30
0.0
 10
23.9733181053
 20
44.8000804808
 30
0.0
 10
23.9738970444
 20
44.8057864034
 30
0.0
 10
23.9765863853
 20
44.8203692808
 30
0.0
 10
23.9829282172
 20
44.8443900767
 30
0.0
 10
23.9936910198
 20
44.8798532621
 30
0.0
 10
24.0079499071
 20
44.9239621134
 30
0.0
 10
24.0249802987
 20
44.9761988144
 30
0.0
 10
24.0441323465
 20
45.0359795487
 30
0.0
 10
24.0646407962
 20
45.1027426708
 30
0.0
 10
24.0937413042
 20
45.2037261829
 30
0.0
 10
24.128768057
 20
45.3429164762
 30
0.0
 10
24.1630782217
 20
45.522954571
 30
0.0
 10
24.1860424588
 20
45.7147130056
 30
0.0
 10
24.1915756824
 20
45.8459929076
 30
0.0
 10
24.1915756824
 20
45.9120656434
 30
0.0
  0
SPLINE
  5
2A3
100
AcDbEntity
  8
0
100
AcDbSpline
 62
7
  6
BYLAYER
 70
0
 71
3
 72
9
 73
5
 74
0
 42
0.0000001
 43
0.0000001
 44
0.0000000001
 40
0.0
 40
0.0
 40
0.0
 40
0.0
 40
0.5858106164
 40
1.0
 40
1.0
 40
1.0
 40
1.0
 10
23.9767199794
 20
8.9393571918
 30
0.0
 10
23.9757383529
 20
8.9350671999
 30
0.0
 10
23.9742246131
 20
8.9277125764
 30
0.0
 10
23.9733177037
 20
8.9202187161
 30
0.0
 10
23.9733176675
 20
8.917107144
 30
0.0
  0
SPLINE
  5
2A4
100
AcDbEntity
  8
0
100
AcDbSpline
 62
7
  6
BYLAYER
 70
0
 71
3
 72
15
 73
11
 74
0
 42
0.0000001
 43
0.0000001
 44
0.0000000001
 40
0.0
 40
0.0
 40
0.0
 40
0.0
 40
0.1245438275
 40
0.2492244488
 40
0.3740441414
 40
0.4990102341
 40
0.624116254
 40
0.7493215199
 40
0.8746831186
 40
1.0
 40
1.0
 40
1.0
 40
1.0
 10
19.5070872695
 20
9.3013972799
 30
0.0
 10
19.5456583917
 20
9.182517566
 30
0.0
 10
19.6418769484
 20
8.9503305854
 30
0.0
 10
19.8392034807
 20
8.6292781469
 30
0.0
 10
20.0848302576
 20
8.3428079717
 30
0.0
 10
20.3726410227
 20
8.0981349142
 30
0.0
 10
20.6954968007
 20
7.9012837324
 30
0.0
 10
21.0454981893
 20
7.757052044
 30
0.0
 10
21.4138265391
 20
7.6691682807
 30
0.0
 10
21.6658194484
 20
7.6494114976
 30
0.0
 10
21.7915756824
 20
7.6494114976
 30
0.0
  0
SPLINE
  5
2A5
100
AcDbEntity
  8
0
100
AcDbSpline
 62
7
  6
BYLAYER
 70
0
 71
3
 72
11
 73
7
 74
0
 42
0.0000001
 43
0.0000001
 44
0.0000000001
 40
0.0
 40
0.0
 40
0.0
 40
0.0
 40
0.2585742496
 40
0.512247757
 40
0.7588437806
 40
1.0
 40
1.0
 40
1.0
 40
1.0
 10
22.6665756824
 20
26.1892934026
 30
0.0
 10
22.6797575609
 20
26.1892934026
 30
0.0
 10
22.7061227525
 20
26.1944295551
 30
0.0
 10
22.7394560128
 20
26.2158904679
 30
0.0
 10
22.7613845455
 20
26.2478720352
 30
0.0
 10
22.7665756824
 20
26.2729886153
 30
0.0
 10
22.7665756824
 20
26.2852825385
 30
0.0
  0
SPLINE
  5
2A6
100
AcDbEntity
  8
0
100
AcDbSpline
 62
7
  6
BYLAYER
 70
0
 71
3
 72
11
 73
7
 74
0
 42
0.0000001
 43
0.0000001
 44
0.0000000001
 40
0.0
 40
0.0
 40
0.0
 40
0.0
 40
0.2500360206
 40
0.5007583233
 40
0.7502560268
 40
1.0
 40
1.0
 40
1.0
 40
1.0
 10
22.6665756824
 20
26.2126899813
 30
0.0
 10
22.6773998318
 20
26.2126899813
 30
0.0
 10
22.6992189035
 20
26.2163350601
 30
0.0
 10
22.7284595444
 20
26.2316882941
 30
0.0
 10
22.7511849723
 20
26.2556932743
 30
0.0
 10
22.760280237
 20
26.2758013183
 30
0.0
 10
22.7631086461
 20
26.2862362968
 30
0.0
  0
SPLINE
  5
2A7
100
AcDbEntity
  8
0
100
AcDbSpline
 62
7
  6
BYLAYER
 70
0
 71
3
 72
9
 73
5
 74
0
 42
0.0000001
 43
0.0000001
 44
0.0000000001
 40
0.0
 40
0.0
 40
0.0
 40
0.0
 40
0.4992475995
 40
1.0
 40
1.0
 40
1.0
 40
1.0
 10
20.4665756824
 20
26.3119445965
 30
0.0
 10
20.4665756824
 20
26.2948418532
 30
0.0
 10
20.4758650617
 20
26.2599857015
 30
0.0
 10
20.501514381
 20
26.2346231485
 30
0.0
 10
20.5163985316
 20
26.2260948521
 30
0.0
  0
SPLINE
  5
2A8
100
AcDbEntity
  8
0
100
AcDbSpline
 62
7
  6
BYLAYER
 70
0
 71
3
 72
9
 73
5
 74
0
 42
0.0000001
 43
0.0000001
 44
0.0000000001
 40
0.0
 40
0.0
 40
0.0
 40
0.0
 40
0.2516033196
 40
1.0
 40
1.0
 40
1.0
 40
1.0
 10
20.5163985316
 20
26.2260948521
 30
0.0
 10
20.520201635
 20
26.2239157561
 30
0.0
 10
20.5358766332
 20
26.216271474
 30
0.0
 10
20.5535379402
 20
26.2126899813
 30
0.0
 10
20.5665756824
 20
26.2126899813
 30
0.0
  0
SPLINE
  5
2A9
100
AcDbEntity
  8
0
100
AcDbSpline
 62
7
  6
BYLAYER
 70
0
 71
3
 72
15
 73
11
 74
0
 42
0.0000001
 43
0.0000001
 44
0.0000000001
 40
0.0
 40
0.0
 40
0.0
 40
0.0
 40
0.1254492362
 40
0.2508570861
 40
0.376107133
 40
0.5011984201
 40
0.6261072228
 40
0.750837826
 40
0.8754679332
 40
1.0
 40
1.0
 40
1.0
 40
1.0
 10
21.7915756824
 20
42.7378041473
 30
0.0
 10
21.6347715293
 20
42.7378041473
 30
0.0
 10
21.3203629735
 20
42.7685202209
 30
0.0
 10
20.8674683284
 20
42.9048434111
 30
0.0
 10
20.4498862177
 20
43.1263604196
 30
0.0
 10
20.083833368
 20
43.4244116728
 30
0.0
 10
19.7834043995
 20
43.7876912342
 30
0.0
 10
19.5600506683
 20
44.202240383
 30
0.0
 10
19.4225636442
 20
44.6519489698
 30
0.0
 10
19.3915756824
 20
44.9642571658
 30
0.0
 10
19.3915756824
 20
45.1199149112
 30
0.0
  0
SPLINE
  5
2AA
100
AcDbEntity
  8
0
100
AcDbSpline
 62
7
  6
BYLAYER
 70
0
 71
3
 72
11
 73
7
 74
0
 42
0.0000001
 43
0.0000001
 44
0.0000000001
 40
0.0
 40
0.0
 40
0.0
 40
0.0
 40
0.2411235948
 40
0.4877572943
 40
0.7414590571
 40
1.0
 40
1.0
 40
1.0
 40
1.0
 10
20.4665756824
 20
26.2852825385
 30
0.0
 10
20.4665756824
 20
26.2729902183
 30
0.0
 10
20.4717598602
 20
26.2478706193
 30
0.0
 10
20.4937011549
 20
26.2158958697
 30
0.0
 10
20.5270276724
 20
26.1944223437
 30
0.0
 10
20.5533954373
 20
26.1892934026
 30
0.0
 10
20.5665756824
 20
26.1892934026
 30
0.0
  0
SPLINE
  5
2AB
100
AcDbEntity
  8
0
100
AcDbSpline
 62
7
  6
BYLAYER
 70
0
 71
3
 72
15
 73
11
 74
0
 42
0.0000001
 43
0.0000001
 44
0.0000000001
 40
0.0
 40
0.0
 40
0.0
 40
0.0
 40
0.1245399264
 40
0.249324073
 40
0.3741578187
 40
0.4991299491
 40
0.6242224053
 40
0.7494078908
 40
0.8747473196
 40
1.0
 40
1.0
 40
1.0
 40
1.0
 10
23.9733181053
 20
44.1273687596
 30
0.0
 10
23.9258159973
 20
44.0245038925
 30
0.0
 10
23.815721148
 20
43.8251388669
 30
0.0
 10
23.6098283305
 20
43.5526842493
 30
0.0
 10
23.3668613234
 20
43.3120365295
 30
0.0
 10
23.091952076
 20
43.1082246972
 30
0.0
 10
22.7907263052
 20
42.9451472366
 30
0.0
 10
22.4691056806
 20
42.8262462043
 30
0.0
 10
22.1338315973
 20
42.7540435438
 30
0.0
 10
21.9055273987
 20
42.7378041473
 30
0.0
 10
21.7915756824
 20
42.7378041473
 30
0.0
  0
SPLINE
  5
2AC
100
AcDbEntity
  8
0
100
AcDbSpline
 62
7
  6
BYLAYER
 70
0
 71
3
 72
9
 73
5
 74
0
 42
0.0000001
 43
0.0000001
 44
0.0000000001
 40
0.0
 40
0.0
 40
0.0
 40
0.0
 40
0.4992475995
 40
1.0
 40
1.0
 40
1.0
 40
1.0
 10
20.4665756824
 20
21.498095761
 30
0.0
 10
20.4665756824
 20
21.4809930177
 30
0.0
 10
20.4758650617
 20
21.4461368661
 30
0.0
 10
20.501514381
 20
21.4207743131
 30
0.0
 10
20.5163985316
 20
21.4122460166
 30
0.0
  0
SPLINE
  5
2AD
100
AcDbEntity
  8
0
100
AcDbSpline
 62
7
  6
BYLAYER
 70
0
 71
3
 72
9
 73
5
 74
0
 42
0.0000001
 43
0.0000001
 44
0.0000000001
 40
0.0
 40
0.0
 40
0.0
 40
0.0
 40
0.2516033196
 40
1.0
 40
1.0
 40
1.0
 40
1.0
 10
20.5163985316
 20
21.4122460166
 30
0.0
 10
20.520201635
 20
21.4100669207
 30
0.0
 10
20.5358766332
 20
21.4024226386
 30
0.0
 10
20.5535379402
 20
21.3988411459
 30
0.0
 10
20.5665756824
 20
21.3988411459
 30
0.0
  0
SPLINE
  5
2AE
100
AcDbEntity
  8
0
100
AcDbSpline
 62
7
  6
BYLAYER
 70
0
 71
3
 72
11
 73
7
 74
0
 42
0.0000001
 43
0.0000001
 44
0.0000000001
 40
0.0
 40
0.0
 40
0.0
 40
0.0
 40
0.2500360206
 40
0.5007583233
 40
0.7502560268
 40
1.0
 40
1.0
 40
1.0
 40
1.0
 10
22.6665756824
 20
21.3988411459
 30
0.0
 10
22.6773998318
 20
21.3988411459
 30
0.0
 10
22.6992189035
 20
21.4024862246
 30
0.0
 10
22.7284595444
 20
21.4178394586
 30
0.0
 10
22.7511849723
 20
21.4418444389
 30
0.0
 10
22.760280237
 20
21.4619524829
 30
0.0
 10
22.7631086461
 20
21.4723874614
 30
0.0
  0
SPLINE
  5
2AF
100
AcDbEntity
  8
0
100
AcDbSpline
 62
7
  6
BYLAYER
 70
0
 71
3
 72
11
 73
7
 74
0
 42
0.0000001
 43
0.0000001
 44
0.0000000001
 40
0.0
 40
0.0
 40
0.0
 40
0.0
 40
0.2585742497
 40
0.512247757
 40
0.7588437806
 40
1.0
 40
1.0
 40
1.0
 40
1.0
 10
22.6665756824
 20
21.3754445671
 30
0.0
 10
22.6797575609
 20
21.3754445671
 30
0.0
 10
22.7061227525
 20
21.3805807197
 30
0.0
 10
22.7394560128
 20
21.4020416324
 30
0.0
 10
22.7613845455
 20
21.4340231998
 30
0.0
 10
22.7665756824
 20
21.4591397798
 30
0.0
 10
22.7665756824
 20
21.4714337031
 30
0.0
  0
ELLIPSE
  5
2B0
100
AcDbEntity
  8
0
100
AcDbEllipse
 62
7
  6
BYLAYER
 10
20.5665756824
 20
26.0631767509
 30
0.0
 11
0.0
 21
0.1146093576
 31
0.0
 40
0.8725291034
 41
-4.7123889803
 42
-3.1415926536
  0
ELLIPSE
  5
2B1
100
AcDbEntity
  8
0
100
AcDbEllipse
 62
7
  6
BYLAYER
 10
22.6665756824
 20
26.0631767509
 30
0.0
 11
-0.0
 21
0.1146093576
 31
0.0
 40
0.8725291034
 41
-3.1415926536
 42
-1.5707963269
  0
ELLIPSE
  5
2B2
100
AcDbEntity
  8
0
100
AcDbEllipse
 62
7
  6
BYLAYER
 10
20.5665756824
 20
21.2493279154
 30
0.0
 11
-0.0
 21
0.1146093576
 31
0.0
 40
0.8725291034
 41
-4.7123889804
 42
-3.1415926536
  0
ELLIPSE
  5
2B3
100
AcDbEntity
  8
0
100
AcDbEllipse
 62
7
  6
BYLAYER
 10
22.6665756824
 20
21.2493279154
 30
0.0
 11
-0.0
 21
0.1146093576
 31
0.0
 40
0.8725291034
 41
-3.1415926536
 42
-1.5707963268
  0
ENDSEC
  0
SECTION
  2
OBJECTS
  0
DICTIONARY
  5
C
100
AcDbDictionary
280
0
281
1
  3
ACAD_GROUP
350
D
  3
ACAD_MLINESTYLE
350
17
  3
ACAD_LAYOUT
350
1A
  3
ACAD_PLOTSETTINGS
350
19
  3
ACAD_PLOTSTYLENAME
350
E
  0
DICTIONARY
  5
D
102
{ACAD_REACTORS
330
C
102
}
100
AcDbDictionary
280
0
281
1
  0
ACDBDICTIONARYWDFLT
  5
E
102
{ACAD_REACTORS
330
C
102
}
100
AcDbDictionary
281
1
  3
Normal
350
F
100
AcDbDictionaryWithDefault
340
F
  0
DICTIONARY
  5
17
102
{ACAD_REACTORS
330
C
102
}
100
AcDbDictionary
280
0
281
1
  3
Standard
350
18
  0
DICTIONARY
  5
19
102
{ACAD_REACTORS
330
C
102
}
100
AcDbDictionary
281
1
  0
DICTIONARY
  5
1A
102
{ACAD_REACTORS
330
C
102
}
100
AcDbDictionary
281
1
  3
Model
350
2B4
  3
Layout1
350
2B5
  0
ACDBPLACEHOLDER
  5
F
102
{ACAD_REACTORS
330
E
102
}
  0
MLINESTYLE
  5
18
102
{ACAD_REACTORS
330
17
102
}
100
AcDbMlineStyle
  2
STANDARD
 70
0
  3

 62
256
 51
90.0
 52
90.0
 71
2
 49
0.5
 62
256
  6
BYLAYER
 49
-0.5
 62
256
  6
BYLAYER
  0
LAYOUT
  5
2B4
102
{ACAD_REACTORS
330
1A
102
}
100
AcDbPlotSettings
  1

  2
none_device
  4

  6

 40
0.0
 41
0.0
 42
0.0
 43
0.0
 44
210.0
 45
297.0
 46
0.0
 47
0.0
 48
0.0
 49
0.0
140
0.0
141
0.0
142
1.0
143
1.0
 70
1024
 72
1
 73
0
 74
0
  7

 75
0
147
1.0
148
0.0
149
0.0
100
AcDbLayout
  1
Model
 70
0
 71
0
 10
0.0
 20
0.0
 11
210.0
 21
297.0
 12
0.0
 22
0.0
 32
0.0
 14
0.0
 24
0.0
 34
0.0
 15
0.0
 25
0.0
 35
0.0
146
0.0
 13
0.0
 23
0.0
 33
0.0
 16
1.0
 26
0.0
 36
0.0
 17
0.0
 27
1.0
 37
0.0
 76
0
330
210
345
0
346
0
  0
LAYOUT
  5
2B5
102
{ACAD_REACTORS
330
1A
102
}
100
AcDbPlotSettings
  1

  2
none_device
  4

  6

 40
0.0
 41
0.0
 42
0.0
 43
0.0
 44
210.0
 45
297.0
 46
0.0
 47
0.0
 48
0.0
 49
0.0
140
0.0
141
0.0
142
1.0
143
1.0
 70
0
 72
1
 73
0
 74
0
  7

 75
0
147
1.0
148
0.0
149
0.0
100
AcDbLayout
  1
Layout1
 70
0
 71
1
 10
0.0
 20
0.0
 11
210.0
 21
297.0
 12
0.0
 22
0.0
 32
0.0
 14
0.0
 24
0.0
 34
0.0
 15
0.0
 25
0.0
 35
0.0
146
0.0
 13
0.0
 23
0.0
 33
0.0
 16
1.0
 26
0.0
 36
0.0
 17
0.0
 27
1.0
 37
0.0
 76
0
330
211
345
0
346
0
  0
ENDSEC
  0
EOF
