  0
SECTION
  2
HEADER
  9
$ACADVER
  1
AC1009
  9
$INSBASE
 10
0.0
 20
0.0
 30
0.0
  9
$EXTMIN
 10
234.673463
 20
135.176331
 30
-0.001526
  9
$EXTMAX
 10
236.275636
 20
136.762482
 30
0.0
  9
$LIMMIN
 10
0.0
 20
0.0
  9
$LIMMAX
 10
420.0
 20
297.0
  9
$ORTHOMODE
 70
     0
  9
$REGENMODE
 70
     1
  9
$FILLMODE
 70
     1
  9
$QTEXTMODE
 70
     0
  9
$MIRRTEXT
 70
     1
  9
$DRAGMODE
 70
     2
  9
$LTSCALE
 40
1.0
  9
$OSMODE
 70
     0
  9
$ATTMODE
 70
     1
  9
$TEXTSIZE
 40
2.5
  9
$TRACEWID
 40
1.0
  9
$TEXTSTYLE
  7
STYLE_STD
  9
$CLAYER
  8
0
  9
$CELTYPE
  6
BYLAYER
  9
$CECOLOR
 62
   256
  9
$DIMSCALE
 40
1.0
  9
$DIMASZ
 40
2.5
  9
$DIMEXO
 40
0.625
  9
$DIMDLI
 40
3.75
  9
$DIMRND
 40
0.0
  9
$DIMDLE
 40
0.0
  9
$DIMEXE
 40
1.25
  9
$DIMTP
 40
0.0
  9
$DIMTM
 40
0.0
  9
$DIMTXT
 40
2.5
  9
$DIMCEN
 40
2.5
  9
$DIMTSZ
 40
0.0
  9
$DIMTOL
 70
     0
  9
$DIMLIM
 70
     0
  9
$DIMTIH
 70
     0
  9
$DIMTOH
 70
     0
  9
$DIMSE1
 70
     0
  9
$DIMSE2
 70
     0
  9
$DIMTAD
 70
     1
  9
$DIMZIN
 70
     8
  9
$DIMBLK
  1

  9
$DIMASO
 70
     1
  9
$DIMSHO
 70
     1
  9
$DIMPOST
  1

  9
$DIMAPOST
  1

  9
$DIMALT
 70
     0
  9
$DIMALTD
 70
     4
  9
$DIMALTF
 40
0.0394
  9
$DIMLFAC
 40
1.0
  9
$DIMTOFL
 70
     1
  9
$DIMTVP
 40
0.0
  9
$DIMTIX
 70
     0
  9
$DIMSOXD
 70
     0
  9
$DIMSAH
 70
     0
  9
$DIMBLK1
  1

  9
$DIMBLK2
  1

  9
$DIMSTYLE
  2
STANDARD
  9
$DIMCLRD
 70
     0
  9
$DIMCLRE
 70
     0
  9
$DIMCLRT
 70
     0
  9
$DIMTFAC
 40
1.0
  9
$DIMGAP
 40
0.625
  9
$LUNITS
 70
     2
  9
$LUPREC
 70
     4
  9
$SKETCHINC
 40
1.0
  9
$FILLETRAD
 40
10.0
  9
$AUNITS
 70
     0
  9
$AUPREC
 70
     0
  9
$MENU
  1
acad
  9
$ELEVATION
 40
0.0
  9
$PELEVATION
 40
0.0
  9
$THICKNESS
 40
0.0
  9
$LIMCHECK
 70
     0
  9
$BLIPMODE
 70
     0
  9
$CHAMFERA
 40
10.0
  9
$CHAMFERB
 40
10.0
  9
$SKPOLY
 70
     0
  9
$TDCREATE
 40
2452397.404554
  9
$TDUPDATE
 40
2452397.713643
  9
$TDINDWG
 40
0.017245
  9
$TDUSRTIMER
 40
0.017245
  9
$USRTIMER
 70
     1
  9
$ANGBASE
 50
0.0
  9
$ANGDIR
 70
     0
  9
$PDMODE
 70
     0
  9
$PDSIZE
 40
0.0
  9
$PLINEWID
 40
0.0
  9
$COORDS
 70
     1
  9
$SPLFRAME
 70
     0
  9
$SPLINETYPE
 70
     6
  9
$SPLINESEGS
 70
     8
  9
$ATTDIA
 70
     0
  9
$ATTREQ
 70
     1
  9
$HANDLING
 70
     1
  9
$HANDSEED
  5
3843
  9
$SURFTAB1
 70
     6
  9
$SURFTAB2
 70
     6
  9
$SURFTYPE
 70
     6
  9
$SURFU
 70
     6
  9
$SURFV
 70
     6
  9
$UCSNAME
  2

  9
$UCSORG
 10
0.0
 20
0.0
 30
0.0
  9
$UCSXDIR
 10
1.0
 20
0.0
 30
0.0
  9
$UCSYDIR
 10
0.0
 20
1.0
 30
0.0
  9
$PUCSNAME
  2

  9
$PUCSORG
 10
0.0
 20
0.0
 30
0.0
  9
$PUCSXDIR
 10
1.0
 20
0.0
 30
0.0
  9
$PUCSYDIR
 10
0.0
 20
1.0
 30
0.0
  9
$USERI1
 70
     0
  9
$USERI2
 70
     0
  9
$USERI3
 70
     0
  9
$USERI4
 70
     0
  9
$USERI5
 70
     0
  9
$USERR1
 40
0.0
  9
$USERR2
 40
0.0
  9
$USERR3
 40
0.0
  9
$USERR4
 40
0.0
  9
$USERR5
 40
0.0
  9
$WORLDVIEW
 70
     1
  9
$SHADEDGE
 70
     3
  9
$SHADEDIF
 70
    70
  9
$TILEMODE
 70
     1
  9
$MAXACTVP
 70
    48
  9
$PLIMCHECK
 70
     0
  9
$PEXTMIN
 10
1.000000E+020
 20
1.000000E+020
 30
1.000000E+020
  9
$PEXTMAX
 10
-1.000000E+020
 20
-1.000000E+020
 30
-1.000000E+020
  9
$PLIMMIN
 10
0.0
 20
0.0
  9
$PLIMMAX
 10
420.0
 20
297.0
  9
$UNITMODE
 70
     0
  9
$VISRETAIN
 70
     1
  9
$PLINEGEN
 70
     0
  9
$PSLTSCALE
 70
     1
  0
ENDSEC
  0
SECTION
  2
TABLES
  0
TABLE
  2
VPORT
 70
     2
  0
VPORT
  2
*ACTIVE
 70
     0
 10
0.0
 20
0.0
 11
1.0
 21
1.0
 12
235.474549
 22
135.969407
 13
0.0
 23
0.0
 14
10.0
 24
10.0
 15
10.0
 25
10.0
 16
0.0
 26
0.0
 36
1.0
 17
0.0
 27
0.0
 37
0.0
 40
1.603613
 41
1.628676
 42
50.0
 43
0.0
 44
0.0
 50
0.0
 51
0.0
 71
     0
 72
   100
 73
     1
 74
     1
 75
     0
 76
     0
 77
     0
 78
     0
  0
ENDTAB
  0
TABLE
  2
LTYPE
 70
     1
  0
LTYPE
  2
CONTINUOUS
 70
     0
  3
Solid line
 72
    65
 73
     0
 40
0.0
  0
ENDTAB
  0
TABLE
  2
LAYER
 70
     1
  0
LAYER
  2
0
 70
     0
 62
     7
  6
CONTINUOUS
  0
ENDTAB
  0
TABLE
  2
STYLE
 70
     7
  0
STYLE
  2
STANDARD
 70
     0
 40
0.0
 41
1.0
 50
0.0
 71
     0
 42
2.5
  3
txt
  4

  0
STYLE
  2
STYLE_STD
 70
     0
 40
0.0
 41
1.0
 50
0.0
 71
     0
 42
2.5
  3
txt
  4

  0
STYLE
  2
WMF-ARIAL3
 70
     0
 40
0.0
 41
1.0
 50
0.0
 71
     0
 42
2.5
  3
txt
  4

  0
ENDTAB
  0
TABLE
  2
VIEW
 70
     0
  0
ENDTAB
  0
TABLE
  2
UCS
 70
     0
  0
ENDTAB
  0
TABLE
  2
APPID
 70
     1
  0
APPID
  2
ACAD
 70
     0
  0
ENDTAB
  0
TABLE
  2
DIMSTYLE
 70
     1
  0
DIMSTYLE
  2
STANDARD
 70
     0
  3

  4

  5

  6

  7

 40
1.0
 41
0.18
 42
0.0625
 43
0.38
 44
0.18
 45
0.0
 46
0.0
 47
0.0
 48
0.0
140
0.18
141
0.09
142
0.0
143
25.4
144
1.0
145
0.0
146
1.0
147
0.09
 71
     0
 72
     0
 73
     1
 74
     1
 75
     0
 76
     0
 77
     0
 78
     0
170
     0
171
     2
172
     0
173
     0
174
     0
175
     0
176
     0
177
     0
178
     0
  0
ENDTAB
  0
ENDSEC
  0
SECTION
  2
BLOCKS
  0
BLOCK
  8
0
  2
$MODEL_SPACE
 70
     0
 10
0.0
 20
0.0
 30
0.0
  3
$MODEL_SPACE
  1

  0
ENDBLK
  5
37B5
  8
0
  0
BLOCK
 67
     1
  8
0
  2
$PAPER_SPACE
 70
     0
 10
0.0
 20
0.0
 30
0.0
  3
$PAPER_SPACE
  1

  0
ENDBLK
  5
37B3
 67
     1
  8
0
  0
ENDSEC
  0
SECTION
  2
ENTITIES
  0
POLYLINE
  5
2E01
  8
0
 62
     7
 66
     1
 10
0.0
 20
0.0
 30
0.0
 40
0.013123
 41
0.013123
  0
VERTEX
  5
37C2
  8
0
 62
     7
 10
235.225411
 20
136.743375
 30
0.0
  0
VERTEX
  5
37C3
  8
0
 62
     7
 10
235.225411
 20
136.354072
 30
0.0
  0
SEQEND
  5
37C4
  8
0
 62
     7
  0
POLYLINE
  5
2E05
  8
0
 62
     7
 66
     1
 10
0.0
 20
0.0
 30
0.0
 40
0.013123
 41
0.013123
  0
VERTEX
  5
37C5
  8
0
 62
     7
 10
234.967333
 20
136.354072
 30
0.0
  0
VERTEX
  5
37C6
  8
0
 62
     7
 10
235.225411
 20
135.966955
 30
0.0
  0
SEQEND
  5
37C7
  8
0
 62
     7
  0
TEXT
  5
2E09
  8
0
 62
     7
 10
235.175108
 20
136.52904
 30
0.0
 40
0.078736
  1
1/L1
 50
90.0
  7
STYLE_STD
  0
TEXT
  5
2E0A
  8
0
 62
     7
 10
235.18823
 20
135.192722
 30
0.0
 40
0.078736
  1
2/T1
 50
90.0
  7
STYLE_STD
  0
TEXT
  5
2E0B
  8
0
 62
     7
 10
235.691263
 20
136.52904
 30
0.0
 40
0.078736
  1
3/L2
 50
90.0
  7
STYLE_STD
  0
TEXT
  5
2E0C
  8
0
 62
     7
 10
235.704386
 20
135.192722
 30
0.0
 40
0.078736
  1
4/T2
 50
90.0
  7
STYLE_STD
  0
POLYLINE
  5
2E0D
  8
0
 62
     7
 66
     1
 10
0.0
 20
0.0
 30
0.0
 40
0.013123
 41
0.013123
  0
VERTEX
  5
37C8
  8
0
 62
     7
 10
236.257722
 20
136.743375
 30
0.0
  0
VERTEX
  5
37C9
  8
0
 62
     7
 10
236.257722
 20
136.354072
 30
0.0
  0
SEQEND
  5
37CA
  8
0
 62
     7
  0
TEXT
  5
2E11
  8
0
 62
     7
 10
236.207419
 20
136.52904
 30
0.0
 40
0.078736
  1
5/L3
 50
90.0
  7
STYLE_STD
  0
TEXT
  5
2E12
  8
0
 62
     7
 10
236.220541
 20
135.218967
 30
0.0
 40
0.078736
  1
6/T3
 50
90.0
  7
STYLE_STD
  0
POLYLINE
  5
2E13
  8
0
 62
     7
 66
     1
 10
0.0
 20
0.0
 30
0.0
 40
0.013123
 41
0.013123
  0
VERTEX
  5
37CB
  8
0
 62
     7
 10
235.225411
 20
135.966955
 30
0.0
  0
VERTEX
  5
37CC
  8
0
 62
     7
 10
235.225411
 20
135.916652
 30
0.0
  0
VERTEX
  5
37CD
  8
0
 62
     7
 10
235.225411
 20
135.192722
 30
0.0
  0
SEQEND
  5
37CE
  8
0
 62
     7
  0
POLYLINE
  5
2E18
  8
0
 62
     7
 66
     1
 10
0.0
 20
0.0
 30
0.0
 40
0.013123
 41
0.013123
  0
VERTEX
  5
37CF
  8
0
 62
     7
 10
236.257722
 20
135.966955
 30
0.0
  0
VERTEX
  5
37D0
  8
0
 62
     7
 10
236.257722
 20
135.916652
 30
0.0
  0
VERTEX
  5
37D1
  8
0
 62
     7
 10
236.257722
 20
135.192722
 30
0.0
  0
SEQEND
  5
37D2
  8
0
 62
     7
  0
POLYLINE
  5
2E1D
  8
0
 62
     7
 66
     1
 10
0.0
 20
0.0
 30
0.0
 40
0.004374
 41
0.004374
  0
VERTEX
  5
37D3
  8
0
 62
     7
 10
234.707069
 20
136.17473
 30
0.0
  0
VERTEX
  5
37D4
  8
0
 62
     7
 10
234.742062
 20
136.17473
 30
0.0
  0
SEQEND
  5
37D5
  8
0
 62
     7
  0
POLYLINE
  5
2E21
  8
0
 62
     7
 66
     1
 10
0.0
 20
0.0
 30
0.0
 40
0.004374
 41
0.004374
  0
VERTEX
  5
37D6
  8
0
 62
     7
 10
234.763933
 20
136.17473
 30
0.0
  0
VERTEX
  5
37D7
  8
0
 62
     7
 10
234.798927
 20
136.17473
 30
0.0
  0
SEQEND
  5
37D8
  8
0
 62
     7
  0
POLYLINE
  5
2E25
  8
0
 62
     7
 66
     1
 10
0.0
 20
0.0
 30
0.0
 40
0.004374
 41
0.004374
  0
VERTEX
  5
37D9
  8
0
 62
     7
 10
234.820798
 20
136.17473
 30
0.0
  0
VERTEX
  5
37DA
  8
0
 62
     7
 10
234.855791
 20
136.17473
 30
0.0
  0
SEQEND
  5
37DB
  8
0
 62
     7
  0
POLYLINE
  5
2E29
  8
0
 62
     7
 66
     1
 10
0.0
 20
0.0
 30
0.0
 40
0.004374
 41
0.004374
  0
VERTEX
  5
37DC
  8
0
 62
     7
 10
234.877662
 20
136.17473
 30
0.0
  0
VERTEX
  5
37DD
  8
0
 62
     7
 10
234.912656
 20
136.17473
 30
0.0
  0
SEQEND
  5
37DE
  8
0
 62
     7
  0
POLYLINE
  5
2E2D
  8
0
 62
     7
 66
     1
 10
0.0
 20
0.0
 30
0.0
 40
0.004374
 41
0.004374
  0
VERTEX
  5
37DF
  8
0
 62
     7
 10
234.934527
 20
136.17473
 30
0.0
  0
VERTEX
  5
37E0
  8
0
 62
     7
 10
234.969521
 20
136.17473
 30
0.0
  0
SEQEND
  5
37E1
  8
0
 62
     7
  0
POLYLINE
  5
2E31
  8
0
 62
     7
 66
     1
 10
0.0
 20
0.0
 30
0.0
 40
0.004374
 41
0.004374
  0
VERTEX
  5
37E2
  8
0
 62
     7
 10
234.991392
 20
136.17473
 30
0.0
  0
VERTEX
  5
37E3
  8
0
 62
     7
 10
235.026385
 20
136.17473
 30
0.0
  0
SEQEND
  5
37E4
  8
0
 62
     7
  0
POLYLINE
  5
2E35
  8
0
 62
     7
 66
     1
 10
0.0
 20
0.0
 30
0.0
 40
0.004374
 41
0.004374
  0
VERTEX
  5
37E5
  8
0
 62
     7
 10
235.048256
 20
136.17473
 30
0.0
  0
VERTEX
  5
37E6
  8
0
 62
     7
 10
235.08325
 20
136.17473
 30
0.0
  0
SEQEND
  5
37E7
  8
0
 62
     7
  0
POLYLINE
  5
2E39
  8
0
 62
     7
 66
     1
 10
0.0
 20
0.0
 30
0.0
 40
0.004374
 41
0.004374
  0
VERTEX
  5
37E8
  8
0
 62
     7
 10
235.105121
 20
136.17473
 30
0.0
  0
VERTEX
  5
37E9
  8
0
 62
     7
 10
235.140114
 20
136.17473
 30
0.0
  0
SEQEND
  5
37EA
  8
0
 62
     7
  0
POLYLINE
  5
2E3D
  8
0
 62
     7
 66
     1
 10
0.0
 20
0.0
 30
0.0
 40
0.004374
 41
0.004374
  0
VERTEX
  5
37EB
  8
0
 62
     7
 10
235.161985
 20
136.17473
 30
0.0
  0
VERTEX
  5
37EC
  8
0
 62
     7
 10
235.196979
 20
136.17473
 30
0.0
  0
SEQEND
  5
37ED
  8
0
 62
     7
  0
POLYLINE
  5
2E41
  8
0
 62
     7
 66
     1
 10
0.0
 20
0.0
 30
0.0
 40
0.004374
 41
0.004374
  0
VERTEX
  5
37EE
  8
0
 62
     7
 10
235.21885
 20
136.17473
 30
0.0
  0
VERTEX
  5
37EF
  8
0
 62
     7
 10
235.253843
 20
136.17473
 30
0.0
  0
SEQEND
  5
37F0
  8
0
 62
     7
  0
POLYLINE
  5
2E45
  8
0
 62
     7
 66
     1
 10
0.0
 20
0.0
 30
0.0
 40
0.004374
 41
0.004374
  0
VERTEX
  5
37F1
  8
0
 62
     7
 10
235.275714
 20
136.17473
 30
0.0
  0
VERTEX
  5
37F2
  8
0
 62
     7
 10
235.310708
 20
136.17473
 30
0.0
  0
SEQEND
  5
37F3
  8
0
 62
     7
  0
POLYLINE
  5
2E49
  8
0
 62
     7
 66
     1
 10
0.0
 20
0.0
 30
0.0
 40
0.004374
 41
0.004374
  0
VERTEX
  5
37F4
  8
0
 62
     7
 10
235.332579
 20
136.17473
 30
0.0
  0
VERTEX
  5
37F5
  8
0
 62
     7
 10
235.367573
 20
136.17473
 30
0.0
  0
SEQEND
  5
37F6
  8
0
 62
     7
  0
POLYLINE
  5
2E4D
  8
0
 62
     7
 66
     1
 10
0.0
 20
0.0
 30
0.0
 40
0.004374
 41
0.004374
  0
VERTEX
  5
37F7
  8
0
 62
     7
 10
235.389444
 20
136.17473
 30
0.0
  0
VERTEX
  5
37F8
  8
0
 62
     7
 10
235.424437
 20
136.17473
 30
0.0
  0
SEQEND
  5
37F9
  8
0
 62
     7
  0
POLYLINE
  5
2E51
  8
0
 62
     7
 66
     1
 10
0.0
 20
0.0
 30
0.0
 40
0.004374
 41
0.004374
  0
VERTEX
  5
37FA
  8
0
 62
     7
 10
235.446308
 20
136.17473
 30
0.0
  0
VERTEX
  5
37FB
  8
0
 62
     7
 10
235.481302
 20
136.17473
 30
0.0
  0
SEQEND
  5
37FC
  8
0
 62
     7
  0
POLYLINE
  5
2E55
  8
0
 62
     7
 66
     1
 10
0.0
 20
0.0
 30
0.0
 40
0.004374
 41
0.004374
  0
VERTEX
  5
37FD
  8
0
 62
     7
 10
235.503173
 20
136.17473
 30
0.0
  0
VERTEX
  5
37FE
  8
0
 62
     7
 10
235.538166
 20
136.17473
 30
0.0
  0
SEQEND
  5
37FF
  8
0
 62
     7
  0
POLYLINE
  5
2E59
  8
0
 62
     7
 66
     1
 10
0.0
 20
0.0
 30
0.0
 40
0.004374
 41
0.004374
  0
VERTEX
  5
3800
  8
0
 62
     7
 10
235.560037
 20
136.17473
 30
0.0
  0
VERTEX
  5
3801
  8
0
 62
     7
 10
235.595031
 20
136.17473
 30
0.0
  0
SEQEND
  5
3802
  8
0
 62
     7
  0
POLYLINE
  5
2E5D
  8
0
 62
     7
 66
     1
 10
0.0
 20
0.0
 30
0.0
 40
0.004374
 41
0.004374
  0
VERTEX
  5
3803
  8
0
 62
     7
 10
235.616902
 20
136.17473
 30
0.0
  0
VERTEX
  5
3804
  8
0
 62
     7
 10
235.651895
 20
136.17473
 30
0.0
  0
SEQEND
  5
3805
  8
0
 62
     7
  0
POLYLINE
  5
2E61
  8
0
 62
     7
 66
     1
 10
0.0
 20
0.0
 30
0.0
 40
0.004374
 41
0.004374
  0
VERTEX
  5
3806
  8
0
 62
     7
 10
235.673766
 20
136.17473
 30
0.0
  0
VERTEX
  5
3807
  8
0
 62
     7
 10
235.70876
 20
136.17473
 30
0.0
  0
SEQEND
  5
3808
  8
0
 62
     7
  0
POLYLINE
  5
2E65
  8
0
 62
     7
 66
     1
 10
0.0
 20
0.0
 30
0.0
 40
0.004374
 41
0.004374
  0
VERTEX
  5
3809
  8
0
 62
     7
 10
235.730631
 20
136.17473
 30
0.0
  0
VERTEX
  5
380A
  8
0
 62
     7
 10
235.765625
 20
136.17473
 30
0.0
  0
SEQEND
  5
380B
  8
0
 62
     7
  0
POLYLINE
  5
2E69
  8
0
 62
     7
 66
     1
 10
0.0
 20
0.0
 30
0.0
 40
0.004374
 41
0.004374
  0
VERTEX
  5
380C
  8
0
 62
     7
 10
235.787496
 20
136.17473
 30
0.0
  0
VERTEX
  5
380D
  8
0
 62
     7
 10
235.822489
 20
136.17473
 30
0.0
  0
SEQEND
  5
380E
  8
0
 62
     7
  0
POLYLINE
  5
2E6D
  8
0
 62
     7
 66
     1
 10
0.0
 20
0.0
 30
0.0
 40
0.004374
 41
0.004374
  0
VERTEX
  5
380F
  8
0
 62
     7
 10
235.84436
 20
136.17473
 30
0.0
  0
VERTEX
  5
3810
  8
0
 62
     7
 10
235.879354
 20
136.17473
 30
0.0
  0
SEQEND
  5
3811
  8
0
 62
     7
  0
POLYLINE
  5
2E71
  8
0
 62
     7
 66
     1
 10
0.0
 20
0.0
 30
0.0
 40
0.004374
 41
0.004374
  0
VERTEX
  5
3812
  8
0
 62
     7
 10
235.901225
 20
136.17473
 30
0.0
  0
VERTEX
  5
3813
  8
0
 62
     7
 10
235.936218
 20
136.17473
 30
0.0
  0
SEQEND
  5
3814
  8
0
 62
     7
  0
POLYLINE
  5
2E75
  8
0
 62
     7
 66
     1
 10
0.0
 20
0.0
 30
0.0
 40
0.004374
 41
0.004374
  0
VERTEX
  5
3815
  8
0
 62
     7
 10
235.958089
 20
136.17473
 30
0.0
  0
VERTEX
  5
3816
  8
0
 62
     7
 10
235.993083
 20
136.17473
 30
0.0
  0
SEQEND
  5
3817
  8
0
 62
     7
  0
POLYLINE
  5
2E79
  8
0
 62
     7
 66
     1
 10
0.0
 20
0.0
 30
0.0
 40
0.004374
 41
0.004374
  0
VERTEX
  5
3818
  8
0
 62
     7
 10
236.014954
 20
136.17473
 30
0.0
  0
VERTEX
  5
3819
  8
0
 62
     7
 10
236.049948
 20
136.17473
 30
0.0
  0
SEQEND
  5
381A
  8
0
 62
     7
  0
POLYLINE
  5
2E7D
  8
0
 62
     7
 66
     1
 10
0.0
 20
0.0
 30
0.0
 40
0.004374
 41
0.004374
  0
VERTEX
  5
381B
  8
0
 62
     7
 10
236.071818
 20
136.17473
 30
0.0
  0
VERTEX
  5
381C
  8
0
 62
     7
 10
236.076193
 20
136.17473
 30
0.0
  0
SEQEND
  5
381D
  8
0
 62
     7
  0
POLYLINE
  5
2E81
  8
0
 62
     7
 66
     1
 10
0.0
 20
0.0
 30
0.0
 40
0.013123
 41
0.013123
  0
VERTEX
  5
381E
  8
0
 62
     7
 10
235.096372
 20
136.030381
 30
0.0
  0
VERTEX
  5
381F
  8
0
 62
     7
 10
235.207914
 20
136.093807
 30
0.0
  0
VERTEX
  5
3820
  8
0
 62
     7
 10
235.078875
 20
136.319078
 30
0.0
  0
VERTEX
  5
3821
  8
0
 62
     7
 10
234.967333
 20
136.253465
 30
0.0
  0
VERTEX
  5
3822
  8
0
 62
     7
 10
235.096372
 20
136.030381
 30
0.0
  0
SEQEND
  5
3823
  8
0
 62
     7
  0
POLYLINE
  5
2E88
  8
0
 62
     7
 66
     1
 10
0.0
 20
0.0
 30
0.0
 40
0.013123
 41
0.013123
  0
VERTEX
  5
3824
  8
0
 62
     7
 10
235.999644
 20
136.354072
 30
0.0
  0
VERTEX
  5
3825
  8
0
 62
     7
 10
236.257722
 20
135.966955
 30
0.0
  0
SEQEND
  5
3826
  8
0
 62
     7
  0
POLYLINE
  5
2E8C
  8
0
 62
     7
 66
     1
 10
0.0
 20
0.0
 30
0.0
 40
0.013123
 41
0.013123
  0
VERTEX
  5
3827
  8
0
 62
     7
 10
236.128683
 20
136.030381
 30
0.0
  0
VERTEX
  5
3828
  8
0
 62
     7
 10
236.240225
 20
136.093807
 30
0.0
  0
VERTEX
  5
3829
  8
0
 62
     7
 10
236.111186
 20
136.319078
 30
0.0
  0
VERTEX
  5
382A
  8
0
 62
     7
 10
235.999644
 20
136.253465
 30
0.0
  0
VERTEX
  5
382B
  8
0
 62
     7
 10
236.128683
 20
136.030381
 30
0.0
  0
SEQEND
  5
382C
  8
0
 62
     7
  0
POLYLINE
  5
2E93
  8
0
 62
     7
 66
     1
 10
0.0
 20
0.0
 30
0.0
 40
0.013123
 41
0.013123
  0
VERTEX
  5
382D
  8
0
 62
     7
 10
235.483489
 20
136.354072
 30
0.0
  0
VERTEX
  5
382E
  8
0
 62
     7
 10
235.741567
 20
135.966955
 30
0.0
  0
SEQEND
  5
382F
  8
0
 62
     7
  0
POLYLINE
  5
2E97
  8
0
 62
     7
 66
     1
 10
0.0
 20
0.0
 30
0.0
 40
0.013123
 41
0.013123
  0
VERTEX
  5
3830
  8
0
 62
     7
 10
235.612528
 20
136.030381
 30
0.0
  0
VERTEX
  5
3831
  8
0
 62
     7
 10
235.72407
 20
136.093807
 30
0.0
  0
VERTEX
  5
3832
  8
0
 62
     7
 10
235.595031
 20
136.319078
 30
0.0
  0
VERTEX
  5
3833
  8
0
 62
     7
 10
235.483489
 20
136.253465
 30
0.0
  0
VERTEX
  5
3834
  8
0
 62
     7
 10
235.612528
 20
136.030381
 30
0.0
  0
SEQEND
  5
3835
  8
0
 62
     7
  0
POLYLINE
  5
2E9E
  8
0
 62
     7
 66
     1
 10
0.0
 20
0.0
 30
0.0
 40
0.013123
 41
0.013123
  0
VERTEX
  5
3836
  8
0
 62
     7
 10
235.741567
 20
136.743375
 30
0.0
  0
VERTEX
  5
3837
  8
0
 62
     7
 10
235.741567
 20
136.354072
 30
0.0
  0
SEQEND
  5
3838
  8
0
 62
     7
  0
POLYLINE
  5
2EA2
  8
0
 62
     7
 66
     1
 10
0.0
 20
0.0
 30
0.0
 40
0.013123
 41
0.013123
  0
VERTEX
  5
3839
  8
0
 62
     7
 10
235.741567
 20
135.966955
 30
0.0
  0
VERTEX
  5
383A
  8
0
 62
     7
 10
235.741567
 20
135.916652
 30
0.0
  0
VERTEX
  5
383B
  8
0
 62
     7
 10
235.741567
 20
135.192722
 30
0.0
  0
SEQEND
  5
383C
  8
0
 62
     7
  0
POLYLINE
  5
2EA7
  8
0
 62
     7
 66
     1
 10
0.0
 20
0.0
 30
0.0
 40
0.013123
 41
0.013123
  0
VERTEX
  5
383D
  8
0
 62
     7
 10
234.836107
 20
136.354072
 30
0.0
  0
VERTEX
  5
383E
  8
0
 62
     7
 10
234.707069
 20
136.354072
 30
0.0
  0
VERTEX
  5
383F
  8
0
 62
     7
 10
234.707069
 20
135.966955
 30
0.0
  0
VERTEX
  5
3840
  8
0
 62
     7
 10
234.836107
 20
135.966955
 30
0.0
  0
SEQEND
  5
3841
  8
0
 62
     7
  0
ENDSEC
  0
EOF
