999
DXF file: C:\Users\sesa63760\Dev\_Creo\CAD\MCADPD0004703_3D-CAD\drw0001_1.dxf
999
Pro/ENGINEER 2019471 by Parametric Technology Corporation
  0
SECTION
  2
HEADER
  9
$ACADVER
  1
AC1024
  9
$DWGCODEPAGE
  3
ANSI_1252
  9
$EXTMAX
 10
103.7715001319
 20
146.7625501866
 30
0.0
  9
$EXTMIN
 10
0.0
 20
0.0
 30
0.0
  9
$LIMMIN
 10
0.0
 20
0.0
  9
$LIMMAX
 10
103.7715001319
 20
146.7625501866
  9
$VIEWCTR
 10
51.885750066
 20
73.3812750933
  9
$VIEWSIZE
 40
146.7625501866
  9
$CLAYER
  8
0
  9
$LTSCALE
 40
9.5667440122
  9
$CELTYPE
  6
BYLAYER
  9
$DIMSCALE
 40
1.0
  9
$DIMASZ
 40
1.2353750016
  9
$DIMEXO
 40
1.0
  9
$DIMDLI
 40
6.6097504084
  9
$DIMEXE
 40
1.0
  9
$DIMCEN
 40
1.565467202
  9
$DIMLFAC
 40
1.0
  9
$DIMBLK
  1
_FILLED
  9
$DIMALT
 70
0
  9
$DIMALTF
 40
0.0393700787
  9
$DIMTXT
 40
1.7295250022
  9
$DIMTOL
 70
1
  9
$DIMLIM
 70
0
  9
$DIMTFAC
 40
1.0
  9
$DIMTP
 40
0.01
  9
$DIMTM
 40
0.01
  9
$DIMGAP
 40
0.625
  9
$DIMDSEP
 70
46
  9
$AUNITS
 70
0
  9
$PDMODE
 70
3
  9
$PDSIZE
 40
0.3125
  9
$HANDSEED
  5
2BE
  9
$TILEMODE
 70
1
  9
$MEASUREMENT
 70
1
  9
$INSUNITS
 70
4
  0
ENDSEC
  0
SECTION
  2
CLASSES
  0
CLASS
  1
ACDBDICTIONARYWDFLT
  2
AcDbDictionaryWithDefault
  3
AutoCAD 2000
 90
0
 91
1
280
0
281
0
  0
CLASS
  1
ACDBPLACEHOLDER
  2
AcDbPlaceHolder
  3
AutoCAD 2000
 90
0
 91
1
280
0
281
0
  0
CLASS
  1
LAYOUT
  2
AcDbLayout
  3
AutoCAD 2000
 90
0
 91
0
280
0
281
0
  0
ENDSEC
  0
SECTION
  2
TABLES
  0
TABLE
  2
VPORT
  5
8
100
AcDbSymbolTable
 70
2
  0
VPORT
  5
1F4
100
AcDbSymbolTableRecord
100
AcDbViewportTableRecord
  2
*ACTIVE
 70
0
 10
0.0
 20
0.0
 11
1.0
 21
1.0
 12
51.885750066
 22
73.3812750933
 13
0.0
 23
0.0
 14
1.0
 24
1.0
 15
0.0
 25
0.0
 16
0.0
 26
0.0
 36
1.0
 17
0.0
 27
0.0
 37
0.0
 40
146.7625501866
 41
0.7070707071
 42
50.0
 43
0.0
 44
0.0
 50
0.0
 51
0.0
 71
0
 72
100
 73
1
 74
1
 75
0
 76
0
 77
0
 78
0
  0
ENDTAB
  0
TABLE
  2
LTYPE
  5
5
100
AcDbSymbolTable
 70
6
  0
LTYPE
  5
14
100
AcDbSymbolTableRecord
100
AcDbLinetypeTableRecord
  2
BYBLOCK
 70
0
  3

 72
65
 73
0
 40
0.0
  0
LTYPE
  5
15
100
AcDbSymbolTableRecord
100
AcDbLinetypeTableRecord
  2
BYLAYER
 70
0
  3

 72
65
 73
0
 40
0.0
  0
LTYPE
  5
16
100
AcDbSymbolTableRecord
100
AcDbLinetypeTableRecord
  2
CONTINUOUS
 70
64
  3
Solid line
 72
65
 73
0
 40
0.0
  0
LTYPE
  5
1F5
100
AcDbSymbolTableRecord
100
AcDbLinetypeTableRecord
  2
CENTER
 70
64
  3
____ _ ____ _ ____ _ ____ _ ____ _ ____ _ ____
 72
65
 73
4
 40
0.6
 49
0.375
 74
0
 49
-0.075
 74
0
 49
0.075
 74
0
 49
-0.075
 74
0
  0
LTYPE
  5
1F6
100
AcDbSymbolTableRecord
100
AcDbLinetypeTableRecord
  2
HIDDEN
 70
64
  3
- - - - - - - - - - - - - - - - - - - -
 72
65
 73
2
 40
0.2
 49
0.1
 74
0
 49
-0.1
 74
0
  0
LTYPE
  5
1F7
100
AcDbSymbolTableRecord
100
AcDbLinetypeTableRecord
  2
PHANTOM
 70
64
  3
_____ _ _ _____ _ _ _____ _ _ _____
 72
65
 73
6
 40
0.8
 49
0.45
 74
0
 49
-0.05
 74
0
 49
0.1
 74
0
 49
-0.05
 74
0
 49
0.1
 74
0
 49
-0.05
 74
0
  0
LTYPE
  5
1F8
100
AcDbSymbolTableRecord
100
AcDbLinetypeTableRecord
  2
DOT
 70
64
  3
. . . . . . . . . . . . . . . . . . . .
 72
65
 73
2
 40
0.2
 49
0.1
 74
0
 49
-0.1
 74
0
  0
LTYPE
  5
1F9
100
AcDbSymbolTableRecord
100
AcDbLinetypeTableRecord
  2
DASHED
 70
64
  3
- - - - - - - - - - - - - - - - - - - -
 72
65
 73
2
 40
0.2
 49
0.1
 74
0
 49
-0.1
 74
0
  0
ENDTAB
  0
TABLE
  2
LAYER
  5
2
100
AcDbSymbolTable
 70
36
  0
LAYER
  5
10
100
AcDbSymbolTableRecord
100
AcDbLayerTableRecord
  2
0
 70
0
 62
7
  6
CONTINUOUS
370
-3
390
F
  0
LAYER
  5
1FA
100
AcDbSymbolTableRecord
100
AcDbLayerTableRecord
  2
DEFAULT_1
 70
0
 62
7
  6
CENTER
370
-3
390
F
  0
LAYER
  5
1FB
100
AcDbSymbolTableRecord
100
AcDbLayerTableRecord
  2
DEFAULT_2
 70
0
 62
7
  6
HIDDEN
370
-3
390
F
  0
LAYER
  5
1FC
100
AcDbSymbolTableRecord
100
AcDbLayerTableRecord
  2
DEFAULT_3
 70
0
 62
7
  6
PHANTOM
370
-3
390
F
  0
LAYER
  5
1FD
100
AcDbSymbolTableRecord
100
AcDbLayerTableRecord
  2
00_COMPONENTS
 70
0
 62
7
  6
CONTINUOUS
370
-3
390
F
  0
LAYER
  5
1FE
100
AcDbSymbolTableRecord
100
AcDbLayerTableRecord
  2
01_1_DEFAULT_DATUMS
 70
0
 62
7
  6
CONTINUOUS
370
-3
390
F
  0
LAYER
  5
1FF
100
AcDbSymbolTableRecord
100
AcDbLayerTableRecord
  2
01_PLANES
 70
0
 62
7
  6
CONTINUOUS
370
-3
390
F
  0
LAYER
  5
200
100
AcDbSymbolTableRecord
100
AcDbLayerTableRecord
  2
02_COORD_SYS
 70
0
 62
7
  6
CONTINUOUS
370
-3
390
F
  0
LAYER
  5
201
100
AcDbSymbolTableRecord
100
AcDbLayerTableRecord
  2
03_AXES
 70
0
 62
7
  6
CONTINUOUS
370
-3
390
F
  0
LAYER
  5
202
100
AcDbSymbolTableRecord
100
AcDbLayerTableRecord
  2
04_POINTS
 70
0
 62
7
  6
CONTINUOUS
370
-3
390
F
  0
LAYER
  5
203
100
AcDbSymbolTableRecord
100
AcDbLayerTableRecord
  2
05_CURVES
 70
0
 62
7
  6
CONTINUOUS
370
-3
390
F
  0
LAYER
  5
204
100
AcDbSymbolTableRecord
100
AcDbLayerTableRecord
  2
06_SURFS
 70
0
 62
7
  6
CONTINUOUS
370
-3
390
F
  0
LAYER
  5
205
100
AcDbSymbolTableRecord
100
AcDbLayerTableRecord
  2
07_COSMETICS
 70
0
 62
7
  6
CONTINUOUS
370
-3
390
F
  0
LAYER
  5
206
100
AcDbSymbolTableRecord
100
AcDbLayerTableRecord
  2
10_NOTES
 70
0
 62
7
  6
CONTINUOUS
370
-3
390
F
  0
LAYER
  5
207
100
AcDbSymbolTableRecord
100
AcDbLayerTableRecord
  2
11_NOTES_PUB
 70
0
 62
7
  6
CONTINUOUS
370
-3
390
F
  0
LAYER
  5
208
100
AcDbSymbolTableRecord
100
AcDbLayerTableRecord
  2
13_REF_GTOL
 70
0
 62
7
  6
CONTINUOUS
370
-3
390
F
  0
LAYER
  5
209
100
AcDbSymbolTableRecord
100
AcDbLayerTableRecord
  2
16_MISC
 70
0
 62
7
  6
CONTINUOUS
370
-3
390
F
  0
LAYER
  5
20A
100
AcDbSymbolTableRecord
100
AcDbLayerTableRecord
  2
17_NO_PRINT
 70
0
 62
7
  6
CONTINUOUS
370
-3
390
F
  0
LAYER
  5
20B
100
AcDbSymbolTableRecord
100
AcDbLayerTableRecord
  2
18_DATUM_CAMS_JOINTS
 70
0
 62
7
  6
CONTINUOUS
370
-3
390
F
  0
LAYER
  5
20C
100
AcDbSymbolTableRecord
100
AcDbLayerTableRecord
  2
19_DATUM_FUNCTIONAL
 70
0
 62
7
  6
CONTINUOUS
370
-3
390
F
  0
LAYER
  5
20D
100
AcDbSymbolTableRecord
100
AcDbLayerTableRecord
  2
20_DATUM_KINEMATIC_SCHEME
 70
0
 62
7
  6
CONTINUOUS
370
-3
390
F
  0
ENDTAB
  0
TABLE
  2
STYLE
  5
3
100
AcDbSymbolTable
 70
1
  0
STYLE
  5
11
100
AcDbSymbolTableRecord
100
AcDbTextStyleTableRecord
  2
STANDARD
 70
0
 40
0.0
 41
1.0
 50
0.0
 71
0
 42
0.2
  3
ARIAL.TTF
  4

  0
STYLE
  5
20E
100
AcDbSymbolTableRecord
100
AcDbTextStyleTableRecord
  2
TEXTSTYLE_1
 70
0
 40
0.0
 41
0.8
 50
0.0
 71
0
 42
0.2
  3
gdt
  4

  0
ENDTAB
  0
TABLE
  2
VIEW
  5
6
100
AcDbSymbolTable
 70
0
  0
ENDTAB
  0
TABLE
  2
UCS
  5
7
100
AcDbSymbolTable
 70
0
  0
ENDTAB
  0
TABLE
  2
APPID
  5
9
100
AcDbSymbolTable
 70
1
  0
APPID
  5
20F
100
AcDbSymbolTableRecord
100
AcDbRegAppTableRecord
  2
ACAD
 70
0
  0
ENDTAB
  0
TABLE
  2
BLOCK_RECORD
  5
1
100
AcDbSymbolTable
 70
0
  0
BLOCK_RECORD
  5
210
100
AcDbSymbolTableRecord
100
AcDbBlockTableRecord
  2
*Model_Space
  0
BLOCK_RECORD
  5
211
100
AcDbSymbolTableRecord
100
AcDbBlockTableRecord
  2
*Paper_Space
  0
BLOCK_RECORD
  5
212
100
AcDbSymbolTableRecord
100
AcDbBlockTableRecord
  2
_FILLED
  0
ENDTAB
  0
TABLE
  2
DIMSTYLE
  5
A
100
AcDbSymbolTable
 70
1
100
AcDbDimStyleTable
 71
0
  0
DIMSTYLE
105
213
100
AcDbSymbolTableRecord
100
AcDbDimStyleTableRecord
  2
STANDARD
 70
0
  3

  4

 40
1.0
 41
1.2353750016
 42
1.0
 43
0.38
 44
1.0
 45
0.0
 46
0.0
 47
0.01
 48
0.01
140
1.7295250022
141
0.09
142
0.0
143
25.4
144
1.0
145
0.0
146
1.0
147
0.625
 71
1
 72
0
 73
0
 74
0
 75
0
 76
0
 77
1
 78
8
 79
2
170
0
171
1
172
0
173
0
174
0
175
0
176
0
177
0
178
0
270
2
179
2
271
2
272
2
273
2
274
2
275
0
280
0
281
0
282
0
283
1
284
8
285
0
286
0
287
3
288
0
340
11
278
46
341
212
342
212
343
212
344
212
  0
ENDTAB
  0
ENDSEC
  0
SECTION
  2
BLOCKS
  0
BLOCK
  5
20
100
AcDbEntity
  8
0
100
AcDbBlockBegin
  2
*Model_Space
 70
0
 10
0.0
 20
0.0
 30
0.0
  3
*Model_Space
  1

  0
ENDBLK
  5
21
100
AcDbEntity
  8
0
100
AcDbBlockEnd
  0
BLOCK
  5
1C
100
AcDbEntity
  8
0
100
AcDbBlockBegin
  2
*Paper_Space
 70
0
 10
0.0
 20
0.0
 30
0.0
  3
*Paper_Space
  1

  0
ENDBLK
  5
1D
100
AcDbEntity
  8
0
100
AcDbBlockEnd
  0
BLOCK
  5
214
100
AcDbEntity
  8
0
100
AcDbBlockBegin
  2
_FILLED
 70
64
 10
0.0
 20
0.0
  3
_FILLED
  1

  0
SOLID
  5
215
100
AcDbEntity
  8
0
  6
BYBLOCK
 62
0
100
AcDbTrace
 10
0.0
 20
0.0
 11
-1.0
 21
0.25
 12
-1.0
 22
-0.25
 13
-1.0
 23
-0.25
  0
ENDBLK
  5
216
100
AcDbEntity
  8
0
  6
BYBLOCK
 62
0
100
AcDbBlockEnd
  0
ENDSEC
  0
SECTION
  2
ENTITIES
  0
LINE
  5
217
100
AcDbEntity
  8
0
100
AcDbLine
 62
7
  6
BYLAYER
 10
12.0386879348
 20
75.7050575706
 11
12.0386879348
 21
90.3382270684
  0
LINE
  5
218
100
AcDbEntity
  8
0
100
AcDbLine
 62
7
  6
BYLAYER
 10
15.6449239853
 20
73.0693495104
 11
15.6449239853
 21
74.205614081
  0
LWPOLYLINE
  5
219
100
AcDbEntity
  8
0
100
AcDbPolyline
 62
7
  6
BYLAYER
 90
3
 70
0
 10
19.0354869792
 20
70.3283015464
 10
19.2805720163
 20
65.6685412304
 10
20.9547254747
 20
61.8703751361
  0
LWPOLYLINE
  5
21A
100
AcDbEntity
  8
0
100
AcDbPolyline
 62
7
  6
BYLAYER
 90
5
 70
0
 10
18.3535715363
 20
70.8774630316
 10
18.3379329342
 20
70.4573685225
 10
18.8994002062
 20
65.7210512441
 10
19.5835470186
 20
63.8325228043
 10
21.7496626768
 20
61.0232020683
  0
LINE
  5
21B
100
AcDbEntity
  8
0
100
AcDbLine
 62
7
  6
BYLAYER
 10
12.0386879348
 20
90.3382270684
 11
21.2310378186
 21
95.6454010687
  0
LINE
  5
21C
100
AcDbEntity
  8
0
100
AcDbLine
 62
7
  6
BYLAYER
 10
22.0796460367
 20
84.5412083525
 11
22.0796460367
 21
69.9080388546
  0
LINE
  5
21D
100
AcDbEntity
  8
0
100
AcDbLine
 62
7
  6
BYLAYER
 10
24.130240687
 20
71.091943161
 11
24.130240687
 21
68.1704604561
  0
LINE
  5
21E
100
AcDbEntity
  8
0
100
AcDbLine
 62
7
  6
BYLAYER
 10
21.7496626768
 20
61.0232020683
 11
22.6122791145
 21
60.4358570039
  0
LINE
  5
21F
100
AcDbEntity
  8
0
100
AcDbLine
 62
7
  6
BYLAYER
 10
20.9547254747
 20
61.8703751361
 11
22.5927444819
 21
60.4471368023
  0
LINE
  5
220
100
AcDbEntity
  8
0
100
AcDbLine
 62
7
  6
BYLAYER
 10
27.8819110631
 20
57.4438259302
 11
27.8819110631
 21
64.4270691254
  0
LINE
  5
221
100
AcDbEntity
  8
0
100
AcDbLine
 62
7
  6
BYLAYER
 10
31.2719959205
 20
89.8483823528
 11
22.0796460367
 21
84.5412083525
  0
LWPOLYLINE
  5
222
100
AcDbEntity
  8
0
100
AcDbPolyline
 62
7
  6
BYLAYER
 90
4
 70
0
 10
22.5929079616
 20
60.4470424193
 10
23.4330419515
 20
60.0331345982
 10
27.0220732004
 20
59.4680224843
 10
27.8819110631
 20
59.6584750407
  0
LINE
  5
223
100
AcDbEntity
  8
0
100
AcDbLine
 62
7
  6
BYLAYER
 10
29.8618182935
 20
56.3007518175
 11
27.8819110631
 21
57.4438259302
  0
LINE
  5
224
100
AcDbEntity
  8
0
100
AcDbLine
 62
7
  6
BYLAYER
 10
22.5806557207
 20
60.4541692648
 11
22.6122791145
 21
60.4358570039
  0
LWPOLYLINE
  5
225
100
AcDbEntity
  8
0
100
AcDbPolyline
 62
7
  6
BYLAYER
 90
4
 70
0
 10
24.4699113489
 20
63.6534466766
 10
23.1396837419
 20
65.0418790658
 10
22.2102114195
 20
68.0922380945
 10
22.1953719175
 20
68.8388731978
  0
LINE
  5
226
100
AcDbEntity
  8
0
100
AcDbLine
 62
7
  6
BYLAYER
 10
29.0799675475
 20
73.9496522381
 11
29.0799675475
 21
71.0281695332
  0
LINE
  5
227
100
AcDbEntity
  8
0
100
AcDbLine
 62
7
  6
BYLAYER
 10
29.8618182935
 20
63.382578554
 11
29.8618182935
 21
56.3007518175
  0
LINE
  5
228
100
AcDbEntity
  8
0
100
AcDbLine
 62
7
  6
BYLAYER
 10
30.7103428982
 20
63.864200521
 11
30.7103428982
 21
56.7906448022
  0
LINE
  5
229
100
AcDbEntity
  8
0
100
AcDbLine
 62
7
  6
BYLAYER
 10
31.2719959205
 20
89.8483823528
 11
31.2719959205
 21
75.215212855
  0
LINE
  5
22A
100
AcDbEntity
  8
0
100
AcDbLine
 62
7
  6
BYLAYER
 10
31.8800773108
 20
89.170761803
 11
31.2719959205
 21
88.8196879442
  0
LINE
  5
22B
100
AcDbEntity
  8
0
100
AcDbLine
 62
7
  6
BYLAYER
 10
33.421730474
 20
88.2807080699
 11
36.6945984669
 21
90.1702880073
  0
LINE
  5
22C
100
AcDbEntity
  8
0
100
AcDbLine
 62
7
  6
BYLAYER
 10
33.9306955138
 20
87.9868636148
 11
31.2719959205
 21
86.4518718516
  0
LINE
  5
22D
100
AcDbEntity
  8
0
100
AcDbLine
 62
7
  6
BYLAYER
 10
24.4475142832
 20
63.6663561595
 11
24.4699113489
 21
63.6534466766
  0
LINE
  5
22E
100
AcDbEntity
  8
0
100
AcDbLine
 62
7
  6
BYLAYER
 10
33.9306955138
 20
84.7208539463
 11
33.9306955138
 21
87.9868636148
  0
LINE
  5
22F
100
AcDbEntity
  8
0
100
AcDbLine
 62
7
  6
BYLAYER
 10
37.9087189969
 20
89.4693310502
 11
40.6460054701
 21
91.0496946988
  0
LINE
  5
230
100
AcDbEntity
  8
0
100
AcDbLine
 62
7
  6
BYLAYER
 10
49.8383553538
 20
95.0394832316
 11
41.7869110617
 21
90.3910074499
  0
LINE
  5
231
100
AcDbEntity
  8
0
100
AcDbLine
 62
7
  6
BYLAYER
 10
33.9306955138
 20
84.7208539463
 11
31.2719959205
 21
83.1858621831
  0
LINE
  5
232
100
AcDbEntity
  8
0
100
AcDbLine
 62
7
  6
BYLAYER
 10
29.7203975261
 20
63.3200041817
 11
27.7404902957
 21
64.5122272036
  0
LINE
  5
233
100
AcDbEntity
  8
0
100
AcDbLine
 62
7
  6
BYLAYER
 10
54.5606172505
 20
92.3131457324
 11
46.5091729584
 21
87.6646699506
  0
LINE
  5
234
100
AcDbEntity
  8
0
100
AcDbLine
 62
7
  6
BYLAYER
 10
26.40744988
 20
63.1736125851
 11
24.4473508035
 21
63.6664505424
  0
LINE
  5
235
100
AcDbEntity
  8
0
100
AcDbLine
 62
7
  6
BYLAYER
 10
31.2719959205
 20
77.7969180114
 11
46.6687620537
 21
86.6861920212
  0
LINE
  5
236
100
AcDbEntity
  8
0
100
AcDbLine
 62
7
  6
BYLAYER
 10
54.5606172505
 20
88.9057983218
 11
49.460064561
 21
85.9610104315
  0
LINE
  5
237
100
AcDbEntity
  8
0
100
AcDbLine
 62
7
  6
BYLAYER
 10
64.2046585316
 20
94.3111164638
 11
55.2650324698
 21
89.1498517591
  0
LINE
  5
238
100
AcDbEntity
  8
0
100
AcDbLine
 62
7
  6
BYLAYER
 10
22.0796460367
 20
69.9080388546
 11
31.2719959205
 21
75.215212855
  0
LINE
  5
239
100
AcDbEntity
  8
0
100
AcDbLine
 62
7
  6
BYLAYER
 10
53.3523598647
 20
86.908912291
 11
50.5853095916
 21
85.3113646071
  0
LINE
  5
23A
100
AcDbEntity
  8
0
100
AcDbLine
 62
7
  6
BYLAYER
 10
54.8916660089
 20
87.0685477594
 11
51.2167187251
 21
84.9468286208
  0
LINE
  5
23B
100
AcDbEntity
  8
0
100
AcDbLine
 62
7
  6
BYLAYER
 10
24.130240687
 20
68.1704604561
 11
29.0799675475
 21
71.0281695332
  0
LINE
  5
23C
100
AcDbEntity
  8
0
100
AcDbLine
 62
7
  6
BYLAYER
 10
51.8129853042
 20
83.7162405321
 11
35.4466356621
 21
74.2671805638
  0
LINE
  5
23D
100
AcDbEntity
  8
0
100
AcDbLine
 62
7
  6
BYLAYER
 10
56.5438637454
 20
86.114672531
 11
52.8689164616
 21
83.9929533924
  0
LINE
  5
23E
100
AcDbEntity
  8
0
100
AcDbLine
 62
7
  6
BYLAYER
 10
46.6687620537
 20
80.7462395822
 11
46.6687620537
 21
86.6861920212
  0
LINE
  5
23F
100
AcDbEntity
  8
0
100
AcDbLine
 62
7
  6
BYLAYER
 10
36.2050507553
 20
73.8069119698
 11
52.5908060018
 21
83.2671757021
  0
LINE
  5
240
100
AcDbEntity
  8
0
100
AcDbLine
 62
7
  6
BYLAYER
 10
56.7632029746
 20
85.5411010949
 11
53.4753215251
 21
83.6428531861
  0
LINE
  5
241
100
AcDbEntity
  8
0
100
AcDbLine
 62
7
  6
BYLAYER
 10
59.8760713976
 20
87.0536704003
 11
68.325569453
 21
91.9319612576
  0
LINE
  5
242
100
AcDbEntity
  8
0
100
AcDbLine
 62
7
  6
BYLAYER
 10
57.8845953393
 20
84.8936795579
 11
54.5967138899
 21
82.995431649
  0
LINE
  5
243
100
AcDbEntity
  8
0
100
AcDbLine
 62
7
  6
BYLAYER
 10
57.8873722232
 20
84.5246502718
 11
54.9176956488
 21
82.8101169365
  0
LINE
  5
244
100
AcDbEntity
  8
0
100
AcDbLine
 62
7
  6
BYLAYER
 10
61.1857324314
 20
86.2975459048
 11
69.6352378055
 21
91.1758409875
  0
LINE
  5
245
100
AcDbEntity
  8
0
100
AcDbLine
 62
7
  6
BYLAYER
 10
59.6972899606
 20
84.3778700773
 11
55.9497792473
 21
82.2142566732
  0
LINE
  5
246
100
AcDbEntity
  8
0
100
AcDbLine
 62
7
  6
BYLAYER
 10
61.0613438772
 20
83.5903509974
 11
57.3138331639
 21
81.4267375934
  0
LINE
  5
247
100
AcDbEntity
  8
0
100
AcDbLine
 62
7
  6
BYLAYER
 10
61.0693659864
 20
82.524266393
 11
58.2411138008
 21
80.8913839793
  0
LINE
  5
248
100
AcDbEntity
  8
0
100
AcDbLine
 62
7
  6
BYLAYER
 10
57.7350292523
 20
80.297224213
 11
41.3907417583
 21
70.8609017559
  0
LINE
  5
249
100
AcDbEntity
  8
0
100
AcDbLine
 62
7
  6
BYLAYER
 10
27.8819110631
 20
63.4586632437
 11
26.40744988
 21
63.1736125851
  0
LINE
  5
24A
100
AcDbEntity
  8
0
100
AcDbLine
 62
7
  6
BYLAYER
 10
52.5908060018
 20
77.3272232631
 11
52.5908060018
 21
83.2671757021
  0
LINE
  5
24B
100
AcDbEntity
  8
0
100
AcDbLine
 62
7
  6
BYLAYER
 10
29.9224649115
 20
63.4093216686
 11
30.9124102836
 21
63.980863484
  0
LINE
  5
24C
100
AcDbEntity
  8
0
100
AcDbLine
 62
7
  6
BYLAYER
 10
42.2005236065
 20
70.4302895946
 11
58.5128499499
 21
79.848159383
  0
LINE
  5
24D
100
AcDbEntity
  8
0
100
AcDbLine
 62
7
  6
BYLAYER
 10
67.4048821046
 20
82.6657302121
 11
75.8901281512
 21
87.5646600585
  0
LINE
  5
24E
100
AcDbEntity
  8
0
100
AcDbLine
 62
7
  6
BYLAYER
 10
68.3371631167
 20
82.1274896954
 11
75.8901281512
 21
86.4881700615
  0
LINE
  5
24F
100
AcDbEntity
  8
0
100
AcDbLine
 62
7
  6
BYLAYER
 10
29.9224229429
 20
63.4093942612
 11
29.7203975261
 21
63.3200041817
  0
LINE
  5
250
100
AcDbEntity
  8
0
100
AcDbLine
 62
7
  6
BYLAYER
 10
53.3523598647
 20
86.908912291
 11
53.3523598647
 21
88.2082147588
  0
LINE
  5
251
100
AcDbEntity
  8
0
100
AcDbLine
 62
7
  6
BYLAYER
 10
54.5606172505
 20
88.9057983218
 11
54.5606172505
 21
92.3131457324
  0
LINE
  5
252
100
AcDbEntity
  8
0
100
AcDbLine
 62
7
  6
BYLAYER
 10
54.5848748737
 20
63.9041762971
 11
54.5848748737
 21
52.4323173365
  0
LINE
  5
253
100
AcDbEntity
  8
0
100
AcDbLine
 62
7
  6
BYLAYER
 10
68.8251629986
 20
81.845749206
 11
77.3104090452
 21
86.7446790525
  0
LINE
  5
254
100
AcDbEntity
  8
0
100
AcDbLine
 62
7
  6
BYLAYER
 10
30.7103428982
 20
59.4442663704
 11
35.1900657521
 21
62.0306201275
  0
LINE
  5
255
100
AcDbEntity
  8
0
100
AcDbLine
 62
7
  6
BYLAYER
 10
63.6570732004
 20
76.8782078939
 11
47.7269035708
 21
67.6809750701
  0
LINE
  5
256
100
AcDbEntity
  8
0
100
AcDbLine
 62
7
  6
BYLAYER
 10
48.5884735359
 20
67.2802626136
 11
64.4348938981
 21
76.4291430639
  0
LINE
  5
257
100
AcDbEntity
  8
0
100
AcDbLine
 62
7
  6
BYLAYER
 10
33.9306955138
 20
87.9868636148
 11
31.8800773108
 21
89.170761803
  0
LINE
  5
258
100
AcDbEntity
  8
0
100
AcDbLine
 62
7
  6
BYLAYER
 10
57.8873722232
 20
84.5246502718
 11
57.8845953393
 21
84.8936795579
  0
LINE
  5
259
100
AcDbEntity
  8
0
100
AcDbLine
 62
7
  6
BYLAYER
 10
56.5438637454
 20
85.4144662879
 11
56.5438637454
 21
86.114672531
  0
LINE
  5
25A
100
AcDbEntity
  8
0
100
AcDbLine
 62
7
  6
BYLAYER
 10
58.5128499499
 20
73.908206944
 11
58.5128499499
 21
79.848159383
  0
LINE
  5
25B
100
AcDbEntity
  8
0
100
AcDbLine
 62
7
  6
BYLAYER
 10
29.8618182935
 20
56.3007518175
 11
30.7103428982
 21
56.7906448022
  0
LINE
  5
25C
100
AcDbEntity
  8
0
100
AcDbLine
 62
7
  6
BYLAYER
 10
73.2405847026
 20
79.3380006791
 11
81.6899432587
 21
84.216210997
  0
LINE
  5
25D
100
AcDbEntity
  8
0
100
AcDbLine
 62
7
  6
BYLAYER
 10
71.8961668901
 20
77.3350045291
 11
68.1486561769
 21
75.1713911251
  0
LINE
  5
25E
100
AcDbEntity
  8
0
100
AcDbLine
 62
7
  6
BYLAYER
 10
64.6107559557
 20
72.8115722222
 11
66.5340944081
 21
71.7011573699
  0
LINE
  5
25F
100
AcDbEntity
  8
0
100
AcDbLine
 62
7
  6
BYLAYER
 10
66.3982966975
 20
72.9454670145
 11
68.3216359836
 21
71.8350516808
  0
LINE
  5
260
100
AcDbEntity
  8
0
100
AcDbLine
 62
7
  6
BYLAYER
 10
36.6945984669
 20
90.1702880073
 11
37.9087189969
 21
89.4693310502
  0
LINE
  5
261
100
AcDbEntity
  8
0
100
AcDbLine
 62
7
  6
BYLAYER
 10
61.0693659864
 20
82.524266393
 11
61.0613438772
 21
83.5903509974
  0
LINE
  5
262
100
AcDbEntity
  8
0
100
AcDbLine
 62
7
  6
BYLAYER
 10
67.6557786961
 20
74.5696064271
 11
64.6107559557
 21
72.8115722222
  0
LINE
  5
263
100
AcDbEntity
  8
0
100
AcDbLine
 62
7
  6
BYLAYER
 10
74.6224796049
 20
78.5401815852
 11
83.0718379438
 21
83.4183917776
  0
LINE
  5
264
100
AcDbEntity
  8
0
100
AcDbLine
 62
7
  6
BYLAYER
 10
69.2012035349
 20
74.563716372
 11
66.3982966975
 21
72.9454670145
  0
LINE
  5
265
100
AcDbEntity
  8
0
100
AcDbLine
 62
7
  6
BYLAYER
 10
73.2670087452
 20
76.5435665198
 11
69.2012035349
 21
74.1961867992
  0
LINE
  5
266
100
AcDbEntity
  8
0
100
AcDbLine
 62
7
  6
BYLAYER
 10
73.2670087452
 20
76.0128399487
 11
69.2012035349
 21
73.6654602281
  0
LINE
  5
267
100
AcDbEntity
  8
0
100
AcDbLine
 62
7
  6
BYLAYER
 10
66.5340944081
 20
71.7011573699
 11
54.4606279773
 21
64.7305798848
  0
LINE
  5
268
100
AcDbEntity
  8
0
100
AcDbLine
 62
7
  6
BYLAYER
 10
68.3216359836
 20
71.8350516808
 11
54.5848748737
 21
63.9041762971
  0
LINE
  5
269
100
AcDbEntity
  8
0
100
AcDbLine
 62
7
  6
BYLAYER
 10
46.6687620537
 20
86.6861920212
 11
51.8129853042
 21
83.7162405321
  0
LINE
  5
26A
100
AcDbEntity
  8
0
100
AcDbLine
 62
7
  6
BYLAYER
 10
52.5908060018
 20
83.2671757021
 11
57.7350292523
 21
80.297224213
  0
LINE
  5
26B
100
AcDbEntity
  8
0
100
AcDbLine
 62
7
  6
BYLAYER
 10
58.5128499499
 20
79.848159383
 11
63.6570732004
 21
76.8782078939
  0
LINE
  5
26C
100
AcDbEntity
  8
0
100
AcDbLine
 62
7
  6
BYLAYER
 10
64.4348938981
 20
76.4291430639
 11
67.6557786961
 21
74.5696064271
  0
LINE
  5
26D
100
AcDbEntity
  8
0
100
AcDbLine
 62
7
  6
BYLAYER
 10
40.6460054701
 20
91.0496946988
 11
69.2012035349
 21
74.563716372
  0
LINE
  5
26E
100
AcDbEntity
  8
0
100
AcDbLine
 62
7
  6
BYLAYER
 10
64.4348938981
 20
70.4891906249
 11
64.4348938981
 21
76.4291430639
  0
LINE
  5
26F
100
AcDbEntity
  8
0
100
AcDbLine
 62
7
  6
BYLAYER
 10
64.6107559557
 20
70.5907240251
 11
64.6107559557
 21
72.8115722222
  0
LINE
  5
270
100
AcDbEntity
  8
0
100
AcDbLine
 62
7
  6
BYLAYER
 10
79.001481597
 20
75.9705818379
 11
87.4867276436
 21
80.8695116844
  0
LINE
  5
271
100
AcDbEntity
  8
0
100
AcDbLine
 62
7
  6
BYLAYER
 10
79.9337626091
 20
75.4323413213
 11
87.4867276436
 21
79.7930216873
  0
LINE
  5
272
100
AcDbEntity
  8
0
100
AcDbLine
 62
7
  6
BYLAYER
 10
80.4571179773
 20
75.1301887942
 11
88.9423640238
 21
80.0291186406
  0
LINE
  5
273
100
AcDbEntity
  8
0
100
AcDbLine
 62
7
  6
BYLAYER
 10
77.7066814235
 20
73.4496517198
 11
69.2012035349
 21
68.5390410836
  0
LINE
  5
274
100
AcDbEntity
  8
0
100
AcDbLine
 62
7
  6
BYLAYER
 10
70.9769083624
 20
76.8042735387
 11
61.0693659864
 21
82.524266393
  0
LINE
  5
275
100
AcDbEntity
  8
0
100
AcDbLine
 62
7
  6
BYLAYER
 10
58.9194558217
 20
83.9287900085
 11
57.8873722232
 21
84.5246502718
  0
LINE
  5
276
100
AcDbEntity
  8
0
100
AcDbLine
 62
7
  6
BYLAYER
 10
77.7066814235
 20
73.4496517198
 11
73.2670087452
 21
76.0128399487
  0
LINE
  5
277
100
AcDbEntity
  8
0
100
AcDbLine
 62
7
  6
BYLAYER
 10
57.8845953393
 20
84.8936795579
 11
56.7632029746
 21
85.5411010949
  0
LINE
  5
278
100
AcDbEntity
  8
0
100
AcDbLine
 62
7
  6
BYLAYER
 10
68.3216359836
 20
60.3631927202
 11
68.3216359836
 21
71.8350516808
  0
LINE
  5
279
100
AcDbEntity
  8
0
100
AcDbLine
 62
7
  6
BYLAYER
 10
68.325569453
 20
90.4197081252
 11
68.325569453
 21
91.9319612576
  0
LINE
  5
27A
100
AcDbEntity
  8
0
100
AcDbLine
 62
7
  6
BYLAYER
 10
77.7218000136
 20
71.4404922733
 11
69.2012035349
 21
66.5211529671
  0
LINE
  5
27B
100
AcDbEntity
  8
0
100
AcDbLine
 62
7
  6
BYLAYER
 10
69.2012035349
 20
65.3348712014
 11
68.3216359836
 21
64.8270556701
  0
LINE
  5
27C
100
AcDbEntity
  8
0
100
AcDbLine
 62
7
  6
BYLAYER
 10
56.5438637454
 20
86.114672531
 11
54.8916660089
 21
87.0685477594
  0
LINE
  5
27D
100
AcDbEntity
  8
0
100
AcDbLine
 62
7
  6
BYLAYER
 10
73.2670087452
 20
76.5435665198
 11
71.8961668901
 21
77.3350045291
  0
LINE
  5
27E
100
AcDbEntity
  8
0
100
AcDbLine
 62
7
  6
BYLAYER
 10
61.0613438772
 20
83.5903509974
 11
59.6972899606
 21
84.3778700773
  0
LINE
  5
27F
100
AcDbEntity
  8
0
100
AcDbLine
 62
7
  6
BYLAYER
 10
81.8547867883
 20
71.9218936546
 11
83.1417499034
 21
71.1788819629
  0
LINE
  5
280
100
AcDbEntity
  8
0
100
AcDbLine
 62
7
  6
BYLAYER
 10
83.4800830014
 20
72.8602532595
 11
54.5606172505
 21
89.5565368752
  0
LINE
  5
281
100
AcDbEntity
  8
0
100
AcDbLine
 62
7
  6
BYLAYER
 10
67.4048821046
 20
82.6657302121
 11
68.8251629986
 21
81.845749206
  0
LINE
  5
282
100
AcDbEntity
  8
0
100
AcDbLine
 62
7
  6
BYLAYER
 10
79.001481597
 20
75.9705818379
 11
80.4571179773
 21
75.1301887942
  0
LINE
  5
283
100
AcDbEntity
  8
0
100
AcDbLine
 62
7
  6
BYLAYER
 10
61.1857324314
 20
86.2975459048
 11
59.8760713976
 21
87.0536704003
  0
LINE
  5
284
100
AcDbEntity
  8
0
100
AcDbLine
 62
7
  6
BYLAYER
 10
74.6224796049
 20
78.5401815852
 11
73.2405847026
 21
79.3380006791
  0
LINE
  5
285
100
AcDbEntity
  8
0
100
AcDbLine
 62
7
  6
BYLAYER
 10
68.6677094597
 20
62.8223406983
 11
68.6677094597
 21
51.4753249572
  0
LINE
  5
286
100
AcDbEntity
  8
0
100
AcDbLine
 62
7
  6
BYLAYER
 10
69.2012035349
 20
65.3348712014
 11
69.2012035349
 21
74.563716372
  0
LINE
  5
287
100
AcDbEntity
  8
0
100
AcDbLine
 62
7
  6
BYLAYER
 10
81.8547867883
 20
71.9218936546
 11
83.4800830014
 21
72.8602532595
  0
LINE
  5
288
100
AcDbEntity
  8
0
100
AcDbLine
 62
7
  6
BYLAYER
 10
93.3446034744
 20
77.487542007
 11
83.4800830014
 21
71.7922924525
  0
LINE
  5
289
100
AcDbEntity
  8
0
100
AcDbLine
 62
7
  6
BYLAYER
 10
83.1417499034
 20
71.1788819629
 11
68.6677094597
 21
62.8223406983
  0
LINE
  5
28A
100
AcDbEntity
  8
0
100
AcDbLine
 62
7
  6
BYLAYER
 10
54.5606172505
 20
92.3131457324
 11
49.8383553538
 21
95.0394832316
  0
LINE
  5
28B
100
AcDbEntity
  8
0
100
AcDbLine
 62
7
  6
BYLAYER
 10
73.2670087452
 20
76.0128399487
 11
73.2670087452
 21
76.5435665198
  0
LINE
  5
28C
100
AcDbEntity
  8
0
100
AcDbLine
 62
7
  6
BYLAYER
 10
68.3216359836
 20
60.3631927202
 11
54.5848748737
 21
52.4323173365
  0
LINE
  5
28D
100
AcDbEntity
  8
0
100
AcDbLine
 62
7
  6
BYLAYER
 10
83.1418791748
 20
68.4569653162
 11
93.3446034744
 21
74.3474757754
  0
LINE
  5
28E
100
AcDbEntity
  8
0
100
AcDbLine
 62
7
  6
BYLAYER
 10
83.1418824768
 20
68.3874385122
 11
92.172037417
 21
73.6009697772
  0
LINE
  5
28F
100
AcDbEntity
  8
0
100
AcDbLine
 62
7
  6
BYLAYER
 10
83.1419467776
 20
67.0335323343
 11
93.3446034744
 21
72.9240037633
  0
LINE
  5
290
100
AcDbEntity
  8
0
100
AcDbLine
 62
7
  6
BYLAYER
 10
92.172037417
 20
73.6009697772
 11
93.3446034744
 21
72.9240037633
  0
LINE
  5
291
100
AcDbEntity
  8
0
100
AcDbLine
 62
7
  6
BYLAYER
 10
77.7218000136
 20
71.4404922733
 11
77.7066814235
 21
73.4496517198
  0
LINE
  5
292
100
AcDbEntity
  8
0
100
AcDbLine
 62
7
  6
BYLAYER
 10
75.8901281512
 20
87.5646600585
 11
75.8901281512
 21
86.4881700615
  0
LINE
  5
293
100
AcDbEntity
  8
0
100
AcDbLine
 62
7
  6
BYLAYER
 10
83.1420137081
 20
65.6242553619
 11
93.3446034744
 21
71.5146881488
  0
LINE
  5
294
100
AcDbEntity
  8
0
100
AcDbLine
 62
7
  6
BYLAYER
 10
75.8901281512
 20
86.4881700615
 11
76.3781280331
 21
86.2064295721
  0
LINE
  5
295
100
AcDbEntity
  8
0
100
AcDbLine
 62
7
  6
BYLAYER
 10
87.4867276436
 20
79.7930216873
 11
88.0100830117
 21
79.4908691603
  0
LINE
  5
296
100
AcDbEntity
  8
0
100
AcDbLine
 62
7
  6
BYLAYER
 10
93.3446034744
 20
77.487542007
 11
88.9423640238
 21
80.0291186406
  0
LINE
  5
297
100
AcDbEntity
  8
0
100
AcDbLine
 62
7
  6
BYLAYER
 10
87.4867276436
 20
80.8695116844
 11
83.0718379438
 21
83.4183917776
  0
LINE
  5
298
100
AcDbEntity
  8
0
100
AcDbLine
 62
7
  6
BYLAYER
 10
81.6899432587
 20
84.216210997
 11
77.3104090452
 21
86.7446790525
  0
LINE
  5
299
100
AcDbEntity
  8
0
100
AcDbLine
 62
7
  6
BYLAYER
 10
75.8901281512
 20
87.5646600585
 11
69.6352378055
 21
91.1758409875
  0
LINE
  5
29A
100
AcDbEntity
  8
0
100
AcDbLine
 62
7
  6
BYLAYER
 10
68.325569453
 20
91.9319612576
 11
64.2046585316
 21
94.3111164638
  0
LINE
  5
29B
100
AcDbEntity
  8
0
100
AcDbLine
 62
7
  6
BYLAYER
 10
83.1422887902
 20
59.8321773464
 11
68.6677094597
 21
51.4753249572
  0
LINE
  5
29C
100
AcDbEntity
  8
0
100
AcDbLine
 62
7
  6
BYLAYER
 10
81.6899432587
 20
82.6205592716
 11
81.6899432587
 21
84.216210997
  0
LINE
  5
29D
100
AcDbEntity
  8
0
100
AcDbLine
 62
7
  6
BYLAYER
 10
83.1417499034
 20
71.1788819629
 11
83.1422887902
 21
59.8321773464
  0
LINE
  5
29E
100
AcDbEntity
  8
0
100
AcDbLine
 62
7
  6
BYLAYER
 10
83.4800830014
 20
71.7922924525
 11
83.4800830014
 21
72.8602532595
  0
LINE
  5
29F
100
AcDbEntity
  8
0
100
AcDbLine
 62
7
  6
BYLAYER
 10
87.4867276436
 20
80.8695116844
 11
87.4867276436
 21
79.7930216873
  0
LINE
  5
2A0
100
AcDbEntity
  8
0
100
AcDbLine
 62
7
  6
BYLAYER
 10
92.172037417
 20
73.6704984875
 11
92.172037417
 21
73.6009697772
  0
LINE
  5
2A1
100
AcDbEntity
  8
0
100
AcDbLine
 62
7
  6
BYLAYER
 10
93.3446034744
 20
71.5146881488
 11
93.3446034744
 21
72.9240037633
  0
LINE
  5
2A2
100
AcDbEntity
  8
0
100
AcDbLine
 62
7
  6
BYLAYER
 10
93.3446034744
 20
74.3474757754
 11
93.3446034744
 21
77.487542007
  0
ARC
  5
2A3
100
AcDbEntity
  8
0
100
AcDbCircle
 62
7
  6
BYLAYER
 10
125.8899174096
 20
204.1884501336
 40
152.508222662
100
AcDbArc
 50
247.8223476428
 51
247.9628703316
  0
ARC
  5
2A4
100
AcDbEntity
  8
0
100
AcDbCircle
 62
7
  6
BYLAYER
 10
109.0525075993
 20
198.4976107551
 40
144.4779978699
100
AcDbArc
 50
245.2600811262
 51
247.7990580182
  0
ARC
  5
2A5
100
AcDbEntity
  8
0
100
AcDbCircle
 62
7
  6
BYLAYER
 10
103.8527786331
 20
187.4281743912
 40
132.2478944889
100
AcDbArc
 50
242.2129274081
 51
244.8873715724
  0
ARC
  5
2A6
100
AcDbEntity
  8
0
100
AcDbCircle
 62
7
  6
BYLAYER
 10
98.1633316521
 20
176.8314414484
 40
120.2201407667
100
AcDbArc
 50
238.9775730501
 51
241.8202932864
  0
ARC
  5
2A7
100
AcDbEntity
  8
0
100
AcDbCircle
 62
7
  6
BYLAYER
 10
94.9933462705
 20
172.3443530019
 40
115.5269239479
100
AcDbArc
 50
236.5107663621
 51
240.0156845741
  0
ARC
  5
2A8
100
AcDbEntity
  8
0
100
AcDbCircle
 62
7
  6
BYLAYER
 10
93.6480616214
 20
158.6940203656
 40
112.9677148405
100
AcDbArc
 50
236.2177039541
 51
240.0544917172
  0
ARC
  5
2A9
100
AcDbEntity
  8
0
100
AcDbCircle
 62
7
  6
BYLAYER
 10
92.5219219201
 20
167.5921078961
 40
109.3943799426
100
AcDbArc
 50
235.9483787445
 51
238.5510446463
  0
ARC
  5
2AA
100
AcDbEntity
  8
0
100
AcDbCircle
 62
7
  6
BYLAYER
 10
84.6948732177
 20
145.7946550049
 40
97.2620969043
100
AcDbArc
 50
232.322265661
 51
233.4037497278
  0
ARC
  5
2AB
100
AcDbEntity
  8
0
100
AcDbCircle
 62
7
  6
BYLAYER
 10
28.1373743668
 20
69.5577871511
 40
1.5359511047
100
AcDbArc
 50
57.9706686082
 51
61.6168550424
  0
SPLINE
  5
2AC
100
AcDbEntity
  8
0
100
AcDbSpline
 62
7
  6
BYLAYER
 70
0
 71
3
 72
9
 73
5
 74
0
 42
0.0000001
 43
0.0000001
 44
0.0000000001
 40
0.0
 40
0.0
 40
0.0
 40
0.0
 40
0.2591661511
 40
1.0
 40
1.0
 40
1.0
 40
1.0
 10
66.6640500407
 20
59.3614325285
 30
0.0
 10
66.6747242317
 20
59.3144108766
 30
0.0
 10
66.71129939
 20
59.1319947008
 30
0.0
 10
66.7291281997
 20
58.9455558331
 30
0.0
 10
66.7291281997
 20
58.8077233443
 30
0.0
  0
SPLINE
  5
2AD
100
AcDbEntity
  8
0
100
AcDbSpline
 62
7
  6
BYLAYER
 70
0
 71
3
 72
9
 73
5
 74
0
 42
0.0000001
 43
0.0000001
 44
0.0000000001
 40
0.0
 40
0.0
 40
0.0
 40
0.0
 40
0.2464727991
 40
1.0
 40
1.0
 40
1.0
 40
1.0
 10
59.7715813493
 20
55.4230665006
 30
0.0
 10
60.4909922619
 20
55.0738221297
 30
0.0
 10
63.4222278289
 20
53.6825181629
 30
0.0
 10
66.4014472393
 20
52.3926652735
 30
0.0
 10
68.6677094597
 20
51.4753249572
 30
0.0
  0
SPLINE
  5
2AE
100
AcDbEntity
  8
0
100
AcDbSpline
 62
7
  6
BYLAYER
 70
0
 71
3
 72
11
 73
7
 74
0
 42
0.0000001
 43
0.0000001
 44
0.0000000001
 40
0.0
 40
0.0
 40
0.0
 40
0.0
 40
0.2191590562
 40
0.4596265554
 40
0.7207403611
 40
1.0
 40
1.0
 40
1.0
 40
1.0
 10
24.130240687
 20
68.1704604561
 30
0.0
 10
23.4166934646
 20
68.2999255359
 30
0.0
 10
21.9475702089
 20
68.7330559824
 30
0.0
 10
19.798649001
 20
69.7871138088
 30
0.0
 10
17.6559529917
 20
71.2440900672
 30
0.0
 10
16.3071418593
 20
72.4248554229
 30
0.0
 10
15.6449239853
 20
73.0693495104
 30
0.0
  0
SPLINE
  5
2AF
100
AcDbEntity
  8
0
100
AcDbSpline
 62
7
  6
BYLAYER
 70
0
 71
3
 72
11
 73
7
 74
0
 42
0.0000001
 43
0.0000001
 44
0.0000000001
 40
0.0
 40
0.0
 40
0.0
 40
0.0
 40
0.2749438779
 40
0.5342093725
 40
0.776095287
 40
1.0
 40
1.0
 40
1.0
 40
1.0
 10
22.0796460367
 20
69.9080388546
 30
0.0
 10
21.2852483713
 20
70.6284629765
 30
0.0
 10
19.6757567138
 20
71.9580781609
 30
0.0
 10
17.1473705662
 20
73.6340104191
 30
0.0
 10
14.614528701
 20
74.9080506508
 30
0.0
 10
12.8863896628
 20
75.4950026345
 30
0.0
 10
12.0386879348
 20
75.7050575706
 30
0.0
  0
SPLINE
  5
2B0
100
AcDbEntity
  8
0
100
AcDbSpline
 62
7
  6
BYLAYER
 70
0
 71
3
 72
11
 73
7
 74
0
 42
0.0000001
 43
0.0000001
 44
0.0000000001
 40
0.0
 40
0.0
 40
0.0
 40
0.0
 40
0.2751034519
 40
0.5344359717
 40
0.7762698972
 40
1.0
 40
1.0
 40
1.0
 40
1.0
 10
31.2719959205
 20
89.8483823528
 30
0.0
 10
30.47797521
 20
90.5703527407
 30
0.0
 10
28.8689632352
 20
91.902429696
 30
0.0
 10
26.3403375211
 20
93.5800861822
 30
0.0
 10
23.8071647144
 20
94.8531150916
 30
0.0
 10
22.0786558385
 20
95.4373824445
 30
0.0
 10
21.2310378186
 20
95.6454010687
 30
0.0
  0
SPLINE
  5
2B1
100
AcDbEntity
  8
0
100
AcDbSpline
 62
7
  6
BYLAYER
 70
0
 71
3
 72
9
 73
5
 74
0
 42
0.0000001
 43
0.0000001
 44
0.0000000001
 40
0.0
 40
0.0
 40
0.0
 40
0.0
 40
0.4900082643
 40
1.0
 40
1.0
 40
1.0
 40
1.0
 10
37.2572746888
 20
60.8074342293
 30
0.0
 10
39.9813111412
 20
59.2347466292
 30
0.0
 10
45.6671896315
 20
56.2412523391
 30
0.0
 10
51.5477584815
 20
53.6542295215
 30
0.0
 10
54.5848748737
 20
52.4323173365
 30
0.0
  0
SPLINE
  5
2B2
100
AcDbEntity
  8
0
100
AcDbSpline
 62
7
  6
BYLAYER
 70
0
 71
3
 72
11
 73
7
 74
0
 42
0.0000001
 43
0.0000001
 44
0.0000000001
 40
0.0
 40
0.0
 40
0.0
 40
0.0
 40
0.2759610533
 40
0.530097738
 40
0.7681845456
 40
1.0
 40
1.0
 40
1.0
 40
1.0
 10
66.7291281997
 20
58.8077233443
 30
0.0
 10
66.7291281997
 20
58.6719740153
 30
0.0
 10
66.7045666486
 20
58.4100823503
 30
0.0
 10
66.5823235432
 20
58.0483380308
 30
0.0
 10
66.3791414522
 20
57.7500275742
 30
0.0
 10
66.1950865176
 20
57.6034760561
 30
0.0
 10
66.0963231098
 20
57.5464723882
 30
0.0
  0
SPLINE
  5
2B3
100
AcDbEntity
  8
0
100
AcDbSpline
 62
7
  6
BYLAYER
 70
0
 71
3
 72
9
 73
5
 74
0
 42
0.0000001
 43
0.0000001
 44
0.0000000001
 40
0.0
 40
0.0
 40
0.0
 40
0.0
 40
0.5099917357
 40
1.0
 40
1.0
 40
1.0
 40
1.0
 10
54.5848748737
 20
63.9041762971
 30
0.0
 10
51.5477584815
 20
65.1260884821
 30
0.0
 10
45.6671896315
 20
67.7131112998
 30
0.0
 10
39.9813111412
 20
70.7066055898
 30
0.0
 10
37.2572746888
 20
72.27929319
 30
0.0
  0
SPLINE
  5
2B4
100
AcDbEntity
  8
0
100
AcDbSpline
 62
7
  6
BYLAYER
 70
0
 71
3
 72
11
 73
7
 74
0
 42
0.0000001
 43
0.0000001
 44
0.0000000001
 40
0.0
 40
0.0
 40
0.0
 40
0.0
 40
0.2354462976
 40
0.4771194313
 40
0.7306379506
 40
1.0
 40
1.0
 40
1.0
 40
1.0
 10
24.4699113489
 20
63.6534466766
 30
0.0
 10
24.7067101407
 20
63.5178907016
 30
0.0
 10
25.2137104076
 20
63.2882937015
 30
0.0
 10
26.0375907835
 20
63.0777496974
 30
0.0
 10
26.922603339
 20
62.9930829968
 30
0.0
 10
27.5298768765
 20
63.0164141825
 30
0.0
 10
27.8406781754
 20
63.0454842064
 30
0.0
  0
SPLINE
  5
2B5
100
AcDbEntity
  8
0
100
AcDbSpline
 62
7
  6
BYLAYER
 70
0
 71
3
 72
16
 73
12
 74
0
 42
0.0000001
 43
0.0000001
 44
0.0000000001
 40
0.0
 40
0.0
 40
0.0
 40
0.0
 40
0.0535408276
 40
0.1124614274
 40
0.1754832013
 40
0.2411784326
 40
0.3758586458
 40
0.5101061237
 40
0.6408043155
 40
0.766521845
 40
1.0
 40
1.0
 40
1.0
 40
1.0
 10
28.9519711584
 20
70.8599307159
 30
0.0
 10
29.0352909397
 20
70.8079209026
 30
0.0
 10
29.2007440593
 20
70.6830976567
 30
0.0
 10
29.4303136772
 20
70.4564742305
 30
0.0
 10
29.6486895835
 20
70.1896791602
 30
0.0
 10
29.921442618
 20
69.7902695161
 30
0.0
 10
30.2117086061
 20
69.2472887224
 30
0.0
 10
30.4861016664
 20
68.5663589163
 30
0.0
 10
30.6927997869
 20
67.8790942621
 30
0.0
 10
30.8797913012
 20
66.9995414568
 30
0.0
 10
30.9414823174
 20
66.3394175605
 30
0.0
 10
30.9414822923
 20
65.9111038635
 30
0.0
  0
SPLINE
  5
2B6
100
AcDbEntity
  8
0
100
AcDbSpline
 62
7
  6
BYLAYER
 70
0
 71
3
 72
12
 73
8
 74
0
 42
0.0000001
 43
0.0000001
 44
0.0000000001
 40
0.0
 40
0.0
 40
0.0
 40
0.0
 40
0.1061419622
 40
0.2157566723
 40
0.4506352471
 40
0.7122990228
 40
1.0
 40
1.0
 40
1.0
 40
1.0
 10
66.0963231098
 20
57.5464723882
 30
0.0
 10
66.0299262734
 20
57.5081498628
 30
0.0
 10
65.8868959291
 20
57.4434586687
 30
0.0
 10
65.5690651914
 20
57.3663735581
 30
0.0
 10
65.1234275358
 20
57.3773769687
 30
0.0
 10
64.5774763646
 20
57.5467007175
 30
0.0
 10
64.2307189658
 20
57.7462120695
 30
0.0
 10
64.0607964831
 20
57.8658183226
 30
0.0
  0
SPLINE
  5
2B7
100
AcDbEntity
  8
0
100
AcDbSpline
 62
7
  6
BYLAYER
 70
0
 71
3
 72
9
 73
5
 74
0
 42
0.0000001
 43
0.0000001
 44
0.0000000001
 40
0.0
 40
0.0
 40
0.0
 40
0.0
 40
0.2630684866
 40
1.0
 40
1.0
 40
1.0
 40
1.0
 10
30.9414822923
 20
65.9111038635
 30
0.0
 10
30.9414822866
 20
65.8131329
 30
0.0
 10
30.9336775184
 20
65.4408672387
 30
0.0
 10
30.8913595988
 20
65.0684942398
 30
0.0
 10
30.833626633
 20
64.8001901456
 30
0.0
  0
SPLINE
  5
2B8
100
AcDbEntity
  8
0
100
AcDbSpline
 62
7
  6
BYLAYER
 70
0
 71
3
 72
11
 73
7
 74
0
 42
0.0000001
 43
0.0000001
 44
0.0000000001
 40
0.0
 40
0.0
 40
0.0
 40
0.0
 40
0.2237301028
 40
0.4655640283
 40
0.7248965481
 40
1.0
 40
1.0
 40
1.0
 40
1.0
 10
12.0386879348
 20
90.3382270684
 30
0.0
 10
12.8863059547
 20
90.1302084442
 30
0.0
 10
14.6148148306
 20
89.5459410913
 30
0.0
 10
17.1479876374
 20
88.2729121819
 30
0.0
 10
19.6766133514
 20
86.5952556956
 30
0.0
 10
21.2856253262
 20
85.2631787404
 30
0.0
 10
22.0796460367
 20
84.5412083525
 30
0.0
  0
ELLIPSE
  5
2B9
100
AcDbEntity
  8
0
100
AcDbEllipse
 62
7
  6
BYLAYER
 10
29.7469695042
 20
67.6338644877
 30
0.0
 11
-0.8959539291
 21
3.7609590354
 31
0.0
 40
0.5019211526
 41
-2.9930623605
 42
-2.6926208384
  0
ELLIPSE
  5
2BA
100
AcDbEntity
  8
0
100
AcDbEllipse
 62
7
  6
BYLAYER
 10
28.7570241321
 20
67.0623226723
 30
0.0
 11
-0.8959539291
 21
3.7609590354
 31
0.0
 40
0.5019211526
 41
0.6421591048
 42
2.1903843315
  0
ELLIPSE
  5
2BB
100
AcDbEntity
  8
0
100
AcDbEllipse
 62
7
  6
BYLAYER
 10
28.7570241321
 20
67.0623226723
 30
0.0
 11
-0.8959539291
 21
3.7609590354
 31
0.0
 40
0.5019211526
 41
3.2901229534
 42
5.9253092515
  0
ENDSEC
  0
SECTION
  2
OBJECTS
  0
DICTIONARY
  5
C
100
AcDbDictionary
280
0
281
1
  3
ACAD_GROUP
350
D
  3
ACAD_MLINESTYLE
350
17
  3
ACAD_LAYOUT
350
1A
  3
ACAD_PLOTSETTINGS
350
19
  3
ACAD_PLOTSTYLENAME
350
E
  0
DICTIONARY
  5
D
102
{ACAD_REACTORS
330
C
102
}
100
AcDbDictionary
280
0
281
1
  0
ACDBDICTIONARYWDFLT
  5
E
102
{ACAD_REACTORS
330
C
102
}
100
AcDbDictionary
281
1
  3
Normal
350
F
100
AcDbDictionaryWithDefault
340
F
  0
DICTIONARY
  5
17
102
{ACAD_REACTORS
330
C
102
}
100
AcDbDictionary
280
0
281
1
  3
Standard
350
18
  0
DICTIONARY
  5
19
102
{ACAD_REACTORS
330
C
102
}
100
AcDbDictionary
281
1
  0
DICTIONARY
  5
1A
102
{ACAD_REACTORS
330
C
102
}
100
AcDbDictionary
281
1
  3
Model
350
2BC
  3
Layout1
350
2BD
  0
ACDBPLACEHOLDER
  5
F
102
{ACAD_REACTORS
330
E
102
}
  0
MLINESTYLE
  5
18
102
{ACAD_REACTORS
330
17
102
}
100
AcDbMlineStyle
  2
STANDARD
 70
0
  3

 62
256
 51
90.0
 52
90.0
 71
2
 49
0.5
 62
256
  6
BYLAYER
 49
-0.5
 62
256
  6
BYLAYER
  0
LAYOUT
  5
2BC
102
{ACAD_REACTORS
330
1A
102
}
100
AcDbPlotSettings
  1

  2
none_device
  4

  6

 40
0.0
 41
0.0
 42
0.0
 43
0.0
 44
210.0
 45
297.0
 46
0.0
 47
0.0
 48
0.0
 49
0.0
140
0.0
141
0.0
142
1.0
143
1.0
 70
1024
 72
1
 73
0
 74
0
  7

 75
0
147
1.0
148
0.0
149
0.0
100
AcDbLayout
  1
Model
 70
0
 71
0
 10
0.0
 20
0.0
 11
210.0
 21
297.0
 12
0.0
 22
0.0
 32
0.0
 14
0.0
 24
0.0
 34
0.0
 15
0.0
 25
0.0
 35
0.0
146
0.0
 13
0.0
 23
0.0
 33
0.0
 16
1.0
 26
0.0
 36
0.0
 17
0.0
 27
1.0
 37
0.0
 76
0
330
210
345
0
346
0
  0
LAYOUT
  5
2BD
102
{ACAD_REACTORS
330
1A
102
}
100
AcDbPlotSettings
  1

  2
none_device
  4

  6

 40
0.0
 41
0.0
 42
0.0
 43
0.0
 44
210.0
 45
297.0
 46
0.0
 47
0.0
 48
0.0
 49
0.0
140
0.0
141
0.0
142
1.0
143
1.0
 70
0
 72
1
 73
0
 74
0
  7

 75
0
147
1.0
148
0.0
149
0.0
100
AcDbLayout
  1
Layout1
 70
0
 71
1
 10
0.0
 20
0.0
 11
210.0
 21
297.0
 12
0.0
 22
0.0
 32
0.0
 14
0.0
 24
0.0
 34
0.0
 15
0.0
 25
0.0
 35
0.0
146
0.0
 13
0.0
 23
0.0
 33
0.0
 16
1.0
 26
0.0
 36
0.0
 17
0.0
 27
1.0
 37
0.0
 76
0
330
211
345
0
346
0
  0
ENDSEC
  0
EOF
