999
DXF file: C:\Users\sesa63760\Dev\_Creo\CAD\MCADPD0004416_3D-CAD\drw0001_4.dxf
999
Pro/ENGINEER 2019471 by Parametric Technology Corporation
  0
SECTION
  2
HEADER
  9
$ACADVER
  1
AC1024
  9
$DWGCODEPAGE
  3
ANSI_1252
  9
$EXTMAX
 10
209.7813261929
 20
296.6907327585
 30
0.0
  9
$EXTMIN
 10
0.0
 20
0.0
 30
0.0
  9
$LIMMIN
 10
0.0
 20
0.0
  9
$LIMMAX
 10
209.7813261929
 20
296.6907327585
  9
$VIEWCTR
 10
104.8906630964
 20
148.3453663792
  9
$VIEWSIZE
 40
296.6907327585
  9
$CLAYER
  8
0
  9
$LTSCALE
 40
19.3398403576
  9
$CELTYPE
  6
BYLAYER
  9
$DIMSCALE
 40
1.0
  9
$DIMASZ
 40
2.4973967404
  9
$DIMEXO
 40
1.0
  9
$DIMDLI
 40
13.3620715198
  9
$DIMEXE
 40
1.0
  9
$DIMCEN
 40
3.1647011494
  9
$DIMLFAC
 40
1.0
  9
$DIMBLK
  1
_FILLED
  9
$DIMALT
 70
0
  9
$DIMALTF
 40
0.0393700787
  9
$DIMTXT
 40
3.4963554365
  9
$DIMTOL
 70
1
  9
$DIMLIM
 70
0
  9
$DIMTFAC
 40
1.0
  9
$DIMTP
 40
0.01
  9
$DIMTM
 40
0.01
  9
$DIMGAP
 40
0.625
  9
$DIMDSEP
 70
46
  9
$AUNITS
 70
0
  9
$PDMODE
 70
3
  9
$PDSIZE
 40
0.3125
  9
$HANDSEED
  5
2EC
  9
$TILEMODE
 70
1
  9
$MEASUREMENT
 70
1
  9
$INSUNITS
 70
4
  0
ENDSEC
  0
SECTION
  2
CLASSES
  0
CLASS
  1
ACDBDICTIONARYWDFLT
  2
AcDbDictionaryWithDefault
  3
AutoCAD 2000
 90
0
 91
1
280
0
281
0
  0
CLASS
  1
ACDBPLACEHOLDER
  2
AcDbPlaceHolder
  3
AutoCAD 2000
 90
0
 91
1
280
0
281
0
  0
CLASS
  1
LAYOUT
  2
AcDbLayout
  3
AutoCAD 2000
 90
0
 91
0
280
0
281
0
  0
ENDSEC
  0
SECTION
  2
TABLES
  0
TABLE
  2
VPORT
  5
8
100
AcDbSymbolTable
 70
2
  0
VPORT
  5
1F4
100
AcDbSymbolTableRecord
100
AcDbViewportTableRecord
  2
*ACTIVE
 70
0
 10
0.0
 20
0.0
 11
1.0
 21
1.0
 12
104.8906630964
 22
148.3453663792
 13
0.0
 23
0.0
 14
1.0
 24
1.0
 15
0.0
 25
0.0
 16
0.0
 26
0.0
 36
1.0
 17
0.0
 27
0.0
 37
0.0
 40
296.6907327585
 41
0.7070707071
 42
50.0
 43
0.0
 44
0.0
 50
0.0
 51
0.0
 71
0
 72
100
 73
1
 74
1
 75
0
 76
0
 77
0
 78
0
  0
ENDTAB
  0
TABLE
  2
LTYPE
  5
5
100
AcDbSymbolTable
 70
6
  0
LTYPE
  5
14
100
AcDbSymbolTableRecord
100
AcDbLinetypeTableRecord
  2
BYBLOCK
 70
0
  3

 72
65
 73
0
 40
0.0
  0
LTYPE
  5
15
100
AcDbSymbolTableRecord
100
AcDbLinetypeTableRecord
  2
BYLAYER
 70
0
  3

 72
65
 73
0
 40
0.0
  0
LTYPE
  5
16
100
AcDbSymbolTableRecord
100
AcDbLinetypeTableRecord
  2
CONTINUOUS
 70
64
  3
Solid line
 72
65
 73
0
 40
0.0
  0
LTYPE
  5
1F5
100
AcDbSymbolTableRecord
100
AcDbLinetypeTableRecord
  2
CENTER
 70
64
  3
____ _ ____ _ ____ _ ____ _ ____ _ ____ _ ____
 72
65
 73
4
 40
0.6
 49
0.375
 74
0
 49
-0.075
 74
0
 49
0.075
 74
0
 49
-0.075
 74
0
  0
LTYPE
  5
1F6
100
AcDbSymbolTableRecord
100
AcDbLinetypeTableRecord
  2
HIDDEN
 70
64
  3
- - - - - - - - - - - - - - - - - - - -
 72
65
 73
2
 40
0.2
 49
0.1
 74
0
 49
-0.1
 74
0
  0
LTYPE
  5
1F7
100
AcDbSymbolTableRecord
100
AcDbLinetypeTableRecord
  2
PHANTOM
 70
64
  3
_____ _ _ _____ _ _ _____ _ _ _____
 72
65
 73
6
 40
0.8
 49
0.45
 74
0
 49
-0.05
 74
0
 49
0.1
 74
0
 49
-0.05
 74
0
 49
0.1
 74
0
 49
-0.05
 74
0
  0
LTYPE
  5
1F8
100
AcDbSymbolTableRecord
100
AcDbLinetypeTableRecord
  2
DOT
 70
64
  3
. . . . . . . . . . . . . . . . . . . .
 72
65
 73
2
 40
0.2
 49
0.1
 74
0
 49
-0.1
 74
0
  0
LTYPE
  5
1F9
100
AcDbSymbolTableRecord
100
AcDbLinetypeTableRecord
  2
DASHED
 70
64
  3
- - - - - - - - - - - - - - - - - - - -
 72
65
 73
2
 40
0.2
 49
0.1
 74
0
 49
-0.1
 74
0
  0
ENDTAB
  0
TABLE
  2
LAYER
  5
2
100
AcDbSymbolTable
 70
36
  0
LAYER
  5
10
100
AcDbSymbolTableRecord
100
AcDbLayerTableRecord
  2
0
 70
0
 62
7
  6
CONTINUOUS
370
-3
390
F
  0
LAYER
  5
1FA
100
AcDbSymbolTableRecord
100
AcDbLayerTableRecord
  2
DEFAULT_1
 70
0
 62
7
  6
CENTER
370
-3
390
F
  0
LAYER
  5
1FB
100
AcDbSymbolTableRecord
100
AcDbLayerTableRecord
  2
DEFAULT_2
 70
0
 62
7
  6
HIDDEN
370
-3
390
F
  0
LAYER
  5
1FC
100
AcDbSymbolTableRecord
100
AcDbLayerTableRecord
  2
DEFAULT_3
 70
0
 62
7
  6
PHANTOM
370
-3
390
F
  0
LAYER
  5
1FD
100
AcDbSymbolTableRecord
100
AcDbLayerTableRecord
  2
00_COMPONENTS
 70
0
 62
7
  6
CONTINUOUS
370
-3
390
F
  0
LAYER
  5
1FE
100
AcDbSymbolTableRecord
100
AcDbLayerTableRecord
  2
01_1_DEFAULT_DATUMS
 70
0
 62
7
  6
CONTINUOUS
370
-3
390
F
  0
LAYER
  5
1FF
100
AcDbSymbolTableRecord
100
AcDbLayerTableRecord
  2
01_PLANES
 70
0
 62
7
  6
CONTINUOUS
370
-3
390
F
  0
LAYER
  5
200
100
AcDbSymbolTableRecord
100
AcDbLayerTableRecord
  2
02_COORD_SYS
 70
0
 62
7
  6
CONTINUOUS
370
-3
390
F
  0
LAYER
  5
201
100
AcDbSymbolTableRecord
100
AcDbLayerTableRecord
  2
03_AXES
 70
0
 62
7
  6
CONTINUOUS
370
-3
390
F
  0
LAYER
  5
202
100
AcDbSymbolTableRecord
100
AcDbLayerTableRecord
  2
04_POINTS
 70
0
 62
7
  6
CONTINUOUS
370
-3
390
F
  0
LAYER
  5
203
100
AcDbSymbolTableRecord
100
AcDbLayerTableRecord
  2
05_CURVES
 70
0
 62
7
  6
CONTINUOUS
370
-3
390
F
  0
LAYER
  5
204
100
AcDbSymbolTableRecord
100
AcDbLayerTableRecord
  2
06_SURFS
 70
0
 62
7
  6
CONTINUOUS
370
-3
390
F
  0
LAYER
  5
205
100
AcDbSymbolTableRecord
100
AcDbLayerTableRecord
  2
07_COSMETICS
 70
0
 62
7
  6
CONTINUOUS
370
-3
390
F
  0
LAYER
  5
206
100
AcDbSymbolTableRecord
100
AcDbLayerTableRecord
  2
10_NOTES
 70
0
 62
7
  6
CONTINUOUS
370
-3
390
F
  0
LAYER
  5
207
100
AcDbSymbolTableRecord
100
AcDbLayerTableRecord
  2
11_NOTES_PUB
 70
0
 62
7
  6
CONTINUOUS
370
-3
390
F
  0
LAYER
  5
208
100
AcDbSymbolTableRecord
100
AcDbLayerTableRecord
  2
13_REF_GTOL
 70
0
 62
7
  6
CONTINUOUS
370
-3
390
F
  0
LAYER
  5
209
100
AcDbSymbolTableRecord
100
AcDbLayerTableRecord
  2
16_MISC
 70
0
 62
7
  6
CONTINUOUS
370
-3
390
F
  0
LAYER
  5
20A
100
AcDbSymbolTableRecord
100
AcDbLayerTableRecord
  2
17_NO_PRINT
 70
0
 62
7
  6
CONTINUOUS
370
-3
390
F
  0
LAYER
  5
20B
100
AcDbSymbolTableRecord
100
AcDbLayerTableRecord
  2
18_DATUM_CAMS_JOINTS
 70
0
 62
7
  6
CONTINUOUS
370
-3
390
F
  0
LAYER
  5
20C
100
AcDbSymbolTableRecord
100
AcDbLayerTableRecord
  2
19_DATUM_FUNCTIONAL
 70
0
 62
7
  6
CONTINUOUS
370
-3
390
F
  0
LAYER
  5
20D
100
AcDbSymbolTableRecord
100
AcDbLayerTableRecord
  2
20_DATUM_KINEMATIC_SCHEME
 70
0
 62
7
  6
CONTINUOUS
370
-3
390
F
  0
ENDTAB
  0
TABLE
  2
STYLE
  5
3
100
AcDbSymbolTable
 70
1
  0
STYLE
  5
11
100
AcDbSymbolTableRecord
100
AcDbTextStyleTableRecord
  2
STANDARD
 70
0
 40
0.0
 41
1.0
 50
0.0
 71
0
 42
0.2
  3
ARIAL.TTF
  4

  0
STYLE
  5
20E
100
AcDbSymbolTableRecord
100
AcDbTextStyleTableRecord
  2
TEXTSTYLE_1
 70
0
 40
0.0
 41
0.8
 50
0.0
 71
0
 42
0.2
  3
gdt
  4

  0
ENDTAB
  0
TABLE
  2
VIEW
  5
6
100
AcDbSymbolTable
 70
0
  0
ENDTAB
  0
TABLE
  2
UCS
  5
7
100
AcDbSymbolTable
 70
0
  0
ENDTAB
  0
TABLE
  2
APPID
  5
9
100
AcDbSymbolTable
 70
1
  0
APPID
  5
20F
100
AcDbSymbolTableRecord
100
AcDbRegAppTableRecord
  2
ACAD
 70
0
  0
ENDTAB
  0
TABLE
  2
BLOCK_RECORD
  5
1
100
AcDbSymbolTable
 70
0
  0
BLOCK_RECORD
  5
210
100
AcDbSymbolTableRecord
100
AcDbBlockTableRecord
  2
*Model_Space
  0
BLOCK_RECORD
  5
211
100
AcDbSymbolTableRecord
100
AcDbBlockTableRecord
  2
*Paper_Space
  0
BLOCK_RECORD
  5
212
100
AcDbSymbolTableRecord
100
AcDbBlockTableRecord
  2
_FILLED
  0
ENDTAB
  0
TABLE
  2
DIMSTYLE
  5
A
100
AcDbSymbolTable
 70
1
100
AcDbDimStyleTable
 71
0
  0
DIMSTYLE
105
213
100
AcDbSymbolTableRecord
100
AcDbDimStyleTableRecord
  2
STANDARD
 70
0
  3

  4

 40
1.0
 41
2.4973967404
 42
1.0
 43
0.38
 44
1.0
 45
0.0
 46
0.0
 47
0.01
 48
0.01
140
3.4963554365
141
0.09
142
0.0
143
25.4
144
1.0
145
0.0
146
1.0
147
0.625
 71
1
 72
0
 73
0
 74
0
 75
0
 76
0
 77
1
 78
8
 79
2
170
0
171
1
172
0
173
0
174
0
175
0
176
0
177
0
178
0
270
2
179
2
271
2
272
2
273
2
274
2
275
0
280
0
281
0
282
0
283
1
284
8
285
0
286
0
287
3
288
0
340
11
278
46
341
212
342
212
343
212
344
212
  0
ENDTAB
  0
ENDSEC
  0
SECTION
  2
BLOCKS
  0
BLOCK
  5
20
100
AcDbEntity
  8
0
100
AcDbBlockBegin
  2
*Model_Space
 70
0
 10
0.0
 20
0.0
 30
0.0
  3
*Model_Space
  1

  0
ENDBLK
  5
21
100
AcDbEntity
  8
0
100
AcDbBlockEnd
  0
BLOCK
  5
1C
100
AcDbEntity
  8
0
100
AcDbBlockBegin
  2
*Paper_Space
 70
0
 10
0.0
 20
0.0
 30
0.0
  3
*Paper_Space
  1

  0
ENDBLK
  5
1D
100
AcDbEntity
  8
0
100
AcDbBlockEnd
  0
BLOCK
  5
214
100
AcDbEntity
  8
0
100
AcDbBlockBegin
  2
_FILLED
 70
64
 10
0.0
 20
0.0
  3
_FILLED
  1

  0
SOLID
  5
215
100
AcDbEntity
  8
0
  6
BYBLOCK
 62
0
100
AcDbTrace
 10
0.0
 20
0.0
 11
-1.0
 21
0.25
 12
-1.0
 22
-0.25
 13
-1.0
 23
-0.25
  0
ENDBLK
  5
216
100
AcDbEntity
  8
0
  6
BYBLOCK
 62
0
100
AcDbBlockEnd
  0
ENDSEC
  0
SECTION
  2
ENTITIES
  0
LINE
  5
217
100
AcDbEntity
  8
0
100
AcDbLine
 62
7
  6
BYLAYER
 10
23.3642622343
 20
130.8023455476
 11
23.3642622343
 21
187.3023455476
  0
LINE
  5
218
100
AcDbEntity
  8
0
100
AcDbLine
 62
7
  6
BYLAYER
 10
24.3642622343
 20
130.8023455476
 11
24.3642622343
 21
135.07029474
  0
LINE
  5
219
100
AcDbEntity
  8
0
100
AcDbLine
 62
7
  6
BYLAYER
 10
24.846610669
 20
181.7001179186
 11
24.8466262375
 21
188.2682792774
  0
LINE
  5
21A
100
AcDbEntity
  8
0
100
AcDbLine
 62
7
  6
BYLAYER
 10
25.3642622343
 20
134.8023455476
 11
25.3642622343
 21
180.8023455476
  0
LINE
  5
21B
100
AcDbEntity
  8
0
100
AcDbLine
 62
7
  6
BYLAYER
 10
141.2642622343
 20
58.2023455476
 11
119.4642622343
 21
58.2023455476
  0
LINE
  5
21C
100
AcDbEntity
  8
0
100
AcDbLine
 62
7
  6
BYLAYER
 10
116.2392990339
 20
59.3023455476
 11
144.2392622343
 21
59.3023455476
  0
LINE
  5
21D
100
AcDbEntity
  8
0
100
AcDbLine
 62
7
  6
BYLAYER
 10
40.4892622343
 20
61.0900934052
 11
38.4892622343
 21
61.0900934052
  0
LINE
  5
21E
100
AcDbEntity
  8
0
100
AcDbLine
 62
7
  6
BYLAYER
 10
146.2392622343
 20
61.3023455476
 11
116.1250984742
 21
61.3023688738
  0
LINE
  5
21F
100
AcDbEntity
  8
0
100
AcDbLine
 62
7
  6
BYLAYER
 10
38.4892622343
 20
62.3023455476
 11
146.2392622343
 21
62.3023455476
  0
LINE
  5
220
100
AcDbEntity
  8
0
100
AcDbLine
 62
7
  6
BYLAYER
 10
30.6230812794
 20
188.3023454474
 11
30.6230812794
 21
181.8023455476
  0
LINE
  5
221
100
AcDbEntity
  8
0
100
AcDbLine
 62
7
  6
BYLAYER
 10
31.3642622343
 20
181.8023455476
 11
31.3642622343
 21
235.6023455476
  0
LINE
  5
222
100
AcDbEntity
  8
0
100
AcDbLine
 62
7
  6
BYLAYER
 10
32.3642622343
 20
180.8023455476
 11
32.3642622343
 21
236.6023455476
  0
LINE
  5
223
100
AcDbEntity
  8
0
100
AcDbLine
 62
7
  6
BYLAYER
 10
147.1142622343
 20
66.3023455701
 11
140.8642622343
 21
66.3023455492
  0
LINE
  5
224
100
AcDbEntity
  8
0
100
AcDbLine
 62
7
  6
BYLAYER
 10
113.8642622343
 20
66.3023455476
 11
105.8642622343
 21
66.3023455476
  0
LINE
  5
225
100
AcDbEntity
  8
0
100
AcDbLine
 62
7
  6
BYLAYER
 10
78.8642622343
 20
66.3023455476
 11
70.8642622343
 21
66.3023455476
  0
LINE
  5
226
100
AcDbEntity
  8
0
100
AcDbLine
 62
7
  6
BYLAYER
 10
43.8642622343
 20
66.3023455484
 11
37.6142622343
 21
66.3023455041
  0
LINE
  5
227
100
AcDbEntity
  8
0
100
AcDbLine
 62
7
  6
BYLAYER
 10
36.8642622343
 20
130.8023455476
 11
36.8642622343
 21
153.3023455476
  0
LINE
  5
228
100
AcDbEntity
  8
0
100
AcDbLine
 62
7
  6
BYLAYER
 10
36.8642622343
 20
233.8023455476
 11
36.8642622343
 21
237.8023455476
  0
LINE
  5
229
100
AcDbEntity
  8
0
100
AcDbLine
 62
7
  6
BYLAYER
 10
37.6142622343
 20
64.3023455476
 11
37.6142622343
 21
119.3023455476
  0
LINE
  5
22A
100
AcDbEntity
  8
0
100
AcDbLine
 62
7
  6
BYLAYER
 10
37.8642622343
 20
152.7523455476
 11
37.8642622343
 21
119.3023455476
  0
LINE
  5
22B
100
AcDbEntity
  8
0
100
AcDbLine
 62
7
  6
BYLAYER
 10
38.4892622343
 20
62.3023455476
 11
38.4892622343
 21
61.0900934052
  0
LINE
  5
22C
100
AcDbEntity
  8
0
100
AcDbLine
 62
7
  6
BYLAYER
 10
38.8642622343
 20
233.8023455476
 11
38.8642622343
 21
153.3023455476
  0
LINE
  5
22D
100
AcDbEntity
  8
0
100
AcDbLine
 62
7
  6
BYLAYER
 10
39.6142622343
 20
62.3023455476
 11
39.6142622343
 21
119.3023455476
  0
LINE
  5
22E
100
AcDbEntity
  8
0
100
AcDbLine
 62
7
  6
BYLAYER
 10
40.4892622343
 20
61.0900934052
 11
40.4892622343
 21
62.3023455476
  0
LINE
  5
22F
100
AcDbEntity
  8
0
100
AcDbLine
 62
7
  6
BYLAYER
 10
40.8642622343
 20
119.3023455476
 11
40.8642622343
 21
152.7523455476
  0
LINE
  5
230
100
AcDbEntity
  8
0
100
AcDbLine
 62
7
  6
BYLAYER
 10
42.3642622343
 20
126.7523455476
 11
42.3642622343
 21
123.7523455476
  0
LINE
  5
231
100
AcDbEntity
  8
0
100
AcDbLine
 62
7
  6
BYLAYER
 10
43.3642622343
 20
119.3023455476
 11
43.3642622343
 21
123.7523455476
  0
LINE
  5
232
100
AcDbEntity
  8
0
100
AcDbLine
 62
7
  6
BYLAYER
 10
43.3642622343
 20
126.7523455476
 11
43.3642622343
 21
152.7523455476
  0
LINE
  5
233
100
AcDbEntity
  8
0
100
AcDbLine
 62
7
  6
BYLAYER
 10
43.8642622343
 20
119.3023455476
 11
43.8642622343
 21
62.7054719051
  0
LINE
  5
234
100
AcDbEntity
  8
0
100
AcDbLine
 62
7
  6
BYLAYER
 10
46.8642622343
 20
62.3023455476
 11
46.8642622343
 21
119.3023455476
  0
LINE
  5
235
100
AcDbEntity
  8
0
100
AcDbLine
 62
7
  6
BYLAYER
 10
47.3642622343
 20
119.3023455476
 11
47.3642622343
 21
123.7523455476
  0
LINE
  5
236
100
AcDbEntity
  8
0
100
AcDbLine
 62
7
  6
BYLAYER
 10
47.3642622343
 20
126.7523455476
 11
47.3642622343
 21
152.7523455476
  0
LINE
  5
237
100
AcDbEntity
  8
0
100
AcDbLine
 62
7
  6
BYLAYER
 10
48.7642622343
 20
119.3023455476
 11
48.7642622343
 21
123.7523455476
  0
LINE
  5
238
100
AcDbEntity
  8
0
100
AcDbLine
 62
7
  6
BYLAYER
 10
40.4892622343
 20
61.0900934052
 11
40.271066968
 21
59.1020313273
  0
LINE
  5
239
100
AcDbEntity
  8
0
100
AcDbLine
 62
7
  6
BYLAYER
 10
62.3642622343
 20
126.7523455476
 11
62.3642622343
 21
123.7523455476
  0
LINE
  5
23A
100
AcDbEntity
  8
0
100
AcDbLine
 62
7
  6
BYLAYER
 10
62.4982368305
 20
123.7523455476
 11
62.4982368305
 21
126.7523455476
  0
LINE
  5
23B
100
AcDbEntity
  8
0
100
AcDbLine
 62
7
  6
BYLAYER
 10
65.7302876381
 20
126.7523455476
 11
65.7302876381
 21
123.7523455476
  0
LINE
  5
23C
100
AcDbEntity
  8
0
100
AcDbLine
 62
7
  6
BYLAYER
 10
65.8642622343
 20
123.7523455476
 11
65.8642622343
 21
126.7523455476
  0
LINE
  5
23D
100
AcDbEntity
  8
0
100
AcDbLine
 62
7
  6
BYLAYER
 10
65.9642622343
 20
119.3023455476
 11
65.9642622343
 21
126.7523455476
  0
LINE
  5
23E
100
AcDbEntity
  8
0
100
AcDbLine
 62
7
  6
BYLAYER
 10
67.3642622343
 20
152.7523455476
 11
67.3642622343
 21
119.3023455476
  0
LINE
  5
23F
100
AcDbEntity
  8
0
100
AcDbLine
 62
7
  6
BYLAYER
 10
67.8642622343
 20
119.3023455476
 11
67.8642622343
 21
62.3023455476
  0
LINE
  5
240
100
AcDbEntity
  8
0
100
AcDbLine
 62
7
  6
BYLAYER
 10
70.8642622343
 20
62.7054719051
 11
70.8642622343
 21
119.3023455476
  0
LINE
  5
241
100
AcDbEntity
  8
0
100
AcDbLine
 62
7
  6
BYLAYER
 10
71.3642622343
 20
119.3023455476
 11
71.3642622343
 21
152.7523455476
  0
LINE
  5
242
100
AcDbEntity
  8
0
100
AcDbLine
 62
7
  6
BYLAYER
 10
174.8642622343
 20
111.9523455476
 11
164.8642622343
 21
111.9523455476
  0
LINE
  5
243
100
AcDbEntity
  8
0
100
AcDbLine
 62
7
  6
BYLAYER
 10
177.8642622343
 20
113.2523455476
 11
174.8642622343
 21
113.2523455476
  0
LINE
  5
244
100
AcDbEntity
  8
0
100
AcDbLine
 62
7
  6
BYLAYER
 10
164.8642622343
 20
113.2523455476
 11
147.8642622343
 21
113.2523455476
  0
LINE
  5
245
100
AcDbEntity
  8
0
100
AcDbLine
 62
7
  6
BYLAYER
 10
180.8642622343
 20
113.4523455476
 11
174.8642622343
 21
113.4523455476
  0
LINE
  5
246
100
AcDbEntity
  8
0
100
AcDbLine
 62
7
  6
BYLAYER
 10
164.8642622343
 20
113.4523455476
 11
158.8642622343
 21
113.4523455476
  0
LINE
  5
247
100
AcDbEntity
  8
0
100
AcDbLine
 62
7
  6
BYLAYER
 10
178.8642622343
 20
113.8523455476
 11
174.5642622343
 21
113.8523455476
  0
LINE
  5
248
100
AcDbEntity
  8
0
100
AcDbLine
 62
7
  6
BYLAYER
 10
165.1642622343
 20
113.8523455476
 11
160.8642622343
 21
113.8523455476
  0
LINE
  5
249
100
AcDbEntity
  8
0
100
AcDbLine
 62
7
  6
BYLAYER
 10
78.3642622343
 20
119.3023455476
 11
78.3642622343
 21
152.7523455476
  0
LINE
  5
24A
100
AcDbEntity
  8
0
100
AcDbLine
 62
7
  6
BYLAYER
 10
78.8642622343
 20
119.3023455476
 11
78.8642622343
 21
62.7054719051
  0
LINE
  5
24B
100
AcDbEntity
  8
0
100
AcDbLine
 62
7
  6
BYLAYER
 10
81.8642622343
 20
62.3023455476
 11
81.8642622343
 21
119.3023455476
  0
LINE
  5
24C
100
AcDbEntity
  8
0
100
AcDbLine
 62
7
  6
BYLAYER
 10
82.3642622343
 20
119.3023455476
 11
82.3642622343
 21
152.7523455476
  0
LINE
  5
24D
100
AcDbEntity
  8
0
100
AcDbLine
 62
7
  6
BYLAYER
 10
83.7642622343
 20
119.3023455476
 11
83.7642622343
 21
123.7523455476
  0
LINE
  5
24E
100
AcDbEntity
  8
0
100
AcDbLine
 62
7
  6
BYLAYER
 10
180.8642622343
 20
116.3523455476
 11
178.9642622343
 21
116.3523455476
  0
LINE
  5
24F
100
AcDbEntity
  8
0
100
AcDbLine
 62
7
  6
BYLAYER
 10
178.8642622343
 20
116.3523455476
 11
176.8642622343
 21
116.3523455476
  0
LINE
  5
250
100
AcDbEntity
  8
0
100
AcDbLine
 62
7
  6
BYLAYER
 10
162.8642622343
 20
116.3523455476
 11
160.8642622343
 21
116.3523455476
  0
LINE
  5
251
100
AcDbEntity
  8
0
100
AcDbLine
 62
7
  6
BYLAYER
 10
160.7642622343
 20
116.3523455476
 11
158.8642622343
 21
116.3523455476
  0
LINE
  5
252
100
AcDbEntity
  8
0
100
AcDbLine
 62
7
  6
BYLAYER
 10
147.8642622343
 20
118.4523455476
 11
191.8642622343
 21
118.4523455476
  0
LINE
  5
253
100
AcDbEntity
  8
0
100
AcDbLine
 62
7
  6
BYLAYER
 10
37.6142622343
 20
119.3023455476
 11
47.3642622343
 21
119.3023455476
  0
LINE
  5
254
100
AcDbEntity
  8
0
100
AcDbLine
 62
7
  6
BYLAYER
 10
48.7642622343
 20
119.3023455476
 11
65.9642622343
 21
119.3023455476
  0
LINE
  5
255
100
AcDbEntity
  8
0
100
AcDbLine
 62
7
  6
BYLAYER
 10
67.3642622343
 20
119.3023455476
 11
82.3642622343
 21
119.3023455476
  0
LINE
  5
256
100
AcDbEntity
  8
0
100
AcDbLine
 62
7
  6
BYLAYER
 10
83.7642622343
 20
119.3023455476
 11
100.9642622343
 21
119.3023455476
  0
LINE
  5
257
100
AcDbEntity
  8
0
100
AcDbLine
 62
7
  6
BYLAYER
 10
102.3642622343
 20
119.3023455476
 11
117.3642622343
 21
119.3023455476
  0
LINE
  5
258
100
AcDbEntity
  8
0
100
AcDbLine
 62
7
  6
BYLAYER
 10
118.7642622343
 20
119.3023455476
 11
135.9642622343
 21
119.3023455476
  0
LINE
  5
259
100
AcDbEntity
  8
0
100
AcDbLine
 62
7
  6
BYLAYER
 10
137.3642622343
 20
119.3023455476
 11
147.1142622343
 21
119.3023455476
  0
LINE
  5
25A
100
AcDbEntity
  8
0
100
AcDbLine
 62
7
  6
BYLAYER
 10
191.8642622343
 20
119.8023455476
 11
147.8642622343
 21
119.8023455476
  0
LINE
  5
25B
100
AcDbEntity
  8
0
100
AcDbLine
 62
7
  6
BYLAYER
 10
189.5642622343
 20
122.0023455476
 11
191.8642622343
 21
122.0023455476
  0
LINE
  5
25C
100
AcDbEntity
  8
0
100
AcDbLine
 62
7
  6
BYLAYER
 10
147.8642622343
 20
122.1023455476
 11
146.8642622343
 21
122.1023455476
  0
LINE
  5
25D
100
AcDbEntity
  8
0
100
AcDbLine
 62
7
  6
BYLAYER
 10
122.2302876381
 20
123.7523455476
 11
118.8642622343
 21
123.7523455476
  0
LINE
  5
25E
100
AcDbEntity
  8
0
100
AcDbLine
 62
7
  6
BYLAYER
 10
102.3642622343
 20
123.7523455476
 11
82.3642622343
 21
123.7523455476
  0
LINE
  5
25F
100
AcDbEntity
  8
0
100
AcDbLine
 62
7
  6
BYLAYER
 10
65.8642622343
 20
123.7523455476
 11
42.3642622343
 21
123.7523455476
  0
LINE
  5
260
100
AcDbEntity
  8
0
100
AcDbLine
 62
7
  6
BYLAYER
 10
122.3642622343
 20
123.7523455476
 11
142.3642622343
 21
123.7523455476
  0
LINE
  5
261
100
AcDbEntity
  8
0
100
AcDbLine
 62
7
  6
BYLAYER
 10
86.3642622343
 20
234.3023455476
 11
86.3642622343
 21
237.3023455476
  0
LINE
  5
262
100
AcDbEntity
  8
0
100
AcDbLine
 62
7
  6
BYLAYER
 10
89.1142622343
 20
233.8023455476
 11
89.1142622343
 21
237.8023455476
  0
LINE
  5
263
100
AcDbEntity
  8
0
100
AcDbLine
 62
7
  6
BYLAYER
 10
102.3642622343
 20
126.7523455476
 11
82.3642622343
 21
126.7523455476
  0
LINE
  5
264
100
AcDbEntity
  8
0
100
AcDbLine
 62
7
  6
BYLAYER
 10
62.3642622343
 20
126.7523455476
 11
42.3642622343
 21
126.7523455476
  0
LINE
  5
265
100
AcDbEntity
  8
0
100
AcDbLine
 62
7
  6
BYLAYER
 10
62.4982368306
 20
126.7523455476
 11
65.9642622343
 21
126.7523455476
  0
LINE
  5
266
100
AcDbEntity
  8
0
100
AcDbLine
 62
7
  6
BYLAYER
 10
118.7642622343
 20
126.7523455476
 11
142.3642622343
 21
126.7523455476
  0
LINE
  5
267
100
AcDbEntity
  8
0
100
AcDbLine
 62
7
  6
BYLAYER
 10
36.8642622343
 20
130.8023455476
 11
23.3642622343
 21
130.8023455476
  0
LINE
  5
268
100
AcDbEntity
  8
0
100
AcDbLine
 62
7
  6
BYLAYER
 10
95.6142622343
 20
233.8023455476
 11
95.6142622343
 21
237.8023455476
  0
LINE
  5
269
100
AcDbEntity
  8
0
100
AcDbLine
 62
7
  6
BYLAYER
 10
98.3642622343
 20
234.3023455476
 11
98.3642622343
 21
237.3023455476
  0
LINE
  5
26A
100
AcDbEntity
  8
0
100
AcDbLine
 62
7
  6
BYLAYER
 10
25.3642622343
 20
134.8023455476
 11
36.8642622343
 21
134.8023455476
  0
LINE
  5
26B
100
AcDbEntity
  8
0
100
AcDbLine
 62
7
  6
BYLAYER
 10
36.8642622343
 20
136.8023455476
 11
23.3642622343
 21
136.8023455476
  0
LINE
  5
26C
100
AcDbEntity
  8
0
100
AcDbLine
 62
7
  6
BYLAYER
 10
36.8642622343
 20
139.3023455476
 11
37.8642622343
 21
139.3023455476
  0
LINE
  5
26D
100
AcDbEntity
  8
0
100
AcDbLine
 62
7
  6
BYLAYER
 10
37.8642622343
 20
140.3023455476
 11
36.8642622343
 21
140.3023455476
  0
LINE
  5
26E
100
AcDbEntity
  8
0
100
AcDbLine
 62
7
  6
BYLAYER
 10
100.9642622343
 20
119.3023455476
 11
100.9642622343
 21
123.7523455476
  0
LINE
  5
26F
100
AcDbEntity
  8
0
100
AcDbLine
 62
7
  6
BYLAYER
 10
102.3642622343
 20
152.7523455476
 11
102.3642622343
 21
119.3023455476
  0
LINE
  5
270
100
AcDbEntity
  8
0
100
AcDbLine
 62
7
  6
BYLAYER
 10
102.8642622343
 20
119.3023455476
 11
102.8642622343
 21
62.3023455476
  0
LINE
  5
271
100
AcDbEntity
  8
0
100
AcDbLine
 62
7
  6
BYLAYER
 10
105.8642622343
 20
62.7054719051
 11
105.8642622343
 21
119.3023455476
  0
LINE
  5
272
100
AcDbEntity
  8
0
100
AcDbLine
 62
7
  6
BYLAYER
 10
106.3642622343
 20
119.3023455476
 11
106.3642622343
 21
152.7523455476
  0
LINE
  5
273
100
AcDbEntity
  8
0
100
AcDbLine
 62
7
  6
BYLAYER
 10
36.8642622343
 20
141.8023455476
 11
37.8642622343
 21
141.8023455476
  0
LINE
  5
274
100
AcDbEntity
  8
0
100
AcDbLine
 62
7
  6
BYLAYER
 10
36.8642622343
 20
142.8023455476
 11
37.8642622343
 21
142.8023455476
  0
LINE
  5
275
100
AcDbEntity
  8
0
100
AcDbLine
 62
7
  6
BYLAYER
 10
37.8642622343
 20
143.0952387664
 11
36.8642622343
 21
143.0952387664
  0
LINE
  5
276
100
AcDbEntity
  8
0
100
AcDbLine
 62
7
  6
BYLAYER
 10
36.8642622343
 20
144.5122143924
 11
37.8642622343
 21
144.5122143924
  0
LINE
  5
277
100
AcDbEntity
  8
0
100
AcDbLine
 62
7
  6
BYLAYER
 10
37.8642622343
 20
145.2987804849
 11
36.8642622343
 21
145.2987804849
  0
LINE
  5
278
100
AcDbEntity
  8
0
100
AcDbLine
 62
7
  6
BYLAYER
 10
36.8642622343
 20
146.1682121812
 11
37.8642622343
 21
146.1682121812
  0
LINE
  5
279
100
AcDbEntity
  8
0
100
AcDbLine
 62
7
  6
BYLAYER
 10
36.8642622343
 20
146.2351994793
 11
37.8642622343
 21
146.2351994793
  0
LINE
  5
27A
100
AcDbEntity
  8
0
100
AcDbLine
 62
7
  6
BYLAYER
 10
37.8642622343
 20
146.2773455476
 11
36.8642622343
 21
146.2773455476
  0
LINE
  5
27B
100
AcDbEntity
  8
0
100
AcDbLine
 62
7
  6
BYLAYER
 10
37.8642622343
 20
146.8623531709
 11
36.8642622343
 21
146.8623531709
  0
LINE
  5
27C
100
AcDbEntity
  8
0
100
AcDbLine
 62
7
  6
BYLAYER
 10
37.8642622343
 20
147.3023455476
 11
36.8642622343
 21
147.3023455476
  0
LINE
  5
27D
100
AcDbEntity
  8
0
100
AcDbLine
 62
7
  6
BYLAYER
 10
37.8642622343
 20
147.7423379242
 11
36.8642622343
 21
147.7423379242
  0
LINE
  5
27E
100
AcDbEntity
  8
0
100
AcDbLine
 62
7
  6
BYLAYER
 10
37.8642622343
 20
148.3273455476
 11
36.8642622343
 21
148.3273455476
  0
LINE
  5
27F
100
AcDbEntity
  8
0
100
AcDbLine
 62
7
  6
BYLAYER
 10
37.8642622343
 20
148.3694916158
 11
36.8642622343
 21
148.3694916158
  0
LINE
  5
280
100
AcDbEntity
  8
0
100
AcDbLine
 62
7
  6
BYLAYER
 10
37.8642622343
 20
148.436478914
 11
36.8642622343
 21
148.436478914
  0
LINE
  5
281
100
AcDbEntity
  8
0
100
AcDbLine
 62
7
  6
BYLAYER
 10
116.1245841031
 20
61.3023455476
 11
116.2393071703
 21
59.3023455476
  0
LINE
  5
282
100
AcDbEntity
  8
0
100
AcDbLine
 62
7
  6
BYLAYER
 10
113.3642622343
 20
119.3023455476
 11
113.3642622343
 21
152.7523455476
  0
LINE
  5
283
100
AcDbEntity
  8
0
100
AcDbLine
 62
7
  6
BYLAYER
 10
113.8642622343
 20
119.3023455476
 11
113.8642622343
 21
62.7054719051
  0
LINE
  5
284
100
AcDbEntity
  8
0
100
AcDbLine
 62
7
  6
BYLAYER
 10
116.8642622343
 20
62.3023455476
 11
116.8642622343
 21
119.3023455476
  0
LINE
  5
285
100
AcDbEntity
  8
0
100
AcDbLine
 62
7
  6
BYLAYER
 10
36.8642622343
 20
149.3059106103
 11
37.8642622343
 21
149.3059106103
  0
LINE
  5
286
100
AcDbEntity
  8
0
100
AcDbLine
 62
7
  6
BYLAYER
 10
37.8642622343
 20
150.0924767028
 11
36.8642622343
 21
150.0924767028
  0
LINE
  5
287
100
AcDbEntity
  8
0
100
AcDbLine
 62
7
  6
BYLAYER
 10
36.8642622343
 20
151.8023455476
 11
37.8642622343
 21
151.8023455476
  0
LINE
  5
288
100
AcDbEntity
  8
0
100
AcDbLine
 62
7
  6
BYLAYER
 10
37.8642622343
 20
152.7523455476
 11
146.8642622343
 21
152.7523455476
  0
LINE
  5
289
100
AcDbEntity
  8
0
100
AcDbLine
 62
7
  6
BYLAYER
 10
146.8642622343
 20
152.8023455476
 11
36.8642622343
 21
152.8023455476
  0
LINE
  5
28A
100
AcDbEntity
  8
0
100
AcDbLine
 62
7
  6
BYLAYER
 10
38.8642622343
 20
153.3023455476
 11
36.8642622343
 21
153.3023455476
  0
LINE
  5
28B
100
AcDbEntity
  8
0
100
AcDbLine
 62
7
  6
BYLAYER
 10
117.3642622343
 20
119.3023455476
 11
117.3642622343
 21
152.7523455476
  0
LINE
  5
28C
100
AcDbEntity
  8
0
100
AcDbLine
 62
7
  6
BYLAYER
 10
118.7642622343
 20
119.3023455476
 11
118.7642622343
 21
126.7523455476
  0
LINE
  5
28D
100
AcDbEntity
  8
0
100
AcDbLine
 62
7
  6
BYLAYER
 10
118.8642622343
 20
126.7523455476
 11
118.8642622343
 21
123.7523455476
  0
LINE
  5
28E
100
AcDbEntity
  8
0
100
AcDbLine
 62
7
  6
BYLAYER
 10
118.9982368305
 20
123.7523455476
 11
118.9982368305
 21
126.7523455476
  0
LINE
  5
28F
100
AcDbEntity
  8
0
100
AcDbLine
 62
7
  6
BYLAYER
 10
119.4642622343
 20
59.3023455476
 11
119.4642622343
 21
58.2023455476
  0
LINE
  5
290
100
AcDbEntity
  8
0
100
AcDbLine
 62
7
  6
BYLAYER
 10
122.2302876381
 20
126.7523455476
 11
122.2302876381
 21
123.7523455476
  0
LINE
  5
291
100
AcDbEntity
  8
0
100
AcDbLine
 62
7
  6
BYLAYER
 10
122.3642622343
 20
123.7523455476
 11
122.3642622343
 21
126.7523455476
  0
LINE
  5
292
100
AcDbEntity
  8
0
100
AcDbLine
 62
7
  6
BYLAYER
 10
38.8642622343
 20
164.3231608277
 11
146.8642622343
 21
164.3231608277
  0
LINE
  5
293
100
AcDbEntity
  8
0
100
AcDbLine
 62
7
  6
BYLAYER
 10
146.8642622343
 20
165.3838209995
 11
38.8642622343
 21
165.3838209995
  0
LINE
  5
294
100
AcDbEntity
  8
0
100
AcDbLine
 62
7
  6
BYLAYER
 10
146.8642622343
 20
169.8023455476
 11
175.77487808
 21
169.8023455476
  0
LINE
  5
295
100
AcDbEntity
  8
0
100
AcDbLine
 62
7
  6
BYLAYER
 10
23.3642622343
 20
172.8023455726
 11
38.8642622343
 21
172.8023455473
  0
LINE
  5
296
100
AcDbEntity
  8
0
100
AcDbLine
 62
7
  6
BYLAYER
 10
135.9642622343
 20
119.3023455476
 11
135.9642622343
 21
123.7523455476
  0
LINE
  5
297
100
AcDbEntity
  8
0
100
AcDbLine
 62
7
  6
BYLAYER
 10
137.3642622343
 20
152.7523455476
 11
137.3642622343
 21
126.7523455476
  0
LINE
  5
298
100
AcDbEntity
  8
0
100
AcDbLine
 62
7
  6
BYLAYER
 10
137.3642622343
 20
123.7523455476
 11
137.3642622343
 21
119.3023455476
  0
LINE
  5
299
100
AcDbEntity
  8
0
100
AcDbLine
 62
7
  6
BYLAYER
 10
137.8642622343
 20
119.3023455476
 11
137.8642622343
 21
62.3023455476
  0
LINE
  5
29A
100
AcDbEntity
  8
0
100
AcDbLine
 62
7
  6
BYLAYER
 10
140.8642622343
 20
62.7054719051
 11
140.8642622343
 21
119.3023455476
  0
LINE
  5
29B
100
AcDbEntity
  8
0
100
AcDbLine
 62
7
  6
BYLAYER
 10
141.2642622343
 20
59.3023455476
 11
141.2642622343
 21
58.2023455476
  0
LINE
  5
29C
100
AcDbEntity
  8
0
100
AcDbLine
 62
7
  6
BYLAYER
 10
141.3642622343
 20
119.3023455476
 11
141.3642622343
 21
123.7523455476
  0
LINE
  5
29D
100
AcDbEntity
  8
0
100
AcDbLine
 62
7
  6
BYLAYER
 10
141.3642622343
 20
126.7523455476
 11
141.3642622343
 21
152.7523455476
  0
LINE
  5
29E
100
AcDbEntity
  8
0
100
AcDbLine
 62
7
  6
BYLAYER
 10
38.8642622343
 20
177.5944811713
 11
146.8642622343
 21
177.5944811713
  0
LINE
  5
29F
100
AcDbEntity
  8
0
100
AcDbLine
 62
7
  6
BYLAYER
 10
174.3642622343
 20
177.8023455476
 11
146.8642622343
 21
177.8023455476
  0
LINE
  5
2A0
100
AcDbEntity
  8
0
100
AcDbLine
 62
7
  6
BYLAYER
 10
38.8642622343
 20
180.8023455476
 11
25.3642622343
 21
180.8023455476
  0
LINE
  5
2A1
100
AcDbEntity
  8
0
100
AcDbLine
 62
7
  6
BYLAYER
 10
142.3642622343
 20
123.7523455476
 11
142.3642622343
 21
126.7523455476
  0
LINE
  5
2A2
100
AcDbEntity
  8
0
100
AcDbLine
 62
7
  6
BYLAYER
 10
143.8642622343
 20
152.7523455476
 11
143.8642622343
 21
119.3023455476
  0
LINE
  5
2A3
100
AcDbEntity
  8
0
100
AcDbLine
 62
7
  6
BYLAYER
 10
144.2392622343
 20
62.3023455476
 11
144.2392622343
 21
59.3023455476
  0
LINE
  5
2A4
100
AcDbEntity
  8
0
100
AcDbLine
 62
7
  6
BYLAYER
 10
145.1142622343
 20
119.3023455476
 11
145.1142622343
 21
62.3023455476
  0
LINE
  5
2A5
100
AcDbEntity
  8
0
100
AcDbLine
 62
7
  6
BYLAYER
 10
146.2392622343
 20
61.3023455476
 11
146.2392622343
 21
62.3023455476
  0
LINE
  5
2A6
100
AcDbEntity
  8
0
100
AcDbLine
 62
7
  6
BYLAYER
 10
146.8642622343
 20
119.3023455476
 11
146.8642622343
 21
177.8023455476
  0
LINE
  5
2A7
100
AcDbEntity
  8
0
100
AcDbLine
 62
7
  6
BYLAYER
 10
147.1142622343
 20
64.3023455476
 11
147.1142622343
 21
119.3023455476
  0
LINE
  5
2A8
100
AcDbEntity
  8
0
100
AcDbLine
 62
7
  6
BYLAYER
 10
147.8642622343
 20
113.2523455476
 11
147.8642622343
 21
122.1023455476
  0
LINE
  5
2A9
100
AcDbEntity
  8
0
100
AcDbLine
 62
7
  6
BYLAYER
 10
147.8642622343
 20
177.8023455476
 11
147.8642622343
 21
237.8023455476
  0
LINE
  5
2AA
100
AcDbEntity
  8
0
100
AcDbLine
 62
7
  6
BYLAYER
 10
38.8642622343
 20
181.8023455476
 11
25.623081279
 21
181.8023432893
  0
LINE
  5
2AB
100
AcDbEntity
  8
0
100
AcDbLine
 62
7
  6
BYLAYER
 10
25.105488251
 20
188.3023440265
 11
31.3642622343
 21
188.3023455499
  0
LINE
  5
2AC
100
AcDbEntity
  8
0
100
AcDbLine
 62
7
  6
BYLAYER
 10
25.3642623081
 20
189.3023455476
 11
30.3642622343
 21
189.3023455476
  0
LINE
  5
2AD
100
AcDbEntity
  8
0
100
AcDbLine
 62
7
  6
BYLAYER
 10
189.5642622343
 20
122.0023455476
 11
178.8642622343
 21
132.7023455476
  0
LINE
  5
2AE
100
AcDbEntity
  8
0
100
AcDbLine
 62
7
  6
BYLAYER
 10
158.8642622343
 20
116.3523455476
 11
158.8642622343
 21
113.4523455476
  0
LINE
  5
2AF
100
AcDbEntity
  8
0
100
AcDbLine
 62
7
  6
BYLAYER
 10
160.7642622343
 20
118.4523455476
 11
160.7642622343
 21
113.4523455476
  0
LINE
  5
2B0
100
AcDbEntity
  8
0
100
AcDbLine
 62
7
  6
BYLAYER
 10
160.8642622343
 20
118.4523455476
 11
160.8642622343
 21
113.8523455476
  0
LINE
  5
2B1
100
AcDbEntity
  8
0
100
AcDbLine
 62
7
  6
BYLAYER
 10
162.8642622343
 20
118.4523455476
 11
162.8642622343
 21
116.3523455476
  0
LINE
  5
2B2
100
AcDbEntity
  8
0
100
AcDbLine
 62
7
  6
BYLAYER
 10
164.8642622343
 20
113.4523455476
 11
164.8642622343
 21
111.9523455476
  0
LINE
  5
2B3
100
AcDbEntity
  8
0
100
AcDbLine
 62
7
  6
BYLAYER
 10
165.1642622343
 20
118.4523455476
 11
165.1642622343
 21
113.8523455476
  0
LINE
  5
2B4
100
AcDbEntity
  8
0
100
AcDbLine
 62
7
  6
BYLAYER
 10
174.5642622343
 20
118.4523455476
 11
174.5642622343
 21
113.8523455476
  0
LINE
  5
2B5
100
AcDbEntity
  8
0
100
AcDbLine
 62
7
  6
BYLAYER
 10
174.8642622343
 20
113.4523455476
 11
174.8642622343
 21
111.9523455476
  0
LINE
  5
2B6
100
AcDbEntity
  8
0
100
AcDbLine
 62
7
  6
BYLAYER
 10
176.8642622343
 20
118.4523455476
 11
176.8642622343
 21
116.3523455476
  0
LINE
  5
2B7
100
AcDbEntity
  8
0
100
AcDbLine
 62
7
  6
BYLAYER
 10
178.8642622343
 20
152.2815773593
 11
178.8642622343
 21
132.7023455476
  0
LINE
  5
2B8
100
AcDbEntity
  8
0
100
AcDbLine
 62
7
  6
BYLAYER
 10
178.8642622343
 20
118.4523455476
 11
178.8642622343
 21
113.8523455476
  0
LINE
  5
2B9
100
AcDbEntity
  8
0
100
AcDbLine
 62
7
  6
BYLAYER
 10
178.9642622343
 20
118.4523455476
 11
178.9642622343
 21
113.4523455476
  0
LINE
  5
2BA
100
AcDbEntity
  8
0
100
AcDbLine
 62
7
  6
BYLAYER
 10
180.8642622343
 20
116.3523455476
 11
180.8642622343
 21
113.4523455476
  0
LINE
  5
2BB
100
AcDbEntity
  8
0
100
AcDbLine
 62
7
  6
BYLAYER
 10
178.8642622343
 20
152.2815773593
 11
174.3642622343
 21
177.8023455476
  0
LINE
  5
2BC
100
AcDbEntity
  8
0
100
AcDbLine
 62
7
  6
BYLAYER
 10
177.8642622343
 20
113.2523455476
 11
177.9178520728
 21
113.4523455476
  0
LINE
  5
2BD
100
AcDbEntity
  8
0
100
AcDbLine
 62
7
  6
BYLAYER
 10
178.9642622343
 20
117.3576014359
 11
179.257598035
 21
118.4523455476
  0
LINE
  5
2BE
100
AcDbEntity
  8
0
100
AcDbLine
 62
7
  6
BYLAYER
 10
191.8642622343
 20
122.0023455476
 11
191.8642622343
 21
118.4523455476
  0
LINE
  5
2BF
100
AcDbEntity
  8
0
100
AcDbLine
 62
7
  6
BYLAYER
 10
38.8642622343
 20
231.2314204164
 11
147.8642622343
 21
231.2314204164
  0
LINE
  5
2C0
100
AcDbEntity
  8
0
100
AcDbLine
 62
7
  6
BYLAYER
 10
147.8642622343
 20
232.6061931249
 11
38.8642622343
 21
232.6061931249
  0
LINE
  5
2C1
100
AcDbEntity
  8
0
100
AcDbLine
 62
7
  6
BYLAYER
 10
36.8642622343
 20
233.8023455476
 11
147.8642622343
 21
233.8023455476
  0
LINE
  5
2C2
100
AcDbEntity
  8
0
100
AcDbLine
 62
7
  6
BYLAYER
 10
147.8642622343
 20
234.3023455476
 11
98.3642622343
 21
234.3023455476
  0
LINE
  5
2C3
100
AcDbEntity
  8
0
100
AcDbLine
 62
7
  6
BYLAYER
 10
86.3642622343
 20
234.3023455476
 11
36.8642622343
 21
234.3023455476
  0
LINE
  5
2C4
100
AcDbEntity
  8
0
100
AcDbLine
 62
7
  6
BYLAYER
 10
31.3642622343
 20
234.6023454668
 11
36.8642622343
 21
234.6023455455
  0
LINE
  5
2C5
100
AcDbEntity
  8
0
100
AcDbLine
 62
7
  6
BYLAYER
 10
36.8642622343
 20
236.6023455476
 11
32.3642622343
 21
236.6023455476
  0
LINE
  5
2C6
100
AcDbEntity
  8
0
100
AcDbLine
 62
7
  6
BYLAYER
 10
36.8642622343
 20
237.3023455476
 11
86.3642622343
 21
237.3023455476
  0
LINE
  5
2C7
100
AcDbEntity
  8
0
100
AcDbLine
 62
7
  6
BYLAYER
 10
98.3642622343
 20
237.3023455476
 11
147.8642622343
 21
237.3023455476
  0
LINE
  5
2C8
100
AcDbEntity
  8
0
100
AcDbLine
 62
7
  6
BYLAYER
 10
36.8642622343
 20
237.8023455476
 11
147.8642622343
 21
237.8023455476
  0
ARC
  5
2C9
100
AcDbEntity
  8
0
100
AcDbCircle
 62
7
  6
BYLAYER
 10
77.3642622343
 20
397.0725845785
 40
340.0
100
AcDbArc
 50
263.7366993012
 51
276.5654594668
  0
ARC
  5
2CA
100
AcDbEntity
  8
0
100
AcDbCircle
 62
7
  6
BYLAYER
 10
77.3642622343
 20
397.0725845785
 40
338.0
100
AcDbArc
 50
263.7366993012
 51
276.5849958447
  0
ARC
  5
2CB
100
AcDbEntity
  8
0
100
AcDbCircle
 62
7
  6
BYLAYER
 10
25.6247129648
 20
178.7899279628
 40
3.0124157684
100
AcDbArc
 50
90.0310344646
 51
104.9691215613
  0
ARC
  5
2CC
100
AcDbEntity
  8
0
100
AcDbCircle
 62
7
  6
BYLAYER
 10
39.6142622343
 20
64.3023455476
 40
2.0
100
AcDbArc
 50
180.0000000001
 51
269.9999999999
  0
ARC
  5
2CD
100
AcDbEntity
  8
0
100
AcDbCircle
 62
7
  6
BYLAYER
 10
25.3642622343
 20
136.8023455476
 40
2.0
100
AcDbArc
 50
180.0
 51
270.0
  0
ARC
  5
2CE
100
AcDbEntity
  8
0
100
AcDbCircle
 62
7
  6
BYLAYER
 10
25.3642622343
 20
178.8023455476
 40
2.0
100
AcDbArc
 50
89.9999997543
 51
180.0
  0
ARC
  5
2CF
100
AcDbEntity
  8
0
100
AcDbCircle
 62
7
  6
BYLAYER
 10
25.3642622343
 20
187.3023455476
 40
2.0
100
AcDbArc
 50
89.9999984591
 51
180.0
  0
ARC
  5
2D0
100
AcDbEntity
  8
0
100
AcDbCircle
 62
7
  6
BYLAYER
 10
145.1142622343
 20
64.3023455476
 40
2.0
100
AcDbArc
 50
270.0
 51
360.0
  0
ARC
  5
2D1
100
AcDbEntity
  8
0
100
AcDbCircle
 62
7
  6
BYLAYER
 10
144.2392622343
 20
61.3023455476
 40
2.0
100
AcDbArc
 50
270.0
 51
360.0
  0
ARC
  5
2D2
100
AcDbEntity
  8
0
100
AcDbCircle
 62
7
  6
BYLAYER
 10
40.4892622343
 20
61.0900934052
 40
2.0
100
AcDbArc
 50
180.0
 51
263.7366993012
  0
ARC
  5
2D3
100
AcDbEntity
  8
0
100
AcDbCircle
 62
7
  6
BYLAYER
 10
25.1058832799
 20
187.2987484198
 40
1.0035956844
100
AcDbArc
 50
90.0225523959
 51
104.9708851071
  0
ARC
  5
2D4
100
AcDbEntity
  8
0
100
AcDbCircle
 62
7
  6
BYLAYER
 10
30.3642622343
 20
181.8023455476
 40
1.0
100
AcDbArc
 50
270.0
 51
360.0
  0
ARC
  5
2D5
100
AcDbEntity
  8
0
100
AcDbCircle
 62
7
  6
BYLAYER
 10
30.3642622343
 20
190.3023455476
 40
1.0
100
AcDbArc
 50
270.0
 51
360.0
  0
ARC
  5
2D6
100
AcDbEntity
  8
0
100
AcDbCircle
 62
7
  6
BYLAYER
 10
32.3642622343
 20
235.6023455476
 40
1.0
100
AcDbArc
 50
89.9999999993
 51
179.9999999997
  0
SPLINE
  5
2D7
100
AcDbEntity
  8
0
100
AcDbSpline
 62
7
  6
BYLAYER
 70
0
 71
3
 72
11
 73
7
 74
0
 42
0.0000001
 43
0.0000001
 44
0.0000000001
 40
0.0
 40
0.0
 40
0.0
 40
0.0
 40
0.2358092313
 40
0.4433228633
 40
0.6852643669
 40
1.0
 40
1.0
 40
1.0
 40
1.0
 10
140.8642622343
 20
62.7054719051
 30
0.0
 10
140.8642622343
 20
62.6432377733
 30
0.0
 10
140.8504355706
 20
62.5222260487
 30
0.0
 10
140.7289243199
 20
62.3745830878
 30
0.0
 10
140.5308576894
 20
62.3100569434
 30
0.0
 10
140.3840249935
 20
62.3023455476
 30
0.0
 10
140.3009608201
 20
62.3023455476
 30
0.0
  0
SPLINE
  5
2D8
100
AcDbEntity
  8
0
100
AcDbSpline
 62
7
  6
BYLAYER
 70
0
 71
3
 72
13
 73
9
 74
0
 42
0.0000001
 43
0.0000001
 44
0.0000000001
 40
0.0
 40
0.0
 40
0.0
 40
0.0
 40
0.1364667259
 40
0.2670944164
 40
0.3937387416
 40
0.5176013018
 40
0.7600566711
 40
1.0
 40
1.0
 40
1.0
 40
1.0
 10
24.8466184532
 20
181.7001222624
 30
0.0
 10
24.7018321306
 20
181.641890938
 30
0.0
 10
24.4337579131
 20
181.4857925106
 30
0.0
 10
24.1118881556
 20
181.1662130904
 30
0.0
 10
23.8633113601
 20
180.805943916
 30
0.0
 10
23.6106654131
 20
180.3004418487
 30
0.0
 10
23.4138950373
 20
179.6296197491
 30
0.0
 10
23.3643058073
 20
179.0767345059
 30
0.0
 10
23.3642622343
 20
178.8023454705
 30
0.0
  0
SPLINE
  5
2D9
100
AcDbEntity
  8
0
100
AcDbSpline
 62
7
  6
BYLAYER
 70
0
 71
3
 72
13
 73
9
 74
0
 42
0.0000001
 43
0.0000001
 44
0.0000000001
 40
0.0
 40
0.0
 40
0.0
 40
0.0
 40
0.3358777418
 40
0.6139569255
 40
0.7284911661
 40
0.8280178066
 40
0.9163866046
 40
1.0
 40
1.0
 40
1.0
 40
1.0
 10
24.8466184532
 20
188.2682695431
 30
0.0
 10
24.6370702971
 20
188.2363539154
 30
0.0
 10
24.2572231219
 20
188.1490022371
 30
0.0
 10
23.8360048498
 20
187.952321656
 30
0.0
 10
23.5883172613
 20
187.7629083857
 30
0.0
 10
23.4603639621
 20
187.6191467196
 30
0.0
 10
23.3816370171
 20
187.4644183116
 30
0.0
 10
23.3642622343
 20
187.3551119863
 30
0.0
 10
23.3642622343
 20
187.3023454983
 30
0.0
  0
SPLINE
  5
2DA
100
AcDbEntity
  8
0
100
AcDbSpline
 62
7
  6
BYLAYER
 70
0
 71
3
 72
12
 73
8
 74
0
 42
0.0000001
 43
0.0000001
 44
0.0000000001
 40
0.0
 40
0.0
 40
0.0
 40
0.0
 40
0.3497031853
 40
0.6688726602
 40
0.7942168206
 40
0.8900675516
 40
1.0
 40
1.0
 40
1.0
 40
1.0
 10
24.8465737999
 20
188.2682582504
 30
0.0
 10
24.8183136954
 20
188.3813711201
 30
0.0
 10
24.7740136401
 20
188.6004434898
 30
0.0
 10
24.7461614603
 20
188.8637530526
 30
0.0
 10
24.7550999617
 20
189.0459492571
 30
0.0
 10
24.7724292248
 20
189.1510091325
 30
0.0
 10
24.8113814894
 20
189.2244450804
 30
0.0
 10
24.8467824199
 20
189.2339357981
 30
0.0
  0
SPLINE
  5
2DB
100
AcDbEntity
  8
0
100
AcDbSpline
 62
7
  6
BYLAYER
 70
0
 71
3
 72
11
 73
7
 74
0
 42
0.0000001
 43
0.0000001
 44
0.0000000001
 40
0.0
 40
0.0
 40
0.0
 40
0.0
 40
0.3147356386
 40
0.5566771116
 40
0.7641907526
 40
1.0
 40
1.0
 40
1.0
 40
1.0
 10
44.4275636485
 20
62.3023455476
 30
0.0
 10
44.3444994771
 20
62.3023455476
 30
0.0
 10
44.1976667929
 20
62.3100569354
 30
0.0
 10
43.9996001791
 20
62.3745831008
 30
0.0
 10
43.878088955
 20
62.5222260547
 30
0.0
 10
43.8642622343
 20
62.6432377717
 30
0.0
 10
43.8642622343
 20
62.7054719051
 30
0.0
  0
SPLINE
  5
2DC
100
AcDbEntity
  8
0
100
AcDbSpline
 62
7
  6
BYLAYER
 70
0
 71
3
 72
11
 73
7
 74
0
 42
0.0000001
 43
0.0000001
 44
0.0000000001
 40
0.0
 40
0.0
 40
0.0
 40
0.0
 40
0.2358092314
 40
0.4433228635
 40
0.6852643671
 40
1.0
 40
1.0
 40
1.0
 40
1.0
 10
70.8642622343
 20
62.7054719051
 30
0.0
 10
70.8642622343
 20
62.6432377733
 30
0.0
 10
70.8504355706
 20
62.5222260487
 30
0.0
 10
70.7289243199
 20
62.3745830879
 30
0.0
 10
70.5308576896
 20
62.3100569434
 30
0.0
 10
70.3840249939
 20
62.3023455476
 30
0.0
 10
70.3009608206
 20
62.3023455476
 30
0.0
  0
SPLINE
  5
2DD
100
AcDbEntity
  8
0
100
AcDbSpline
 62
7
  6
BYLAYER
 70
0
 71
3
 72
11
 73
7
 74
0
 42
0.0000001
 43
0.0000001
 44
0.0000000001
 40
0.0
 40
0.0
 40
0.0
 40
0.0
 40
0.3147356384
 40
0.5566771114
 40
0.7641907525
 40
1.0
 40
1.0
 40
1.0
 40
1.0
 10
79.427563648
 20
62.3023455476
 30
0.0
 10
79.3444994768
 20
62.3023455476
 30
0.0
 10
79.1976667926
 20
62.3100569354
 30
0.0
 10
78.999600179
 20
62.3745831009
 30
0.0
 10
78.878088955
 20
62.5222260547
 30
0.0
 10
78.8642622343
 20
62.6432377717
 30
0.0
 10
78.8642622343
 20
62.7054719051
 30
0.0
  0
SPLINE
  5
2DE
100
AcDbEntity
  8
0
100
AcDbSpline
 62
7
  6
BYLAYER
 70
0
 71
3
 72
11
 73
7
 74
0
 42
0.0000001
 43
0.0000001
 44
0.0000000001
 40
0.0
 40
0.0
 40
0.0
 40
0.0
 40
0.2358092314
 40
0.4433228635
 40
0.6852643671
 40
1.0
 40
1.0
 40
1.0
 40
1.0
 10
105.8642622343
 20
62.7054719051
 30
0.0
 10
105.8642622343
 20
62.6432377733
 30
0.0
 10
105.8504355706
 20
62.5222260487
 30
0.0
 10
105.7289243199
 20
62.3745830879
 30
0.0
 10
105.5308576896
 20
62.3100569434
 30
0.0
 10
105.3840249939
 20
62.3023455476
 30
0.0
 10
105.3009608206
 20
62.3023455476
 30
0.0
  0
SPLINE
  5
2DF
100
AcDbEntity
  8
0
100
AcDbSpline
 62
7
  6
BYLAYER
 70
0
 71
3
 72
11
 73
7
 74
0
 42
0.0000001
 43
0.0000001
 44
0.0000000001
 40
0.0
 40
0.0
 40
0.0
 40
0.0
 40
0.3147356384
 40
0.5566771114
 40
0.7641907525
 40
1.0
 40
1.0
 40
1.0
 40
1.0
 10
114.427563648
 20
62.3023455476
 30
0.0
 10
114.3444994768
 20
62.3023455476
 30
0.0
 10
114.1976667926
 20
62.3100569354
 30
0.0
 10
113.999600179
 20
62.3745831009
 30
0.0
 10
113.878088955
 20
62.5222260547
 30
0.0
 10
113.8642622343
 20
62.6432377717
 30
0.0
 10
113.8642622343
 20
62.7054719051
 30
0.0
  0
SPLINE
  5
2E0
100
AcDbEntity
  8
0
100
AcDbSpline
 62
7
  6
BYLAYER
 70
0
 71
3
 72
12
 73
8
 74
0
 42
0.0000001
 43
0.0000001
 44
0.0000000001
 40
0.0
 40
0.0
 40
0.0
 40
0.0
 40
0.3579806036
 40
0.6655605994
 40
0.7873059371
 40
0.8833004234
 40
1.0
 40
1.0
 40
1.0
 40
1.0
 10
30.6230812794
 20
181.8023455476
 30
0.0
 10
30.6230812794
 20
181.6746158047
 30
0.0
 10
30.6111745915
 20
181.4367331829
 30
0.0
 10
30.5689049042
 20
181.159196538
 30
0.0
 10
30.5129220489
 20
180.9777137943
 30
0.0
 10
30.4669363293
 20
180.8726858817
 30
0.0
 10
30.4059013811
 20
180.8023455476
 30
0.0
 10
30.3642622342
 20
180.8023455476
 30
0.0
  0
SPLINE
  5
2E1
100
AcDbEntity
  8
0
100
AcDbSpline
 62
7
  6
BYLAYER
 70
0
 71
3
 72
14
 73
10
 74
0
 42
0.0000001
 43
0.0000001
 44
0.0000000001
 40
0.0
 40
0.0
 40
0.0
 40
0.0
 40
0.3776072738
 40
0.5434683014
 40
0.6862013382
 40
0.8023162662
 40
0.8905206991
 40
0.9530371969
 40
1.0
 40
1.0
 40
1.0
 40
1.0
 10
30.6230812794
 20
188.3023455476
 30
0.0
 10
30.6194118326
 20
188.4368630444
 30
0.0
 10
30.6048187964
 20
188.630551303
 30
0.0
 10
30.5637113761
 20
188.8717396831
 30
0.0
 10
30.5308672361
 20
189.0194909523
 30
0.0
 10
30.4975726298
 20
189.1388498015
 30
0.0
 10
30.4612961576
 20
189.2268464203
 30
0.0
 10
30.4199696842
 20
189.2859235813
 30
0.0
 10
30.380998323
 20
189.3023455475
 30
0.0
 10
30.3642622346
 20
189.3023455476
 30
0.0
  0
SPLINE
  5
2E2
100
AcDbEntity
  8
0
100
AcDbSpline
 62
7
  6
BYLAYER
 70
0
 71
3
 72
9
 73
5
 74
0
 42
0.0000001
 43
0.0000001
 44
0.0000000001
 40
0.0
 40
0.0
 40
0.0
 40
0.0
 40
0.5378661986
 40
1.0
 40
1.0
 40
1.0
 40
1.0
 10
25.1053690432
 20
188.3023455476
 30
0.0
 10
25.1054057085
 20
188.4300760203
 30
0.0
 10
25.1169793926
 20
188.6675871067
 30
0.0
 10
25.1537498813
 20
188.9032037214
 30
0.0
 10
25.1812495004
 20
189.0094483341
 30
0.0
  0
SPLINE
  5
2E3
100
AcDbEntity
  8
0
100
AcDbSpline
 62
7
  6
BYLAYER
 70
0
 71
3
 72
10
 73
6
 74
0
 42
0.0000001
 43
0.0000001
 44
0.0000000001
 40
0.0
 40
0.0
 40
0.0
 40
0.0
 40
0.3640658772
 40
0.6511147085
 40
1.0
 40
1.0
 40
1.0
 40
1.0
 10
25.1812495004
 20
189.0094483341
 30
0.0
 10
25.1921346452
 20
189.0515030255
 30
0.0
 10
25.2157066882
 20
189.1270641098
 30
0.0
 10
25.261556363
 20
189.2319616221
 30
0.0
 10
25.3225948305
 20
189.3023450422
 30
0.0
 10
25.364224047
 20
189.3023455476
 30
0.0
  0
SPLINE
  5
2E4
100
AcDbEntity
  8
0
100
AcDbSpline
 62
7
  6
BYLAYER
 70
0
 71
3
 72
12
 73
8
 74
0
 42
0.0000001
 43
0.0000001
 44
0.0000000001
 40
0.0
 40
0.0
 40
0.0
 40
0.0
 40
0.3531401564
 40
0.6725155781
 40
0.7969090941
 40
0.8915961092
 40
1.0
 40
1.0
 40
1.0
 40
1.0
 10
24.8465687575
 20
181.700107152
 30
0.0
 10
24.8751359617
 20
181.585848447
 30
0.0
 10
24.9196393623
 20
181.3654993833
 30
0.0
 10
24.9473252658
 20
181.1011328561
 30
0.0
 10
24.9379427304
 20
180.9195730737
 30
0.0
 10
24.9203922419
 20
180.8156065078
 30
0.0
 10
24.8815115306
 20
180.7435355753
 30
0.0
 10
24.8465896801
 20
180.7341781898
 30
0.0
  0
SPLINE
  5
2E5
100
AcDbEntity
  8
0
100
AcDbSpline
 62
7
  6
BYLAYER
 70
0
 71
3
 72
12
 73
8
 74
0
 42
0.0000001
 43
0.0000001
 44
0.0000000001
 40
0.0
 40
0.0
 40
0.0
 40
0.0
 40
0.1105227205
 40
0.2076513415
 40
0.3346835541
 40
0.6558240538
 40
1.0
 40
1.0
 40
1.0
 40
1.0
 10
25.3642622864
 20
180.8023458931
 30
0.0
 10
25.4037113969
 20
180.8023458921
 30
0.0
 10
25.4646503731
 20
180.8685432865
 30
0.0
 10
25.5113871499
 20
180.9737842101
 30
0.0
 10
25.5702346955
 20
181.1619136695
 30
0.0
 10
25.6114696421
 20
181.4417318685
 30
0.0
 10
25.6230813513
 20
181.6794980926
 30
0.0
 10
25.6230813687
 20
181.8023455476
 30
0.0
  0
ELLIPSE
  5
2E6
100
AcDbEntity
  8
0
100
AcDbEllipse
 62
7
  6
BYLAYER
 10
97.8642622343
 20
237.3023455476
 30
0.0
 11
-0.0
 21
0.5
 31
0.0
 40
1.0
 41
-1.5707963268
 42
0.0
  0
ELLIPSE
  5
2E7
100
AcDbEntity
  8
0
100
AcDbEllipse
 62
7
  6
BYLAYER
 10
97.8642622343
 20
234.3023455476
 30
0.0
 11
0.0
 21
0.5
 31
0.0
 40
1.0
 41
-3.1415926536
 42
-1.5707963268
  0
ELLIPSE
  5
2E8
100
AcDbEntity
  8
0
100
AcDbEllipse
 62
7
  6
BYLAYER
 10
86.8642622343
 20
237.3023455476
 30
0.0
 11
-0.0
 21
0.5
 31
0.0
 40
1.0
 41
0.0
 42
1.5707963268
  0
ELLIPSE
  5
2E9
100
AcDbEntity
  8
0
100
AcDbEllipse
 62
7
  6
BYLAYER
 10
86.8642622343
 20
234.3023455476
 30
0.0
 11
0.0
 21
0.5
 31
0.0
 40
1.0
 41
-4.7123889804
 42
-3.1415926536
  0
ENDSEC
  0
SECTION
  2
OBJECTS
  0
DICTIONARY
  5
C
100
AcDbDictionary
280
0
281
1
  3
ACAD_GROUP
350
D
  3
ACAD_MLINESTYLE
350
17
  3
ACAD_LAYOUT
350
1A
  3
ACAD_PLOTSETTINGS
350
19
  3
ACAD_PLOTSTYLENAME
350
E
  0
DICTIONARY
  5
D
102
{ACAD_REACTORS
330
C
102
}
100
AcDbDictionary
280
0
281
1
  0
ACDBDICTIONARYWDFLT
  5
E
102
{ACAD_REACTORS
330
C
102
}
100
AcDbDictionary
281
1
  3
Normal
350
F
100
AcDbDictionaryWithDefault
340
F
  0
DICTIONARY
  5
17
102
{ACAD_REACTORS
330
C
102
}
100
AcDbDictionary
280
0
281
1
  3
Standard
350
18
  0
DICTIONARY
  5
19
102
{ACAD_REACTORS
330
C
102
}
100
AcDbDictionary
281
1
  0
DICTIONARY
  5
1A
102
{ACAD_REACTORS
330
C
102
}
100
AcDbDictionary
281
1
  3
Model
350
2EA
  3
Layout1
350
2EB
  0
ACDBPLACEHOLDER
  5
F
102
{ACAD_REACTORS
330
E
102
}
  0
MLINESTYLE
  5
18
102
{ACAD_REACTORS
330
17
102
}
100
AcDbMlineStyle
  2
STANDARD
 70
0
  3

 62
256
 51
90.0
 52
90.0
 71
2
 49
0.5
 62
256
  6
BYLAYER
 49
-0.5
 62
256
  6
BYLAYER
  0
LAYOUT
  5
2EA
102
{ACAD_REACTORS
330
1A
102
}
100
AcDbPlotSettings
  1

  2
none_device
  4

  6

 40
0.0
 41
0.0
 42
0.0
 43
0.0
 44
210.0
 45
297.0
 46
0.0
 47
0.0
 48
0.0
 49
0.0
140
0.0
141
0.0
142
1.0
143
1.0
 70
1024
 72
1
 73
0
 74
0
  7

 75
0
147
1.0
148
0.0
149
0.0
100
AcDbLayout
  1
Model
 70
0
 71
0
 10
0.0
 20
0.0
 11
210.0
 21
297.0
 12
0.0
 22
0.0
 32
0.0
 14
0.0
 24
0.0
 34
0.0
 15
0.0
 25
0.0
 35
0.0
146
0.0
 13
0.0
 23
0.0
 33
0.0
 16
1.0
 26
0.0
 36
0.0
 17
0.0
 27
1.0
 37
0.0
 76
0
330
210
345
0
346
0
  0
LAYOUT
  5
2EB
102
{ACAD_REACTORS
330
1A
102
}
100
AcDbPlotSettings
  1

  2
none_device
  4

  6

 40
0.0
 41
0.0
 42
0.0
 43
0.0
 44
210.0
 45
297.0
 46
0.0
 47
0.0
 48
0.0
 49
0.0
140
0.0
141
0.0
142
1.0
143
1.0
 70
0
 72
1
 73
0
 74
0
  7

 75
0
147
1.0
148
0.0
149
0.0
100
AcDbLayout
  1
Layout1
 70
0
 71
1
 10
0.0
 20
0.0
 11
210.0
 21
297.0
 12
0.0
 22
0.0
 32
0.0
 14
0.0
 24
0.0
 34
0.0
 15
0.0
 25
0.0
 35
0.0
146
0.0
 13
0.0
 23
0.0
 33
0.0
 16
1.0
 26
0.0
 36
0.0
 17
0.0
 27
1.0
 37
0.0
 76
0
330
211
345
0
346
0
  0
ENDSEC
  0
EOF
