999
DXF file: C:\Users\sesa63760\Dev\_Creo\CAD\MCADPP0003707_3D-CAD\drw0001_1.dxf
999
Pro/ENGINEER 2019471 by Parametric Technology Corporation
  0
SECTION
  2
HEADER
  9
$ACADVER
  1
AC1024
  9
$DWGCODEPAGE
  3
ANSI_1252
  9
$EXTMAX
 10
122.1775641755
 20
172.7939836196
 30
0.0
  9
$EXTMIN
 10
0.0
 20
0.0
 30
0.0
  9
$LIMMIN
 10
0.0
 20
0.0
  9
$LIMMAX
 10
122.1775641755
 20
172.7939836196
  9
$VIEWCTR
 10
61.0887820878
 20
86.3969918098
  9
$VIEWSIZE
 40
172.7939836196
  9
$CLAYER
  8
0
  9
$LTSCALE
 40
11.2636078211
  9
$CELTYPE
  6
BYLAYER
  9
$DIMSCALE
 40
1.0
  9
$DIMASZ
 40
1.4544948116
  9
$DIMEXO
 40
1.0
  9
$DIMDLI
 40
7.7821290401
  9
$DIMEXE
 40
1.0
  9
$DIMCEN
 40
1.8431358253
  9
$DIMLFAC
 40
1.0
  9
$DIMBLK
  1
_FILLED
  9
$DIMALT
 70
0
  9
$DIMALTF
 40
0.0393700787
  9
$DIMTXT
 40
2.0362927363
  9
$DIMTOL
 70
1
  9
$DIMLIM
 70
0
  9
$DIMTFAC
 40
1.0
  9
$DIMTP
 40
0.01
  9
$DIMTM
 40
0.01
  9
$DIMGAP
 40
0.625
  9
$DIMDSEP
 70
46
  9
$AUNITS
 70
0
  9
$PDMODE
 70
3
  9
$PDSIZE
 40
0.3125
  9
$HANDSEED
  5
372
  9
$TILEMODE
 70
1
  9
$MEASUREMENT
 70
1
  9
$INSUNITS
 70
4
  0
ENDSEC
  0
SECTION
  2
CLASSES
  0
CLASS
  1
ACDBDICTIONARYWDFLT
  2
AcDbDictionaryWithDefault
  3
AutoCAD 2000
 90
0
 91
1
280
0
281
0
  0
CLASS
  1
ACDBPLACEHOLDER
  2
AcDbPlaceHolder
  3
AutoCAD 2000
 90
0
 91
1
280
0
281
0
  0
CLASS
  1
LAYOUT
  2
AcDbLayout
  3
AutoCAD 2000
 90
0
 91
0
280
0
281
0
  0
ENDSEC
  0
SECTION
  2
TABLES
  0
TABLE
  2
VPORT
  5
8
100
AcDbSymbolTable
 70
2
  0
VPORT
  5
1F4
100
AcDbSymbolTableRecord
100
AcDbViewportTableRecord
  2
*ACTIVE
 70
0
 10
0.0
 20
0.0
 11
1.0
 21
1.0
 12
61.0887820878
 22
86.3969918098
 13
0.0
 23
0.0
 14
1.0
 24
1.0
 15
0.0
 25
0.0
 16
0.0
 26
0.0
 36
1.0
 17
0.0
 27
0.0
 37
0.0
 40
172.7939836196
 41
0.7070707071
 42
50.0
 43
0.0
 44
0.0
 50
0.0
 51
0.0
 71
0
 72
100
 73
1
 74
1
 75
0
 76
0
 77
0
 78
0
  0
ENDTAB
  0
TABLE
  2
LTYPE
  5
5
100
AcDbSymbolTable
 70
6
  0
LTYPE
  5
14
100
AcDbSymbolTableRecord
100
AcDbLinetypeTableRecord
  2
BYBLOCK
 70
0
  3

 72
65
 73
0
 40
0.0
  0
LTYPE
  5
15
100
AcDbSymbolTableRecord
100
AcDbLinetypeTableRecord
  2
BYLAYER
 70
0
  3

 72
65
 73
0
 40
0.0
  0
LTYPE
  5
16
100
AcDbSymbolTableRecord
100
AcDbLinetypeTableRecord
  2
CONTINUOUS
 70
64
  3
Solid line
 72
65
 73
0
 40
0.0
  0
LTYPE
  5
1F5
100
AcDbSymbolTableRecord
100
AcDbLinetypeTableRecord
  2
CENTER
 70
64
  3
____ _ ____ _ ____ _ ____ _ ____ _ ____ _ ____
 72
65
 73
4
 40
0.6
 49
0.375
 74
0
 49
-0.075
 74
0
 49
0.075
 74
0
 49
-0.075
 74
0
  0
LTYPE
  5
1F6
100
AcDbSymbolTableRecord
100
AcDbLinetypeTableRecord
  2
HIDDEN
 70
64
  3
- - - - - - - - - - - - - - - - - - - -
 72
65
 73
2
 40
0.2
 49
0.1
 74
0
 49
-0.1
 74
0
  0
LTYPE
  5
1F7
100
AcDbSymbolTableRecord
100
AcDbLinetypeTableRecord
  2
PHANTOM
 70
64
  3
_____ _ _ _____ _ _ _____ _ _ _____
 72
65
 73
6
 40
0.8
 49
0.45
 74
0
 49
-0.05
 74
0
 49
0.1
 74
0
 49
-0.05
 74
0
 49
0.1
 74
0
 49
-0.05
 74
0
  0
LTYPE
  5
1F8
100
AcDbSymbolTableRecord
100
AcDbLinetypeTableRecord
  2
DOT
 70
64
  3
. . . . . . . . . . . . . . . . . . . .
 72
65
 73
2
 40
0.2
 49
0.1
 74
0
 49
-0.1
 74
0
  0
LTYPE
  5
1F9
100
AcDbSymbolTableRecord
100
AcDbLinetypeTableRecord
  2
DASHED
 70
64
  3
- - - - - - - - - - - - - - - - - - - -
 72
65
 73
2
 40
0.2
 49
0.1
 74
0
 49
-0.1
 74
0
  0
ENDTAB
  0
TABLE
  2
LAYER
  5
2
100
AcDbSymbolTable
 70
36
  0
LAYER
  5
10
100
AcDbSymbolTableRecord
100
AcDbLayerTableRecord
  2
0
 70
0
 62
7
  6
CONTINUOUS
370
-3
390
F
  0
LAYER
  5
1FA
100
AcDbSymbolTableRecord
100
AcDbLayerTableRecord
  2
DEFAULT_1
 70
0
 62
7
  6
CENTER
370
-3
390
F
  0
LAYER
  5
1FB
100
AcDbSymbolTableRecord
100
AcDbLayerTableRecord
  2
DEFAULT_2
 70
0
 62
8
  6
HIDDEN
370
-3
390
F
  0
LAYER
  5
1FC
100
AcDbSymbolTableRecord
100
AcDbLayerTableRecord
  2
DEFAULT_3
 70
0
 62
7
  6
PHANTOM
370
-3
390
F
  0
LAYER
  5
1FD
100
AcDbSymbolTableRecord
100
AcDbLayerTableRecord
  2
00_COMPONENTS
 70
0
 62
7
  6
CONTINUOUS
370
-3
390
F
  0
LAYER
  5
1FE
100
AcDbSymbolTableRecord
100
AcDbLayerTableRecord
  2
01_1_DEFAULT_DATUMS
 70
0
 62
7
  6
CONTINUOUS
370
-3
390
F
  0
LAYER
  5
1FF
100
AcDbSymbolTableRecord
100
AcDbLayerTableRecord
  2
01_PLANES
 70
0
 62
7
  6
CONTINUOUS
370
-3
390
F
  0
LAYER
  5
200
100
AcDbSymbolTableRecord
100
AcDbLayerTableRecord
  2
02_COORD_SYS
 70
0
 62
7
  6
CONTINUOUS
370
-3
390
F
  0
LAYER
  5
201
100
AcDbSymbolTableRecord
100
AcDbLayerTableRecord
  2
03_AXES
 70
0
 62
7
  6
CONTINUOUS
370
-3
390
F
  0
LAYER
  5
202
100
AcDbSymbolTableRecord
100
AcDbLayerTableRecord
  2
04_POINTS
 70
0
 62
7
  6
CONTINUOUS
370
-3
390
F
  0
LAYER
  5
203
100
AcDbSymbolTableRecord
100
AcDbLayerTableRecord
  2
05_CURVES
 70
0
 62
7
  6
CONTINUOUS
370
-3
390
F
  0
LAYER
  5
204
100
AcDbSymbolTableRecord
100
AcDbLayerTableRecord
  2
06_SURFS
 70
0
 62
7
  6
CONTINUOUS
370
-3
390
F
  0
LAYER
  5
205
100
AcDbSymbolTableRecord
100
AcDbLayerTableRecord
  2
07_COSMETICS
 70
0
 62
7
  6
CONTINUOUS
370
-3
390
F
  0
LAYER
  5
206
100
AcDbSymbolTableRecord
100
AcDbLayerTableRecord
  2
10_NOTES
 70
0
 62
7
  6
CONTINUOUS
370
-3
390
F
  0
LAYER
  5
207
100
AcDbSymbolTableRecord
100
AcDbLayerTableRecord
  2
11_NOTES_PUB
 70
0
 62
7
  6
CONTINUOUS
370
-3
390
F
  0
LAYER
  5
208
100
AcDbSymbolTableRecord
100
AcDbLayerTableRecord
  2
13_REF_GTOL
 70
0
 62
7
  6
CONTINUOUS
370
-3
390
F
  0
LAYER
  5
209
100
AcDbSymbolTableRecord
100
AcDbLayerTableRecord
  2
16_MISC
 70
0
 62
7
  6
CONTINUOUS
370
-3
390
F
  0
LAYER
  5
20A
100
AcDbSymbolTableRecord
100
AcDbLayerTableRecord
  2
17_NO_PRINT
 70
0
 62
7
  6
CONTINUOUS
370
-3
390
F
  0
LAYER
  5
20B
100
AcDbSymbolTableRecord
100
AcDbLayerTableRecord
  2
18_DATUM_CAMS_JOINTS
 70
0
 62
7
  6
CONTINUOUS
370
-3
390
F
  0
LAYER
  5
20C
100
AcDbSymbolTableRecord
100
AcDbLayerTableRecord
  2
19_DATUM_FUNCTIONAL
 70
0
 62
7
  6
CONTINUOUS
370
-3
390
F
  0
LAYER
  5
20D
100
AcDbSymbolTableRecord
100
AcDbLayerTableRecord
  2
20_DATUM_KINEMATIC_SCHEME
 70
0
 62
7
  6
CONTINUOUS
370
-3
390
F
  0
ENDTAB
  0
TABLE
  2
STYLE
  5
3
100
AcDbSymbolTable
 70
1
  0
STYLE
  5
11
100
AcDbSymbolTableRecord
100
AcDbTextStyleTableRecord
  2
STANDARD
 70
0
 40
0.0
 41
0.8
 50
0.0
 71
0
 42
0.2
  3
txt
  4

  0
STYLE
  5
20E
100
AcDbSymbolTableRecord
100
AcDbTextStyleTableRecord
  2
TEXTSTYLE_1
 70
0
 40
0.0
 41
0.8
 50
0.0
 71
0
 42
0.2
  3
gdt
  4

  0
ENDTAB
  0
TABLE
  2
VIEW
  5
6
100
AcDbSymbolTable
 70
0
  0
ENDTAB
  0
TABLE
  2
UCS
  5
7
100
AcDbSymbolTable
 70
0
  0
ENDTAB
  0
TABLE
  2
APPID
  5
9
100
AcDbSymbolTable
 70
1
  0
APPID
  5
20F
100
AcDbSymbolTableRecord
100
AcDbRegAppTableRecord
  2
ACAD
 70
0
  0
ENDTAB
  0
TABLE
  2
BLOCK_RECORD
  5
1
100
AcDbSymbolTable
 70
0
  0
BLOCK_RECORD
  5
210
100
AcDbSymbolTableRecord
100
AcDbBlockTableRecord
  2
*Model_Space
  0
BLOCK_RECORD
  5
211
100
AcDbSymbolTableRecord
100
AcDbBlockTableRecord
  2
*Paper_Space
  0
BLOCK_RECORD
  5
212
100
AcDbSymbolTableRecord
100
AcDbBlockTableRecord
  2
_FILLED
  0
ENDTAB
  0
TABLE
  2
DIMSTYLE
  5
A
100
AcDbSymbolTable
 70
1
100
AcDbDimStyleTable
 71
0
  0
DIMSTYLE
105
213
100
AcDbSymbolTableRecord
100
AcDbDimStyleTableRecord
  2
STANDARD
 70
0
  3

  4

 40
1.0
 41
1.4544948116
 42
1.0
 43
0.38
 44
1.0
 45
0.0
 46
0.0
 47
0.01
 48
0.01
140
2.0362927363
141
0.09
142
0.0
143
25.4
144
1.0
145
0.0
146
1.0
147
0.625
 71
1
 72
0
 73
0
 74
0
 75
0
 76
0
 77
1
 78
8
 79
2
170
0
171
1
172
0
173
0
174
0
175
0
176
0
177
0
178
0
270
2
179
2
271
2
272
2
273
2
274
2
275
0
280
0
281
0
282
0
283
1
284
8
285
0
286
0
287
3
288
0
340
11
278
46
341
212
342
212
343
212
344
212
  0
ENDTAB
  0
ENDSEC
  0
SECTION
  2
BLOCKS
  0
BLOCK
  5
20
100
AcDbEntity
  8
0
100
AcDbBlockBegin
  2
*Model_Space
 70
0
 10
0.0
 20
0.0
 30
0.0
  3
*Model_Space
  1

  0
ENDBLK
  5
21
100
AcDbEntity
  8
0
100
AcDbBlockEnd
  0
BLOCK
  5
1C
100
AcDbEntity
  8
0
100
AcDbBlockBegin
  2
*Paper_Space
 70
0
 10
0.0
 20
0.0
 30
0.0
  3
*Paper_Space
  1

  0
ENDBLK
  5
1D
100
AcDbEntity
  8
0
100
AcDbBlockEnd
  0
BLOCK
  5
214
100
AcDbEntity
  8
0
100
AcDbBlockBegin
  2
_FILLED
 70
64
 10
0.0
 20
0.0
  3
_FILLED
  1

  0
SOLID
  5
215
100
AcDbEntity
  8
0
  6
BYBLOCK
 62
0
100
AcDbTrace
 10
0.0
 20
0.0
 11
-1.0
 21
0.25
 12
-1.0
 22
-0.25
 13
-1.0
 23
-0.25
  0
ENDBLK
  5
216
100
AcDbEntity
  8
0
  6
BYBLOCK
 62
0
100
AcDbBlockEnd
  0
ENDSEC
  0
SECTION
  2
ENTITIES
  0
LINE
  5
217
100
AcDbEntity
  8
0
100
AcDbLine
 62
7
  6
CONTINUOUS
 10
14.1740031306
 20
64.2138200227
 11
14.1740031306
 21
88.1845657796
  0
LINE
  5
218
100
AcDbEntity
  8
0
100
AcDbLine
 62
7
  6
CONTINUOUS
 10
17.1178512218
 20
77.2297446964
 11
17.1178512218
 21
70.5118894092
  0
LINE
  5
219
100
AcDbEntity
  8
0
100
AcDbLine
 62
7
  6
CONTINUOUS
 10
17.1648930556
 20
76.746219968
 11
17.1648930556
 21
70.5366965368
  0
LINE
  5
21A
100
AcDbEntity
  8
0
100
AcDbLine
 62
7
  6
CONTINUOUS
 10
47.1545473645
 20
129.9589693023
 11
29.6800433858
 21
119.8701199485
  0
LINE
  5
21B
100
AcDbEntity
  8
0
100
AcDbLine
 62
7
  6
CONTINUOUS
 10
52.2366557929
 20
132.1732514272
 11
50.2242296834
 21
131.4211279767
  0
LINE
  5
21C
100
AcDbEntity
  8
0
100
AcDbLine
 62
7
  6
CONTINUOUS
 10
31.7719992014
 20
52.5073095443
 11
45.6985561612
 21
45.9990420314
  0
LINE
  5
21D
100
AcDbEntity
  8
0
100
AcDbLine
 62
7
  6
CONTINUOUS
 10
31.2746485141
 20
49.8737334788
 11
36.5709480834
 21
46.8159826723
  0
LINE
  5
21E
100
AcDbEntity
  8
0
100
AcDbLine
 62
7
  6
CONTINUOUS
 10
22.5734048788
 20
59.8543172493
 11
35.8944233121
 21
52.1635976583
  0
LWPOLYLINE
  5
21F
100
AcDbEntity
  8
0
100
AcDbPolyline
 62
7
  6
CONTINUOUS
 90
3
 70
0
 10
14.1740031306
 20
64.2138200227
 10
25.435850891
 20
56.1683141803
 10
31.7719992014
 20
52.5073095443
  0
LINE
  5
220
100
AcDbEntity
  8
0
100
AcDbLine
 62
7
  6
CONTINUOUS
 10
19.3802713122
 20
58.3197660697
 11
19.3802713122
 21
60.4944427089
  0
LINE
  5
221
100
AcDbEntity
  8
0
100
AcDbLine
 62
7
  6
CONTINUOUS
 10
19.3802713122
 20
91.3478113526
 11
19.3802713122
 21
100.1246898267
  0
LINE
  5
222
100
AcDbEntity
  8
0
100
AcDbLine
 62
7
  6
CONTINUOUS
 10
19.9873845132
 20
68.9071671989
 11
19.9873845132
 21
75.11669063
  0
LINE
  5
223
100
AcDbEntity
  8
0
100
AcDbLine
 62
7
  6
CONTINUOUS
 10
21.7577830925
 20
81.8240498043
 11
21.7577830925
 21
73.9010369495
  0
LINE
  5
224
100
AcDbEntity
  8
0
100
AcDbLine
 62
7
  6
CONTINUOUS
 10
21.7577830925
 20
67.1831816623
 11
21.7577830925
 21
59.3659875207
  0
LINE
  5
225
100
AcDbEntity
  8
0
100
AcDbLine
 62
7
  6
CONTINUOUS
 10
21.7900612023
 20
66.1790263286
 11
21.7900612023
 21
67.5670804377
  0
LINE
  5
226
100
AcDbEntity
  8
0
100
AcDbLine
 62
7
  6
CONTINUOUS
 10
22.1803536554
 20
73.5198170656
 11
22.1803536554
 21
81.2765900283
  0
LINE
  5
227
100
AcDbEntity
  8
0
100
AcDbLine
 62
7
  6
CONTINUOUS
 10
22.5734048788
 20
65.6767584852
 11
22.5734048788
 21
59.8543172493
  0
LINE
  5
228
100
AcDbEntity
  8
0
100
AcDbLine
 62
7
  6
CONTINUOUS
 10
23.6340606346
 20
68.6317076514
 11
23.6340606346
 21
72.5647548779
  0
LINE
  5
229
100
AcDbEntity
  8
0
100
AcDbLine
 62
7
  6
CONTINUOUS
 10
23.8757032481
 20
68.7260971211
 11
23.8757032481
 21
72.4104930705
  0
LINE
  5
22A
100
AcDbEntity
  8
0
100
AcDbLine
 62
7
  6
CONTINUOUS
 10
57.7167105313
 20
130.7497349382
 11
56.2095250442
 21
129.8795661857
  0
LINE
  5
22B
100
AcDbEntity
  8
0
100
AcDbLine
 62
7
  6
CONTINUOUS
 10
73.27299495
 20
138.0164512474
 11
78.2227218105
 21
140.8741603245
  0
LINE
  5
22C
100
AcDbEntity
  8
0
100
AcDbLine
 62
7
  6
CONTINUOUS
 10
61.3585590724
 20
45.8954692978
 11
61.275149104
 21
45.9289616483
  0
LINE
  5
22D
100
AcDbEntity
  8
0
100
AcDbLine
 62
7
  6
CONTINUOUS
 10
24.6947340542
 20
59.119496436
 11
28.4424155975
 21
56.9558204371
  0
LINE
  5
22E
100
AcDbEntity
  8
0
100
AcDbLine
 62
7
  6
CONTINUOUS
 10
30.7997072882
 20
55.5948682337
 11
34.5473888315
 21
53.4311922348
  0
LINE
  5
22F
100
AcDbEntity
  8
0
100
AcDbLine
 62
7
  6
CONTINUOUS
 10
34.5473888315
 20
54.6559458605
 11
30.7997072882
 21
56.8196218594
  0
LINE
  5
230
100
AcDbEntity
  8
0
100
AcDbLine
 62
7
  6
CONTINUOUS
 10
28.4424155975
 20
58.1805740628
 11
24.6947340542
 21
60.3442500617
  0
LINE
  5
231
100
AcDbEntity
  8
0
100
AcDbLine
 62
7
  6
CONTINUOUS
 10
24.6947340542
 20
62.9570577965
 11
28.4424155975
 21
60.7933817976
  0
LINE
  5
232
100
AcDbEntity
  8
0
100
AcDbLine
 62
7
  6
CONTINUOUS
 10
30.7997072882
 20
59.4324295942
 11
34.5473888315
 21
57.2687535953
  0
LINE
  5
233
100
AcDbEntity
  8
0
100
AcDbLine
 62
7
  6
CONTINUOUS
 10
34.5473888315
 20
58.493507221
 11
30.7997072882
 21
60.6571832199
  0
LINE
  5
234
100
AcDbEntity
  8
0
100
AcDbLine
 62
7
  6
CONTINUOUS
 10
28.4424155975
 20
62.0181354233
 11
24.6947340542
 21
64.1818114222
  0
LINE
  5
235
100
AcDbEntity
  8
0
100
AcDbLine
 62
7
  6
CONTINUOUS
 10
30.8147444876
 20
60.6832152579
 11
30.9417007486
 21
60.6098799852
  0
LINE
  5
236
100
AcDbEntity
  8
0
100
AcDbLine
 62
7
  6
CONTINUOUS
 10
21.7577830925
 20
67.1831816623
 11
21.5986060818
 21
67.2910437694
  0
LINE
  5
237
100
AcDbEntity
  8
0
100
AcDbLine
 62
7
  6
CONTINUOUS
 10
21.7577830925
 20
67.1831816623
 11
21.6002326894
 21
67.291842343
  0
LINE
  5
238
100
AcDbEntity
  8
0
100
AcDbLine
 62
7
  6
CONTINUOUS
 10
17.1361680693
 20
70.4982161713
 11
17.1178512218
 21
70.5118894092
  0
LINE
  5
239
100
AcDbEntity
  8
0
100
AcDbLine
 62
7
  6
CONTINUOUS
 10
17.1359404245
 20
70.4981164878
 11
17.1178512218
 21
70.5118894092
  0
LINE
  5
23A
100
AcDbEntity
  8
0
100
AcDbLine
 62
7
  6
CONTINUOUS
 10
24.1792556388
 20
66.4399852034
 11
24.1792556388
 21
71.3389997062
  0
LINE
  5
23B
100
AcDbEntity
  8
0
100
AcDbLine
 62
7
  6
CONTINUOUS
 10
24.6947340542
 20
64.1818114222
 11
24.6947340542
 21
62.9570577965
  0
LINE
  5
23C
100
AcDbEntity
  8
0
100
AcDbLine
 62
7
  6
CONTINUOUS
 10
24.6947340542
 20
60.3442500617
 11
24.6947340542
 21
59.119496436
  0
LINE
  5
23D
100
AcDbEntity
  8
0
100
AcDbLine
 62
7
  6
CONTINUOUS
 10
26.2099567468
 20
78.704138724
 11
26.2099567468
 21
70.9473657613
  0
LINE
  5
23E
100
AcDbEntity
  8
0
100
AcDbLine
 62
7
  6
CONTINUOUS
 10
26.3915554638
 20
69.9626769812
 11
26.3915554638
 21
65.6760392913
  0
LINE
  5
23F
100
AcDbEntity
  8
0
100
AcDbLine
 62
7
  6
CONTINUOUS
 10
26.9104046853
 20
65.3632290101
 11
26.9104046853
 21
64.7508521972
  0
LINE
  5
240
100
AcDbEntity
  8
0
100
AcDbLine
 62
7
  6
CONTINUOUS
 10
28.2992014145
 20
72.1535845324
 11
28.2992014145
 21
77.759779592
  0
LINE
  5
241
100
AcDbEntity
  8
0
100
AcDbLine
 62
7
  6
CONTINUOUS
 10
28.4424155975
 20
56.9558204371
 11
28.4424155975
 21
58.1805740628
  0
LINE
  5
242
100
AcDbEntity
  8
0
100
AcDbLine
 62
7
  6
CONTINUOUS
 10
28.4424155975
 20
60.7933817976
 11
28.4424155975
 21
62.0181354233
  0
LINE
  5
243
100
AcDbEntity
  8
0
100
AcDbLine
 62
7
  6
CONTINUOUS
 10
29.7045524218
 20
106.6824721551
 11
27.0388697667
 21
104.5543013262
  0
LINE
  5
244
100
AcDbEntity
  8
0
100
AcDbLine
 62
7
  6
CONTINUOUS
 10
19.3802713122
 20
100.1246898267
 11
19.4078660148
 21
100.1463340833
  0
LINE
  5
245
100
AcDbEntity
  8
0
100
AcDbLine
 62
7
  6
CONTINUOUS
 10
27.2834092221
 20
104.5319414393
 11
30.117131834
 21
106.618876281
  0
LINE
  5
246
100
AcDbEntity
  8
0
100
AcDbLine
 62
7
  6
CONTINUOUS
 10
29.7587610149
 20
106.7176912753
 11
29.7045485096
 21
106.6824782082
  0
LINE
  5
247
100
AcDbEntity
  8
0
100
AcDbLine
 62
7
  6
CONTINUOUS
 10
30.8116060545
 20
60.6813127347
 11
30.9417007486
 21
60.6098799852
  0
LINE
  5
248
100
AcDbEntity
  8
0
100
AcDbLine
 62
7
  6
CONTINUOUS
 10
17.1648930556
 20
70.5366965368
 11
19.9873845132
 21
68.9071671989
  0
LINE
  5
249
100
AcDbEntity
  8
0
100
AcDbLine
 62
7
  6
CONTINUOUS
 10
38.9677114932
 20
57.9968008151
 11
41.3817133839
 21
56.6031077032
  0
LINE
  5
24A
100
AcDbEntity
  8
0
100
AcDbLine
 62
7
  6
CONTINUOUS
 10
61.3585590724
 20
45.8954692978
 11
61.2878480998
 21
45.9362933732
  0
LINE
  5
24B
100
AcDbEntity
  8
0
100
AcDbLine
 62
7
  6
CONTINUOUS
 10
23.6340606346
 20
68.6317076514
 11
24.1792556388
 21
68.3169462898
  0
LINE
  5
24C
100
AcDbEntity
  8
0
100
AcDbLine
 62
7
  6
CONTINUOUS
 10
28.6332137603
 20
65.7455105431
 11
30.6295811971
 21
64.5929333408
  0
LINE
  5
24D
100
AcDbEntity
  8
0
100
AcDbLine
 62
7
  6
CONTINUOUS
 10
34.643646424
 20
62.2754641297
 11
37.7293737628
 21
60.493958923
  0
LINE
  5
24E
100
AcDbEntity
  8
0
100
AcDbLine
 62
7
  6
CONTINUOUS
 10
37.5282429242
 20
60.8439779813
 11
34.8462115719
 21
62.3924144742
  0
LINE
  5
24F
100
AcDbEntity
  8
0
100
AcDbLine
 62
7
  6
CONTINUOUS
 10
30.6295811971
 20
64.8268320823
 11
28.8357789081
 21
65.8624608876
  0
LINE
  5
250
100
AcDbEntity
  8
0
100
AcDbLine
 62
7
  6
CONTINUOUS
 10
24.1792556388
 20
68.5508450313
 11
23.8757032481
 21
68.7260971211
  0
LINE
  5
251
100
AcDbEntity
  8
0
100
AcDbLine
 62
7
  6
CONTINUOUS
 10
30.0336813583
 20
66.5540660614
 11
30.6295811971
 21
66.2100309122
  0
LINE
  5
252
100
AcDbEntity
  8
0
100
AcDbLine
 62
7
  6
CONTINUOUS
 10
36.0441140221
 20
63.084019648
 11
37.5282429242
 21
62.2271768112
  0
LINE
  5
253
100
AcDbEntity
  8
0
100
AcDbLine
 62
7
  6
CONTINUOUS
 10
29.5462316185
 20
67.4973815465
 11
29.5462316185
 21
70.8372810172
  0
LINE
  5
254
100
AcDbEntity
  8
0
100
AcDbLine
 62
7
  6
CONTINUOUS
 10
29.6800433858
 20
50.6307149759
 11
29.6800433858
 21
50.8880375526
  0
LINE
  5
255
100
AcDbEntity
  8
0
100
AcDbLine
 62
7
  6
CONTINUOUS
 10
29.6800433858
 20
106.662903432
 11
29.6800433858
 21
119.8701199485
  0
LINE
  5
256
100
AcDbEntity
  8
0
100
AcDbLine
 62
7
  6
CONTINUOUS
 10
30.0765639124
 20
66.5788241677
 11
30.0765639124
 21
67.1912009806
  0
LINE
  5
257
100
AcDbEntity
  8
0
100
AcDbLine
 62
7
  6
CONTINUOUS
 10
30.0889244049
 20
62.9117630738
 11
30.0889244049
 21
63.5241398867
  0
LINE
  5
258
100
AcDbEntity
  8
0
100
AcDbLine
 62
7
  6
CONTINUOUS
 10
30.6295811971
 20
63.2239201371
 11
30.6295811971
 21
67.510557827
  0
LINE
  5
259
100
AcDbEntity
  8
0
100
AcDbLine
 62
7
  6
CONTINUOUS
 10
30.7997072882
 20
60.6571832199
 11
30.7997072882
 21
59.4324295942
  0
LINE
  5
25A
100
AcDbEntity
  8
0
100
AcDbLine
 62
7
  6
CONTINUOUS
 10
30.7997072882
 20
56.8196218594
 11
30.7997072882
 21
55.5948682337
  0
LINE
  5
25B
100
AcDbEntity
  8
0
100
AcDbLine
 62
7
  6
CONTINUOUS
 10
30.9737341271
 20
68.1956116377
 11
30.9737341271
 21
75.9523846005
  0
LINE
  5
25C
100
AcDbEntity
  8
0
100
AcDbLine
 62
7
  6
CONTINUOUS
 10
31.2746485141
 20
92.0052582026
 11
31.2746485141
 21
89.0281850999
  0
LINE
  5
25D
100
AcDbEntity
  8
0
100
AcDbLine
 62
7
  6
CONTINUOUS
 10
31.2746485141
 20
84.3677998827
 11
31.2746485141
 21
83.0280077879
  0
LINE
  5
25E
100
AcDbEntity
  8
0
100
AcDbLine
 62
7
  6
CONTINUOUS
 10
31.2746485141
 20
52.7946770557
 11
31.2746485141
 21
49.8737334788
  0
LINE
  5
25F
100
AcDbEntity
  8
0
100
AcDbLine
 62
7
  6
CONTINUOUS
 10
33.008467003
 20
66.2304129889
 11
33.008467003
 21
61.3313984861
  0
LINE
  5
260
100
AcDbEntity
  8
0
100
AcDbLine
 62
7
  6
CONTINUOUS
 10
19.4078333814
 20
100.1464060592
 11
27.0400394782
 21
104.5528360009
  0
LINE
  5
261
100
AcDbEntity
  8
0
100
AcDbLine
 62
7
  6
CONTINUOUS
 10
19.6123943821
 20
100.1030869854
 11
27.2834074207
 21
104.5319909183
  0
LINE
  5
262
100
AcDbEntity
  8
0
100
AcDbLine
 62
7
  6
CONTINUOUS
 10
67.4768709729
 20
125.1148311584
 11
79.5662715038
 21
132.0946081457
  0
LINE
  5
263
100
AcDbEntity
  8
0
100
AcDbLine
 62
7
  6
CONTINUOUS
 10
30.0765639124
 20
67.1912009806
 11
29.5462316185
 21
67.4973815465
  0
LINE
  5
264
100
AcDbEntity
  8
0
100
AcDbLine
 62
7
  6
CONTINUOUS
 10
41.3817133839
 20
61.3202871177
 11
38.9677114932
 21
62.7139802296
  0
LINE
  5
265
100
AcDbEntity
  8
0
100
AcDbLine
 62
7
  6
CONTINUOUS
 10
19.9873845132
 20
75.11669063
 11
17.1648930556
 21
76.746219968
  0
LINE
  5
266
100
AcDbEntity
  8
0
100
AcDbLine
 62
7
  6
CONTINUOUS
 10
27.7827427445
 20
71.8554087602
 11
30.9737341271
 21
70.0131307044
  0
LINE
  5
267
100
AcDbEntity
  8
0
100
AcDbLine
 62
7
  6
CONTINUOUS
 10
34.5473888315
 20
53.4311922348
 11
34.5473888315
 21
54.6559458605
  0
LINE
  5
268
100
AcDbEntity
  8
0
100
AcDbLine
 62
7
  6
CONTINUOUS
 10
34.5473888315
 20
57.2687535953
 11
34.5473888315
 21
58.493507221
  0
LINE
  5
269
100
AcDbEntity
  8
0
100
AcDbLine
 62
7
  6
CONTINUOUS
 10
35.4272061378
 20
73.6246526701
 11
35.4272061378
 21
65.8678797073
  0
LINE
  5
26A
100
AcDbEntity
  8
0
100
AcDbLine
 62
7
  6
CONTINUOUS
 10
35.8816542938
 20
59.427183958
 11
35.8816542938
 21
58.0391298489
  0
LINE
  5
26B
100
AcDbEntity
  8
0
100
AcDbLine
 62
7
  6
CONTINUOUS
 10
35.8944233121
 20
51.1979656825
 11
35.8944233121
 21
59.0151598241
  0
LINE
  5
26C
100
AcDbEntity
  8
0
100
AcDbLine
 62
7
  6
CONTINUOUS
 10
35.8944233121
 20
65.7330151113
 11
35.8944233121
 21
73.6560279661
  0
LINE
  5
26D
100
AcDbEntity
  8
0
100
AcDbLine
 62
7
  6
CONTINUOUS
 10
36.0869965761
 20
63.1087777543
 11
36.0869965761
 21
65.6397979437
  0
LINE
  5
26E
100
AcDbEntity
  8
0
100
AcDbLine
 62
7
  6
CONTINUOUS
 10
36.5709480834
 20
46.8159826723
 11
36.5709480834
 21
49.793055775
  0
LINE
  5
26F
100
AcDbEntity
  8
0
100
AcDbLine
 62
7
  6
CONTINUOUS
 10
36.5709480834
 20
79.9702569814
 11
36.5709480834
 21
81.3100490762
  0
LINE
  5
270
100
AcDbEntity
  8
0
100
AcDbLine
 62
7
  6
CONTINUOUS
 10
36.5709480834
 20
85.9704342935
 11
36.5709480834
 21
88.9475073962
  0
LINE
  5
271
100
AcDbEntity
  8
0
100
AcDbLine
 62
7
  6
CONTINUOUS
 10
37.5282429242
 20
64.9421470885
 11
37.5282429242
 21
60.8439779813
  0
LINE
  5
272
100
AcDbEntity
  8
0
100
AcDbLine
 62
7
  6
CONTINUOUS
 10
37.7293737628
 20
64.8447875345
 11
37.7293737628
 21
60.493958923
  0
LINE
  5
273
100
AcDbEntity
  8
0
100
AcDbLine
 62
7
  6
CONTINUOUS
 10
19.3802713122
 20
91.3478113526
 11
14.1740031306
 21
88.1845657796
  0
LINE
  5
274
100
AcDbEntity
  8
0
100
AcDbLine
 62
7
  6
CONTINUOUS
 10
38.9677114932
 20
62.7139802296
 11
38.9677114932
 21
57.9968008151
  0
LINE
  5
275
100
AcDbEntity
  8
0
100
AcDbLine
 62
7
  6
CONTINUOUS
 10
41.3817133839
 20
56.6031077032
 11
41.3817133839
 21
61.3202871177
  0
LINE
  5
276
100
AcDbEntity
  8
0
100
AcDbLine
 62
7
  6
CONTINUOUS
 10
41.6558077645
 20
56.3340008111
 11
41.6558077645
 21
63.0518560982
  0
LINE
  5
277
100
AcDbEntity
  8
0
100
AcDbLine
 62
7
  6
CONTINUOUS
 10
83.9151714795
 20
51.1208482232
 11
84.3040785899
 21
50.8963176779
  0
LINE
  5
278
100
AcDbEntity
  8
0
100
AcDbLine
 62
7
  6
CONTINUOUS
 10
80.5210730609
 20
53.6928761992
 11
80.1675211422
 21
53.8969948768
  0
LINE
  5
279
100
AcDbEntity
  8
0
100
AcDbLine
 62
7
  6
CONTINUOUS
 10
45.6985561612
 20
69.9694085919
 11
45.6985561612
 21
45.9990420314
  0
LINE
  5
27A
100
AcDbEntity
  8
0
100
AcDbLine
 62
7
  6
CONTINUOUS
 10
102.873320696
 20
128.399725792
 11
97.9671634218
 21
125.5671714771
  0
LINE
  5
27B
100
AcDbEntity
  8
0
100
AcDbLine
 62
7
  6
CONTINUOUS
 10
99.2528507721
 20
126.2370248335
 11
103.9433726468
 21
128.9450827355
  0
LINE
  5
27C
100
AcDbEntity
  8
0
100
AcDbLine
 62
7
  6
CONTINUOUS
 10
104.5849324397
 20
128.9399076966
 11
99.9621237919
 21
126.2709438109
  0
LINE
  5
27D
100
AcDbEntity
  8
0
100
AcDbLine
 62
7
  6
CONTINUOUS
 10
22.4070698539
 20
81.4074839052
 11
22.1803536554
 21
81.2765900283
  0
LINE
  5
27E
100
AcDbEntity
  8
0
100
AcDbLine
 62
7
  6
CONTINUOUS
 10
83.1019496641
 20
116.0938918509
 11
81.5947641769
 21
115.2237230984
  0
LINE
  5
27F
100
AcDbEntity
  8
0
100
AcDbLine
 62
7
  6
CONTINUOUS
 10
17.5036135723
 20
76.9417791821
 11
17.1648930556
 21
76.746219968
  0
LINE
  5
280
100
AcDbEntity
  8
0
100
AcDbLine
 62
7
  6
CONTINUOUS
 10
81.90274537
 20
113.1319421742
 11
83.9151714795
 21
113.8840656247
  0
LINE
  5
281
100
AcDbEntity
  8
0
100
AcDbLine
 62
7
  6
CONTINUOUS
 10
31.2746485142
 20
83.0280077879
 11
36.5709480834
 21
79.9702569814
  0
LINE
  5
282
100
AcDbEntity
  8
0
100
AcDbLine
 62
7
  6
CONTINUOUS
 10
83.6323227017
 20
55.4891462946
 11
83.9151714795
 21
55.3258471709
  0
LINE
  5
283
100
AcDbEntity
  8
0
100
AcDbLine
 62
7
  6
CONTINUOUS
 10
50.9173650537
 20
81.9171521751
 11
50.9173650537
 21
73.140273701
  0
LINE
  5
284
100
AcDbEntity
  8
0
100
AcDbLine
 62
7
  6
CONTINUOUS
 10
50.9173650537
 20
49.0121047648
 11
50.9173650537
 21
40.1122284181
  0
LINE
  5
285
100
AcDbEntity
  8
0
100
AcDbLine
 62
7
  6
CONTINUOUS
 10
78.8330630511
 20
111.6697834998
 11
61.3585590724
 21
101.580934146
  0
LINE
  5
286
100
AcDbEntity
  8
0
100
AcDbLine
 62
7
  6
CONTINUOUS
 10
101.4844546414
 20
124.5432659824
 11
99.8956761018
 21
123.6259897402
  0
LINE
  5
287
100
AcDbEntity
  8
0
100
AcDbLine
 62
7
  6
CONTINUOUS
 10
98.6582340828
 20
121.0721077736
 11
83.9151714795
 21
112.5602474199
  0
LINE
  5
288
100
AcDbEntity
  8
0
100
AcDbLine
 62
7
  6
CONTINUOUS
 10
26.4374511732
 20
78.8354819083
 11
26.2099567468
 21
78.704138724
  0
LINE
  5
289
100
AcDbEntity
  8
0
100
AcDbLine
 62
7
  6
CONTINUOUS
 10
108.7549151863
 20
126.1853051744
 11
104.0677291443
 21
123.4791732048
  0
LINE
  5
28A
100
AcDbEntity
  8
0
100
AcDbLine
 62
7
  6
CONTINUOUS
 10
99.8956761018
 20
119.5434776546
 11
103.077669865
 21
121.3805916442
  0
LINE
  5
28B
100
AcDbEntity
  8
0
100
AcDbLine
 62
7
  6
CONTINUOUS
 10
21.7577830925
 20
73.9010369495
 11
22.1803536554
 21
74.1450067215
  0
LINE
  5
28C
100
AcDbEntity
  8
0
100
AcDbLine
 62
7
  6
CONTINUOUS
 10
31.2746485141
 20
92.0052582026
 11
36.5709480834
 21
88.9475073962
  0
LINE
  5
28D
100
AcDbEntity
  8
0
100
AcDbLine
 62
7
  6
CONTINUOUS
 10
109.8698377872
 20
124.2947271791
 11
104.9515106366
 21
121.4551466247
  0
LINE
  5
28E
100
AcDbEntity
  8
0
100
AcDbLine
 62
7
  6
CONTINUOUS
 10
86.566810869
 20
110.8275725202
 11
84.3040785899
 21
109.5211912278
  0
LINE
  5
28F
100
AcDbEntity
  8
0
100
AcDbLine
 62
7
  6
CONTINUOUS
 10
17.1178512218
 20
70.5118894092
 11
17.1638744718
 21
70.5384607864
  0
LINE
  5
290
100
AcDbEntity
  8
0
100
AcDbLine
 62
7
  6
CONTINUOUS
 10
31.2143626361
 20
76.0913107056
 11
30.9737341271
 21
75.9523846005
  0
LINE
  5
291
100
AcDbEntity
  8
0
100
AcDbLine
 62
7
  6
CONTINUOUS
 10
24.9021675525
 20
71.7563706029
 11
24.1792556388
 21
71.3389997062
  0
LINE
  5
292
100
AcDbEntity
  8
0
100
AcDbLine
 62
7
  6
CONTINUOUS
 10
23.6340606346
 20
71.0125640717
 11
19.9873845132
 21
68.9071671989
  0
LINE
  5
293
100
AcDbEntity
  8
0
100
AcDbLine
 62
7
  6
CONTINUOUS
 10
80.1675211422
 20
102.47889915
 11
83.9151714795
 21
104.6425931655
  0
LINE
  5
294
100
AcDbEntity
  8
0
100
AcDbLine
 62
7
  6
CONTINUOUS
 10
84.3040785899
 20
104.5405264833
 11
80.5210730609
 21
102.3564202601
  0
LINE
  5
295
100
AcDbEntity
  8
0
100
AcDbLine
 62
7
  6
CONTINUOUS
 10
28.2992014145
 20
72.1535845324
 11
26.2099567468
 21
70.9473657613
  0
LINE
  5
296
100
AcDbEntity
  8
0
100
AcDbLine
 62
7
  6
CONTINUOUS
 10
36.5709480834
 20
85.9704342935
 11
36.0455391935
 21
85.8199377177
  0
LINE
  5
297
100
AcDbEntity
  8
0
100
AcDbLine
 62
7
  6
CONTINUOUS
 10
31.2746485141
 20
84.3677998827
 11
31.8000574041
 21
84.5182964585
  0
LINE
  5
298
100
AcDbEntity
  8
0
100
AcDbLine
 62
7
  6
CONTINUOUS
 10
61.1464273324
 20
88.3600468897
 11
61.1464273324
 21
87.9861692663
  0
LINE
  5
299
100
AcDbEntity
  8
0
100
AcDbLine
 62
7
  6
CONTINUOUS
 10
61.1464273324
 20
45.8546445424
 11
61.1464273324
 21
45.480795309
  0
LINE
  5
29A
100
AcDbEntity
  8
0
100
AcDbLine
 62
7
  6
CONTINUOUS
 10
61.2878480998
 20
45.9362933732
 11
61.2878480998
 21
88.0678180971
  0
LINE
  5
29B
100
AcDbEntity
  8
0
100
AcDbLine
 62
7
  6
CONTINUOUS
 10
61.3585590724
 20
32.3415291734
 11
61.3585590724
 21
101.580934146
  0
LINE
  5
29C
100
AcDbEntity
  8
0
100
AcDbLine
 62
7
  6
CONTINUOUS
 10
60.5049678784
 20
89.074849073
 11
58.2682160897
 21
86.643212604
  0
LINE
  5
29D
100
AcDbEntity
  8
0
100
AcDbLine
 62
7
  6
CONTINUOUS
 10
99.0280963247
 20
126.0285675869
 11
99.252857178
 21
126.2370137427
  0
LINE
  5
29E
100
AcDbEntity
  8
0
100
AcDbLine
 62
7
  6
CONTINUOUS
 10
98.5778156102
 20
125.4437420355
 11
98.6902334155
 21
125.5479005805
  0
LINE
  5
29F
100
AcDbEntity
  8
0
100
AcDbLine
 62
7
  6
CONTINUOUS
 10
23.6340606346
 20
68.6317076514
 11
21.7900612023
 21
67.5670804377
  0
LINE
  5
2A0
100
AcDbEntity
  8
0
100
AcDbLine
 62
7
  6
CONTINUOUS
 10
24.1792556388
 20
68.9013521294
 11
23.8757032481
 21
68.7260971211
  0
LINE
  5
2A1
100
AcDbEntity
  8
0
100
AcDbLine
 62
7
  6
CONTINUOUS
 10
28.7263205486
 20
71.3106461852
 11
26.3915554638
 21
69.9626769812
  0
LINE
  5
2A2
100
AcDbEntity
  8
0
100
AcDbLine
 62
7
  6
CONTINUOUS
 10
21.7577830925
 20
67.1831816623
 11
21.7900612023
 21
67.2018173265
  0
LINE
  5
2A3
100
AcDbEntity
  8
0
100
AcDbLine
 62
7
  6
CONTINUOUS
 10
35.6772682296
 20
73.7690252243
 11
35.4272061378
 21
73.6246526701
  0
LINE
  5
2A4
100
AcDbEntity
  8
0
100
AcDbLine
 62
7
  6
CONTINUOUS
 10
58.2682132587
 20
86.6432715207
 11
50.5971222429
 21
82.2144558282
  0
LINE
  5
2A5
100
AcDbEntity
  8
0
100
AcDbLine
 62
7
  6
CONTINUOUS
 10
61.1464273324
 20
87.9861692663
 11
61.275149104
 21
88.0604863722
  0
LINE
  5
2A6
100
AcDbEntity
  8
0
100
AcDbLine
 62
7
  6
CONTINUOUS
 10
58.5443172275
 20
86.320548781
 11
50.9173650537
 21
81.9171521751
  0
LINE
  5
2A7
100
AcDbEntity
  8
0
100
AcDbLine
 62
7
  6
CONTINUOUS
 10
98.6582340828
 20
109.2351163438
 11
86.566810869
 21
102.254171567
  0
LINE
  5
2A8
100
AcDbEntity
  8
0
100
AcDbLine
 62
7
  6
CONTINUOUS
 10
29.5462316185
 20
67.4973815465
 11
26.3915554638
 21
65.6760392913
  0
LINE
  5
2A9
100
AcDbEntity
  8
0
100
AcDbLine
 62
7
  6
CONTINUOUS
 10
27.2834074207
 20
104.5319909183
 11
58.2682132587
 21
86.6432715207
  0
LINE
  5
2AA
100
AcDbEntity
  8
0
100
AcDbLine
 62
7
  6
CONTINUOUS
 10
31.4092507983
 20
67.9606975942
 11
30.6295811971
 21
67.510557827
  0
LINE
  5
2AB
100
AcDbEntity
  8
0
100
AcDbLine
 62
7
  6
CONTINUOUS
 10
30.0765639124
 20
67.1912009806
 11
26.9104046853
 21
65.3632290101
  0
LINE
  5
2AC
100
AcDbEntity
  8
0
100
AcDbLine
 62
7
  6
CONTINUOUS
 10
30.0765639124
 20
66.5788241677
 11
26.9104046853
 21
64.7508521972
  0
LINE
  5
2AD
100
AcDbEntity
  8
0
100
AcDbLine
 62
7
  6
CONTINUOUS
 10
24.6947340542
 20
62.9570577965
 11
25.7554169708
 21
63.5694397085
  0
LINE
  5
2AE
100
AcDbEntity
  8
0
100
AcDbLine
 62
7
  6
CONTINUOUS
 10
105.5171937064
 20
108.5411766864
 11
106.7899806133
 21
109.2760161634
  0
LINE
  5
2AF
100
AcDbEntity
  8
0
100
AcDbLine
 62
7
  6
CONTINUOUS
 10
33.8059313657
 20
66.690826505
 11
33.008467003
 21
66.2304129889
  0
LINE
  5
2B0
100
AcDbEntity
  8
0
100
AcDbLine
 62
7
  6
CONTINUOUS
 10
21.7577830925
 20
59.3659875207
 11
22.580953602
 21
59.8412423991
  0
LINE
  5
2B1
100
AcDbEntity
  8
0
100
AcDbLine
 62
7
  6
CONTINUOUS
 10
30.6295811971
 20
63.8362863679
 11
30.0889244049
 21
63.5241398867
  0
LINE
  5
2B2
100
AcDbEntity
  8
0
100
AcDbLine
 62
7
  6
CONTINUOUS
 10
35.8944233121
 20
66.1376260585
 11
35.4272061378
 21
65.8678797073
  0
LINE
  5
2B3
100
AcDbEntity
  8
0
100
AcDbLine
 62
7
  6
CONTINUOUS
 10
104.9515106366
 20
105.6017736285
 11
86.566810869
 21
94.9874256279
  0
LINE
  5
2B4
100
AcDbEntity
  8
0
100
AcDbLine
 62
7
  6
CONTINUOUS
 10
24.6947340542
 20
59.119496436
 11
25.7554169708
 21
59.731878348
  0
LINE
  5
2B5
100
AcDbEntity
  8
0
100
AcDbLine
 62
7
  6
CONTINUOUS
 10
107.4253503425
 20
80.0854573578
 11
109.9012374971
 21
79.5144720184
  0
LINE
  5
2B6
100
AcDbEntity
  8
0
100
AcDbLine
 62
7
  6
CONTINUOUS
 10
61.1463579467
 20
88.1123139324
 11
61.3585590724
 21
88.0269940217
  0
LINE
  5
2B7
100
AcDbEntity
  8
0
100
AcDbLine
 62
7
  6
CONTINUOUS
 10
98.6902334155
 20
125.5479005805
 11
99.0280963247
 21
126.0285675869
  0
LINE
  5
2B8
100
AcDbEntity
  8
0
100
AcDbLine
 62
7
  6
CONTINUOUS
 10
45.6985561612
 20
69.9694085919
 11
50.9173650537
 21
73.140273701
  0
LINE
  5
2B9
100
AcDbEntity
  8
0
100
AcDbLine
 62
7
  6
CONTINUOUS
 10
106.7899806133
 20
106.0916567366
 11
109.0527128924
 21
107.398038029
  0
LINE
  5
2BA
100
AcDbEntity
  8
0
100
AcDbLine
 62
7
  6
CONTINUOUS
 10
36.0869965761
 20
63.1087777543
 11
33.008467003
 21
61.3313984861
  0
LINE
  5
2BB
100
AcDbEntity
  8
0
100
AcDbLine
 62
7
  6
CONTINUOUS
 10
30.7997072882
 20
59.4324295942
 11
31.8603902048
 21
60.0448115062
  0
LINE
  5
2BC
100
AcDbEntity
  8
0
100
AcDbLine
 62
7
  6
CONTINUOUS
 10
40.4708619293
 20
63.5818193582
 11
38.9677114932
 21
62.7139802296
  0
LINE
  5
2BD
100
AcDbEntity
  8
0
100
AcDbLine
 62
7
  6
CONTINUOUS
 10
73.27299495
 20
128.4612049217
 11
73.27299495
 21
138.0164512474
  0
LINE
  5
2BE
100
AcDbEntity
  8
0
100
AcDbLine
 62
7
  6
CONTINUOUS
 10
35.8816542938
 20
59.427183958
 11
37.7293737628
 21
60.493958923
  0
LINE
  5
2BF
100
AcDbEntity
  8
0
100
AcDbLine
 62
7
  6
CONTINUOUS
 10
35.8944233121
 20
59.0151598241
 11
38.9677114932
 21
60.7895129913
  0
LINE
  5
2C0
100
AcDbEntity
  8
0
100
AcDbLine
 62
7
  6
CONTINUOUS
 10
30.7997072882
 20
55.5948682337
 11
31.8603902048
 21
56.2072501457
  0
LINE
  5
2C1
100
AcDbEntity
  8
0
100
AcDbLine
 62
7
  6
CONTINUOUS
 10
41.6558077645
 20
61.4785346376
 11
41.3817133839
 21
61.3202871177
  0
LINE
  5
2C2
100
AcDbEntity
  8
0
100
AcDbLine
 62
7
  6
CONTINUOUS
 10
35.8944233121
 20
58.0465020011
 11
35.8816542938
 21
58.0391298489
  0
LINE
  5
2C3
100
AcDbEntity
  8
0
100
AcDbLine
 62
7
  6
CONTINUOUS
 10
80.1675211422
 20
53.1621531554
 11
80.1675211422
 21
102.47889915
  0
LINE
  5
2C4
100
AcDbEntity
  8
0
100
AcDbLine
 62
7
  6
CONTINUOUS
 10
80.5210730609
 20
53.6928761992
 11
80.5210730609
 21
102.3564202601
  0
LINE
  5
2C5
100
AcDbEntity
  8
0
100
AcDbLine
 62
7
  6
CONTINUOUS
 10
41.6558077645
 20
56.7613552231
 11
41.3817133839
 21
56.6031077032
  0
LINE
  5
2C6
100
AcDbEntity
  8
0
100
AcDbLine
 62
7
  6
CONTINUOUS
 10
106.0121663924
 20
79.5144836387
 11
106.9314013808
 21
78.983775077
  0
LINE
  5
2C7
100
AcDbEntity
  8
0
100
AcDbLine
 62
7
  6
CONTINUOUS
 10
106.0121663924
 20
80.004385089
 11
106.9314013808
 21
79.4736765272
  0
LINE
  5
2C8
100
AcDbEntity
  8
0
100
AcDbLine
 62
7
  6
CONTINUOUS
 10
106.0121663924
 20
80.6563965813
 11
107.2132191913
 21
79.9629841116
  0
LINE
  5
2C9
100
AcDbEntity
  8
0
100
AcDbLine
 62
7
  6
CONTINUOUS
 10
106.0121663924
 20
80.901341034
 11
107.4253503425
 21
80.0854573578
  0
LINE
  5
2CA
100
AcDbEntity
  8
0
100
AcDbLine
 62
7
  6
CONTINUOUS
 10
106.0121663924
 20
81.759777472
 11
109.9012374971
 21
79.5144720184
  0
LINE
  5
2CB
100
AcDbEntity
  8
0
100
AcDbLine
 62
7
  6
CONTINUOUS
 10
83.1019496641
 20
116.0938918509
 11
83.1019496641
 21
114.3535688372
  0
LINE
  5
2CC
100
AcDbEntity
  8
0
100
AcDbLine
 62
7
  6
CONTINUOUS
 10
83.9151714795
 20
46.0843747117
 11
83.9151714795
 21
55.3258471709
  0
LINE
  5
2CD
100
AcDbEntity
  8
0
100
AcDbLine
 62
7
  6
CONTINUOUS
 10
83.9151714795
 20
104.6425931655
 11
83.9151714795
 21
113.8840656247
  0
LINE
  5
2CE
100
AcDbEntity
  8
0
100
AcDbLine
 62
7
  6
CONTINUOUS
 10
84.3040785899
 20
109.5211912278
 11
84.3040785899
 21
104.5405264833
  0
LINE
  5
2CF
100
AcDbEntity
  8
0
100
AcDbLine
 62
7
  6
CONTINUOUS
 10
84.3040785899
 20
55.8769824224
 11
84.3040785899
 21
50.8963176779
  0
LINE
  5
2D0
100
AcDbEntity
  8
0
100
AcDbLine
 62
7
  6
CONTINUOUS
 10
86.566810869
 20
52.2026989703
 11
86.566810869
 21
68.0428458626
  0
LINE
  5
2D1
100
AcDbEntity
  8
0
100
AcDbLine
 62
7
  6
CONTINUOUS
 10
86.566810869
 20
94.9874256279
 11
86.566810869
 21
110.8275725202
  0
LINE
  5
2D2
100
AcDbEntity
  8
0
100
AcDbLine
 62
7
  6
CONTINUOUS
 10
80.5210730609
 20
102.3564202601
 11
80.2382242831
 21
102.5197193837
  0
LINE
  5
2D3
100
AcDbEntity
  8
0
100
AcDbLine
 62
7
  6
CONTINUOUS
 10
50.9173650537
 20
49.0121047648
 11
45.6985561612
 21
45.9990420314
  0
LINE
  5
2D4
100
AcDbEntity
  8
0
100
AcDbLine
 62
7
  6
CONTINUOUS
 10
107.4253503425
 20
80.0854573578
 11
107.2132191913
 21
79.9629841116
  0
LINE
  5
2D5
100
AcDbEntity
  8
0
100
AcDbLine
 62
7
  6
CONTINUOUS
 10
104.9515106366
 20
78.6571938632
 11
86.566810869
 21
68.0428458626
  0
LINE
  5
2D6
100
AcDbEntity
  8
0
100
AcDbLine
 62
7
  6
CONTINUOUS
 10
106.9314013808
 20
78.983775077
 11
106.0121663924
 21
78.4530576769
  0
LINE
  5
2D7
100
AcDbEntity
  8
0
100
AcDbLine
 62
7
  6
CONTINUOUS
 10
83.9151714795
 20
104.7650570287
 11
84.3040785899
 21
104.5405264833
  0
LINE
  5
2D8
100
AcDbEntity
  8
0
100
AcDbLine
 62
7
  6
CONTINUOUS
 10
109.9012374971
 20
108.8712931219
 11
109.0527128924
 21
107.398038029
  0
LINE
  5
2D9
100
AcDbEntity
  8
0
100
AcDbLine
 62
7
  6
CONTINUOUS
 10
58.5443006424
 20
44.5156154487
 11
58.5114556332
 21
44.4908491275
  0
LINE
  5
2DA
100
AcDbEntity
  8
0
100
AcDbLine
 62
7
  6
CONTINUOUS
 10
50.9173650537
 20
40.1122284181
 11
50.8791919873
 21
40.0844767559
  0
LINE
  5
2DB
100
AcDbEntity
  8
0
100
AcDbLine
 62
7
  6
CONTINUOUS
 10
86.566810869
 20
63.4726003719
 11
98.6582340828
 21
70.4535451486
  0
LINE
  5
2DC
100
AcDbEntity
  8
0
100
AcDbLine
 62
7
  6
CONTINUOUS
 10
78.8330630511
 20
111.6697834998
 11
47.1545473645
 21
129.9589693023
  0
LINE
  5
2DD
100
AcDbEntity
  8
0
100
AcDbLine
 62
7
  6
CONTINUOUS
 10
83.9151714795
 20
109.7457217731
 11
84.3040785899
 21
109.5211912278
  0
LINE
  5
2DE
100
AcDbEntity
  8
0
100
AcDbLine
 62
7
  6
CONTINUOUS
 10
50.2242296834
 20
131.4211279767
 11
81.9027453699
 21
113.1319421742
  0
LINE
  5
2DF
100
AcDbEntity
  8
0
100
AcDbLine
 62
7
  6
CONTINUOUS
 10
86.566810869
 20
110.8275725202
 11
83.9151714795
 21
112.3584626022
  0
LINE
  5
2E0
100
AcDbEntity
  8
0
100
AcDbLine
 62
7
  6
CONTINUOUS
 10
98.6582340828
 20
121.0721077736
 11
98.6582340828
 21
109.2351163438
  0
LINE
  5
2E1
100
AcDbEntity
  8
0
100
AcDbLine
 62
7
  6
CONTINUOUS
 10
98.6582340828
 20
70.4535451486
 11
98.6582340828
 21
75.0237906393
  0
LINE
  5
2E2
100
AcDbEntity
  8
0
100
AcDbLine
 62
7
  6
CONTINUOUS
 10
99.8956761018
 20
123.6259897402
 11
99.8956761018
 21
119.5434776546
  0
LINE
  5
2E3
100
AcDbEntity
  8
0
100
AcDbLine
 62
7
  6
CONTINUOUS
 10
50.9173650537
 20
40.1122284181
 11
58.5443159398
 21
44.5156242805
  0
LINE
  5
2E4
100
AcDbEntity
  8
0
100
AcDbLine
 62
7
  6
CONTINUOUS
 10
61.1464273324
 20
45.8546445424
 11
61.2878480998
 21
45.9362933732
  0
LINE
  5
2E5
100
AcDbEntity
  8
0
100
AcDbLine
 62
7
  6
CONTINUOUS
 10
80.5210730609
 20
53.6928761992
 11
84.3040785899
 21
55.8769824224
  0
LINE
  5
2E6
100
AcDbEntity
  8
0
100
AcDbLine
 62
7
  6
CONTINUOUS
 10
83.9151714795
 20
55.3258471709
 11
80.1675211422
 21
53.1621531554
  0
LINE
  5
2E7
100
AcDbEntity
  8
0
100
AcDbLine
 62
7
  6
CONTINUOUS
 10
60.9441664162
 20
45.3091756282
 11
60.9969999242
 21
45.3306601589
  0
LINE
  5
2E8
100
AcDbEntity
  8
0
100
AcDbLine
 62
7
  6
CONTINUOUS
 10
61.1464273324
 20
45.480795309
 11
60.9126810594
 21
45.392652633
  0
LINE
  5
2E9
100
AcDbEntity
  8
0
100
AcDbLine
 62
7
  6
CONTINUOUS
 10
58.5124893091
 20
44.4877450644
 11
60.9443152472
 21
45.3089130066
  0
LINE
  5
2EA
100
AcDbEntity
  8
0
100
AcDbLine
 62
7
  6
CONTINUOUS
 10
52.2366557929
 20
132.1732514272
 11
83.9151714795
 21
113.8840656247
  0
LINE
  5
2EB
100
AcDbEntity
  8
0
100
AcDbLine
 62
7
  6
CONTINUOUS
 10
57.7167105313
 20
130.7497349382
 11
83.1019496641
 21
116.0938918509
  0
LINE
  5
2EC
100
AcDbEntity
  8
0
100
AcDbLine
 62
7
  6
CONTINUOUS
 10
104.9515106366
 20
105.6017736285
 11
98.6582340828
 21
109.2351163438
  0
LINE
  5
2ED
100
AcDbEntity
  8
0
100
AcDbLine
 62
7
  6
CONTINUOUS
 10
103.077669865
 20
117.7063942593
 11
103.077669865
 21
121.7889063449
  0
LINE
  5
2EE
100
AcDbEntity
  8
0
100
AcDbLine
 62
7
  6
CONTINUOUS
 10
104.9515106366
 20
121.4551466247
 11
104.9515106366
 21
105.6017736285
  0
LINE
  5
2EF
100
AcDbEntity
  8
0
100
AcDbLine
 62
7
  6
CONTINUOUS
 10
104.9515106366
 20
78.6571938632
 11
104.9515106366
 21
64.5317020468
  0
LINE
  5
2F0
100
AcDbEntity
  8
0
100
AcDbLine
 62
7
  6
CONTINUOUS
 10
106.0121663924
 20
78.4530576769
 11
106.0121663924
 21
105.6425881673
  0
LINE
  5
2F1
100
AcDbEntity
  8
0
100
AcDbLine
 62
7
  6
CONTINUOUS
 10
106.9314013808
 20
79.4736765272
 11
107.2132191913
 21
79.9629841116
  0
LINE
  5
2F2
100
AcDbEntity
  8
0
100
AcDbLine
 62
7
  6
CONTINUOUS
 10
104.9515106366
 20
64.5317020468
 11
109.9012374971
 21
67.3894111239
  0
LINE
  5
2F3
100
AcDbEntity
  8
0
100
AcDbLine
 62
7
  6
CONTINUOUS
 10
84.3040785899
 20
50.8963176779
 11
86.566810869
 21
52.2026989703
  0
LINE
  5
2F4
100
AcDbEntity
  8
0
100
AcDbLine
 62
7
  6
CONTINUOUS
 10
105.8420248416
 20
106.6389468753
 11
106.7899806133
 21
106.0916567366
  0
LINE
  5
2F5
100
AcDbEntity
  8
0
100
AcDbLine
 62
7
  6
CONTINUOUS
 10
106.7899806133
 20
109.2760161634
 11
106.7899806133
 21
106.0916567366
  0
LINE
  5
2F6
100
AcDbEntity
  8
0
100
AcDbLine
 62
7
  6
CONTINUOUS
 10
106.9314013808
 20
79.4736765272
 11
106.9314013808
 21
78.983775077
  0
LINE
  5
2F7
100
AcDbEntity
  8
0
100
AcDbLine
 62
7
  6
CONTINUOUS
 10
109.9012374971
 20
67.3894111239
 11
109.9012374971
 21
79.5144720184
  0
LINE
  5
2F8
100
AcDbEntity
  8
0
100
AcDbLine
 62
7
  6
CONTINUOUS
 10
109.9012374971
 20
108.8712931219
 11
109.9012374971
 21
124.1072282255
  0
LINE
  5
2F9
100
AcDbEntity
  8
0
100
AcDbLine
 62
7
  6
CONTINUOUS
 10
83.9151714795
 20
46.0843747117
 11
81.90274537
 21
44.512762521
  0
LINE
  5
2FA
100
AcDbEntity
  8
0
100
AcDbLine
 62
7
  6
CONTINUOUS
 10
61.3585590724
 20
32.3415291734
 11
78.8330630508
 21
42.430378527
  0
LINE
  5
2FB
100
AcDbEntity
  8
0
100
AcDbLine
 62
7
  6
CONTINUOUS
 10
105.5171937064
 20
108.5411766864
 11
106.0121663924
 21
105.6425881673
  0
LINE
  5
2FC
100
AcDbEntity
  8
0
100
AcDbLine
 62
7
  6
CONTINUOUS
 10
109.8698377872
 20
124.2947271791
 11
109.9012374971
 21
124.1072282255
  0
ARC
  5
2FD
100
AcDbEntity
  8
0
100
AcDbCircle
 62
7
  6
CONTINUOUS
 10
252.6926642662
 20
-158.7054744242
 40
312.620109247
100
AcDbArc
 50
127.7858911321
 51
128.391829352
  0
ARC
  5
2FE
100
AcDbEntity
  8
0
100
AcDbCircle
 62
7
  6
CONTINUOUS
 10
99.9291691912
 20
189.2603409534
 40
145.1385426261
100
AcDbArc
 50
246.1852800701
 51
246.3279137685
  0
ARC
  5
2FF
100
AcDbEntity
  8
0
100
AcDbCircle
 62
7
  6
CONTINUOUS
 10
98.0795327523
 20
185.1134961292
 40
140.5979311903
100
AcDbArc
 50
243.749893401
 51
246.1925079553
  0
ARC
  5
300
100
AcDbEntity
  8
0
100
AcDbCircle
 62
7
  6
CONTINUOUS
 10
97.4722648922
 20
190.5232775442
 40
139.156171878
100
AcDbArc
 50
243.7359326377
 51
246.3526251964
  0
ARC
  5
301
100
AcDbEntity
  8
0
100
AcDbCircle
 62
7
  6
CONTINUOUS
 10
94.8698175979
 20
177.5115975523
 40
133.2414122903
100
AcDbArc
 50
243.1180533093
 51
243.7226706306
  0
ARC
  5
302
100
AcDbEntity
  8
0
100
AcDbCircle
 62
7
  6
CONTINUOUS
 10
93.4872478242
 20
190.1306134692
 40
130.1714536385
100
AcDbArc
 50
241.298934681
 51
243.5109064478
  0
ARC
  5
303
100
AcDbEntity
  8
0
100
AcDbCircle
 62
7
  6
CONTINUOUS
 10
93.0573454059
 20
189.563719623
 40
129.2369631627
100
AcDbArc
 50
241.342342346
 51
243.7485788668
  0
ARC
  5
304
100
AcDbEntity
  8
0
100
AcDbCircle
 62
7
  6
CONTINUOUS
 10
92.818534008
 20
181.094441352
 40
128.7281050244
100
AcDbArc
 50
241.286532379
 51
243.5233087498
  0
ARC
  5
305
100
AcDbEntity
  8
0
100
AcDbCircle
 62
7
  6
CONTINUOUS
 10
92.5090987742
 20
172.9162280022
 40
128.0752134667
100
AcDbArc
 50
241.2680317321
 51
243.130492768
  0
ARC
  5
306
100
AcDbEntity
  8
0
100
AcDbCircle
 62
7
  6
CONTINUOUS
 10
92.0825689472
 20
178.8578849442
 40
127.1797820393
100
AcDbArc
 50
241.105537114
 51
242.3225936059
  0
ARC
  5
307
100
AcDbEntity
  8
0
100
AcDbCircle
 62
7
  6
CONTINUOUS
 10
91.4162569669
 20
172.7200443959
 40
125.7732100492
100
AcDbArc
 50
240.8168772301
 51
242.3292649321
  0
ARC
  5
308
100
AcDbEntity
  8
0
100
AcDbCircle
 62
7
  6
CONTINUOUS
 10
90.5222479899
 20
171.7197735342
 40
123.9293417231
100
AcDbArc
 50
240.8141946121
 51
241.1001060569
  0
ARC
  5
309
100
AcDbEntity
  8
0
100
AcDbCircle
 62
7
  6
CONTINUOUS
 10
89.6030829047
 20
167.6300177738
 40
122.0428746785
100
AcDbArc
 50
239.9162331746
 51
241.201674937
  0
ARC
  5
30A
100
AcDbEntity
  8
0
100
AcDbCircle
 62
7
  6
CONTINUOUS
 10
102.7739647221
 20
200.3147588352
 40
118.9999395717
100
AcDbArc
 50
244.9807099685
 51
249.1941851443
  0
ARC
  5
30B
100
AcDbEntity
  8
0
100
AcDbCircle
 62
7
  6
CONTINUOUS
 10
86.8069017661
 20
165.2984937641
 40
116.5102892624
100
AcDbArc
 50
238.76557352
 51
239.0635104149
  0
ARC
  5
30C
100
AcDbEntity
  8
0
100
AcDbCircle
 62
7
  6
CONTINUOUS
 10
86.3902620881
 20
162.1441476995
 40
115.6855144731
100
AcDbArc
 50
237.7902825806
 51
239.9311680644
  0
ARC
  5
30D
100
AcDbEntity
  8
0
100
AcDbCircle
 62
7
  6
CONTINUOUS
 10
85.5538953433
 20
167.5263508968
 40
114.1001881152
100
AcDbArc
 50
237.4591146825
 51
238.7674941835
  0
ARC
  5
30E
100
AcDbEntity
  8
0
100
AcDbCircle
 62
7
  6
CONTINUOUS
 10
85.3877248195
 20
162.3550368488
 40
113.7812543066
100
AcDbArc
 50
237.4558983247
 51
239.0730287811
  0
ARC
  5
30F
100
AcDbEntity
  8
0
100
AcDbCircle
 62
7
  6
CONTINUOUS
 10
84.5259608132
 20
174.4952439807
 40
112.1458522486
100
AcDbArc
 50
236.2249817829
 51
238.6676522647
  0
ARC
  5
310
100
AcDbEntity
  8
0
100
AcDbCircle
 62
7
  6
CONTINUOUS
 10
83.787020482
 20
165.5809617435
 40
110.7729017264
100
AcDbArc
 50
236.2098418742
 51
238.6827921734
  0
ARC
  5
311
100
AcDbEntity
  8
0
100
AcDbCircle
 62
7
  6
CONTINUOUS
 10
82.907696318
 20
158.0326325335
 40
109.1759196807
100
AcDbArc
 50
235.9574274435
 51
237.3228674833
  0
ARC
  5
312
100
AcDbEntity
  8
0
100
AcDbCircle
 62
7
  6
CONTINUOUS
 10
82.8515415583
 20
156.5517630097
 40
109.0675750097
100
AcDbArc
 50
235.9545760808
 51
237.7972534117
  0
ARC
  5
313
100
AcDbEntity
  8
0
100
AcDbCircle
 62
7
  6
CONTINUOUS
 10
81.7132237634
 20
170.4764258877
 40
107.0228884457
100
AcDbArc
 50
235.9295822466
 51
236.2739839394
  0
ARC
  5
314
100
AcDbEntity
  8
0
100
AcDbCircle
 62
7
  6
CONTINUOUS
 10
79.0110446607
 20
151.8893338194
 40
102.2402014032
100
AcDbArc
 50
232.7572334946
 51
235.8373116544
  0
ARC
  5
315
100
AcDbEntity
  8
0
100
AcDbCircle
 62
7
  6
CONTINUOUS
 10
78.3612299897
 20
157.7021768474
 40
101.1265605508
100
AcDbArc
 50
232.9115394543
 51
235.9629564863
  0
ARC
  5
316
100
AcDbEntity
  8
0
100
AcDbCircle
 62
7
  6
CONTINUOUS
 10
75.9599803828
 20
154.4937832633
 40
97.1191423967
100
AcDbArc
 50
232.708116477
 51
232.9001395215
  0
ARC
  5
317
100
AcDbEntity
  8
0
100
AcDbCircle
 62
7
  6
CONTINUOUS
 10
89.752036525
 20
177.1663360499
 40
92.3756782781
100
AcDbArc
 50
229.791624728
 51
234.780819699
  0
ARC
  5
318
100
AcDbEntity
  8
0
100
AcDbCircle
 62
7
  6
CONTINUOUS
 10
103.6605154025
 20
129.4845803712
 40
1.3403688989
100
AcDbArc
 50
234.0343794803
 51
237.8288536149
  0
ARC
  5
319
100
AcDbEntity
  8
0
100
AcDbCircle
 62
7
  6
CONTINUOUS
 10
60.8444605143
 20
45.6248674612
 40
0.3314003544
100
AcDbArc
 50
297.4056518497
 51
309.3432208605
  0
SPLINE
  5
31A
100
AcDbEntity
  8
0
100
AcDbSpline
 62
7
  6
CONTINUOUS
 70
0
 71
3
 72
11
 73
7
 74
0
 42
0.0000001
 43
0.0000001
 44
0.0000000001
 40
0.0
 40
0.0
 40
0.0
 40
0.0
 40
0.2122366962
 40
0.4443956014
 40
0.7056507452
 40
1.0
 40
1.0
 40
1.0
 40
1.0
 10
103.943370989
 20
128.9450843088
 30
0.0
 10
103.9838744431
 20
128.9684658025
 30
0.0
 10
104.0768466647
 20
129.0041034238
 30
0.0
 10
104.2330928632
 20
129.0188356081
 30
0.0
 10
104.4064275284
 20
128.9976249805
 30
0.0
 10
104.5242266387
 20
128.9623836035
 30
0.0
 10
104.5850607036
 20
128.9398831227
 30
0.0
  0
SPLINE
  5
31B
100
AcDbEntity
  8
0
100
AcDbSpline
 62
7
  6
CONTINUOUS
 70
0
 71
3
 72
9
 73
5
 74
0
 42
0.0000001
 43
0.0000001
 44
0.0000000001
 40
0.0
 40
0.0
 40
0.0
 40
0.0
 40
0.2555085485
 40
1.0
 40
1.0
 40
1.0
 40
1.0
 10
83.7683596469
 20
139.1947278393
 30
0.0
 10
83.3044353935
 20
139.3634349597
 30
0.0
 10
81.4801623926
 20
139.999716592
 30
0.0
 10
79.6212020736
 20
140.5377579307
 30
0.0
 10
78.2227218105
 20
140.8741603245
 30
0.0
  0
SPLINE
  5
31C
100
AcDbEntity
  8
0
100
AcDbSpline
 62
7
  6
CONTINUOUS
 70
0
 71
3
 72
17
 73
13
 74
0
 42
0.0000001
 43
0.0000001
 44
0.0000000001
 40
0.0
 40
0.0
 40
0.0
 40
0.0
 40
0.1286930371
 40
0.2702795962
 40
0.4174375935
 40
0.5617786795
 40
0.6954478243
 40
0.81271112
 40
0.8646738576
 40
0.9125098523
 40
0.9571380034
 40
1.0
 40
1.0
 40
1.0
 40
1.0
 10
103.077669865
 20
121.7889063449
 30
0.0
 10
103.077669865
 20
121.9812313619
 30
0.0
 10
103.0238723834
 20
122.3856125996
 30
0.0
 10
102.8230383802
 20
122.9793537625
 30
0.0
 10
102.5136039731
 20
123.5513147664
 30
0.0
 10
102.1204042165
 20
124.0545904584
 30
0.0
 10
101.675594949
 20
124.4485276732
 30
0.0
 10
101.2729903959
 20
124.6686926472
 30
0.0
 10
100.9580438177
 20
124.7524527127
 30
0.0
 10
100.7412837653
 20
124.7684388449
 30
0.0
 10
100.539450631
 20
124.7388064936
 30
0.0
 10
100.4171521924
 20
124.6880341005
 30
0.0
 10
100.3616832135
 20
124.6559991645
 30
0.0
  0
SPLINE
  5
31D
100
AcDbEntity
  8
0
100
AcDbSpline
 62
7
  6
CONTINUOUS
 70
0
 71
3
 72
11
 73
7
 74
0
 42
0.0000001
 43
0.0000001
 44
0.0000000001
 40
0.0
 40
0.0
 40
0.0
 40
0.0
 40
0.2177839466
 40
0.4509170841
 40
0.710307871
 40
1.0
 40
1.0
 40
1.0
 40
1.0
 10
102.6116627533
 20
116.676384835
 30
0.0
 10
102.6858770442
 20
116.7192457295
 30
0.0
 10
102.8247509115
 20
116.8359726621
 30
0.0
 10
102.972585597
 20
117.077701242
 30
0.0
 10
103.0603859477
 20
117.3755871892
 30
0.0
 10
103.077669865
 20
117.5923951838
 30
0.0
 10
103.077669865
 20
117.7063942593
 30
0.0
  0
SPLINE
  5
31E
100
AcDbEntity
  8
0
100
AcDbSpline
 62
7
  6
CONTINUOUS
 70
0
 71
3
 72
11
 73
7
 74
0
 42
0.0000001
 43
0.0000001
 44
0.0000000001
 40
0.0
 40
0.0
 40
0.0
 40
0.0
 40
0.2305283383
 40
0.47460036
 40
0.7314347224
 40
1.0
 40
1.0
 40
1.0
 40
1.0
 10
83.7683872594
 20
139.1947085708
 30
0.0
 10
85.3402414944
 20
138.5732085875
 30
0.0
 10
88.5264054152
 20
137.1649790556
 30
0.0
 10
93.2753589009
 20
134.6657349253
 30
0.0
 10
98.1003674955
 20
131.7356260572
 30
0.0
 10
101.2782942972
 20
129.5544866705
 30
0.0
 10
102.8733171396
 20
128.3997266113
 30
0.0
  0
SPLINE
  5
31F
100
AcDbEntity
  8
0
100
AcDbSpline
 62
7
  6
CONTINUOUS
 70
0
 71
3
 72
11
 73
7
 74
0
 42
0.0000001
 43
0.0000001
 44
0.0000000001
 40
0.0
 40
0.0
 40
0.0
 40
0.0
 40
0.2763529645
 40
0.5375012234
 40
0.7796581264
 40
1.0
 40
1.0
 40
1.0
 40
1.0
 10
108.7552046865
 20
126.1849628696
 30
0.0
 10
108.4171756894
 20
126.5015195138
 30
0.0
 10
107.7368021939
 20
127.093439589
 30
0.0
 10
106.6818631175
 20
127.8671358874
 30
0.0
 10
105.639139884
 20
128.489969702
 30
0.0
 10
104.9313831112
 20
128.8118021731
 30
0.0
 10
104.5850607036
 20
128.9398831227
 30
0.0
  0
SPLINE
  5
320
100
AcDbEntity
  8
0
100
AcDbSpline
 62
7
  6
CONTINUOUS
 70
0
 71
3
 72
11
 73
7
 74
0
 42
0.0000001
 43
0.0000001
 44
0.0000000001
 40
0.0
 40
0.0
 40
0.0
 40
0.0
 40
0.2649719571
 40
0.5313405865
 40
0.7812767546
 40
1.0
 40
1.0
 40
1.0
 40
1.0
 10
108.7552046865
 20
126.1849628696
 30
0.0
 10
108.8987299293
 20
126.0505457452
 30
0.0
 10
109.1659707146
 20
125.7584432146
 30
0.0
 10
109.4966685737
 20
125.280016372
 30
0.0
 10
109.7412378083
 20
124.7904685691
 30
0.0
 10
109.8430282947
 20
124.4548162947
 30
0.0
 10
109.8698377872
 20
124.2947271791
 30
0.0
  0
SPLINE
  5
321
100
AcDbEntity
  8
0
100
AcDbSpline
 62
7
  6
CONTINUOUS
 70
0
 71
3
 72
9
 73
5
 74
0
 42
0.0000001
 43
0.0000001
 44
0.0000000001
 40
0.0
 40
0.0
 40
0.0
 40
0.0
 40
0.2403178264
 40
1.0
 40
1.0
 40
1.0
 40
1.0
 10
104.9515106366
 20
64.5317020468
 30
0.0
 10
104.1048439158
 20
64.7353664954
 30
0.0
 10
100.6054190269
 20
65.6804525536
 30
0.0
 10
97.2102984307
 20
66.9959546057
 30
0.0
 10
94.7117755524
 20
68.1514817415
 30
0.0
  0
SPLINE
  5
322
100
AcDbEntity
  8
0
100
AcDbSpline
 62
7
  6
CONTINUOUS
 70
0
 71
3
 72
11
 73
7
 74
0
 42
0.0000001
 43
0.0000001
 44
0.0000000001
 40
0.0
 40
0.0
 40
0.0
 40
0.0
 40
0.2977290164
 40
0.5606042554
 40
0.7905090503
 40
1.0
 40
1.0
 40
1.0
 40
1.0
 10
97.9671719408
 20
125.5671649998
 30
0.0
 10
98.0190766354
 20
125.5276988656
 30
0.0
 10
98.1233120785
 20
125.4611888472
 30
0.0
 10
98.2874498264
 20
125.4009500929
 30
0.0
 10
98.4435656701
 20
125.3904280442
 30
0.0
 10
98.5381309344
 20
125.4207178383
 30
0.0
 10
98.5778462505
 20
125.4436889967
 30
0.0
  0
SPLINE
  5
323
100
AcDbEntity
  8
0
100
AcDbSpline
 62
7
  6
CONTINUOUS
 70
0
 71
3
 72
11
 73
7
 74
0
 42
0.0000001
 43
0.0000001
 44
0.0000000001
 40
0.0
 40
0.0
 40
0.0
 40
0.0
 40
0.229471736
 40
0.4680606302
 40
0.7235581218
 40
1.0
 40
1.0
 40
1.0
 40
1.0
 10
99.2528616142
 20
126.2370060632
 30
0.0
 10
99.3012458811
 20
126.2649876858
 30
0.0
 10
99.4077124282
 20
126.3095425925
 30
0.0
 10
99.5834032658
 20
126.336494915
 30
0.0
 10
99.7719164983
 20
126.3242660224
 30
0.0
 10
99.8982170916
 20
126.2923386952
 30
0.0
 10
99.9620673662
 20
126.2709626999
 30
0.0
  0
SPLINE
  5
324
100
AcDbEntity
  8
0
100
AcDbSpline
 62
7
  6
CONTINUOUS
 70
0
 71
3
 72
11
 73
7
 74
0
 42
0.0000001
 43
0.0000001
 44
0.0000000001
 40
0.0
 40
0.0
 40
0.0
 40
0.0
 40
0.2244270372
 40
0.4670228141
 40
0.72637532
 40
1.0
 40
1.0
 40
1.0
 40
1.0
 10
99.9620673662
 20
126.2709626999
 30
0.0
 10
100.3173892181
 20
126.152020908
 30
0.0
 10
101.0368951587
 20
125.8428277099
 30
0.0
 10
102.0790185995
 20
125.2168957178
 30
0.0
 10
103.1060451492
 20
124.4240544859
 30
0.0
 10
103.7516878362
 20
123.8092655906
 30
0.0
 10
104.06762348
 20
123.4792835657
 30
0.0
  0
SPLINE
  5
325
100
AcDbEntity
  8
0
100
AcDbSpline
 62
7
  6
CONTINUOUS
 70
0
 71
3
 72
11
 73
7
 74
0
 42
0.0000001
 43
0.0000001
 44
0.0000000001
 40
0.0
 40
0.0
 40
0.0
 40
0.0
 40
0.2566541561
 40
0.5186193756
 40
0.7708246952
 40
1.0
 40
1.0
 40
1.0
 40
1.0
 10
104.06762348
 20
123.4792835657
 30
0.0
 10
104.201003515
 20
123.3399619479
 30
0.0
 10
104.4437345908
 20
123.0319287355
 30
0.0
 10
104.7220605462
 20
122.5209044338
 30
0.0
 10
104.9029890001
 20
121.9895353614
 30
0.0
 10
104.9515106366
 20
121.6273712887
 30
0.0
 10
104.9515106366
 20
121.4551466247
 30
0.0
  0
SPLINE
  5
326
100
AcDbEntity
  8
0
100
AcDbSpline
 62
7
  6
CONTINUOUS
 70
0
 71
3
 72
17
 73
13
 74
0
 42
0.0000001
 43
0.0000001
 44
0.0000000001
 40
0.0
 40
0.0
 40
0.0
 40
0.0
 40
0.1286930371
 40
0.2702795962
 40
0.4174375935
 40
0.5617786795
 40
0.6954478243
 40
0.81271112
 40
0.8646738576
 40
0.9125098523
 40
0.9571380034
 40
1.0
 40
1.0
 40
1.0
 40
1.0
 10
99.8956761018
 20
119.5434776546
 30
0.0
 10
99.8956761018
 20
119.3511526376
 30
0.0
 10
99.9494735833
 20
118.9467713999
 30
0.0
 10
100.1503075865
 20
118.353030237
 30
0.0
 10
100.4597419937
 20
117.7810692331
 30
0.0
 10
100.8529417503
 20
117.2777935411
 30
0.0
 10
101.2977510178
 20
116.8838563263
 30
0.0
 10
101.7003555709
 20
116.6636913522
 30
0.0
 10
102.0153021491
 20
116.5799312868
 30
0.0
 10
102.2320622014
 20
116.5639451546
 30
0.0
 10
102.4338953357
 20
116.5935775059
 30
0.0
 10
102.5561937743
 20
116.644349899
 30
0.0
 10
102.6116627533
 20
116.676384835
 30
0.0
  0
SPLINE
  5
327
100
AcDbEntity
  8
0
100
AcDbSpline
 62
7
  6
CONTINUOUS
 70
0
 71
3
 72
12
 73
8
 74
0
 42
0.0000001
 43
0.0000001
 44
0.0000000001
 40
0.0
 40
0.0
 40
0.0
 40
0.0
 40
0.2762913135
 40
0.5360985008
 40
0.6592417864
 40
0.7776385811
 40
1.0
 40
1.0
 40
1.0
 40
1.0
 10
98.6582340828
 20
121.0721077736
 30
0.0
 10
97.1540445731
 20
122.4674883935
 30
0.0
 10
94.1019298555
 20
125.0361550718
 30
0.0
 10
90.0214860846
 20
127.7631334565
 30
0.0
 10
86.7381920053
 20
129.5245665218
 30
0.0
 10
83.5966266785
 20
130.9414661412
 30
0.0
 10
81.1765636548
 20
131.7290530873
 30
0.0
 10
79.5662715038
 20
132.0946081457
 30
0.0
  0
SPLINE
  5
328
100
AcDbEntity
  8
0
100
AcDbSpline
 62
7
  6
CONTINUOUS
 70
0
 71
3
 72
11
 73
7
 74
0
 42
0.0000001
 43
0.0000001
 44
0.0000000001
 40
0.0
 40
0.0
 40
0.0
 40
0.0
 40
0.2177839466
 40
0.4509170841
 40
0.710307871
 40
1.0
 40
1.0
 40
1.0
 40
1.0
 10
100.3616832135
 20
124.6559991645
 30
0.0
 10
100.2874689226
 20
124.61313827
 30
0.0
 10
100.1485950553
 20
124.4964113374
 30
0.0
 10
100.0007603697
 20
124.2546827575
 30
0.0
 10
99.912960019
 20
123.9567968103
 30
0.0
 10
99.8956761018
 20
123.7399888157
 30
0.0
 10
99.8956761018
 20
123.6259897402
 30
0.0
  0
SPLINE
  5
329
100
AcDbEntity
  8
0
100
AcDbSpline
 62
7
  6
CONTINUOUS
 70
0
 71
3
 72
11
 73
7
 74
0
 42
0.0000001
 43
0.0000001
 44
0.0000000001
 40
0.0
 40
0.0
 40
0.0
 40
0.0
 40
0.2282408666
 40
0.4711570458
 40
0.7286522588
 40
1.0
 40
1.0
 40
1.0
 40
1.0
 10
73.27299495
 20
138.0164512474
 30
0.0
 10
75.3320840487
 20
137.5211403588
 30
0.0
 10
79.5170340831
 20
136.2120447719
 30
0.0
 10
85.7077103496
 20
133.4638891122
 30
0.0
 10
91.9347646365
 20
129.9058449202
 30
0.0
 10
95.9629189142
 20
127.0910849185
 30
0.0
 10
97.9671719408
 20
125.5671649998
 30
0.0
  0
SPLINE
  5
32A
100
AcDbEntity
  8
0
100
AcDbSpline
 62
7
  6
CONTINUOUS
 70
0
 71
3
 72
19
 73
15
 74
0
 42
0.0000001
 43
0.0000001
 44
0.0000000001
 40
0.0
 40
0.0
 40
0.0
 40
0.0
 40
0.0376513982
 40
0.0769944978
 40
0.120116966
 40
0.1683360247
 40
0.222216267
 40
0.2817539857
 40
0.3465311118
 40
0.415818205
 40
0.5639014381
 40
0.7170614274
 40
0.8654193394
 40
1.0
 40
1.0
 40
1.0
 40
1.0
 10
32.280038149
 20
113.104576445
 30
0.0
 10
32.3469960889
 20
113.1432188212
 30
0.0
 10
32.4969064798
 20
113.2017687172
 30
0.0
 10
32.7458506554
 20
113.2203508269
 30
0.0
 10
33.0122682416
 20
113.172907464
 30
0.0
 10
33.2909649768
 20
113.0626193299
 30
0.0
 10
33.5774449375
 20
112.8928945529
 30
0.0
 10
33.8665509176
 20
112.667317804
 30
0.0
 10
34.15260954
 20
112.3903468304
 30
0.0
 10
34.5303378217
 20
111.9502347309
 30
0.0
 10
34.9516136726
 20
111.3127113243
 30
0.0
 10
35.3451606863
 20
110.4740986164
 30
0.0
 10
35.6024640898
 20
109.6130521108
 30
0.0
 10
35.67236557
 20
109.031669316
 30
0.0
 10
35.67236557
 20
108.7553389547
 30
0.0
  0
SPLINE
  5
32B
100
AcDbEntity
  8
0
100
AcDbSpline
 62
7
  6
CONTINUOUS
 70
0
 71
3
 72
9
 73
5
 74
0
 42
0.0000001
 43
0.0000001
 44
0.0000000001
 40
0.0
 40
0.0
 40
0.0
 40
0.0
 40
0.2573910265
 40
1.0
 40
1.0
 40
1.0
 40
1.0
 10
81.90274537
 20
44.512762521
 30
0.0
 10
81.6518080983
 20
44.3167920585
 30
0.0
 10
80.6648203684
 20
43.5711065384
 30
0.0
 10
79.6286015947
 20
42.8896801778
 30
0.0
 10
78.8330630505
 20
42.4303785268
 30
0.0
  0
SPLINE
  5
32C
100
AcDbEntity
  8
0
100
AcDbSpline
 62
7
  6
CONTINUOUS
 70
0
 71
3
 72
18
 73
14
 74
0
 42
0.0000001
 43
0.0000001
 44
0.0000000001
 40
0.0
 40
0.0
 40
0.0
 40
0.0
 40
0.0407524137
 40
0.0833176321
 40
0.1293810425
 40
0.1800176321
 40
0.2356789066
 40
0.2963246857
 40
0.4304513261
 40
0.5763633338
 40
0.7256282342
 40
0.8693939525
 40
1.0
 40
1.0
 40
1.0
 40
1.0
 10
38.9507454901
 20
108.3827591153
 30
0.0
 10
39.0247692305
 20
108.4254789795
 30
0.0
 10
39.1890156955
 20
108.4921948528
 30
0.0
 10
39.4610649038
 20
108.524935405
 30
0.0
 10
39.7535311979
 20
108.4927877612
 30
0.0
 10
40.0602823285
 20
108.3979172726
 30
0.0
 10
40.3757680986
 20
108.2433994694
 30
0.0
 10
40.8145164734
 20
107.952582005
 30
0.0
 10
41.3389723034
 20
107.459724347
 30
0.0
 10
41.8812130769
 20
106.7363944649
 30
0.0
 10
42.3113490929
 20
105.917790904
 30
0.0
 10
42.5918143185
 20
105.0706360902
 30
0.0
 10
42.6672704339
 20
104.4946061434
 30
0.0
 10
42.6672704339
 20
104.2206978228
 30
0.0
  0
SPLINE
  5
32D
100
AcDbEntity
  8
0
100
AcDbSpline
 62
7
  6
CONTINUOUS
 70
0
 71
3
 72
9
 73
5
 74
0
 42
0.0000001
 43
0.0000001
 44
0.0000000001
 40
0.0
 40
0.0
 40
0.0
 40
0.0
 40
0.2412721744
 40
1.0
 40
1.0
 40
1.0
 40
1.0
 10
50.2242296834
 20
131.4211279767
 30
0.0
 10
49.9679140255
 20
131.3253326498
 30
0.0
 10
48.91477659
 20
130.9037908076
 30
0.0
 10
47.8997543346
 20
130.3892121789
 30
0.0
 10
47.1545473645
 20
129.9589693023
 30
0.0
  0
SPLINE
  5
32E
100
AcDbEntity
  8
0
100
AcDbSpline
 62
7
  6
CONTINUOUS
 70
0
 71
3
 72
17
 73
13
 74
0
 42
0.0000001
 43
0.0000001
 44
0.0000000001
 40
0.0
 40
0.0
 40
0.0
 40
0.0
 40
0.0435887925
 40
0.0891257059
 40
0.1379401438
 40
0.1908613316
 40
0.3096265105
 40
0.4438544755
 40
0.5876443092
 40
0.7333012246
 40
0.872932801
 40
1.0
 40
1.0
 40
1.0
 40
1.0
 10
46.2423910633
 20
104.0194395976
 30
0.0
 10
46.3234133503
 20
104.0661994765
 30
0.0
 10
46.5019517121
 20
104.1410202538
 30
0.0
 10
46.7967354484
 20
104.1875098338
 30
0.0
 10
47.1143796886
 20
104.1704808969
 30
0.0
 10
47.5767682518
 20
104.0606028313
 30
0.0
 10
48.1712108189
 20
103.762532014
 30
0.0
 10
48.8345464291
 20
103.2206885697
 30
0.0
 10
49.4251818149
 20
102.5230565216
 30
0.0
 10
49.8931267006
 20
101.7244013985
 30
0.0
 10
50.1985139766
 20
100.8886696108
 30
0.0
 10
50.2800500514
 20
100.3154876902
 30
0.0
 10
50.2800500514
 20
100.0427847167
 30
0.0
  0
SPLINE
  5
32F
100
AcDbEntity
  8
0
100
AcDbSpline
 62
7
  6
CONTINUOUS
 70
0
 71
3
 72
9
 73
5
 74
0
 42
0.0000001
 43
0.0000001
 44
0.0000000001
 40
0.0
 40
0.0
 40
0.0
 40
0.0
 40
0.4645809615
 40
1.0
 40
1.0
 40
1.0
 40
1.0
 10
19.6179951718
 20
57.9671143437
 30
0.0
 10
19.5659996476
 20
58.008403088
 30
0.0
 10
19.4724922423
 20
58.1198765992
 30
0.0
 10
19.4074300453
 20
58.2482292368
 30
0.0
 10
19.3802713122
 20
58.3197660697
 30
0.0
  0
SPLINE
  5
330
100
AcDbEntity
  8
0
100
AcDbSpline
 62
7
  6
CONTINUOUS
 70
0
 71
3
 72
9
 73
5
 74
0
 42
0.0000001
 43
0.0000001
 44
0.0000000001
 40
0.0
 40
0.0
 40
0.0
 40
0.0
 40
0.2370245097
 40
1.0
 40
1.0
 40
1.0
 40
1.0
 10
48.3572176465
 20
46.3500388438
 30
0.0
 10
48.3572176465
 20
46.4344354656
 30
0.0
 10
48.3403495383
 20
46.7904617555
 30
0.0
 10
48.2613847709
 20
47.1421931783
 30
0.0
 10
48.1761069792
 20
47.4001321798
 30
0.0
  0
SPLINE
  5
331
100
AcDbEntity
  8
0
100
AcDbSpline
 62
7
  6
CONTINUOUS
 70
0
 71
3
 72
9
 73
5
 74
0
 42
0.0000001
 43
0.0000001
 44
0.0000000001
 40
0.0
 40
0.0
 40
0.0
 40
0.0
 40
0.2427402115
 40
1.0
 40
1.0
 40
1.0
 40
1.0
 10
61.054556553
 20
45.3685749537
 30
0.0
 10
61.0636672584
 20
45.3760357352
 30
0.0
 10
61.0996050628
 20
45.4087098637
 30
0.0
 10
61.1286340657
 20
45.4486560513
 30
0.0
 10
61.1464273324
 20
45.480795309
 30
0.0
  0
SPLINE
  5
332
100
AcDbEntity
  8
0
100
AcDbSpline
 62
7
  6
CONTINUOUS
 70
0
 71
3
 72
9
 73
5
 74
0
 42
0.0000001
 43
0.0000001
 44
0.0000000001
 40
0.0
 40
0.0
 40
0.0
 40
0.0
 40
0.5184797529
 40
1.0
 40
1.0
 40
1.0
 40
1.0
 10
60.9969999142
 20
88.6827058872
 30
0.0
 10
60.9310571762
 20
88.7704581427
 30
0.0
 10
60.7840318496
 20
88.9256581725
 30
0.0
 10
60.6002532905
 20
89.0386203354
 30
0.0
 10
60.5049641262
 20
89.0748461159
 30
0.0
  0
SPLINE
  5
333
100
AcDbEntity
  8
0
100
AcDbSpline
 62
7
  6
CONTINUOUS
 70
0
 71
3
 72
17
 73
13
 74
0
 42
0.0000001
 43
0.0000001
 44
0.0000000001
 40
0.0
 40
0.0
 40
0.0
 40
0.0
 40
0.0462106222
 40
0.0944934547
 40
0.1458597247
 40
0.2009011447
 40
0.3221325944
 40
0.4563174447
 40
0.5980068907
 40
0.7402851236
 40
0.8761391801
 40
1.0
 40
1.0
 40
1.0
 40
1.0
 10
54.1521871877
 20
100.0130092245
 30
0.0
 10
54.2402926212
 20
100.0638592005
 30
0.0
 10
54.4333220808
 20
100.1468781835
 30
0.0
 10
54.7509100991
 20
100.2070567145
 30
0.0
 10
55.0933233607
 20
100.2051755335
 30
0.0
 10
55.5887887074
 20
100.1182566652
 30
0.0
 10
56.2273502416
 20
99.8520609441
 30
0.0
 10
56.9449132208
 20
99.3431857585
 30
0.0
 10
57.5847551217
 20
98.6739384478
 30
0.0
 10
58.0931687436
 20
97.8954770515
 30
0.0
 10
58.4261944586
 20
97.0693267452
 30
0.0
 10
58.5146492664
 20
96.4965402851
 30
0.0
 10
58.5146492664
 20
96.2238771797
 30
0.0
  0
SPLINE
  5
334
100
AcDbEntity
  8
0
100
AcDbSpline
 62
7
  6
CONTINUOUS
 70
0
 71
3
 72
11
 73
7
 74
0
 42
0.0000001
 43
0.0000001
 44
0.0000000001
 40
0.0
 40
0.0
 40
0.0
 40
0.0
 40
0.3062815442
 40
0.5685105906
 40
0.7942679657
 40
1.0
 40
1.0
 40
1.0
 40
1.0
 10
30.1171214703
 20
106.6188727003
 30
0.0
 10
30.0866524731
 20
106.6446780782
 30
0.0
 10
30.0262460693
 20
106.6884414596
 30
0.0
 10
29.9305599127
 20
106.7306159179
 30
0.0
 10
29.8393390621
 20
106.742491232
 30
0.0
 10
29.7831105122
 20
106.7289353045
 30
0.0
 10
29.7587610018
 20
106.7176912915
 30
0.0
  0
SPLINE
  5
335
100
AcDbEntity
  8
0
100
AcDbSpline
 62
7
  6
CONTINUOUS
 70
0
 71
3
 72
17
 73
13
 74
0
 42
0.0000001
 43
0.0000001
 44
0.0000000001
 40
0.0
 40
0.0
 40
0.0
 40
0.0
 40
0.1214807284
 40
0.2541697613
 40
0.3934416332
 40
0.5335521219
 40
0.66855932
 40
0.7325094099
 40
0.793309365
 40
0.8505612907
 40
0.9040789255
 40
1.0
 40
1.0
 40
1.0
 40
1.0
 10
40.1176480478
 20
81.7647188776
 30
0.0
 10
40.1176480478
 20
82.0065042312
 30
0.0
 10
40.054883197
 20
82.5130738577
 30
0.0
 10
39.8139700078
 20
83.2618387069
 30
0.0
 10
39.438363615
 20
83.9948377038
 30
0.0
 10
38.9534429846
 20
84.6657140314
 30
0.0
 10
38.4761935377
 20
85.147608181
 30
0.0
 10
38.0665227926
 20
85.4640576835
 30
0.0
 10
37.7595178227
 20
85.6574000734
 30
0.0
 10
37.4519757483
 20
85.8079248688
 30
0.0
 10
37.0631202655
 20
85.9430177216
 30
0.0
 10
36.7614535202
 20
85.9829099751
 30
0.0
 10
36.5709480834
 20
85.9704342935
 30
0.0
  0
SPLINE
  5
336
100
AcDbEntity
  8
0
100
AcDbSpline
 62
7
  6
CONTINUOUS
 70
0
 71
3
 72
17
 73
13
 74
0
 42
0.0000001
 43
0.0000001
 44
0.0000000001
 40
0.0
 40
0.0
 40
0.0
 40
0.0
 40
0.1242709973
 40
0.2606088774
 40
0.4033018865
 40
0.5452261187
 40
0.6793852808
 40
0.8002793715
 40
0.8550535037
 40
0.9061142673
 40
0.954080649
 40
1.0
 40
1.0
 40
1.0
 40
1.0
 10
48.3572176465
 20
77.867032145
 30
0.0
 10
48.3572176465
 20
78.1439276405
 30
0.0
 10
48.2685533875
 20
78.7256400822
 30
0.0
 10
47.9349235377
 20
79.5662018631
 30
0.0
 10
47.4251336289
 20
80.360153425
 30
0.0
 10
46.7826730081
 20
81.0443024247
 30
0.0
 10
46.0616207041
 20
81.5661531257
 30
0.0
 10
45.4189623577
 20
81.8409201109
 30
0.0
 10
44.9200742986
 20
81.9321119836
 30
0.0
 10
44.5754661543
 20
81.9359580862
 30
0.0
 10
44.2557616112
 20
81.8765615291
 30
0.0
 10
44.0615071439
 20
81.7932676061
 30
0.0
 10
43.9728911697
 20
81.7421237817
 30
0.0
  0
SPLINE
  5
337
100
AcDbEntity
  8
0
100
AcDbSpline
 62
7
  6
CONTINUOUS
 70
0
 71
3
 72
11
 73
7
 74
0
 42
0.0000001
 43
0.0000001
 44
0.0000000001
 40
0.0
 40
0.0
 40
0.0
 40
0.0
 40
0.2560606721
 40
0.5184793945
 40
0.7709792076
 40
1.0
 40
1.0
 40
1.0
 40
1.0
 10
56.5775029169
 20
43.4187955901
 30
0.0
 10
56.8573641989
 20
43.2211466443
 30
0.0
 10
57.378084279
 20
42.7531127233
 30
0.0
 10
57.9926677526
 20
41.9157780027
 30
0.0
 10
58.402912053
 20
41.0003818117
 30
0.0
 10
58.5146492664
 20
40.3549490462
 30
0.0
 10
58.5146492664
 20
40.0485108812
 30
0.0
  0
SPLINE
  5
338
100
AcDbEntity
  8
0
100
AcDbSpline
 62
7
  6
CONTINUOUS
 70
0
 71
3
 72
9
 73
5
 74
0
 42
0.0000001
 43
0.0000001
 44
0.0000000001
 40
0.0
 40
0.0
 40
0.0
 40
0.0
 40
0.2452403762
 40
1.0
 40
1.0
 40
1.0
 40
1.0
 10
22.2917474413
 20
81.4652647731
 30
0.0
 10
22.9897880218
 20
80.999266158
 30
0.0
 10
25.8583131421
 20
79.132436314
 30
0.0
 10
28.8120499436
 20
77.3972319982
 30
0.0
 10
31.0785102333
 20
76.1581790257
 30
0.0
  0
SPLINE
  5
339
100
AcDbEntity
  8
0
100
AcDbSpline
 62
7
  6
CONTINUOUS
 70
0
 71
3
 72
11
 73
7
 74
0
 42
0.0000001
 43
0.0000001
 44
0.0000000001
 40
0.0
 40
0.0
 40
0.0
 40
0.0
 40
0.2301728702
 40
0.4677063966
 40
0.7224528396
 40
1.0
 40
1.0
 40
1.0
 40
1.0
 10
47.593705266
 20
44.8100191141
 30
0.0
 10
47.7131423323
 20
44.8789479447
 30
0.0
 10
47.9357923833
 20
45.0574237232
 30
0.0
 10
48.1806216987
 20
45.4213752924
 30
0.0
 10
48.3277269321
 20
45.8635080318
 30
0.0
 10
48.3572176465
 20
46.183756259
 30
0.0
 10
48.3572176465
 20
46.3500388438
 30
0.0
  0
SPLINE
  5
33A
100
AcDbEntity
  8
0
100
AcDbSpline
 62
7
  6
CONTINUOUS
 70
0
 71
3
 72
11
 73
7
 74
0
 42
0.0000001
 43
0.0000001
 44
0.0000000001
 40
0.0
 40
0.0
 40
0.0
 40
0.0
 40
0.2301728702
 40
0.4677063966
 40
0.7224528396
 40
1.0
 40
1.0
 40
1.0
 40
1.0
 10
47.593705266
 20
76.3270124153
 30
0.0
 10
47.7131423323
 20
76.3959412459
 30
0.0
 10
47.9357923833
 20
76.5744170244
 30
0.0
 10
48.1806216987
 20
76.9383685936
 30
0.0
 10
48.327726932
 20
77.380501333
 30
0.0
 10
48.3572176465
 20
77.7007495602
 30
0.0
 10
48.3572176465
 20
77.867032145
 30
0.0
  0
SPLINE
  5
33B
100
AcDbEntity
  8
0
100
AcDbSpline
 62
7
  6
CONTINUOUS
 70
0
 71
3
 72
11
 73
7
 74
0
 42
0.0000001
 43
0.0000001
 44
0.0000000001
 40
0.0
 40
0.0
 40
0.0
 40
0.0
 40
0.2231889862
 40
0.4583382889
 40
0.715660777
 40
1.0
 40
1.0
 40
1.0
 40
1.0
 10
39.4057086445
 20
80.2545401129
 30
0.0
 10
39.5181127908
 20
80.3194259174
 30
0.0
 10
39.7281515711
 20
80.4922612031
 30
0.0
 10
39.9551240639
 20
80.8478116922
 30
0.0
 10
40.0907656186
 20
81.2831994573
 30
0.0
 10
40.1176480478
 20
81.5993713473
 30
0.0
 10
40.1176480478
 20
81.7647188776
 30
0.0
  0
SPLINE
  5
33C
100
AcDbEntity
  8
0
100
AcDbSpline
 62
7
  6
CONTINUOUS
 70
0
 71
3
 72
14
 73
10
 74
0
 42
0.0000001
 43
0.0000001
 44
0.0000000001
 40
0.0
 40
0.0
 40
0.0
 40
0.0
 40
0.3127816439
 40
0.4550053749
 40
0.5854539737
 40
0.7035555199
 40
0.8100762787
 40
0.9074725862
 40
1.0
 40
1.0
 40
1.0
 40
1.0
 10
31.2746485141
 20
89.0281850999
 30
0.0
 10
31.0739656305
 20
89.2801302384
 30
0.0
 10
30.7484322451
 20
89.6232398454
 30
0.0
 10
30.2638639798
 20
89.983989776
 30
0.0
 10
29.9111227621
 20
90.1806146926
 30
0.0
 10
29.5659347639
 20
90.3067009891
 30
0.0
 10
29.2356433875
 20
90.3581043804
 30
0.0
 10
28.9281235491
 20
90.331226802
 30
0.0
 10
28.7429185778
 20
90.2586393433
 30
0.0
 10
28.6603958104
 20
90.2110035742
 30
0.0
  0
SPLINE
  5
33D
100
AcDbEntity
  8
0
100
AcDbSpline
 62
7
  6
CONTINUOUS
 70
0
 71
3
 72
11
 73
7
 74
0
 42
0.0000001
 43
0.0000001
 44
0.0000000001
 40
0.0
 40
0.0
 40
0.0
 40
0.0
 40
0.2281292966
 40
0.4781107756
 40
0.7394701857
 40
1.0
 40
1.0
 40
1.0
 40
1.0
 10
32.4732233622
 20
86.0060106348
 30
0.0
 10
32.4732233622
 20
86.2575125334
 30
0.0
 10
32.4094509637
 20
86.7852035491
 30
0.0
 10
32.1669770757
 20
87.5671080898
 30
0.0
 10
31.7891745547
 20
88.333221316
 30
0.0
 10
31.4579377091
 20
88.8070482116
 30
0.0
 10
31.2746485141
 20
89.0281850999
 30
0.0
  0
SPLINE
  5
33E
100
AcDbEntity
  8
0
100
AcDbSpline
 62
7
  6
CONTINUOUS
 70
0
 71
3
 72
11
 73
7
 74
0
 42
0.0000001
 43
0.0000001
 44
0.0000000001
 40
0.0
 40
0.0
 40
0.0
 40
0.0
 40
0.2177575771
 40
0.4509318129
 40
0.7102090521
 40
1.0
 40
1.0
 40
1.0
 40
1.0
 10
31.8001096769
 20
84.5182059222
 30
0.0
 10
31.907301653
 20
84.5800999144
 30
0.0
 10
32.1079089851
 20
84.748716892
 30
0.0
 10
32.3213894029
 20
85.0978474686
 30
0.0
 10
32.4483270096
 20
85.5281124288
 30
0.0
 10
32.4732233622
 20
85.8412873866
 30
0.0
 10
32.4732233622
 20
86.0060106348
 30
0.0
  0
SPLINE
  5
33F
100
AcDbEntity
  8
0
100
AcDbSpline
 62
7
  6
CONTINUOUS
 70
0
 71
3
 72
10
 73
6
 74
0
 42
0.0000001
 43
0.0000001
 44
0.0000000001
 40
0.0
 40
0.0
 40
0.0
 40
0.0
 40
0.2254760926
 40
0.464585459
 40
1.0
 40
1.0
 40
1.0
 40
1.0
 10
50.8792207961
 20
40.0844353526
 30
0.0
 10
50.8602935684
 20
40.0735161085
 30
0.0
 10
50.8177772493
 20
40.0566806226
 30
0.0
 10
50.7206602323
 20
40.0458115974
 30
0.0
 10
50.645118045
 20
40.0636943376
 30
0.0
 10
50.5969557526
 20
40.0829999025
 30
0.0
  0
SPLINE
  5
340
100
AcDbEntity
  8
0
100
AcDbSpline
 62
7
  6
CONTINUOUS
 70
0
 71
3
 72
9
 73
5
 74
0
 42
0.0000001
 43
0.0000001
 44
0.0000000001
 40
0.0
 40
0.0
 40
0.0
 40
0.0
 40
0.246009818
 40
1.0
 40
1.0
 40
1.0
 40
1.0
 10
61.1464273324
 20
88.3600072589
 30
0.0
 10
61.1370867277
 20
88.3876648401
 30
0.0
 10
61.0960545299
 20
88.4990358192
 30
0.0
 10
61.0429263955
 20
88.6059147623
 30
0.0
 10
60.9969999142
 20
88.6826987158
 30
0.0
  0
SPLINE
  5
341
100
AcDbEntity
  8
0
100
AcDbSpline
 62
7
  6
CONTINUOUS
 70
0
 71
3
 72
9
 73
5
 74
0
 42
0.0000001
 43
0.0000001
 44
0.0000000001
 40
0.0
 40
0.0
 40
0.0
 40
0.0
 40
0.2444982002
 40
1.0
 40
1.0
 40
1.0
 40
1.0
 10
36.5709480834
 20
46.8159826723
 30
0.0
 10
37.6835441333
 20
46.2070569554
 30
0.0
 10
42.2683965274
 20
43.7795479357
 30
0.0
 10
46.9833015094
 20
41.5995892853
 30
0.0
 10
50.5970977421
 20
40.0829403123
 30
0.0
  0
SPLINE
  5
342
100
AcDbEntity
  8
0
100
AcDbSpline
 62
7
  6
CONTINUOUS
 70
0
 71
3
 72
9
 73
5
 74
0
 42
0.0000001
 43
0.0000001
 44
0.0000000001
 40
0.0
 40
0.0
 40
0.0
 40
0.0
 40
0.2434563753
 40
1.0
 40
1.0
 40
1.0
 40
1.0
 10
19.6179951482
 20
57.9671143247
 30
0.0
 10
20.5201772298
 20
57.2506894769
 30
0.0
 10
24.2752128784
 20
54.3703217704
 30
0.0
 10
28.2170771852
 20
51.73585869
 30
0.0
 10
31.2746485141
 20
49.8737334788
 30
0.0
  0
SPLINE
  5
343
100
AcDbEntity
  8
0
100
AcDbSpline
 62
7
  6
CONTINUOUS
 70
0
 71
3
 72
11
 73
7
 74
0
 42
0.0000001
 43
0.0000001
 44
0.0000000001
 40
0.0
 40
0.0
 40
0.0
 40
0.0
 40
0.3007023293
 40
0.5645303269
 40
0.7940917443
 40
1.0
 40
1.0
 40
1.0
 40
1.0
 10
35.67236557
 20
108.7553389547
 30
0.0
 10
35.67236557
 20
108.5939977493
 30
0.0
 10
35.6508247724
 20
108.2902266078
 30
0.0
 10
35.5399107658
 20
107.8754292946
 30
0.0
 10
35.3535830668
 20
107.5440215677
 30
0.0
 10
35.1738935661
 20
107.3852637701
 30
0.0
 10
35.0782050881
 20
107.3300417921
 30
0.0
  0
SPLINE
  5
344
100
AcDbEntity
  8
0
100
AcDbSpline
 62
7
  6
CONTINUOUS
 70
0
 71
3
 72
9
 73
5
 74
0
 42
0.0000001
 43
0.0000001
 44
0.0000000001
 40
0.0
 40
0.0
 40
0.0
 40
0.0
 40
0.4879934276
 40
1.0
 40
1.0
 40
1.0
 40
1.0
 10
29.6800433858
 20
50.6307149759
 30
0.0
 10
31.8753301393
 20
48.806842421
 30
0.0
 10
36.5542070569
 20
45.2828691358
 30
0.0
 10
41.511742024
 20
42.1668720992
 30
0.0
 10
44.1050935546
 20
40.6696337669
 30
0.0
  0
SPLINE
  5
345
100
AcDbEntity
  8
0
100
AcDbSpline
 62
7
  6
CONTINUOUS
 70
0
 71
3
 72
9
 73
5
 74
0
 42
0.0000001
 43
0.0000001
 44
0.0000000001
 40
0.0
 40
0.0
 40
0.0
 40
0.0
 40
0.4899420936
 40
1.0
 40
1.0
 40
1.0
 40
1.0
 10
44.1050935546
 20
40.6696337669
 30
0.0
 10
46.8164441767
 20
39.1042701687
 30
0.0
 10
52.4775726712
 20
36.1259426811
 30
0.0
 10
58.3336021379
 20
33.5551264011
 30
0.0
 10
61.3585590724
 20
32.3415291734
 30
0.0
  0
SPLINE
  5
346
100
AcDbEntity
  8
0
100
AcDbSpline
 62
7
  6
CONTINUOUS
 70
0
 71
3
 72
11
 73
7
 74
0
 42
0.0000001
 43
0.0000001
 44
0.0000000001
 40
0.0
 40
0.0
 40
0.0
 40
0.0
 40
0.2918220603
 40
0.5521222083
 40
0.7846934768
 40
1.0
 40
1.0
 40
1.0
 40
1.0
 10
42.6672704339
 20
104.2206978228
 30
0.0
 10
42.6672704339
 20
104.0586919239
 30
0.0
 10
42.6432307561
 20
103.7511605327
 30
0.0
 10
42.5207560216
 20
103.3291605398
 30
0.0
 10
42.3151173277
 20
102.9878490944
 30
0.0
 10
42.1212372451
 20
102.8231637749
 30
0.0
 10
42.0177122616
 20
102.7634181758
 30
0.0
  0
SPLINE
  5
347
100
AcDbEntity
  8
0
100
AcDbSpline
 62
7
  6
CONTINUOUS
 70
0
 71
3
 72
11
 73
7
 74
0
 42
0.0000001
 43
0.0000001
 44
0.0000000001
 40
0.0
 40
0.0
 40
0.0
 40
0.0
 40
0.2764392922
 40
0.5307746246
 40
0.7687132219
 40
1.0
 40
1.0
 40
1.0
 40
1.0
 10
58.5146492664
 20
40.0485108812
 30
0.0
 10
58.5146492664
 20
39.8845986304
 30
0.0
 10
58.4851402531
 20
39.5685300277
 30
0.0
 10
58.3382795097
 20
39.1320216199
 30
0.0
 10
58.0941329785
 20
38.7722722907
 30
0.0
 10
57.8727440524
 20
38.5956264873
 30
0.0
 10
57.7539686623
 20
38.527072572
 30
0.0
  0
SPLINE
  5
348
100
AcDbEntity
  8
0
100
AcDbSpline
 62
7
  6
CONTINUOUS
 70
0
 71
3
 72
11
 73
7
 74
0
 42
0.0000001
 43
0.0000001
 44
0.0000000001
 40
0.0
 40
0.0
 40
0.0
 40
0.0
 40
0.2764392922
 40
0.5307746246
 40
0.7687132219
 40
1.0
 40
1.0
 40
1.0
 40
1.0
 10
58.5146492664
 20
96.2238771797
 30
0.0
 10
58.5146492664
 20
96.0599649289
 30
0.0
 10
58.4851402531
 20
95.7438963262
 30
0.0
 10
58.3382795097
 20
95.3073879185
 30
0.0
 10
58.0941329785
 20
94.9476385892
 30
0.0
 10
57.8727440524
 20
94.7709927858
 30
0.0
 10
57.7539686623
 20
94.7024388705
 30
0.0
  0
SPLINE
  5
349
100
AcDbEntity
  8
0
100
AcDbSpline
 62
7
  6
CONTINUOUS
 70
0
 71
3
 72
11
 73
7
 74
0
 42
0.0000001
 43
0.0000001
 44
0.0000000001
 40
0.0
 40
0.0
 40
0.0
 40
0.0
 40
0.2838046467
 40
0.5409624289
 40
0.7762980227
 40
1.0
 40
1.0
 40
1.0
 40
1.0
 10
50.2800500514
 20
100.0427847167
 30
0.0
 10
50.2800500514
 20
99.87993043
 30
0.0
 10
50.253380363
 20
99.568335524
 30
0.0
 10
50.1190164626
 20
99.1391466508
 30
0.0
 10
49.894230669
 20
98.7884629688
 30
0.0
 10
49.6865495446
 20
98.6178457532
 30
0.0
 10
49.5753711826
 20
98.5536806194
 30
0.0
  0
SPLINE
  5
34A
100
AcDbEntity
  8
0
100
AcDbSpline
 62
7
  6
CONTINUOUS
 70
0
 71
3
 72
14
 73
10
 74
0
 42
0.0000001
 43
0.0000001
 44
0.0000000001
 40
0.0
 40
0.0
 40
0.0
 40
0.0
 40
0.3008934337
 40
0.4398746665
 40
0.5693259649
 40
0.6888389608
 40
0.799036116
 40
0.9017443312
 40
1.0
 40
1.0
 40
1.0
 40
1.0
 10
36.5709480834
 20
49.793055775
 30
0.0
 10
36.7840598173
 20
49.5458268373
 30
0.0
 10
37.1326183206
 20
49.2122480237
 30
0.0
 10
37.6509409703
 20
48.8738727675
 30
0.0
 10
38.0332025171
 20
48.6940404123
 30
0.0
 10
38.4096957231
 20
48.5864323068
 30
0.0
 10
38.7714906169
 20
48.5545083382
 30
0.0
 10
39.1089961375
 20
48.6003844969
 30
0.0
 10
39.3133989414
 20
48.6842606159
 30
0.0
 10
39.4057086445
 20
48.7375468117
 30
0.0
  0
SPLINE
  5
34B
100
AcDbEntity
  8
0
100
AcDbSpline
 62
7
  6
CONTINUOUS
 70
0
 71
3
 72
14
 73
10
 74
0
 42
0.0000001
 43
0.0000001
 44
0.0000000001
 40
0.0
 40
0.0
 40
0.0
 40
0.0
 40
0.289547977
 40
0.4303719859
 40
0.5638055955
 40
0.6875144186
 40
0.8005251073
 40
0.903684397
 40
1.0
 40
1.0
 40
1.0
 40
1.0
 10
43.7344439117
 20
46.8762812579
 30
0.0
 10
43.9509839838
 20
46.4666484702
 30
0.0
 10
44.3599127503
 20
45.8979589769
 30
0.0
 10
45.0300816
 20
45.290512007
 30
0.0
 10
45.5644116484
 20
44.93851633
 30
0.0
 10
46.1115539895
 20
44.702605259
 30
0.0
 10
46.649370268
 20
44.5940362697
 30
0.0
 10
47.1547781567
 20
44.6200376435
 30
0.0
 10
47.4602131417
 20
44.7329789094
 30
0.0
 10
47.593705266
 20
44.8100191141
 30
0.0
  0
SPLINE
  5
34C
100
AcDbEntity
  8
0
100
AcDbSpline
 62
7
  6
CONTINUOUS
 70
0
 71
3
 72
9
 73
5
 74
0
 42
0.0000001
 43
0.0000001
 44
0.0000000001
 40
0.0
 40
0.0
 40
0.0
 40
0.0
 40
0.5100579064
 40
1.0
 40
1.0
 40
1.0
 40
1.0
 10
61.3585590724
 20
101.580934146
 30
0.0
 10
58.3336021379
 20
102.7945313737
 30
0.0
 10
52.4775726712
 20
105.3653476537
 30
0.0
 10
46.8164441767
 20
108.3436751413
 30
0.0
 10
44.1050935546
 20
109.9090387395
 30
0.0
  0
SPLINE
  5
34D
100
AcDbEntity
  8
0
100
AcDbSpline
 62
7
  6
CONTINUOUS
 70
0
 71
3
 72
9
 73
5
 74
0
 42
0.0000001
 43
0.0000001
 44
0.0000000001
 40
0.0
 40
0.0
 40
0.0
 40
0.0
 40
0.5120065724
 40
1.0
 40
1.0
 40
1.0
 40
1.0
 10
44.1050935546
 20
109.9090387395
 30
0.0
 10
41.511742024
 20
111.4062770718
 30
0.0
 10
36.5542070569
 20
114.5222741083
 30
0.0
 10
31.8753301393
 20
118.0462473936
 30
0.0
 10
29.6800433858
 20
119.8701199485
 30
0.0
  0
SPLINE
  5
34E
100
AcDbEntity
  8
0
100
AcDbSpline
 62
7
  6
CONTINUOUS
 70
0
 71
3
 72
9
 73
5
 74
0
 42
0.0000001
 43
0.0000001
 44
0.0000000001
 40
0.0
 40
0.0
 40
0.0
 40
0.0
 40
0.2530855538
 40
1.0
 40
1.0
 40
1.0
 40
1.0
 10
44.1050966453
 20
96.7721903567
 30
0.0
 10
43.4415478562
 20
97.155281825
 30
0.0
 10
40.8383866634
 20
98.7010147271
 30
0.0
 10
38.3117971148
 20
100.3762410858
 30
0.0
 10
36.4784442375
 20
101.6998514218
 30
0.0
  0
SPLINE
  5
34F
100
AcDbEntity
  8
0
100
AcDbSpline
 62
7
  6
CONTINUOUS
 70
0
 71
3
 72
9
 73
5
 74
0
 42
0.0000001
 43
0.0000001
 44
0.0000000001
 40
0.0
 40
0.0
 40
0.0
 40
0.0
 40
0.2506090784
 40
1.0
 40
1.0
 40
1.0
 40
1.0
 10
60.9126810594
 20
45.392652633
 30
0.0
 10
60.7152463723
 20
45.3182892878
 30
0.0
 10
59.9271153017
 20
45.0223937859
 30
0.0
 10
59.1376433243
 20
44.7300160318
 30
0.0
 10
58.5443159398
 20
44.5156242805
 30
0.0
  0
SPLINE
  5
350
100
AcDbEntity
  8
0
100
AcDbSpline
 62
7
  6
CONTINUOUS
 70
0
 71
3
 72
17
 73
13
 74
0
 42
0.0000001
 43
0.0000001
 44
0.0000000001
 40
0.0
 40
0.0
 40
0.0
 40
0.0
 40
0.0473761045
 40
0.0966080413
 40
0.148588196
 40
0.2038749873
 40
0.3246731516
 40
0.4578526613
 40
0.5986667341
 40
0.7405230975
 40
0.8763103908
 40
1.0
 40
1.0
 40
1.0
 40
1.0
 10
57.7539686623
 20
94.7024388705
 30
0.0
 10
57.6632902364
 20
94.6501017565
 30
0.0
 10
57.4656765337
 20
94.5640860797
 30
0.0
 10
57.141650816
 20
94.4990840834
 30
0.0
 10
56.7938856765
 20
94.4965846491
 30
0.0
 10
56.2945580265
 20
94.5785517459
 30
0.0
 10
55.6542292784
 20
94.8424925603
 30
0.0
 10
54.9421045979
 20
95.3572645818
 30
0.0
 10
54.3154969534
 20
96.0373809562
 30
0.0
 10
53.8238928154
 20
96.8272518583
 30
0.0
 10
53.5053331961
 20
97.6607873993
 30
0.0
 10
53.4208196712
 20
98.2351493236
 30
0.0
 10
53.4208196712
 20
98.5084960163
 30
0.0
  0
SPLINE
  5
351
100
AcDbEntity
  8
0
100
AcDbSpline
 62
7
  6
CONTINUOUS
 70
0
 71
3
 72
17
 73
13
 74
0
 42
0.0000001
 43
0.0000001
 44
0.0000000001
 40
0.0
 40
0.0
 40
0.0
 40
0.0
 40
0.0421173009
 40
0.0858220371
 40
0.1326567915
 40
0.1836581026
 40
0.2994048259
 40
0.4324866488
 40
0.5773521688
 40
0.7260181307
 40
0.8696175558
 40
1.0
 40
1.0
 40
1.0
 40
1.0
 10
42.0177122616
 20
102.7634181758
 30
0.0
 10
41.9408662668
 20
102.7190693642
 30
0.0
 10
41.7714657339
 20
102.6491894866
 30
0.0
 10
41.4918605455
 20
102.6117411065
 30
0.0
 10
41.1927780029
 20
102.6400690388
 30
0.0
 10
40.7593091372
 20
102.7689130129
 30
0.0
 10
40.2089524718
 20
103.097081149
 30
0.0
 10
39.6076719906
 20
103.6753352755
 30
0.0
 10
39.0802610255
 20
104.4085043218
 30
0.0
 10
38.6678936676
 20
105.2363052297
 30
0.0
 10
38.4015384456
 20
106.0896885781
 30
0.0
 10
38.3298956965
 20
106.6673876915
 30
0.0
 10
38.3298956965
 20
106.9420534681
 30
0.0
  0
SPLINE
  5
352
100
AcDbEntity
  8
0
100
AcDbSpline
 62
7
  6
CONTINUOUS
 70
0
 71
3
 72
9
 73
5
 74
0
 42
0.0000001
 43
0.0000001
 44
0.0000000001
 40
0.0
 40
0.0
 40
0.0
 40
0.0
 40
0.2523879219
 40
1.0
 40
1.0
 40
1.0
 40
1.0
 10
36.110903614
 20
50.4398181486
 30
0.0
 10
36.1456175927
 20
50.3827402349
 30
0.0
 10
36.287203172
 20
50.1590801612
 30
0.0
 10
36.4446671135
 20
49.9454127143
 30
0.0
 10
36.5709480834
 20
49.793055775
 30
0.0
  0
SPLINE
  5
353
100
AcDbEntity
  8
0
100
AcDbSpline
 62
7
  6
CONTINUOUS
 70
0
 71
3
 72
9
 73
5
 74
0
 42
0.0000001
 43
0.0000001
 44
0.0000000001
 40
0.0
 40
0.0
 40
0.0
 40
0.0
 40
0.2560380888
 40
1.0
 40
1.0
 40
1.0
 40
1.0
 10
35.8816542938
 20
59.427183958
 30
0.0
 10
34.8347007369
 20
59.9441352881
 30
0.0
 10
30.7722041772
 20
62.0162239008
 30
0.0
 10
26.8188134945
 20
64.3045165222
 30
0.0
 10
23.9631347607
 20
66.1363861414
 30
0.0
  0
SPLINE
  5
354
100
AcDbEntity
  8
0
100
AcDbSpline
 62
7
  6
CONTINUOUS
 70
0
 71
3
 72
12
 73
8
 74
0
 42
0.0000001
 43
0.0000001
 44
0.0000000001
 40
0.0
 40
0.0
 40
0.0
 40
0.0
 40
0.3052639602
 40
0.5704317868
 40
0.7978685745
 40
0.9010914174
 40
1.0
 40
1.0
 40
1.0
 40
1.0
 10
31.7151906833
 20
111.696201776
 30
0.0
 10
31.7151906833
 20
111.8571896515
 30
0.0
 10
31.7353477084
 20
112.1588655715
 30
0.0
 10
31.8390672026
 20
112.569455016
 30
0.0
 10
31.9913618417
 20
112.850230743
 30
0.0
 10
32.1477265186
 20
113.015704117
 30
0.0
 10
32.2348601866
 20
113.0785036024
 30
0.0
 10
32.280038149
 20
113.104576445
 30
0.0
  0
SPLINE
  5
355
100
AcDbEntity
  8
0
100
AcDbSpline
 62
7
  6
CONTINUOUS
 70
0
 71
3
 72
9
 73
5
 74
0
 42
0.0000001
 43
0.0000001
 44
0.0000000001
 40
0.0
 40
0.0
 40
0.0
 40
0.0
 40
0.2588882713
 40
1.0
 40
1.0
 40
1.0
 40
1.0
 10
78.8330630511
 20
111.6697834998
 30
0.0
 10
79.0873301304
 20
111.8165837902
 30
0.0
 10
80.0798946707
 20
112.3651727038
 30
0.0
 10
81.1154486393
 20
112.8376981615
 30
0.0
 10
81.90274537
 20
113.1319421742
 30
0.0
  0
SPLINE
  5
356
100
AcDbEntity
  8
0
100
AcDbSpline
 62
7
  6
CONTINUOUS
 70
0
 71
3
 72
11
 73
7
 74
0
 42
0.0000001
 43
0.0000001
 44
0.0000000001
 40
0.0
 40
0.0
 40
0.0
 40
0.0
 40
0.2883456001
 40
0.547380622
 40
0.7810000418
 40
1.0
 40
1.0
 40
1.0
 40
1.0
 10
27.2833699778
 20
104.5318612814
 30
0.0
 10
27.2619758051
 20
104.5437593406
 30
0.0
 10
27.2194097639
 20
104.5631535099
 30
0.0
 10
27.1541808367
 20
104.5779123186
 30
0.0
 10
27.0929928268
 20
104.5757174337
 30
0.0
 10
27.0561789109
 20
104.5621131254
 30
0.0
 10
27.0400736715
 20
104.5528227251
 30
0.0
  0
SPLINE
  5
357
100
AcDbEntity
  8
0
100
AcDbSpline
 62
7
  6
CONTINUOUS
 70
0
 71
3
 72
11
 73
7
 74
0
 42
0.0000001
 43
0.0000001
 44
0.0000000001
 40
0.0
 40
0.0
 40
0.0
 40
0.0
 40
0.227256291
 40
0.4633791881
 40
0.719124815
 40
1.0
 40
1.0
 40
1.0
 40
1.0
 10
43.9728911697
 20
81.7421237817
 30
0.0
 10
43.8567727666
 20
81.6751072052
 30
0.0
 10
43.6402562119
 20
81.4996292804
 30
0.0
 10
43.4047475943
 20
81.1397987189
 30
0.0
 10
43.2643955579
 20
80.7013152616
 30
0.0
 10
43.2365203599
 20
80.3834900624
 30
0.0
 10
43.2365203599
 20
80.2177878361
 30
0.0
  0
SPLINE
  5
358
100
AcDbEntity
  8
0
100
AcDbSpline
 62
7
  6
CONTINUOUS
 70
0
 71
3
 72
9
 73
5
 74
0
 42
0.0000001
 43
0.0000001
 44
0.0000000001
 40
0.0
 40
0.0
 40
0.0
 40
0.0
 40
0.4764396708
 40
1.0
 40
1.0
 40
1.0
 40
1.0
 10
58.268153942
 20
86.643196899
 30
0.0
 10
58.3266105572
 20
86.6082062399
 30
0.0
 10
58.4344180613
 20
86.5099987892
 30
0.0
 10
58.5123564352
 20
86.3882489356
 30
0.0
 10
58.5443012331
 20
86.3205395467
 30
0.0
  0
SPLINE
  5
359
100
AcDbEntity
  8
0
100
AcDbSpline
 62
7
  6
CONTINUOUS
 70
0
 71
3
 72
14
 73
10
 74
0
 42
0.0000001
 43
0.0000001
 44
0.0000000001
 40
0.0
 40
0.0
 40
0.0
 40
0.0
 40
0.3008934337
 40
0.4398746665
 40
0.5693259649
 40
0.6888389608
 40
0.799036116
 40
0.9017443312
 40
1.0
 40
1.0
 40
1.0
 40
1.0
 10
36.5709480834
 20
81.3100490762
 30
0.0
 10
36.7840598173
 20
81.0628201385
 30
0.0
 10
37.1326183206
 20
80.7292413249
 30
0.0
 10
37.6509409703
 20
80.3908660687
 30
0.0
 10
38.0332025171
 20
80.2110337135
 30
0.0
 10
38.4096957231
 20
80.103425608
 30
0.0
 10
38.7714906169
 20
80.0715016394
 30
0.0
 10
39.1089961375
 20
80.1173777981
 30
0.0
 10
39.3133989414
 20
80.2012539171
 30
0.0
 10
39.4057086445
 20
80.2545401129
 30
0.0
  0
SPLINE
  5
35A
100
AcDbEntity
  8
0
100
AcDbSpline
 62
7
  6
CONTINUOUS
 70
0
 71
3
 72
9
 73
5
 74
0
 42
0.0000001
 43
0.0000001
 44
0.0000000001
 40
0.0
 40
0.0
 40
0.0
 40
0.0
 40
0.253076513
 40
1.0
 40
1.0
 40
1.0
 40
1.0
 10
52.44610942
 20
92.4811249413
 30
0.0
 10
51.7261258991
 20
92.8098058982
 30
0.0
 10
48.8962314747
 20
94.1411440241
 30
0.0
 10
46.128049672
 20
95.6042641122
 30
0.0
 10
44.1050966453
 20
96.7721903567
 30
0.0
  0
SPLINE
  5
35B
100
AcDbEntity
  8
0
100
AcDbSpline
 62
7
  6
CONTINUOUS
 70
0
 71
3
 72
11
 73
7
 74
0
 42
0.0000001
 43
0.0000001
 44
0.0000000001
 40
0.0
 40
0.0
 40
0.0
 40
0.0
 40
0.2177575771
 40
0.4509318129
 40
0.7102090521
 40
1.0
 40
1.0
 40
1.0
 40
1.0
 10
36.0454869206
 20
85.820028254
 30
0.0
 10
35.9382949445
 20
85.7581342618
 30
0.0
 10
35.7376876124
 20
85.5895172842
 30
0.0
 10
35.5242071947
 20
85.2403867075
 30
0.0
 10
35.3972695879
 20
84.8101217474
 30
0.0
 10
35.3723732353
 20
84.4969467896
 30
0.0
 10
35.3723732353
 20
84.3322235413
 30
0.0
  0
SPLINE
  5
35C
100
AcDbEntity
  8
0
100
AcDbSpline
 62
7
  6
CONTINUOUS
 70
0
 71
3
 72
11
 73
7
 74
0
 42
0.0000001
 43
0.0000001
 44
0.0000000001
 40
0.0
 40
0.0
 40
0.0
 40
0.0
 40
0.2961222309
 40
0.5578050575
 40
0.7886319253
 40
1.0
 40
1.0
 40
1.0
 40
1.0
 10
38.3298956965
 20
106.9420534681
 30
0.0
 10
38.3298956965
 20
107.1036219091
 30
0.0
 10
38.3523931655
 20
107.4088977988
 30
0.0
 10
38.4680860764
 20
107.8270006375
 30
0.0
 10
38.6637101814
 20
108.1635817775
 30
0.0
 10
38.8508604003
 20
108.3251143994
 30
0.0
 10
38.9507454901
 20
108.3827591153
 30
0.0
  0
SPLINE
  5
35D
100
AcDbEntity
  8
0
100
AcDbSpline
 62
7
  6
CONTINUOUS
 70
0
 71
3
 72
9
 73
5
 74
0
 42
0.0000001
 43
0.0000001
 44
0.0000000001
 40
0.0
 40
0.0
 40
0.0
 40
0.0
 40
0.4859499964
 40
1.0
 40
1.0
 40
1.0
 40
1.0
 10
50.5969785145
 20
82.2145150735
 30
0.0
 10
50.6626015082
 20
82.1857347266
 30
0.0
 10
50.7863285692
 20
82.1000173613
 30
0.0
 10
50.8796485068
 20
81.9829027799
 30
0.0
 10
50.9173650537
 20
81.9171521751
 30
0.0
  0
SPLINE
  5
35E
100
AcDbEntity
  8
0
100
AcDbSpline
 62
7
  6
CONTINUOUS
 70
0
 71
3
 72
17
 73
13
 74
0
 42
0.0000001
 43
0.0000001
 44
0.0000000001
 40
0.0
 40
0.0
 40
0.0
 40
0.0
 40
0.1241110158
 40
0.2603851705
 40
0.4026845976
 40
0.5437942612
 40
0.6770216961
 40
0.7975192038
 40
0.8525238987
 40
0.9041564676
 40
0.9530034724
 40
1.0
 40
1.0
 40
1.0
 40
1.0
 10
43.2365203599
 20
80.2177878361
 30
0.0
 10
43.2365203599
 20
79.9402509835
 30
0.0
 10
43.3215445808
 20
79.3570573982
 30
0.0
 10
43.6417947611
 20
78.5097070893
 30
0.0
 10
44.13596069
 20
77.7053139183
 30
0.0
 10
44.7659849674
 20
77.0111592952
 30
0.0
 10
45.4818550149
 20
76.4838004607
 30
0.0
 10
46.1261524341
 20
76.211015723
 30
0.0
 10
46.6287014549
 20
76.124343282
 30
0.0
 10
46.9783645163
 20
76.1245418109
 30
0.0
 10
47.3041231354
 20
76.188409781
 30
0.0
 10
47.5026822724
 20
76.2744817504
 30
0.0
 10
47.593705266
 20
76.3270124153
 30
0.0
  0
SPLINE
  5
35F
100
AcDbEntity
  8
0
100
AcDbSpline
 62
7
  6
CONTINUOUS
 70
0
 71
3
 72
17
 73
13
 74
0
 42
0.0000001
 43
0.0000001
 44
0.0000000001
 40
0.0
 40
0.0
 40
0.0
 40
0.0
 40
0.0448407884
 40
0.0914137522
 40
0.1409152315
 40
0.1941346354
 40
0.3125073783
 40
0.4456886936
 40
0.5885039061
 40
0.7336419272
 40
0.8731444079
 40
1.0
 40
1.0
 40
1.0
 40
1.0
 10
49.5753711826
 20
98.5536806194
 30
0.0
 10
49.4916657251
 20
98.5053711121
 30
0.0
 10
49.3082735192
 20
98.4274889529
 30
0.0
 10
49.0065179677
 20
98.376258091
 30
0.0
 10
48.6829168946
 20
98.3892095967
 30
0.0
 10
48.2160065406
 20
98.494709063
 30
0.0
 10
47.6196502318
 20
98.7915191769
 30
0.0
 10
46.962673375
 20
99.3396475179
 30
0.0
 10
46.3862320059
 20
100.0473865325
 30
0.0
 10
45.9354099357
 20
100.8562856856
 30
0.0
 10
45.6441439771
 20
101.6987047856
 30
0.0
 10
45.566420307
 20
102.2734975809
 30
0.0
 10
45.566420307
 20
102.5469107292
 30
0.0
  0
SPLINE
  5
360
100
AcDbEntity
  8
0
100
AcDbSpline
 62
7
  6
CONTINUOUS
 70
0
 71
3
 72
12
 73
8
 74
0
 42
0.0000001
 43
0.0000001
 44
0.0000000001
 40
0.0
 40
0.0
 40
0.0
 40
0.0
 40
0.1049042255
 40
0.212582931
 40
0.4434355055
 40
0.7046710836
 40
1.0
 40
1.0
 40
1.0
 40
1.0
 10
28.6603958104
 20
90.2110035742
 30
0.0
 10
28.6098953071
 20
90.1818524636
 30
0.0
 10
28.5127159054
 20
90.1133133666
 30
0.0
 10
28.3385471167
 20
89.9373884469
 30
0.0
 10
28.1671639187
 20
89.6451135209
 30
0.0
 10
28.0491844584
 20
89.2201553046
 30
0.0
 10
28.0260717478
 20
88.9097922763
 30
0.0
 10
28.0260717478
 20
88.7456357799
 30
0.0
  0
SPLINE
  5
361
100
AcDbEntity
  8
0
100
AcDbSpline
 62
7
  6
CONTINUOUS
 70
0
 71
3
 72
10
 73
6
 74
0
 42
0.0000001
 43
0.0000001
 44
0.0000000001
 40
0.0
 40
0.0
 40
0.0
 40
0.0
 40
0.2866086565
 40
0.550519669
 40
1.0
 40
1.0
 40
1.0
 40
1.0
 10
29.4785716429
 20
53.7929194553
 30
0.0
 10
29.6031819622
 20
53.6609948706
 30
0.0
 10
29.8583759041
 20
53.4210751635
 30
0.0
 10
30.3751249462
 20
53.056032731
 30
0.0
 10
30.812010466
 20
52.8833426079
 30
0.0
 10
31.0953179112
 20
52.8562877275
 30
0.0
  0
SPLINE
  5
362
100
AcDbEntity
  8
0
100
AcDbSpline
 62
7
  6
CONTINUOUS
 70
0
 71
3
 72
16
 73
12
 74
0
 42
0.0000001
 43
0.0000001
 44
0.0000000001
 40
0.0
 40
0.0
 40
0.0
 40
0.0
 40
0.0472114829
 40
0.0959805912
 40
0.2006456994
 40
0.3175748823
 40
0.4463925103
 40
0.5841073015
 40
0.7260021422
 40
0.8664960184
 40
1.0
 40
1.0
 40
1.0
 40
1.0
 10
57.7539686623
 20
38.527072572
 30
0.0
 10
57.6729648905
 20
38.4803194045
 30
0.0
 10
57.4982217984
 20
38.401731942
 30
0.0
 10
57.1093885375
 20
38.3100424754
 30
0.0
 10
56.5640543441
 20
38.330141361
 30
0.0
 10
55.8982462239
 20
38.5492250751
 30
0.0
 10
55.2427579817
 20
38.943807092
 30
0.0
 10
54.638105087
 20
39.487956327
 30
0.0
 10
54.1217795386
 20
40.1458357166
 30
0.0
 10
53.7268407749
 20
40.8731215808
 30
0.0
 10
53.5545230066
 20
41.3919969667
 30
0.0
 10
53.4981525156
 20
41.650396688
 30
0.0
  0
SPLINE
  5
363
100
AcDbEntity
  8
0
100
AcDbSpline
 62
7
  6
CONTINUOUS
 70
0
 71
3
 72
15
 73
11
 74
0
 42
0.0000001
 43
0.0000001
 44
0.0000000001
 40
0.0
 40
0.0
 40
0.0
 40
0.0
 40
0.1242126404
 40
0.2603039777
 40
0.4024903519
 40
0.5442326956
 40
0.6792041816
 40
0.7425026811
 40
0.8022708569
 40
1.0
 40
1.0
 40
1.0
 40
1.0
 10
28.0260717478
 20
88.7456357799
 30
0.0
 10
28.0260717478
 20
88.5023981917
 30
0.0
 10
28.0819221082
 20
87.9921845309
 30
0.0
 10
28.2947098
 20
87.2304942887
 30
0.0
 10
28.6287686642
 20
86.4757841407
 30
0.0
 10
29.0643492976
 20
85.7773868508
 30
0.0
 10
29.4986406208
 20
85.2689493961
 30
0.0
 10
29.8766984843
 20
84.9313388558
 30
0.0
 10
30.3808765977
 20
84.5622487865
 30
0.0
 10
30.8877187826
 20
84.3533298494
 30
0.0
 10
31.2746485141
 20
84.3677998827
 30
0.0
  0
SPLINE
  5
364
100
AcDbEntity
  8
0
100
AcDbSpline
 62
7
  6
CONTINUOUS
 70
0
 71
3
 72
9
 73
5
 74
0
 42
0.0000001
 43
0.0000001
 44
0.0000000001
 40
0.0
 40
0.0
 40
0.0
 40
0.0
 40
0.2566394886
 40
1.0
 40
1.0
 40
1.0
 40
1.0
 10
31.2746485141
 20
92.0052582026
 30
0.0
 10
30.2369310047
 20
92.6372499793
 30
0.0
 10
26.229152954
 20
95.1576166616
 30
0.0
 10
22.3682853851
 20
97.9143209641
 30
0.0
 10
19.6123943821
 20
100.1030869854
 30
0.0
  0
SPLINE
  5
365
100
AcDbEntity
  8
0
100
AcDbSpline
 62
7
  6
CONTINUOUS
 70
0
 71
3
 72
9
 73
5
 74
0
 42
0.0000001
 43
0.0000001
 44
0.0000000001
 40
0.0
 40
0.0
 40
0.0
 40
0.0
 40
0.2554835105
 40
1.0
 40
1.0
 40
1.0
 40
1.0
 10
50.5971222429
 20
82.2144558282
 30
0.0
 10
49.3750732902
 20
82.727328826
 30
0.0
 10
44.6164130156
 20
84.7926508844
 30
0.0
 10
39.9588724878
 20
87.0932905878
 30
0.0
 10
36.5709480834
 20
88.9475073962
 30
0.0
  0
SPLINE
  5
366
100
AcDbEntity
  8
0
100
AcDbSpline
 62
7
  6
CONTINUOUS
 70
0
 71
3
 72
11
 73
7
 74
0
 42
0.0000001
 43
0.0000001
 44
0.0000000001
 40
0.0
 40
0.0
 40
0.0
 40
0.0
 40
0.2281292966
 40
0.4781107756
 40
0.7394701857
 40
1.0
 40
1.0
 40
1.0
 40
1.0
 10
35.3723732353
 20
84.3322235413
 30
0.0
 10
35.3723732353
 20
84.0807216427
 30
0.0
 10
35.4361456338
 20
83.5530306271
 30
0.0
 10
35.6786195219
 20
82.7711260864
 30
0.0
 10
36.0564220428
 20
82.0050128602
 30
0.0
 10
36.3876588885
 20
81.5311859646
 30
0.0
 10
36.5709480834
 20
81.3100490762
 30
0.0
  0
SPLINE
  5
367
100
AcDbEntity
  8
0
100
AcDbSpline
 62
7
  6
CONTINUOUS
 70
0
 71
3
 72
8
 73
4
 74
0
 42
0.0000001
 43
0.0000001
 44
0.0000000001
 40
0.0
 40
0.0
 40
0.0
 40
0.0
 40
1.0
 40
1.0
 40
1.0
 40
1.0
 10
19.4078452102
 20
100.1463801296
 30
0.0
 10
19.4189837578
 20
100.1528041556
 30
0.0
 10
19.4313603129
 20
100.1574141349
 30
0.0
 10
19.4439791246
 20
100.1598841436
 30
0.0
  0
SPLINE
  5
368
100
AcDbEntity
  8
0
100
AcDbSpline
 62
7
  6
CONTINUOUS
 70
0
 71
3
 72
9
 73
5
 74
0
 42
0.0000001
 43
0.0000001
 44
0.0000000001
 40
0.0
 40
0.0
 40
0.0
 40
0.0
 40
0.2125225268
 40
1.0
 40
1.0
 40
1.0
 40
1.0
 10
19.4439791246
 20
100.1598841436
 30
0.0
 10
19.4565722762
 20
100.1623491297
 30
0.0
 10
19.5178965541
 20
100.1641689575
 30
0.0
 10
19.5747930281
 20
100.1319736144
 30
0.0
 10
19.6124975571
 20
100.1030050418
 30
0.0
  0
SPLINE
  5
369
100
AcDbEntity
  8
0
100
AcDbSpline
 62
7
  6
CONTINUOUS
 70
0
 71
3
 72
19
 73
15
 74
0
 42
0.0000001
 43
0.0000001
 44
0.0000000001
 40
0.0
 40
0.0
 40
0.0
 40
0.0
 40
0.0391284497
 40
0.0796993784
 40
0.1236521185
 40
0.1722756756
 40
0.2261801166
 40
0.2854411892
 40
0.3497310364
 40
0.4184156375
 40
0.5652893967
 40
0.7176693482
 40
0.8657345604
 40
1.0
 40
1.0
 40
1.0
 40
1.0
 10
35.0782050881
 20
107.3300417921
 30
0.0
 10
35.0082483139
 20
107.2896696226
 30
0.0
 10
34.8528420244
 20
107.2278142785
 30
0.0
 10
34.5956578995
 20
107.2044800116
 30
0.0
 10
34.3219264697
 20
107.248426225
 30
0.0
 10
34.0378624129
 20
107.3568723386
 30
0.0
 10
33.748649265
 20
107.526325021
 30
0.0
 10
33.4597225158
 20
107.752997255
 30
0.0
 10
33.1767029671
 20
108.0321946268
 30
0.0
 10
32.8064851138
 20
108.476597732
 30
0.0
 10
32.3990238741
 20
109.1217815851
 30
0.0
 10
32.0239598697
 20
109.9689458745
 30
0.0
 10
31.7811672011
 20
110.835884578
 30
0.0
 10
31.7151906833
 20
111.4190459637
 30
0.0
 10
31.7151906833
 20
111.696201776
 30
0.0
  0
SPLINE
  5
36A
100
AcDbEntity
  8
0
100
AcDbSpline
 62
7
  6
CONTINUOUS
 70
0
 71
3
 72
11
 73
7
 74
0
 42
0.0000001
 43
0.0000001
 44
0.0000000001
 40
0.0
 40
0.0
 40
0.0
 40
0.0
 40
0.2800346127
 40
0.5354413262
 40
0.7718534677
 40
1.0
 40
1.0
 40
1.0
 40
1.0
 10
53.4208196712
 20
98.5084960163
 30
0.0
 10
53.4208196712
 20
98.6717660012
 30
0.0
 10
53.4485720076
 20
98.9851916925
 30
0.0
 10
53.5881166878
 20
99.4177608357
 30
0.0
 10
53.8222015319
 20
99.7730930132
 30
0.0
 10
54.0369806936
 20
99.9465178944
 30
0.0
 10
54.1521871877
 20
100.0130092245
 30
0.0
  0
SPLINE
  5
36B
100
AcDbEntity
  8
0
100
AcDbSpline
 62
7
  6
CONTINUOUS
 70
0
 71
3
 72
11
 73
7
 74
0
 42
0.0000001
 43
0.0000001
 44
0.0000000001
 40
0.0
 40
0.0
 40
0.0
 40
0.0
 40
0.2877036956
 40
0.5460760536
 40
0.7797975357
 40
1.0
 40
1.0
 40
1.0
 40
1.0
 10
45.566420307
 20
102.5469107292
 30
0.0
 10
45.566420307
 20
102.7092333596
 30
0.0
 10
45.5914632816
 20
103.0184100538
 30
0.0
 10
45.7188606277
 20
103.4437182803
 30
0.0
 10
45.933705875
 20
103.7898823381
 30
0.0
 10
46.1347869066
 20
103.9573386928
 30
0.0
 10
46.2423910633
 20
104.0194395976
 30
0.0
  0
SPLINE
  5
36C
100
AcDbEntity
  8
0
100
AcDbSpline
 62
7
  6
CONTINUOUS
 70
0
 71
3
 72
9
 73
5
 74
0
 42
0.0000001
 43
0.0000001
 44
0.0000000001
 40
0.0
 40
0.0
 40
0.0
 40
0.0
 40
0.5097963705
 40
1.0
 40
1.0
 40
1.0
 40
1.0
 10
35.8944233121
 20
51.1979656825
 30
0.0
 10
33.4051598822
 20
52.4267549784
 30
0.0
 10
28.5952163816
 20
54.9885076201
 30
0.0
 10
23.9689241891
 20
57.8705796999
 30
0.0
 10
21.7577830925
 20
59.3659875207
 30
0.0
  0
ELLIPSE
  5
36D
100
AcDbEntity
  8
0
100
AcDbEllipse
 62
7
  6
CONTINUOUS
 10
133.0783980494
 20
141.7444945153
 30
0.0
 11
140.2644338007
 21
3.2668948115
 31
0.0
 40
0.5922520889
 41
-2.3432831353
 42
-2.2103359788
  0
ELLIPSE
  5
36E
100
AcDbEntity
  8
0
100
AcDbEllipse
 62
7
  6
CONTINUOUS
 10
118.8813246344
 20
133.0766855044
 30
0.0
 11
127.6878524888
 21
2.9739740253
 31
0.0
 40
0.5922520889
 41
-2.5459092302
 42
-2.1948532315
  0
ELLIPSE
  5
36F
100
AcDbEntity
  8
0
100
AcDbEllipse
 62
7
  6
CONTINUOUS
 10
133.0783980494
 20
141.7444945153
 30
0.0
 11
140.2644338007
 21
3.2668948115
 31
0.0
 40
0.5922520889
 41
-2.5296311772
 42
-2.3966840207
  0
ENDSEC
  0
SECTION
  2
OBJECTS
  0
DICTIONARY
  5
C
100
AcDbDictionary
280
0
281
1
  3
ACAD_GROUP
350
D
  3
ACAD_MLINESTYLE
350
17
  3
ACAD_LAYOUT
350
1A
  3
ACAD_PLOTSETTINGS
350
19
  3
ACAD_PLOTSTYLENAME
350
E
  0
DICTIONARY
  5
D
102
{ACAD_REACTORS
330
C
102
}
100
AcDbDictionary
280
0
281
1
  0
ACDBDICTIONARYWDFLT
  5
E
102
{ACAD_REACTORS
330
C
102
}
100
AcDbDictionary
281
1
  3
Normal
350
F
100
AcDbDictionaryWithDefault
340
F
  0
DICTIONARY
  5
17
102
{ACAD_REACTORS
330
C
102
}
100
AcDbDictionary
280
0
281
1
  3
Standard
350
18
  0
DICTIONARY
  5
19
102
{ACAD_REACTORS
330
C
102
}
100
AcDbDictionary
281
1
  0
DICTIONARY
  5
1A
102
{ACAD_REACTORS
330
C
102
}
100
AcDbDictionary
281
1
  3
Model
350
370
  3
Layout1
350
371
  0
ACDBPLACEHOLDER
  5
F
102
{ACAD_REACTORS
330
E
102
}
  0
MLINESTYLE
  5
18
102
{ACAD_REACTORS
330
17
102
}
100
AcDbMlineStyle
  2
STANDARD
 70
0
  3

 62
256
 51
90.0
 52
90.0
 71
2
 49
0.5
 62
256
  6
BYLAYER
 49
-0.5
 62
256
  6
BYLAYER
  0
LAYOUT
  5
370
102
{ACAD_REACTORS
330
1A
102
}
100
AcDbPlotSettings
  1

  2
none_device
  4

  6

 40
0.0
 41
0.0
 42
0.0
 43
0.0
 44
210.0
 45
297.0
 46
0.0
 47
0.0
 48
0.0
 49
0.0
140
0.0
141
0.0
142
1.0
143
1.0
 70
1024
 72
1
 73
0
 74
0
  7

 75
0
147
1.0
148
0.0
149
0.0
100
AcDbLayout
  1
Model
 70
0
 71
0
 10
0.0
 20
0.0
 11
210.0
 21
297.0
 12
0.0
 22
0.0
 32
0.0
 14
0.0
 24
0.0
 34
0.0
 15
0.0
 25
0.0
 35
0.0
146
0.0
 13
0.0
 23
0.0
 33
0.0
 16
1.0
 26
0.0
 36
0.0
 17
0.0
 27
1.0
 37
0.0
 76
0
330
210
345
0
346
0
  0
LAYOUT
  5
371
102
{ACAD_REACTORS
330
1A
102
}
100
AcDbPlotSettings
  1

  2
none_device
  4

  6

 40
0.0
 41
0.0
 42
0.0
 43
0.0
 44
210.0
 45
297.0
 46
0.0
 47
0.0
 48
0.0
 49
0.0
140
0.0
141
0.0
142
1.0
143
1.0
 70
0
 72
1
 73
0
 74
0
  7

 75
0
147
1.0
148
0.0
149
0.0
100
AcDbLayout
  1
Layout1
 70
0
 71
1
 10
0.0
 20
0.0
 11
210.0
 21
297.0
 12
0.0
 22
0.0
 32
0.0
 14
0.0
 24
0.0
 34
0.0
 15
0.0
 25
0.0
 35
0.0
146
0.0
 13
0.0
 23
0.0
 33
0.0
 16
1.0
 26
0.0
 36
0.0
 17
0.0
 27
1.0
 37
0.0
 76
0
330
211
345
0
346
0
  0
ENDSEC
  0
EOF
