999
DXF file: C:\Users\SESA730405\Desktop\New 2D genarating (3)\New 2D genarating\updateCreo8 with 3dPdf\CAD\LA9D3260\drw0001_1.dxf
999
Pro/ENGINEER 2021284 by Parametric Technology Corporation
  0
SECTION
  2
HEADER
  9
$ACADVER
  1
AC1024
  9
$DWGCODEPAGE
  3
ANSI_1252
  9
$EXTMAX
 10
74.0039712041
 20
104.6627592744
 30
0.0
  9
$EXTMIN
 10
0.0
 20
0.0
 30
0.0
  9
$LIMMIN
 10
0.0
 20
0.0
  9
$LIMMAX
 10
74.0039712041
 20
104.6627592744
  9
$VIEWCTR
 10
37.0019856021
 20
52.3313796372
  9
$VIEWSIZE
 40
104.6627592744
  9
$CLAYER
  8
0
  9
$LTSCALE
 40
6.8224613453
  9
$CELTYPE
  6
BYLAYER
  9
$DIMSCALE
 40
1.0
  9
$DIMASZ
 40
0.8809996572
  9
$DIMEXO
 40
1.0
  9
$DIMDLI
 40
4.7137005658
  9
$DIMEXE
 40
1.0
  9
$DIMCEN
 40
1.1164027656
  9
$DIMLFAC
 40
1.0
  9
$DIMBLK
  1
_FILLED
  9
$DIMALT
 70
0
  9
$DIMALTF
 40
0.0393700787
  9
$DIMTXT
 40
1.2333995201
  9
$DIMTOL
 70
1
  9
$DIMLIM
 70
0
  9
$DIMTFAC
 40
1.0
  9
$DIMTP
 40
0.01
  9
$DIMTM
 40
0.01
  9
$DIMGAP
 40
0.625
  9
$DIMDSEP
 70
46
  9
$AUNITS
 70
0
  9
$PDMODE
 70
3
  9
$PDSIZE
 40
0.3125
  9
$HANDSEED
  5
2BC
  9
$TILEMODE
 70
1
  9
$MEASUREMENT
 70
1
  9
$INSUNITS
 70
4
  0
ENDSEC
  0
SECTION
  2
CLASSES
  0
CLASS
  1
ACDBDICTIONARYWDFLT
  2
AcDbDictionaryWithDefault
  3
AutoCAD 2000
 90
0
 91
1
280
0
281
0
  0
CLASS
  1
ACDBPLACEHOLDER
  2
AcDbPlaceHolder
  3
AutoCAD 2000
 90
0
 91
1
280
0
281
0
  0
CLASS
  1
LAYOUT
  2
AcDbLayout
  3
AutoCAD 2000
 90
0
 91
0
280
0
281
0
  0
ENDSEC
  0
SECTION
  2
TABLES
  0
TABLE
  2
VPORT
  5
8
100
AcDbSymbolTable
 70
2
  0
VPORT
  5
1F4
100
AcDbSymbolTableRecord
100
AcDbViewportTableRecord
  2
*ACTIVE
 70
0
 10
0.0
 20
0.0
 11
1.0
 21
1.0
 12
37.0019856021
 22
52.3313796372
 13
0.0
 23
0.0
 14
1.0
 24
1.0
 15
0.0
 25
0.0
 16
0.0
 26
0.0
 36
1.0
 17
0.0
 27
0.0
 37
0.0
 40
104.6627592744
 41
0.7070707071
 42
50.0
 43
0.0
 44
0.0
 50
0.0
 51
0.0
 71
0
 72
100
 73
1
 74
1
 75
0
 76
0
 77
0
 78
0
  0
ENDTAB
  0
TABLE
  2
LTYPE
  5
5
100
AcDbSymbolTable
 70
6
  0
LTYPE
  5
14
100
AcDbSymbolTableRecord
100
AcDbLinetypeTableRecord
  2
BYBLOCK
 70
0
  3

 72
65
 73
0
 40
0.0
  0
LTYPE
  5
15
100
AcDbSymbolTableRecord
100
AcDbLinetypeTableRecord
  2
BYLAYER
 70
0
  3

 72
65
 73
0
 40
0.0
  0
LTYPE
  5
16
100
AcDbSymbolTableRecord
100
AcDbLinetypeTableRecord
  2
CONTINUOUS
 70
64
  3
Solid line
 72
65
 73
0
 40
0.0
  0
LTYPE
  5
1F5
100
AcDbSymbolTableRecord
100
AcDbLinetypeTableRecord
  2
CENTER
 70
64
  3
____ _ ____ _ ____ _ ____ _ ____ _ ____ _ ____
 72
65
 73
4
 40
0.6
 49
0.375
 74
0
 49
-0.075
 74
0
 49
0.075
 74
0
 49
-0.075
 74
0
  0
LTYPE
  5
1F6
100
AcDbSymbolTableRecord
100
AcDbLinetypeTableRecord
  2
HIDDEN
 70
64
  3
- - - - - - - - - - - - - - - - - - - -
 72
65
 73
2
 40
0.2
 49
0.1
 74
0
 49
-0.1
 74
0
  0
LTYPE
  5
1F7
100
AcDbSymbolTableRecord
100
AcDbLinetypeTableRecord
  2
PHANTOM
 70
64
  3
_____ _ _ _____ _ _ _____ _ _ _____
 72
65
 73
6
 40
0.8
 49
0.45
 74
0
 49
-0.05
 74
0
 49
0.1
 74
0
 49
-0.05
 74
0
 49
0.1
 74
0
 49
-0.05
 74
0
  0
LTYPE
  5
1F8
100
AcDbSymbolTableRecord
100
AcDbLinetypeTableRecord
  2
DOT
 70
64
  3
. . . . . . . . . . . . . . . . . . . .
 72
65
 73
2
 40
0.2
 49
0.1
 74
0
 49
-0.1
 74
0
  0
LTYPE
  5
1F9
100
AcDbSymbolTableRecord
100
AcDbLinetypeTableRecord
  2
DASHED
 70
64
  3
- - - - - - - - - - - - - - - - - - - -
 72
65
 73
2
 40
0.2
 49
0.1
 74
0
 49
-0.1
 74
0
  0
ENDTAB
  0
TABLE
  2
LAYER
  5
2
100
AcDbSymbolTable
 70
36
  0
LAYER
  5
10
100
AcDbSymbolTableRecord
100
AcDbLayerTableRecord
  2
0
 70
0
 62
7
  6
CONTINUOUS
370
-3
390
F
  0
LAYER
  5
1FA
100
AcDbSymbolTableRecord
100
AcDbLayerTableRecord
  2
DEFAULT_1
 70
0
 62
7
  6
CENTER
370
-3
390
F
  0
LAYER
  5
1FB
100
AcDbSymbolTableRecord
100
AcDbLayerTableRecord
  2
DEFAULT_2
 70
0
 62
8
  6
HIDDEN
370
-3
390
F
  0
LAYER
  5
1FC
100
AcDbSymbolTableRecord
100
AcDbLayerTableRecord
  2
DEFAULT_3
 70
0
 62
7
  6
PHANTOM
370
-3
390
F
  0
LAYER
  5
1FD
100
AcDbSymbolTableRecord
100
AcDbLayerTableRecord
  2
00_COMPONENTS
 70
0
 62
7
  6
CONTINUOUS
370
-3
390
F
  0
LAYER
  5
1FE
100
AcDbSymbolTableRecord
100
AcDbLayerTableRecord
  2
00_COMPONENTS_1
 70
0
 62
7
  6
CONTINUOUS
370
-3
390
F
  0
LAYER
  5
1FF
100
AcDbSymbolTableRecord
100
AcDbLayerTableRecord
  2
01_1_DEFAULT_DATUMS
 70
0
 62
7
  6
CONTINUOUS
370
-3
390
F
  0
LAYER
  5
200
100
AcDbSymbolTableRecord
100
AcDbLayerTableRecord
  2
01_PLANES
 70
0
 62
7
  6
CONTINUOUS
370
-3
390
F
  0
LAYER
  5
201
100
AcDbSymbolTableRecord
100
AcDbLayerTableRecord
  2
02_COORD_SYS
 70
0
 62
7
  6
CONTINUOUS
370
-3
390
F
  0
LAYER
  5
202
100
AcDbSymbolTableRecord
100
AcDbLayerTableRecord
  2
03_AXES
 70
0
 62
7
  6
CONTINUOUS
370
-3
390
F
  0
LAYER
  5
203
100
AcDbSymbolTableRecord
100
AcDbLayerTableRecord
  2
04_POINTS
 70
0
 62
7
  6
CONTINUOUS
370
-3
390
F
  0
LAYER
  5
204
100
AcDbSymbolTableRecord
100
AcDbLayerTableRecord
  2
05_CURVES
 70
0
 62
7
  6
CONTINUOUS
370
-3
390
F
  0
LAYER
  5
205
100
AcDbSymbolTableRecord
100
AcDbLayerTableRecord
  2
06_SURFS
 70
0
 62
7
  6
CONTINUOUS
370
-3
390
F
  0
LAYER
  5
206
100
AcDbSymbolTableRecord
100
AcDbLayerTableRecord
  2
07_COSMETICS
 70
0
 62
7
  6
CONTINUOUS
370
-3
390
F
  0
LAYER
  5
207
100
AcDbSymbolTableRecord
100
AcDbLayerTableRecord
  2
10_NOTES
 70
0
 62
7
  6
CONTINUOUS
370
-3
390
F
  0
LAYER
  5
208
100
AcDbSymbolTableRecord
100
AcDbLayerTableRecord
  2
11_NOTES_PUB
 70
0
 62
7
  6
CONTINUOUS
370
-3
390
F
  0
LAYER
  5
209
100
AcDbSymbolTableRecord
100
AcDbLayerTableRecord
  2
13_REF_GTOL
 70
0
 62
7
  6
CONTINUOUS
370
-3
390
F
  0
LAYER
  5
20A
100
AcDbSymbolTableRecord
100
AcDbLayerTableRecord
  2
16_MISC
 70
0
 62
7
  6
CONTINUOUS
370
-3
390
F
  0
LAYER
  5
20B
100
AcDbSymbolTableRecord
100
AcDbLayerTableRecord
  2
17_NO_PRINT
 70
0
 62
7
  6
CONTINUOUS
370
-3
390
F
  0
LAYER
  5
20C
100
AcDbSymbolTableRecord
100
AcDbLayerTableRecord
  2
18_DATUM_CAMS_JOINTS
 70
0
 62
7
  6
CONTINUOUS
370
-3
390
F
  0
LAYER
  5
20D
100
AcDbSymbolTableRecord
100
AcDbLayerTableRecord
  2
19_DATUM_FUNCTIONAL
 70
0
 62
7
  6
CONTINUOUS
370
-3
390
F
  0
LAYER
  5
20E
100
AcDbSymbolTableRecord
100
AcDbLayerTableRecord
  2
20_DATUM_KINEMATIC_SCHEME
 70
0
 62
7
  6
CONTINUOUS
370
-3
390
F
  0
ENDTAB
  0
TABLE
  2
STYLE
  5
3
100
AcDbSymbolTable
 70
1
  0
STYLE
  5
11
100
AcDbSymbolTableRecord
100
AcDbTextStyleTableRecord
  2
STANDARD
 70
0
 40
0.0
 41
0.8
 50
0.0
 71
0
 42
0.2
  3
txt
  4

  0
STYLE
  5
20F
100
AcDbSymbolTableRecord
100
AcDbTextStyleTableRecord
  2
TEXTSTYLE_1
 70
0
 40
0.0
 41
0.8
 50
0.0
 71
0
 42
0.2
  3
gdt
  4

  0
ENDTAB
  0
TABLE
  2
VIEW
  5
6
100
AcDbSymbolTable
 70
0
  0
ENDTAB
  0
TABLE
  2
UCS
  5
7
100
AcDbSymbolTable
 70
0
  0
ENDTAB
  0
TABLE
  2
APPID
  5
9
100
AcDbSymbolTable
 70
1
  0
APPID
  5
210
100
AcDbSymbolTableRecord
100
AcDbRegAppTableRecord
  2
ACAD
 70
0
  0
ENDTAB
  0
TABLE
  2
BLOCK_RECORD
  5
1
100
AcDbSymbolTable
 70
0
  0
BLOCK_RECORD
  5
211
100
AcDbSymbolTableRecord
100
AcDbBlockTableRecord
  2
*Model_Space
  0
BLOCK_RECORD
  5
212
100
AcDbSymbolTableRecord
100
AcDbBlockTableRecord
  2
*Paper_Space
  0
BLOCK_RECORD
  5
213
100
AcDbSymbolTableRecord
100
AcDbBlockTableRecord
  2
_FILLED
  0
ENDTAB
  0
TABLE
  2
DIMSTYLE
  5
A
100
AcDbSymbolTable
 70
1
100
AcDbDimStyleTable
 71
0
  0
DIMSTYLE
105
214
100
AcDbSymbolTableRecord
100
AcDbDimStyleTableRecord
  2
STANDARD
 70
0
  3

  4

 40
1.0
 41
0.8809996572
 42
1.0
 43
0.38
 44
1.0
 45
0.0
 46
0.0
 47
0.01
 48
0.01
140
1.2333995201
141
0.09
142
0.0
143
25.4
144
1.0
145
0.0
146
1.0
147
0.625
 71
1
 72
0
 73
0
 74
0
 75
0
 76
0
 77
1
 78
8
 79
2
170
0
171
1
172
0
173
0
174
0
175
0
176
0
177
0
178
0
270
2
179
2
271
2
272
2
273
2
274
2
275
0
280
0
281
0
282
0
283
1
284
8
285
0
286
0
287
3
288
0
340
11
278
46
341
213
342
213
343
213
344
213
  0
ENDTAB
  0
ENDSEC
  0
SECTION
  2
BLOCKS
  0
BLOCK
  5
20
100
AcDbEntity
  8
0
100
AcDbBlockBegin
  2
*Model_Space
 70
0
 10
0.0
 20
0.0
 30
0.0
  3
*Model_Space
  1

  0
ENDBLK
  5
21
100
AcDbEntity
  8
0
100
AcDbBlockEnd
  0
BLOCK
  5
1C
100
AcDbEntity
  8
0
100
AcDbBlockBegin
  2
*Paper_Space
 70
0
 10
0.0
 20
0.0
 30
0.0
  3
*Paper_Space
  1

  0
ENDBLK
  5
1D
100
AcDbEntity
  8
0
100
AcDbBlockEnd
  0
BLOCK
  5
215
100
AcDbEntity
  8
0
100
AcDbBlockBegin
  2
_FILLED
 70
64
 10
0.0
 20
0.0
  3
_FILLED
  1

  0
SOLID
  5
216
100
AcDbEntity
  8
0
  6
BYBLOCK
 62
0
100
AcDbTrace
 10
0.0
 20
0.0
 11
-1.0
 21
0.25
 12
-1.0
 22
-0.25
 13
-1.0
 23
-0.25
  0
ENDBLK
  5
217
100
AcDbEntity
  8
0
  6
BYBLOCK
 62
0
100
AcDbBlockEnd
  0
ENDSEC
  0
SECTION
  2
ENTITIES
  0
LINE
  5
218
100
AcDbEntity
  8
00_COMPONENTS_1
100
AcDbLine
 62
7
  6
CONTINUOUS
 10
8.7056681718
 20
50.7428082164
 11
8.5853120956
 21
56.1195599678
  0
LINE
  5
219
100
AcDbEntity
  8
00_COMPONENTS_1
100
AcDbLine
 62
7
  6
CONTINUOUS
 10
8.5853120956
 20
56.1195599678
 11
8.6964100144
 21
60.9544335083
  0
LINE
  5
21A
100
AcDbEntity
  8
00_COMPONENTS_1
100
AcDbLine
 62
7
  6
CONTINUOUS
 10
19.4270269153
 20
72.4770379366
 11
34.2762074968
 21
81.0501651679
  0
LINE
  5
21B
100
AcDbEntity
  8
00_COMPONENTS_1
100
AcDbLine
 62
7
  6
CONTINUOUS
 10
20.4820283813
 20
71.8679463357
 11
35.3312089628
 21
80.441073567
  0
LINE
  5
21C
100
AcDbEntity
  8
00_COMPONENTS_1
100
AcDbLine
 62
7
  6
CONTINUOUS
 10
29.1997741339
 20
75.9794372449
 11
35.3515771311
 21
79.5311616068
  0
LINE
  5
21D
100
AcDbEntity
  8
00_COMPONENTS_1
100
AcDbLine
 62
7
  6
CONTINUOUS
 10
19.3102405761
 20
67.3946098647
 11
8.6964100144
 21
60.9544335083
  0
LINE
  5
21E
100
AcDbEntity
  8
00_COMPONENTS_1
100
AcDbLine
 62
7
  6
CONTINUOUS
 10
22.4597198534
 20
69.9095925874
 11
20.5505394932
 21
68.8073333587
  0
LINE
  5
21F
100
AcDbEntity
  8
00_COMPONENTS_1
100
AcDbLine
 62
7
  6
CONTINUOUS
 10
29.2694035653
 20
72.868848273
 11
23.3017628286
 21
69.4234498535
  0
LINE
  5
220
100
AcDbEntity
  8
00_COMPONENTS_1
100
AcDbLine
 62
7
  6
CONTINUOUS
 10
16.7687099224
 20
52.4641585773
 11
16.7687099224
 21
53.0741211026
  0
LINE
  5
221
100
AcDbEntity
  8
00_COMPONENTS_1
100
AcDbLine
 62
7
  6
CONTINUOUS
 10
25.2450218075
 20
68.3015341401
 11
31.2126625551
 21
71.7469325659
  0
LINE
  5
222
100
AcDbEntity
  8
00_COMPONENTS_1
100
AcDbLine
 62
7
  6
CONTINUOUS
 10
20.4820283813
 20
71.8679463357
 11
20.5505399245
 21
68.8073331228
  0
LINE
  5
223
100
AcDbEntity
  8
00_COMPONENTS_1
100
AcDbLine
 62
7
  6
CONTINUOUS
 10
19.3102405761
 20
67.3946098647
 11
19.4270269153
 21
72.4770379366
  0
LINE
  5
224
100
AcDbEntity
  8
00_COMPONENTS_1
100
AcDbLine
 62
7
  6
CONTINUOUS
 10
27.578524224
 20
66.9543163699
 11
31.2126625551
 21
69.0524745894
  0
LINE
  5
225
100
AcDbEntity
  8
00_COMPONENTS_1
100
AcDbLine
 62
7
  6
CONTINUOUS
 10
29.7457995889
 20
66.5196265305
 11
44.5949801704
 21
75.0927537618
  0
LINE
  5
226
100
AcDbEntity
  8
00_COMPONENTS_1
100
AcDbLine
 62
7
  6
CONTINUOUS
 10
50.3046828358
 20
23.8680248796
 11
48.9611743581
 21
24.6436823132
  0
LINE
  5
227
100
AcDbEntity
  8
00_COMPONENTS_1
100
AcDbLine
 62
7
  6
CONTINUOUS
 10
45.9913135124
 20
26.3582934821
 11
44.6478050347
 21
27.1339509157
  0
LINE
  5
228
100
AcDbEntity
  8
00_COMPONENTS_1
100
AcDbLine
 62
7
  6
CONTINUOUS
 10
40.0515918212
 20
29.7875158201
 11
38.7080833434
 21
30.5631732537
  0
LINE
  5
229
100
AcDbEntity
  8
00_COMPONENTS_1
100
AcDbLine
 62
7
  6
CONTINUOUS
 10
35.7382224978
 20
32.2777844227
 11
34.39471402
 21
33.0534418563
  0
LINE
  5
22A
100
AcDbEntity
  8
00_COMPONENTS_1
100
AcDbLine
 62
7
  6
CONTINUOUS
 10
29.7985008066
 20
35.7070067607
 11
28.4549923288
 21
36.4826641942
  0
LINE
  5
22B
100
AcDbEntity
  8
00_COMPONENTS_1
100
AcDbLine
 62
7
  6
CONTINUOUS
 10
25.4851314832
 20
38.1972753632
 11
24.1416230054
 21
38.9729327968
  0
LINE
  5
22C
100
AcDbEntity
  8
00_COMPONENTS_1
100
AcDbLine
 62
7
  6
CONTINUOUS
 10
24.1416230054
 20
38.9729327968
 11
24.1416230054
 21
41.8310571488
  0
LINE
  5
22D
100
AcDbEntity
  8
00_COMPONENTS_1
100
AcDbLine
 62
7
  6
CONTINUOUS
 10
30.9118968273
 20
65.8463952065
 11
45.7610774088
 21
74.4195224378
  0
LINE
  5
22E
100
AcDbEntity
  8
00_COMPONENTS_1
100
AcDbLine
 62
7
  6
CONTINUOUS
 10
39.6296425799
 20
69.9578861157
 11
45.7814455771
 21
73.5096104775
  0
LINE
  5
22F
100
AcDbEntity
  8
00_COMPONENTS_1
100
AcDbLine
 62
7
  6
CONTINUOUS
 10
15.0104058193
 20
55.3915351613
 11
14.6911059237
 21
55.207188381
  0
LINE
  5
230
100
AcDbEntity
  8
00_COMPONENTS_1
100
AcDbLine
 62
7
  6
CONTINUOUS
 10
40.9920033691
 20
32.1027055946
 11
8.7056681718
 21
50.7428082164
  0
LINE
  5
231
100
AcDbEntity
  8
00_COMPONENTS_1
100
AcDbLine
 62
7
  6
CONTINUOUS
 10
49.1860253633
 20
29.4766869004
 11
47.8071613992
 21
30.2727563717
  0
LINE
  5
232
100
AcDbEntity
  8
00_COMPONENTS_1
100
AcDbLine
 62
7
  6
CONTINUOUS
 10
25.4851314832
 20
41.0553997152
 11
25.4851314832
 21
38.1972753632
  0
LINE
  5
233
100
AcDbEntity
  8
00_COMPONENTS_1
100
AcDbLine
 62
7
  6
CONTINUOUS
 10
26.545787239
 20
40.4430436824
 11
26.545787239
 21
38.809641594
  0
LINE
  5
234
100
AcDbEntity
  8
00_COMPONENTS_1
100
AcDbLine
 62
7
  6
CONTINUOUS
 10
27.021800937
 20
46.5446676367
 11
27.021800937
 21
47.1546301621
  0
LINE
  5
235
100
AcDbEntity
  8
00_COMPONENTS_1
100
AcDbLine
 62
7
  6
CONTINUOUS
 10
32.8895882994
 20
63.8880414582
 11
30.9804079392
 21
62.7857822295
  0
LINE
  5
236
100
AcDbEntity
  8
00_COMPONENTS_1
100
AcDbLine
 62
7
  6
CONTINUOUS
 10
39.6992720113
 20
66.8472971438
 11
33.7316312746
 21
63.4018987243
  0
LINE
  5
237
100
AcDbEntity
  8
00_COMPONENTS_1
100
AcDbLine
 62
7
  6
CONTINUOUS
 10
47.9704600651
 20
31.758524845
 11
46.0995404053
 21
32.8386763779
  0
LINE
  5
238
100
AcDbEntity
  8
00_COMPONENTS_1
100
AcDbLine
 62
7
  6
CONTINUOUS
 10
29.2694038444
 20
72.8688481203
 11
29.1997741339
 21
75.9794372391
  0
LINE
  5
239
100
AcDbEntity
  8
00_COMPONENTS_1
100
AcDbLine
 62
7
  6
CONTINUOUS
 10
28.4549923288
 20
36.4826641942
 11
28.4549923288
 21
39.3407885462
  0
LINE
  5
23A
100
AcDbEntity
  8
00_COMPONENTS_1
100
AcDbLine
 62
7
  6
CONTINUOUS
 10
29.6772859193
 20
63.5381231121
 11
29.7457995889
 21
66.5196265305
  0
LINE
  5
23B
100
AcDbEntity
  8
00_COMPONENTS_1
100
AcDbLine
 62
7
  6
CONTINUOUS
 10
16.7687099224
 20
52.4641585773
 11
16.9599621417
 21
52.5745774385
  0
LINE
  5
23C
100
AcDbEntity
  8
00_COMPONENTS_1
100
AcDbLine
 62
7
  6
CONTINUOUS
 10
35.4981128221
 20
62.3820431995
 11
41.4657535698
 21
65.8274416253
  0
LINE
  5
23D
100
AcDbEntity
  8
00_COMPONENTS_1
100
AcDbLine
 62
7
  6
CONTINUOUS
 10
14.6911059237
 20
55.207188381
 11
15.9091785146
 21
54.5039497522
  0
LINE
  5
23E
100
AcDbEntity
  8
00_COMPONENTS_1
100
AcDbLine
 62
7
  6
CONTINUOUS
 10
24.9441969383
 20
49.2876974405
 11
26.1622695292
 21
48.5844588116
  0
LINE
  5
23F
100
AcDbEntity
  8
00_COMPONENTS_1
100
AcDbLine
 62
7
  6
CONTINUOUS
 10
35.197287953
 20
43.3682064999
 11
36.4153605438
 21
42.6649678711
  0
LINE
  5
240
100
AcDbEntity
  8
00_COMPONENTS_1
100
AcDbLine
 62
7
  6
CONTINUOUS
 10
30.9118968273
 20
65.8463952065
 11
30.9804083704
 21
62.7857819936
  0
LINE
  5
241
100
AcDbEntity
  8
00_COMPONENTS_1
100
AcDbLine
 62
7
  6
CONTINUOUS
 10
29.7985008066
 20
38.5651311127
 11
29.7985008066
 21
35.7070067607
  0
LINE
  5
242
100
AcDbEntity
  8
00_COMPONENTS_1
100
AcDbLine
 62
7
  6
CONTINUOUS
 10
30.8591565624
 20
37.9527750799
 11
30.8591565624
 21
36.3193729915
  0
LINE
  5
243
100
AcDbEntity
  8
00_COMPONENTS_1
100
AcDbLine
 62
7
  6
CONTINUOUS
 10
31.2126625551
 20
69.0524745894
 11
31.2126625551
 21
71.7469325659
  0
LINE
  5
244
100
AcDbEntity
  8
00_COMPONENTS_1
100
AcDbLine
 62
7
  6
CONTINUOUS
 10
37.8316152386
 20
61.0348254294
 11
41.4657535698
 21
63.1329836488
  0
LINE
  5
245
100
AcDbEntity
  8
00_COMPONENTS_1
100
AcDbLine
 62
7
  6
CONTINUOUS
 10
39.9988906036
 20
60.6001355899
 11
54.8480711851
 21
69.1732628212
  0
LINE
  5
246
100
AcDbEntity
  8
00_COMPONENTS_1
100
AcDbLine
 62
7
  6
CONTINUOUS
 10
41.0012615312
 20
42.3036407263
 11
8.6964100144
 21
60.9544335083
  0
LINE
  5
247
100
AcDbEntity
  8
00_COMPONENTS_1
100
AcDbLine
 62
7
  6
CONTINUOUS
 10
34.39471402
 20
33.0534418563
 11
34.39471402
 21
35.9115662083
  0
LINE
  5
248
100
AcDbEntity
  8
00_COMPONENTS_1
100
AcDbLine
 62
7
  6
CONTINUOUS
 10
41.164987842
 20
59.9269042659
 11
56.0141684235
 21
68.5000314972
  0
LINE
  5
249
100
AcDbEntity
  8
00_COMPONENTS_1
100
AcDbLine
 62
7
  6
CONTINUOUS
 10
49.8827335946
 20
64.0383951751
 11
56.0345365918
 21
67.590119537
  0
LINE
  5
24A
100
AcDbEntity
  8
00_COMPONENTS_1
100
AcDbLine
 62
7
  6
CONTINUOUS
 10
25.2634968339
 20
49.4720442207
 11
24.9441969383
 21
49.2876974405
  0
LINE
  5
24B
100
AcDbEntity
  8
00_COMPONENTS_1
100
AcDbLine
 62
7
  6
CONTINUOUS
 10
35.3515771311
 20
79.5311616068
 11
35.3312089628
 21
80.441073567
  0
LINE
  5
24C
100
AcDbEntity
  8
00_COMPONENTS_1
100
AcDbLine
 62
7
  6
CONTINUOUS
 10
35.7382224978
 20
35.1359087747
 11
35.7382224978
 21
32.2777844227
  0
LINE
  5
24D
100
AcDbEntity
  8
00_COMPONENTS_1
100
AcDbLine
 62
7
  6
CONTINUOUS
 10
36.7988782536
 20
34.5235527419
 11
36.7988782536
 21
32.8901506535
  0
LINE
  5
24E
100
AcDbEntity
  8
00_COMPONENTS_1
100
AcDbLine
 62
7
  6
CONTINUOUS
 10
37.2748919517
 20
40.6251766962
 11
37.2748919517
 21
41.2351392215
  0
LINE
  5
24F
100
AcDbEntity
  8
00_COMPONENTS_1
100
AcDbLine
 62
7
  6
CONTINUOUS
 10
43.1426793141
 20
57.9685505176
 11
41.2334989539
 21
56.8662912889
  0
LINE
  5
250
100
AcDbEntity
  8
00_COMPONENTS_1
100
AcDbLine
 62
7
  6
CONTINUOUS
 10
49.952363026
 20
60.9278062032
 11
43.9847222893
 21
57.4824077837
  0
LINE
  5
251
100
AcDbEntity
  8
00_COMPONENTS_1
100
AcDbLine
 62
7
  6
CONTINUOUS
 10
27.021800937
 20
46.5446676367
 11
27.2130531563
 21
46.6550864979
  0
LINE
  5
252
100
AcDbEntity
  8
00_COMPONENTS_1
100
AcDbLine
 62
7
  6
CONTINUOUS
 10
39.6992722903
 20
66.8472969911
 11
39.6296425799
 21
69.9578861098
  0
LINE
  5
253
100
AcDbEntity
  8
00_COMPONENTS_1
100
AcDbLine
 62
7
  6
CONTINUOUS
 10
38.7080833434
 20
30.5631732537
 11
38.7080833434
 21
33.4212976057
  0
LINE
  5
254
100
AcDbEntity
  8
00_COMPONENTS_1
100
AcDbLine
 62
7
  6
CONTINUOUS
 10
40.0515918212
 20
32.6456401721
 11
40.0515918212
 21
29.7875158201
  0
LINE
  5
255
100
AcDbEntity
  8
00_COMPONENTS_1
100
AcDbLine
 62
7
  6
CONTINUOUS
 10
39.930376934
 20
57.6186321716
 11
39.9988906036
 21
60.6001355899
  0
LINE
  5
256
100
AcDbEntity
  8
00_COMPONENTS_1
100
AcDbLine
 62
7
  6
CONTINUOUS
 10
45.7512038368
 20
56.462552259
 11
51.7188445844
 21
59.9079506848
  0
LINE
  5
257
100
AcDbEntity
  8
00_COMPONENTS_1
100
AcDbLine
 62
7
  6
CONTINUOUS
 10
48.0847062532
 20
55.1153344888
 11
51.7188445844
 21
57.2134927083
  0
LINE
  5
258
100
AcDbEntity
  8
00_COMPONENTS_1
100
AcDbLine
 62
7
  6
CONTINUOUS
 10
41.0012615312
 20
42.3036407263
 11
41.1123594478
 21
37.3404852626
  0
LINE
  5
259
100
AcDbEntity
  8
00_COMPONENTS_1
100
AcDbLine
 62
7
  6
CONTINUOUS
 10
41.164987842
 20
59.9269042659
 11
41.2334993851
 21
56.866291053
  0
LINE
  5
25A
100
AcDbEntity
  8
00_COMPONENTS_1
100
AcDbLine
 62
7
  6
CONTINUOUS
 10
41.112247577
 20
32.1685851301
 11
41.112247577
 21
30.3998820509
  0
LINE
  5
25B
100
AcDbEntity
  8
00_COMPONENTS_1
100
AcDbLine
 62
7
  6
CONTINUOUS
 10
41.4657535698
 20
63.1329836488
 11
41.4657535698
 21
65.8274416253
  0
LINE
  5
25C
100
AcDbEntity
  8
00_COMPONENTS_1
100
AcDbLine
 62
7
  6
CONTINUOUS
 10
41.1123594478
 20
37.3404852626
 11
40.9920033691
 21
32.1027055946
  0
LINE
  5
25D
100
AcDbEntity
  8
00_COMPONENTS_1
100
AcDbLine
 62
7
  6
CONTINUOUS
 10
50.3176604976
 20
54.6427257885
 11
65.1668410791
 21
63.2158530198
  0
LINE
  5
25E
100
AcDbEntity
  8
00_COMPONENTS_1
100
AcDbLine
 62
7
  6
CONTINUOUS
 10
51.4837597493
 20
53.9694933022
 11
66.3329403308
 21
62.5426205335
  0
LINE
  5
25F
100
AcDbEntity
  8
00_COMPONENTS_1
100
AcDbLine
 62
7
  6
CONTINUOUS
 10
51.6005460861
 20
48.7522150336
 11
19.3102405761
 21
67.3946098647
  0
LINE
  5
260
100
AcDbEntity
  8
00_COMPONENTS_1
100
AcDbLine
 62
7
  6
CONTINUOUS
 10
50.2491488099
 20
51.6612211916
 11
41.2334993851
 21
56.8662910596
  0
LINE
  5
261
100
AcDbEntity
  8
00_COMPONENTS_1
100
AcDbLine
 62
7
  6
CONTINUOUS
 10
39.930376934
 20
57.6186321373
 11
30.9804083704
 21
62.7857820001
  0
LINE
  5
262
100
AcDbEntity
  8
00_COMPONENTS_1
100
AcDbLine
 62
7
  6
CONTINUOUS
 10
29.6772859193
 20
63.5381230778
 11
20.5505399245
 21
68.8073331293
  0
LINE
  5
263
100
AcDbEntity
  8
00_COMPONENTS_1
100
AcDbLine
 62
7
  6
CONTINUOUS
 10
46.0527403059
 20
34.8753879907
 11
46.0995404053
 21
32.8386763779
  0
LINE
  5
264
100
AcDbEntity
  8
00_COMPONENTS_1
100
AcDbLine
 62
7
  6
CONTINUOUS
 10
44.6478050347
 20
27.1339509157
 11
44.6478050347
 21
34.1056504322
  0
LINE
  5
265
100
AcDbEntity
  8
00_COMPONENTS_1
100
AcDbLine
 62
7
  6
CONTINUOUS
 10
45.9913135124
 20
30.0325543592
 11
45.9913135124
 21
26.3582934821
  0
LINE
  5
266
100
AcDbEntity
  8
00_COMPONENTS_1
100
AcDbLine
 62
7
  6
CONTINUOUS
 10
25.4851314832
 20
38.1972753632
 11
26.545787239
 21
38.809641594
  0
LINE
  5
267
100
AcDbEntity
  8
00_COMPONENTS_1
100
AcDbLine
 62
7
  6
CONTINUOUS
 10
35.5165878486
 20
43.5525532802
 11
35.197287953
 21
43.3682064999
  0
LINE
  5
268
100
AcDbEntity
  8
00_COMPONENTS_1
100
AcDbLine
 62
7
  6
CONTINUOUS
 10
50.2991425451
 20
53.8368580226
 11
43.1426795297
 21
57.9685503996
  0
LINE
  5
269
100
AcDbEntity
  8
00_COMPONENTS_1
100
AcDbLine
 62
7
  6
CONTINUOUS
 10
39.9803721151
 20
59.7942681334
 11
32.889588515
 21
63.8880413402
  0
LINE
  5
26A
100
AcDbEntity
  8
00_COMPONENTS_1
100
AcDbLine
 62
7
  6
CONTINUOUS
 10
29.7272811005
 20
65.713759074
 11
22.459720069
 21
69.9095924694
  0
LINE
  5
26B
100
AcDbEntity
  8
00_COMPONENTS_1
100
AcDbLine
 62
7
  6
CONTINUOUS
 10
19.4270269153
 20
72.4770379366
 11
20.4820283813
 21
71.8679463357
  0
LINE
  5
26C
100
AcDbEntity
  8
00_COMPONENTS_1
100
AcDbLine
 62
7
  6
CONTINUOUS
 10
29.7457995889
 20
66.5196265305
 11
30.9118968273
 21
65.8463952065
  0
LINE
  5
26D
100
AcDbEntity
  8
00_COMPONENTS_1
100
AcDbLine
 62
7
  6
CONTINUOUS
 10
39.9988906036
 20
60.6001355899
 11
41.164987842
 21
59.9269042659
  0
LINE
  5
26E
100
AcDbEntity
  8
00_COMPONENTS_1
100
AcDbLine
 62
7
  6
CONTINUOUS
 10
50.3176604976
 20
54.6427257885
 11
51.4837597493
 21
53.9694933022
  0
LINE
  5
26F
100
AcDbEntity
  8
00_COMPONENTS_1
100
AcDbLine
 62
7
  6
CONTINUOUS
 10
47.7703665351
 20
31.8740462849
 11
47.8071613992
 21
30.2727563717
  0
LINE
  5
270
100
AcDbEntity
  8
00_COMPONENTS_1
100
AcDbLine
 62
7
  6
CONTINUOUS
 10
49.1860253633
 20
29.4766869004
 11
49.1183640994
 21
32.4212635922
  0
LINE
  5
271
100
AcDbEntity
  8
00_COMPONENTS_1
100
AcDbLine
 62
7
  6
CONTINUOUS
 10
45.7814455771
 20
73.5096104775
 11
45.7610774088
 21
74.4195224378
  0
LINE
  5
272
100
AcDbEntity
  8
00_COMPONENTS_1
100
AcDbLine
 62
7
  6
CONTINUOUS
 10
47.0519692683
 20
30.64492059
 11
47.0519692683
 21
26.970659713
  0
LINE
  5
273
100
AcDbEntity
  8
00_COMPONENTS_1
100
AcDbLine
 62
7
  6
CONTINUOUS
 10
47.9704608732
 20
35.9260709493
 11
47.9704600651
 21
31.758524845
  0
LINE
  5
274
100
AcDbEntity
  8
00_COMPONENTS_1
100
AcDbLine
 62
7
  6
CONTINUOUS
 10
41.0012615312
 20
42.3036407263
 11
51.6005460861
 21
48.7522150336
  0
LINE
  5
275
100
AcDbEntity
  8
00_COMPONENTS_1
100
AcDbLine
 62
7
  6
CONTINUOUS
 10
37.2748919517
 20
40.6251766962
 11
37.466144171
 21
40.7355955574
  0
LINE
  5
276
100
AcDbEntity
  8
00_COMPONENTS_1
100
AcDbLine
 62
7
  6
CONTINUOUS
 10
29.7985008066
 20
35.7070067607
 11
30.8591565624
 21
36.3193729915
  0
LINE
  5
277
100
AcDbEntity
  8
00_COMPONENTS_1
100
AcDbLine
 62
7
  6
CONTINUOUS
 10
31.2126625551
 20
69.0524745894
 11
32.6727670863
 21
68.2095019158
  0
LINE
  5
278
100
AcDbEntity
  8
00_COMPONENTS_1
100
AcDbLine
 62
7
  6
CONTINUOUS
 10
41.4657535698
 20
63.1329836488
 11
42.925858101
 21
62.2900109752
  0
LINE
  5
279
100
AcDbEntity
  8
00_COMPONENTS_1
100
AcDbLine
 62
7
  6
CONTINUOUS
 10
51.7188445844
 20
57.2134927083
 11
53.244627995
 21
56.3326011738
  0
LINE
  5
27A
100
AcDbEntity
  8
00_COMPONENTS_1
100
AcDbLine
 62
7
  6
CONTINUOUS
 10
49.952363305
 20
60.9278060506
 11
49.8827335946
 21
64.0383951693
  0
LINE
  5
27B
100
AcDbEntity
  8
00_COMPONENTS_1
100
AcDbLine
 62
7
  6
CONTINUOUS
 10
48.9611743581
 20
24.6436823132
 11
48.9611743581
 21
28.3179431902
  0
LINE
  5
27C
100
AcDbEntity
  8
00_COMPONENTS_1
100
AcDbLine
 62
7
  6
CONTINUOUS
 10
50.3046828358
 20
30.1225402381
 11
50.3046828358
 21
23.8680248796
  0
LINE
  5
27D
100
AcDbEntity
  8
00_COMPONENTS_1
100
AcDbLine
 62
7
  6
CONTINUOUS
 10
51.3653385917
 20
30.7349064689
 11
51.3653385917
 21
24.4803911104
  0
LINE
  5
27E
100
AcDbEntity
  8
00_COMPONENTS_1
100
AcDbLine
 62
7
  6
CONTINUOUS
 10
50.2491488099
 20
51.6612211851
 11
50.3176604976
 21
54.6427257885
  0
LINE
  5
27F
100
AcDbEntity
  8
00_COMPONENTS_1
100
AcDbLine
 62
7
  6
CONTINUOUS
 10
51.7188445844
 20
59.9079506848
 11
49.952363305
 21
60.9278060506
  0
LINE
  5
280
100
AcDbEntity
  8
00_COMPONENTS_1
100
AcDbLine
 62
7
  6
CONTINUOUS
 10
41.4657535698
 20
65.8274416253
 11
39.6992722903
 21
66.8472969911
  0
LINE
  5
281
100
AcDbEntity
  8
00_COMPONENTS_1
100
AcDbLine
 62
7
  6
CONTINUOUS
 10
31.2126625551
 20
71.7469325659
 11
29.2694038444
 21
72.8688481203
  0
LINE
  5
282
100
AcDbEntity
  8
00_COMPONENTS_1
100
AcDbLine
 62
7
  6
CONTINUOUS
 10
51.4837597493
 20
53.9694933022
 11
51.6005460861
 21
48.7522150336
  0
LINE
  5
283
100
AcDbEntity
  8
00_COMPONENTS_1
100
AcDbLine
 62
7
  6
CONTINUOUS
 10
51.7188445844
 20
57.2134927083
 11
51.7188445844
 21
59.9079506848
  0
LINE
  5
284
100
AcDbEntity
  8
00_COMPONENTS_1
100
AcDbLine
 62
7
  6
CONTINUOUS
 10
41.1123594478
 20
37.3404852625
 11
66.5680975875
 21
52.0372748019
  0
LINE
  5
285
100
AcDbEntity
  8
00_COMPONENTS_1
100
AcDbLine
 62
7
  6
CONTINUOUS
 10
35.7382224978
 20
32.2777844227
 11
36.7988782536
 21
32.8901506535
  0
LINE
  5
286
100
AcDbEntity
  8
00_COMPONENTS_1
100
AcDbLine
 62
7
  6
CONTINUOUS
 10
29.1997741339
 20
75.9794372391
 11
37.6653426474
 21
71.0919495541
  0
LINE
  5
287
100
AcDbEntity
  8
00_COMPONENTS_1
100
AcDbLine
 62
7
  6
CONTINUOUS
 10
39.6296425799
 20
69.9578861098
 11
47.9184336621
 21
65.1724586135
  0
LINE
  5
288
100
AcDbEntity
  8
00_COMPONENTS_1
100
AcDbLine
 62
7
  6
CONTINUOUS
 10
49.8827335946
 20
64.0383951693
 11
58.2372035561
 21
59.2150488121
  0
LINE
  5
289
100
AcDbEntity
  8
00_COMPONENTS_1
100
AcDbLine
 62
7
  6
CONTINUOUS
 10
56.0345365918
 20
67.590119537
 11
56.0141684235
 21
68.5000314972
  0
LINE
  5
28A
100
AcDbEntity
  8
00_COMPONENTS_1
100
AcDbLine
 62
7
  6
CONTINUOUS
 10
58.8723120063
 20
38.9257919742
 11
58.8723120063
 21
37.242259762
  0
LINE
  5
28B
100
AcDbEntity
  8
00_COMPONENTS_1
100
AcDbLine
 62
7
  6
CONTINUOUS
 10
53.3803342654
 20
34.8818985268
 11
51.8885307859
 21
31.03696982
  0
LINE
  5
28C
100
AcDbEntity
  8
00_COMPONENTS_1
100
AcDbLine
 62
7
  6
CONTINUOUS
 10
40.0515918212
 20
29.7875158201
 11
41.112247577
 21
30.3998820509
  0
LINE
  5
28D
100
AcDbEntity
  8
00_COMPONENTS_1
100
AcDbLine
 62
7
  6
CONTINUOUS
 10
60.8638947141
 20
41.3493386145
 11
66.3958958379
 21
44.5432218876
  0
LINE
  5
28E
100
AcDbEntity
  8
00_COMPONENTS_1
100
AcDbLine
 62
7
  6
CONTINUOUS
 10
47.9704608732
 20
35.9260709493
 11
40.9920033691
 21
32.1027055946
  0
LINE
  5
28F
100
AcDbEntity
  8
00_COMPONENTS_1
100
AcDbLine
 62
7
  6
CONTINUOUS
 10
61.875212219
 20
41.9332195629
 11
61.875212219
 21
37.242259762
  0
LINE
  5
290
100
AcDbEntity
  8
00_COMPONENTS_1
100
AcDbLine
 62
7
  6
CONTINUOUS
 10
47.9704600651
 20
31.758524845
 11
57.5071016093
 21
37.2644745416
  0
LINE
  5
291
100
AcDbEntity
  8
00_COMPONENTS_1
100
AcDbLine
 62
7
  6
CONTINUOUS
 10
47.0519692683
 20
30.64492059
 11
45.9913135124
 21
30.0325543592
  0
LINE
  5
292
100
AcDbEntity
  8
00_COMPONENTS_1
100
AcDbLine
 62
7
  6
CONTINUOUS
 10
35.3515771311
 20
79.5311616068
 11
43.8171460316
 21
74.643673693
  0
LINE
  5
293
100
AcDbEntity
  8
00_COMPONENTS_1
100
AcDbLine
 62
7
  6
CONTINUOUS
 10
45.7814455771
 20
73.5096104775
 11
54.0702370463
 21
68.7241827524
  0
LINE
  5
294
100
AcDbEntity
  8
00_COMPONENTS_1
100
AcDbLine
 62
7
  6
CONTINUOUS
 10
56.0345365918
 20
67.590119537
 11
64.3890069403
 21
62.766772951
  0
LINE
  5
295
100
AcDbEntity
  8
00_COMPONENTS_1
100
AcDbLine
 62
7
  6
CONTINUOUS
 10
34.2762074968
 20
81.0501651679
 11
35.3312089628
 21
80.441073567
  0
LINE
  5
296
100
AcDbEntity
  8
00_COMPONENTS_1
100
AcDbLine
 62
7
  6
CONTINUOUS
 10
44.5949801704
 20
75.0927537618
 11
45.7610774088
 21
74.4195224378
  0
LINE
  5
297
100
AcDbEntity
  8
00_COMPONENTS_1
100
AcDbLine
 62
7
  6
CONTINUOUS
 10
54.8480711851
 20
69.1732628212
 11
56.0141684235
 21
68.5000314972
  0
LINE
  5
298
100
AcDbEntity
  8
00_COMPONENTS_1
100
AcDbLine
 62
7
  6
CONTINUOUS
 10
65.1668410791
 20
63.2158530198
 11
66.3329403308
 21
62.5426205335
  0
LINE
  5
299
100
AcDbEntity
  8
00_COMPONENTS_1
100
AcDbLine
 62
7
  6
CONTINUOUS
 10
60.8638947141
 20
41.3493386145
 11
57.5071016093
 21
37.2644745416
  0
LINE
  5
29A
100
AcDbEntity
  8
00_COMPONENTS_1
100
AcDbLine
 62
7
  6
CONTINUOUS
 10
49.1860253633
 20
29.4766869004
 11
51.8885307859
 21
31.03696982
  0
LINE
  5
29B
100
AcDbEntity
  8
00_COMPONENTS_1
100
AcDbLine
 62
7
  6
CONTINUOUS
 10
45.9913135124
 20
26.3582934821
 11
47.0519692683
 21
26.970659713
  0
LINE
  5
29C
100
AcDbEntity
  8
00_COMPONENTS_1
100
AcDbLine
 62
7
  6
CONTINUOUS
 10
66.5680975875
 20
52.0372748019
 11
66.3329403308
 21
62.5426205335
  0
LINE
  5
29D
100
AcDbEntity
  8
00_COMPONENTS_1
100
AcDbLine
 62
7
  6
CONTINUOUS
 10
66.3958958379
 20
44.5432218876
 11
66.5680975875
 21
52.0372748019
  0
LINE
  5
29E
100
AcDbEntity
  8
00_COMPONENTS_1
100
AcDbLine
 62
7
  6
CONTINUOUS
 10
50.3046828358
 20
23.8680248796
 11
51.3653385917
 21
24.4803911104
  0
ARC
  5
29F
100
AcDbEntity
  8
00_COMPONENTS_1
100
AcDbCircle
 62
7
  6
CONTINUOUS
 10
39.4566904286
 20
42.3923469916
 40
3.4765773671
100
AcDbArc
 50
238.3139844475
 51
239.9467723878
  0
ARC
  5
2A0
100
AcDbEntity
  8
00_COMPONENTS_1
100
AcDbCircle
 62
7
  6
CONTINUOUS
 10
29.203599414
 20
48.3118379322
 40
3.4765773671
100
AcDbArc
 50
238.3139844475
 51
239.9467723878
  0
ARC
  5
2A1
100
AcDbEntity
  8
00_COMPONENTS_1
100
AcDbCircle
 62
7
  6
CONTINUOUS
 10
18.9505083994
 20
54.2313288727
 40
3.4765773672
100
AcDbArc
 50
238.3139844475
 51
239.9467723878
  0
SPLINE
  5
2A2
100
AcDbEntity
  8
00_COMPONENTS_1
100
AcDbSpline
 62
7
  6
CONTINUOUS
 70
0
 71
3
 72
18
 73
14
 74
0
 42
0.0000001
 43
0.0000001
 44
0.0000000001
 40
0.0
 40
0.0
 40
0.0
 40
0.0
 40
0.0428471122
 40
0.0874606873
 40
0.1352817899
 40
0.1872296355
 40
0.2437192237
 40
0.3047235376
 40
0.4383539763
 40
0.5826582273
 40
0.7297842731
 40
0.8713403042
 40
1.0
 40
1.0
 40
1.0
 40
1.0
 10
58.8723171254
 20
37.2422664511
 30
0.0
 10
58.872313315
 20
37.1995252672
 30
0.0
 10
58.8837692878
 20
37.111913474
 30
0.0
 10
58.9339870678
 20
36.9853915014
 30
0.0
 10
59.0155425128
 20
36.8654692379
 30
0.0
 10
59.1260457199
 20
36.7544852519
 30
0.0
 10
59.2629844694
 20
36.6544013608
 30
0.0
 10
59.4835945109
 20
36.5344847464
 30
0.0
 10
59.8068376716
 20
36.4265070857
 30
0.0
 10
60.2286427382
 20
36.3672687793
 30
0.0
 10
60.6625117926
 20
36.3792542969
 30
0.0
 10
61.0726478054
 20
36.46130169
 30
0.0
 10
61.3243048165
 20
36.5651361156
 30
0.0
 10
61.4354520846
 20
36.6293066378
 30
0.0
  0
SPLINE
  5
2A3
100
AcDbEntity
  8
00_COMPONENTS_1
100
AcDbSpline
 62
7
  6
CONTINUOUS
 70
0
 71
3
 72
15
 73
11
 74
0
 42
0.0000001
 43
0.0000001
 44
0.0000000001
 40
0.0
 40
0.0
 40
0.0
 40
0.0
 40
0.1139090629
 40
0.2356209199
 40
0.3631434324
 40
0.4940814339
 40
0.6258286934
 40
0.755699056
 40
0.8812082011
 40
1.0
 40
1.0
 40
1.0
 40
1.0
 10
37.6305695848
 20
39.433990547
 30
0.0
 10
37.4766326347
 20
39.5289757165
 30
0.0
 10
37.172803236
 20
39.7496631268
 30
0.0
 10
36.7509513095
 20
40.1445865819
 30
0.0
 10
36.3579275369
 20
40.6043769034
 30
0.0
 10
36.0054984581
 20
41.115309029
 30
0.0
 10
35.7041603787
 20
41.6621825578
 30
0.0
 10
35.4627534135
 20
42.2287512387
 30
0.0
 10
35.2886916906
 20
42.7980151667
 30
0.0
 10
35.2185615218
 20
43.1807730068
 30
0.0
 10
35.197287953
 20
43.3682064999
 30
0.0
  0
SPLINE
  5
2A4
100
AcDbEntity
  8
00_COMPONENTS_1
100
AcDbSpline
 62
7
  6
CONTINUOUS
 70
0
 71
3
 72
14
 73
10
 74
0
 42
0.0000001
 43
0.0000001
 44
0.0000000001
 40
0.0
 40
0.0
 40
0.0
 40
0.0
 40
0.1080428158
 40
0.2181284749
 40
0.3321099616
 40
0.4514943017
 40
0.5774410683
 40
0.7107423713
 40
1.0
 40
1.0
 40
1.0
 40
1.0
 10
36.9521640186
 20
37.6063916461
 30
0.0
 10
37.0128039665
 20
37.6414290821
 30
0.0
 10
37.1294067138
 20
37.7228157441
 30
0.0
 10
37.2834654943
 20
37.8744960075
 30
0.0
 10
37.4159396505
 20
38.0545083908
 30
0.0
 10
37.5256765494
 20
38.2607801952
 30
0.0
 10
37.6117408251
 20
38.491328658
 30
0.0
 10
37.696333671
 20
38.8372893347
 30
0.0
 10
37.7182327671
 20
39.1125411336
 30
0.0
 10
37.7182327671
 20
39.3000408842
 30
0.0
  0
SPLINE
  5
2A5
100
AcDbEntity
  8
00_COMPONENTS_1
100
AcDbSpline
 62
7
  6
CONTINUOUS
 70
0
 71
3
 72
15
 73
11
 74
0
 42
0.0000001
 43
0.0000001
 44
0.0000000001
 40
0.0
 40
0.0
 40
0.0
 40
0.0
 40
0.1139090629
 40
0.2356209199
 40
0.3631434324
 40
0.4940814339
 40
0.6258286934
 40
0.755699056
 40
0.8812082011
 40
1.0
 40
1.0
 40
1.0
 40
1.0
 10
27.3774785702
 20
45.3534814875
 30
0.0
 10
27.2235416201
 20
45.4484666571
 30
0.0
 10
26.9197122214
 20
45.6691540674
 30
0.0
 10
26.4978602949
 20
46.0640775224
 30
0.0
 10
26.1048365222
 20
46.5238678439
 30
0.0
 10
25.7524074435
 20
47.0347999695
 30
0.0
 10
25.4510693641
 20
47.5816734983
 30
0.0
 10
25.2096623988
 20
48.1482421793
 30
0.0
 10
25.035600676
 20
48.7175061072
 30
0.0
 10
24.9654705071
 20
49.1002639473
 30
0.0
 10
24.9441969383
 20
49.2876974405
 30
0.0
  0
SPLINE
  5
2A6
100
AcDbEntity
  8
00_COMPONENTS_1
100
AcDbSpline
 62
7
  6
CONTINUOUS
 70
0
 71
3
 72
14
 73
10
 74
0
 42
0.0000001
 43
0.0000001
 44
0.0000000001
 40
0.0
 40
0.0
 40
0.0
 40
0.0
 40
0.1080428158
 40
0.2181284749
 40
0.3321099616
 40
0.4514943017
 40
0.5774410683
 40
0.7107423713
 40
1.0
 40
1.0
 40
1.0
 40
1.0
 10
26.699073004
 20
43.5258825866
 30
0.0
 10
26.7597129518
 20
43.5609200227
 30
0.0
 10
26.8763156992
 20
43.6423066847
 30
0.0
 10
27.0303744796
 20
43.793986948
 30
0.0
 10
27.1628486358
 20
43.9739993314
 30
0.0
 10
27.2725855348
 20
44.1802711357
 30
0.0
 10
27.3586498105
 20
44.4108195986
 30
0.0
 10
27.4432426564
 20
44.7567802753
 30
0.0
 10
27.4651417524
 20
45.0320320742
 30
0.0
 10
27.4651417524
 20
45.2195318248
 30
0.0
  0
SPLINE
  5
2A7
100
AcDbEntity
  8
00_COMPONENTS_1
100
AcDbSpline
 62
7
  6
CONTINUOUS
 70
0
 71
3
 72
15
 73
11
 74
0
 42
0.0000001
 43
0.0000001
 44
0.0000000001
 40
0.0
 40
0.0
 40
0.0
 40
0.0
 40
0.1139090629
 40
0.2356209199
 40
0.3631434324
 40
0.4940814339
 40
0.6258286934
 40
0.755699056
 40
0.8812082011
 40
1.0
 40
1.0
 40
1.0
 40
1.0
 10
17.1243875556
 20
51.272972428
 30
0.0
 10
16.9704506055
 20
51.3679575976
 30
0.0
 10
16.6666212068
 20
51.5886450079
 30
0.0
 10
16.2447692803
 20
51.983568463
 30
0.0
 10
15.8517455076
 20
52.4433587845
 30
0.0
 10
15.4993164288
 20
52.9542909101
 30
0.0
 10
15.1979783494
 20
53.5011644388
 30
0.0
 10
14.9565713842
 20
54.0677331198
 30
0.0
 10
14.7825096614
 20
54.6369970478
 30
0.0
 10
14.7123794925
 20
55.0197548879
 30
0.0
 10
14.6911059237
 20
55.207188381
 30
0.0
  0
SPLINE
  5
2A8
100
AcDbEntity
  8
00_COMPONENTS_1
100
AcDbSpline
 62
7
  6
CONTINUOUS
 70
0
 71
3
 72
14
 73
10
 74
0
 42
0.0000001
 43
0.0000001
 44
0.0000000001
 40
0.0
 40
0.0
 40
0.0
 40
0.0
 40
0.1080428158
 40
0.2181284749
 40
0.3321099616
 40
0.4514943017
 40
0.5774410683
 40
0.7107423713
 40
1.0
 40
1.0
 40
1.0
 40
1.0
 10
16.4459819894
 20
49.4453735272
 30
0.0
 10
16.5066219372
 20
49.4804109632
 30
0.0
 10
16.6232246845
 20
49.5617976252
 30
0.0
 10
16.777283465
 20
49.7134778886
 30
0.0
 10
16.9097576212
 20
49.8934902719
 30
0.0
 10
17.0194945201
 20
50.0997620762
 30
0.0
 10
17.1055587958
 20
50.3303105391
 30
0.0
 10
17.1901516417
 20
50.6762712158
 30
0.0
 10
17.2120507378
 20
50.9515230147
 30
0.0
 10
17.2120507378
 20
51.1390227653
 30
0.0
  0
SPLINE
  5
2A9
100
AcDbEntity
  8
00_COMPONENTS_1
100
AcDbSpline
 62
7
  6
CONTINUOUS
 70
0
 71
3
 72
11
 73
7
 74
0
 42
0.0000001
 43
0.0000001
 44
0.0000000001
 40
0.0
 40
0.0
 40
0.0
 40
0.0
 40
0.289702877
 40
0.5490912171
 40
0.7822201365
 40
1.0
 40
1.0
 40
1.0
 40
1.0
 10
61.4354520846
 20
36.6293066378
 30
0.0
 10
61.5013327879
 20
36.6673426525
 30
0.0
 10
61.6208577825
 20
36.7496674874
 30
0.0
 10
61.7637099651
 20
36.8997928066
 30
0.0
 10
61.8540725639
 20
37.0658720849
 30
0.0
 10
61.8752020017
 20
37.1850667914
 30
0.0
 10
61.8752070999
 20
37.2422530729
 30
0.0
  0
SPLINE
  5
2AA
100
AcDbEntity
  8
00_COMPONENTS_1
100
AcDbSpline
 62
7
  6
CONTINUOUS
 70
0
 71
3
 72
11
 73
7
 74
0
 42
0.0000001
 43
0.0000001
 44
0.0000000001
 40
0.0
 40
0.0
 40
0.0
 40
0.0
 40
0.2278902108
 40
0.474866733
 40
0.7346905503
 40
1.0
 40
1.0
 40
1.0
 40
1.0
 10
48.9611743581
 20
28.3179431902
 30
0.0
 10
48.9611743581
 20
28.44558143
 30
0.0
 10
48.9357188107
 20
28.7118100128
 30
0.0
 10
48.8354164018
 20
29.1121521823
 30
0.0
 10
48.6755976611
 20
29.5152093153
 30
0.0
 10
48.5340468592
 20
29.7740065499
 30
0.0
 10
48.4549088638
 20
29.8997762749
 30
0.0
  0
SPLINE
  5
2AB
100
AcDbEntity
  8
00_COMPONENTS_1
100
AcDbSpline
 62
7
  6
CONTINUOUS
 70
0
 71
3
 72
13
 73
9
 74
0
 42
0.0000001
 43
0.0000001
 44
0.0000000001
 40
0.0
 40
0.0
 40
0.0
 40
0.0
 40
0.299807868
 40
0.5634345799
 40
0.6820102673
 40
0.792882878
 40
0.8979921378
 40
1.0
 40
1.0
 40
1.0
 40
1.0
 10
47.7983896895
 20
30.6630601385
 30
0.0
 10
47.6835495044
 20
30.7588399715
 30
0.0
 10
47.4520651121
 20
30.9214100535
 30
0.0
 10
47.1339235994
 20
31.053238997
 30
0.0
 10
46.8903658808
 20
31.0939770239
 30
0.0
 10
46.7225475599
 20
31.0930185243
 30
0.0
 10
46.5660641622
 20
31.0613263945
 30
0.0
 10
46.4705774392
 20
31.0194495546
 30
0.0
 10
46.4264993791
 20
30.9940351822
 30
0.0
  0
SPLINE
  5
2AC
100
AcDbEntity
  8
00_COMPONENTS_1
100
AcDbSpline
 62
7
  6
CONTINUOUS
 70
0
 71
3
 72
9
 73
5
 74
0
 42
0.0000001
 43
0.0000001
 44
0.0000000001
 40
0.0
 40
0.0
 40
0.0
 40
0.0
 40
0.2630405204
 40
1.0
 40
1.0
 40
1.0
 40
1.0
 10
47.0519692683
 20
30.64492059
 30
0.0
 10
47.0519692683
 20
30.6807645235
 30
0.0
 10
47.0557079394
 20
30.8169596526
 30
0.0
 10
47.07486713
 20
30.95308811
 30
0.0
 10
47.1001330572
 20
31.0502815818
 30
0.0
  0
SPLINE
  5
2AD
100
AcDbEntity
  8
00_COMPONENTS_1
100
AcDbSpline
 62
7
  6
CONTINUOUS
 70
0
 71
3
 72
23
 73
19
 74
0
 42
0.0000001
 43
0.0000001
 44
0.0000000001
 40
0.0
 40
0.0
 40
0.0
 40
0.0
 40
0.0623806463
 40
0.1287544045
 40
0.198352006
 40
0.2703427592
 40
0.3437325317
 40
0.4174747096
 40
0.4905121186
 40
0.5618106947
 40
0.6304189782
 40
0.6955173564
 40
0.7564731411
 40
0.8129170952
 40
0.8648247637
 40
0.9126059109
 40
0.9571861675
 40
1.0
 40
1.0
 40
1.0
 40
1.0
 10
17.2120507378
 20
51.1390227653
 30
0.0
 10
17.2120507378
 20
51.2924962
 30
0.0
 10
17.1912138783
 20
51.6094749543
 30
0.0
 10
17.1056901858
 20
52.0907481149
 30
0.0
 10
16.9665172781
 20
52.5839178932
 30
0.0
 10
16.7768093094
 20
53.0783660798
 30
0.0
 10
16.5405491697
 20
53.5636714426
 30
0.0
 10
16.2627947192
 20
54.0294675346
 30
0.0
 10
15.9494714528
 20
54.4658271325
 30
0.0
 10
15.6072218944
 20
54.8634280679
 30
0.0
 10
15.2433448198
 20
55.2138383964
 30
0.0
 10
14.8654984277
 20
55.5096334918
 30
0.0
 10
14.4815026248
 20
55.7445056162
 30
0.0
 10
14.0991785004
 20
55.9134193016
 30
0.0
 10
13.7261409324
 20
56.0125005398
 30
0.0
 10
13.3696969051
 20
56.0386887026
 30
0.0
 10
13.0377882914
 20
55.9899401295
 30
0.0
 10
12.8367116491
 20
55.9063508425
 30
0.0
 10
12.7455075201
 20
55.8536535869
 30
0.0
  0
SPLINE
  5
2AE
100
AcDbEntity
  8
00_COMPONENTS_1
100
AcDbSpline
 62
7
  6
CONTINUOUS
 70
0
 71
3
 72
23
 73
19
 74
0
 42
0.0000001
 43
0.0000001
 44
0.0000000001
 40
0.0
 40
0.0
 40
0.0
 40
0.0
 40
0.0623806463
 40
0.1287544045
 40
0.198352006
 40
0.2703427592
 40
0.3437325317
 40
0.4174747096
 40
0.4905121186
 40
0.5618106947
 40
0.6304189782
 40
0.6955173564
 40
0.7564731411
 40
0.8129170952
 40
0.8648247637
 40
0.9126059109
 40
0.9571861675
 40
1.0
 40
1.0
 40
1.0
 40
1.0
 10
27.4651417524
 20
45.2195318248
 30
0.0
 10
27.4651417524
 20
45.3730052595
 30
0.0
 10
27.444304893
 20
45.6899840138
 30
0.0
 10
27.3587812005
 20
46.1712571744
 30
0.0
 10
27.2196082927
 20
46.6644269526
 30
0.0
 10
27.029900324
 20
47.1588751392
 30
0.0
 10
26.7936401843
 20
47.6441805021
 30
0.0
 10
26.5158857338
 20
48.109976594
 30
0.0
 10
26.2025624674
 20
48.546336192
 30
0.0
 10
25.860312909
 20
48.9439371274
 30
0.0
 10
25.4964358344
 20
49.2943474559
 30
0.0
 10
25.1185894423
 20
49.5901425513
 30
0.0
 10
24.7345936394
 20
49.8250146756
 30
0.0
 10
24.352269515
 20
49.993928361
 30
0.0
 10
23.9792319471
 20
50.0930095992
 30
0.0
 10
23.6227879197
 20
50.1191977621
 30
0.0
 10
23.2908793061
 20
50.070449189
 30
0.0
 10
23.0898026637
 20
49.986859902
 30
0.0
 10
22.9985985348
 20
49.9341626464
 30
0.0
  0
SPLINE
  5
2AF
100
AcDbEntity
  8
00_COMPONENTS_1
100
AcDbSpline
 62
7
  6
CONTINUOUS
 70
0
 71
3
 72
23
 73
19
 74
0
 42
0.0000001
 43
0.0000001
 44
0.0000000001
 40
0.0
 40
0.0
 40
0.0
 40
0.0
 40
0.0623806463
 40
0.1287544045
 40
0.198352006
 40
0.2703427592
 40
0.3437325317
 40
0.4174747096
 40
0.4905121186
 40
0.5618106947
 40
0.6304189782
 40
0.6955173564
 40
0.7564731411
 40
0.8129170952
 40
0.8648247637
 40
0.9126059109
 40
0.9571861675
 40
1.0
 40
1.0
 40
1.0
 40
1.0
 10
37.7182327671
 20
39.3000408842
 30
0.0
 10
37.7182327671
 20
39.4535143189
 30
0.0
 10
37.6973959076
 20
39.7704930733
 30
0.0
 10
37.6118722151
 20
40.2517662339
 30
0.0
 10
37.4726993074
 20
40.7449360121
 30
0.0
 10
37.2829913386
 20
41.2393841987
 30
0.0
 10
37.0467311989
 20
41.7246895615
 30
0.0
 10
36.7689767485
 20
42.1904856535
 30
0.0
 10
36.4556534821
 20
42.6268452514
 30
0.0
 10
36.1134039237
 20
43.0244461868
 30
0.0
 10
35.749526849
 20
43.3748565153
 30
0.0
 10
35.3716804569
 20
43.6706516107
 30
0.0
 10
34.9876846541
 20
43.9055237351
 30
0.0
 10
34.6053605297
 20
44.0744374205
 30
0.0
 10
34.2323229617
 20
44.1735186587
 30
0.0
 10
33.8758789344
 20
44.1997068216
 30
0.0
 10
33.5439703207
 20
44.1509582484
 30
0.0
 10
33.3428936784
 20
44.0673689614
 30
0.0
 10
33.2516895494
 20
44.0146717058
 30
0.0
  0
SPLINE
  5
2B0
100
AcDbEntity
  8
00_COMPONENTS_1
100
AcDbSpline
 62
7
  6
CONTINUOUS
 70
0
 71
3
 72
14
 73
10
 74
0
 42
0.0000001
 43
0.0000001
 44
0.0000000001
 40
0.0
 40
0.0
 40
0.0
 40
0.0
 40
0.1080428158
 40
0.2181284749
 40
0.3321099616
 40
0.4514943017
 40
0.5774410683
 40
0.7107423713
 40
1.0
 40
1.0
 40
1.0
 40
1.0
 10
12.7455075201
 20
55.8536535869
 30
0.0
 10
12.6848675723
 20
55.8186161509
 30
0.0
 10
12.568264825
 20
55.7372294889
 30
0.0
 10
12.4142060445
 20
55.5855492255
 30
0.0
 10
12.2817318883
 20
55.4055368422
 30
0.0
 10
12.1719949894
 20
55.1992650379
 30
0.0
 10
12.0859307137
 20
54.968716575
 30
0.0
 10
12.0013378678
 20
54.6227558983
 30
0.0
 10
11.9794387717
 20
54.3475040994
 30
0.0
 10
11.9794387717
 20
54.1600043488
 30
0.0
  0
SPLINE
  5
2B1
100
AcDbEntity
  8
00_COMPONENTS_1
100
AcDbSpline
 62
7
  6
CONTINUOUS
 70
0
 71
3
 72
12
 73
8
 74
0
 42
0.0000001
 43
0.0000001
 44
0.0000000001
 40
0.0
 40
0.0
 40
0.0
 40
0.0
 40
0.1081649388
 40
0.2183742326
 40
0.4513349723
 40
0.7104722343
 40
1.0
 40
1.0
 40
1.0
 40
1.0
 10
46.4264993791
 20
30.9940351822
 30
0.0
 10
46.3920481776
 20
30.9741714299
 30
0.0
 10
46.3258181525
 20
30.9279708444
 30
0.0
 10
46.2070300498
 20
30.8111659714
 30
0.0
 10
46.08929936
 20
30.6194202575
 30
0.0
 10
46.0074842903
 20
30.3414355392
 30
0.0
 10
45.9913135124
 20
30.1390010057
 30
0.0
 10
45.9913135124
 20
30.0325543592
 30
0.0
  0
SPLINE
  5
2B2
100
AcDbEntity
  8
00_COMPONENTS_1
100
AcDbSpline
 62
7
  6
CONTINUOUS
 70
0
 71
3
 72
9
 73
5
 74
0
 42
0.0000001
 43
0.0000001
 44
0.0000000001
 40
0.0
 40
0.0
 40
0.0
 40
0.0
 40
0.2561715732
 40
1.0
 40
1.0
 40
1.0
 40
1.0
 10
37.2748919517
 20
40.6251766962
 30
0.0
 10
37.2985861069
 20
40.6043215003
 30
0.0
 10
37.3922686803
 20
40.5242792151
 30
0.0
 10
37.4907456896
 20
40.449788855
 30
0.0
 10
37.566607108
 20
40.3983556058
 30
0.0
  0
SPLINE
  5
2B3
100
AcDbEntity
  8
00_COMPONENTS_1
100
AcDbSpline
 62
7
  6
CONTINUOUS
 70
0
 71
3
 72
14
 73
10
 74
0
 42
0.0000001
 43
0.0000001
 44
0.0000000001
 40
0.0
 40
0.0
 40
0.0
 40
0.0
 40
0.1080428158
 40
0.2181284749
 40
0.3321099616
 40
0.4514943017
 40
0.5774410683
 40
0.7107423713
 40
1.0
 40
1.0
 40
1.0
 40
1.0
 10
22.9985985348
 20
49.9341626464
 30
0.0
 10
22.9379585869
 20
49.8991252104
 30
0.0
 10
22.8213558396
 20
49.8177385484
 30
0.0
 10
22.6672970591
 20
49.666058285
 30
0.0
 10
22.5348229029
 20
49.4860459016
 30
0.0
 10
22.425086004
 20
49.2797740973
 30
0.0
 10
22.3390217283
 20
49.0492256344
 30
0.0
 10
22.2544288824
 20
48.7032649578
 30
0.0
 10
22.2325297863
 20
48.4280131589
 30
0.0
 10
22.2325297863
 20
48.2405134082
 30
0.0
  0
SPLINE
  5
2B4
100
AcDbEntity
  8
00_COMPONENTS_1
100
AcDbSpline
 62
7
  6
CONTINUOUS
 70
0
 71
3
 72
9
 73
5
 74
0
 42
0.0000001
 43
0.0000001
 44
0.0000000001
 40
0.0
 40
0.0
 40
0.0
 40
0.0
 40
0.2561715732
 40
1.0
 40
1.0
 40
1.0
 40
1.0
 10
27.021800937
 20
46.5446676367
 30
0.0
 10
27.0454950922
 20
46.5238124409
 30
0.0
 10
27.1391776657
 20
46.4437701556
 30
0.0
 10
27.2376546749
 20
46.3692797956
 30
0.0
 10
27.3135160933
 20
46.3178465463
 30
0.0
  0
SPLINE
  5
2B5
100
AcDbEntity
  8
00_COMPONENTS_1
100
AcDbSpline
 62
7
  6
CONTINUOUS
 70
0
 71
3
 72
23
 73
19
 74
0
 42
0.0000001
 43
0.0000001
 44
0.0000000001
 40
0.0
 40
0.0
 40
0.0
 40
0.0
 40
0.0623806463
 40
0.1287544045
 40
0.198352006
 40
0.2703427592
 40
0.3437325317
 40
0.4174747096
 40
0.4905121186
 40
0.5618106947
 40
0.6304189782
 40
0.6955173564
 40
0.7564731411
 40
0.8129170952
 40
0.8648247637
 40
0.9126059109
 40
0.9571861675
 40
1.0
 40
1.0
 40
1.0
 40
1.0
 10
11.9794387717
 20
54.1600043488
 30
0.0
 10
11.9794387717
 20
54.0065309141
 30
0.0
 10
12.0002756312
 20
53.6895521598
 30
0.0
 10
12.0857993237
 20
53.2082789992
 30
0.0
 10
12.2249722314
 20
52.7151092209
 30
0.0
 10
12.4146802001
 20
52.2206610343
 30
0.0
 10
12.6509403398
 20
51.7353556715
 30
0.0
 10
12.9286947903
 20
51.2695595795
 30
0.0
 10
13.2420180567
 20
50.8331999816
 30
0.0
 10
13.5842676151
 20
50.4355990462
 30
0.0
 10
13.9481446897
 20
50.0851887177
 30
0.0
 10
14.3259910818
 20
49.7893936223
 30
0.0
 10
14.7099868847
 20
49.554521498
 30
0.0
 10
15.0923110091
 20
49.3856078126
 30
0.0
 10
15.4653485771
 20
49.2865265743
 30
0.0
 10
15.8217926044
 20
49.2603384115
 30
0.0
 10
16.1537012181
 20
49.3090869846
 30
0.0
 10
16.3547778604
 20
49.3926762716
 30
0.0
 10
16.4459819894
 20
49.4453735272
 30
0.0
  0
SPLINE
  5
2B6
100
AcDbEntity
  8
00_COMPONENTS_1
100
AcDbSpline
 62
7
  6
CONTINUOUS
 70
0
 71
3
 72
23
 73
19
 74
0
 42
0.0000001
 43
0.0000001
 44
0.0000000001
 40
0.0
 40
0.0
 40
0.0
 40
0.0
 40
0.0623806463
 40
0.1287544045
 40
0.198352006
 40
0.2703427592
 40
0.3437325317
 40
0.4174747096
 40
0.4905121186
 40
0.5618106947
 40
0.6304189782
 40
0.6955173564
 40
0.7564731411
 40
0.8129170952
 40
0.8648247637
 40
0.9126059109
 40
0.9571861675
 40
1.0
 40
1.0
 40
1.0
 40
1.0
 10
22.2325297863
 20
48.2405134082
 30
0.0
 10
22.2325297863
 20
48.0870399736
 30
0.0
 10
22.2533666458
 20
47.7700612192
 30
0.0
 10
22.3388903383
 20
47.2887880586
 30
0.0
 10
22.478063246
 20
46.7956182804
 30
0.0
 10
22.6677712148
 20
46.3011700938
 30
0.0
 10
22.9040313545
 20
45.8158647309
 30
0.0
 10
23.1817858049
 20
45.350068639
 30
0.0
 10
23.4951090713
 20
44.913709041
 30
0.0
 10
23.8373586297
 20
44.5161081056
 30
0.0
 10
24.2012357044
 20
44.1656977771
 30
0.0
 10
24.5790820965
 20
43.8699026817
 30
0.0
 10
24.9630778993
 20
43.6350305574
 30
0.0
 10
25.3454020237
 20
43.466116872
 30
0.0
 10
25.7184395917
 20
43.3670356338
 30
0.0
 10
26.074883619
 20
43.3408474709
 30
0.0
 10
26.4067922327
 20
43.3895960441
 30
0.0
 10
26.607868875
 20
43.473185331
 30
0.0
 10
26.699073004
 20
43.5258825866
 30
0.0
  0
SPLINE
  5
2B7
100
AcDbEntity
  8
00_COMPONENTS_1
100
AcDbSpline
 62
7
  6
CONTINUOUS
 70
0
 71
3
 72
23
 73
19
 74
0
 42
0.0000001
 43
0.0000001
 44
0.0000000001
 40
0.0
 40
0.0
 40
0.0
 40
0.0
 40
0.0623806463
 40
0.1287544045
 40
0.198352006
 40
0.2703427592
 40
0.3437325317
 40
0.4174747096
 40
0.4905121186
 40
0.5618106947
 40
0.6304189782
 40
0.6955173564
 40
0.7564731411
 40
0.8129170952
 40
0.8648247637
 40
0.9126059109
 40
0.9571861675
 40
1.0
 40
1.0
 40
1.0
 40
1.0
 10
32.485620801
 20
42.3210224677
 30
0.0
 10
32.485620801
 20
42.167549033
 30
0.0
 10
32.5064576604
 20
41.8505702787
 30
0.0
 10
32.5919813529
 20
41.3692971181
 30
0.0
 10
32.7311542607
 20
40.8761273398
 30
0.0
 10
32.9208622294
 20
40.3816791532
 30
0.0
 10
33.1571223691
 20
39.8963737904
 30
0.0
 10
33.4348768196
 20
39.4305776984
 30
0.0
 10
33.748200086
 20
38.9942181005
 30
0.0
 10
34.0904496444
 20
38.5966171651
 30
0.0
 10
34.454326719
 20
38.2462068366
 30
0.0
 10
34.8321731111
 20
37.9504117412
 30
0.0
 10
35.216168914
 20
37.7155396169
 30
0.0
 10
35.5984930384
 20
37.5466259315
 30
0.0
 10
35.9715306063
 20
37.4475446932
 30
0.0
 10
36.3279746337
 20
37.4213565304
 30
0.0
 10
36.6598832473
 20
37.4701051035
 30
0.0
 10
36.8609598897
 20
37.5536943905
 30
0.0
 10
36.9521640186
 20
37.6063916461
 30
0.0
  0
SPLINE
  5
2B8
100
AcDbEntity
  8
00_COMPONENTS_1
100
AcDbSpline
 62
7
  6
CONTINUOUS
 70
0
 71
3
 72
14
 73
10
 74
0
 42
0.0000001
 43
0.0000001
 44
0.0000000001
 40
0.0
 40
0.0
 40
0.0
 40
0.0
 40
0.1080428158
 40
0.2181284749
 40
0.3321099616
 40
0.4514943017
 40
0.5774410683
 40
0.7107423713
 40
1.0
 40
1.0
 40
1.0
 40
1.0
 10
33.2516895494
 20
44.0146717058
 30
0.0
 10
33.1910496016
 20
43.9796342698
 30
0.0
 10
33.0744468542
 20
43.8982476078
 30
0.0
 10
32.9203880738
 20
43.7465673444
 30
0.0
 10
32.7879139176
 20
43.5665549611
 30
0.0
 10
32.6781770186
 20
43.3602831568
 30
0.0
 10
32.5921127429
 20
43.1297346939
 30
0.0
 10
32.507519897
 20
42.7837740172
 30
0.0
 10
32.485620801
 20
42.5085222183
 30
0.0
 10
32.485620801
 20
42.3210224677
 30
0.0
  0
SPLINE
  5
2B9
100
AcDbEntity
  8
00_COMPONENTS_1
100
AcDbSpline
 62
7
  6
CONTINUOUS
 70
0
 71
3
 72
9
 73
5
 74
0
 42
0.0000001
 43
0.0000001
 44
0.0000000001
 40
0.0
 40
0.0
 40
0.0
 40
0.0
 40
0.2561715732
 40
1.0
 40
1.0
 40
1.0
 40
1.0
 10
16.7687099224
 20
52.4641585773
 30
0.0
 10
16.7924040776
 20
52.4433033814
 30
0.0
 10
16.8860866511
 20
52.3632610962
 30
0.0
 10
16.9845636603
 20
52.2887707361
 30
0.0
 10
17.0604250787
 20
52.2373374869
 30
0.0
  0
ENDSEC
  0
SECTION
  2
OBJECTS
  0
DICTIONARY
  5
C
100
AcDbDictionary
280
0
281
1
  3
ACAD_GROUP
350
D
  3
ACAD_MLINESTYLE
350
17
  3
ACAD_LAYOUT
350
1A
  3
ACAD_PLOTSETTINGS
350
19
  3
ACAD_PLOTSTYLENAME
350
E
  0
DICTIONARY
  5
D
102
{ACAD_REACTORS
330
C
102
}
100
AcDbDictionary
280
0
281
1
  0
ACDBDICTIONARYWDFLT
  5
E
102
{ACAD_REACTORS
330
C
102
}
100
AcDbDictionary
281
1
  3
Normal
350
F
100
AcDbDictionaryWithDefault
340
F
  0
DICTIONARY
  5
17
102
{ACAD_REACTORS
330
C
102
}
100
AcDbDictionary
280
0
281
1
  3
Standard
350
18
  0
DICTIONARY
  5
19
102
{ACAD_REACTORS
330
C
102
}
100
AcDbDictionary
281
1
  0
DICTIONARY
  5
1A
102
{ACAD_REACTORS
330
C
102
}
100
AcDbDictionary
281
1
  3
Model
350
2BA
  3
Layout1
350
2BB
  0
ACDBPLACEHOLDER
  5
F
102
{ACAD_REACTORS
330
E
102
}
  0
MLINESTYLE
  5
18
102
{ACAD_REACTORS
330
17
102
}
100
AcDbMlineStyle
  2
STANDARD
 70
0
  3

 62
256
 51
90.0
 52
90.0
 71
2
 49
0.5
 62
256
  6
BYLAYER
 49
-0.5
 62
256
  6
BYLAYER
  0
LAYOUT
  5
2BA
102
{ACAD_REACTORS
330
1A
102
}
100
AcDbPlotSettings
  1

  2
none_device
  4

  6

 40
0.0
 41
0.0
 42
0.0
 43
0.0
 44
210.0
 45
297.0
 46
0.0
 47
0.0
 48
0.0
 49
0.0
140
0.0
141
0.0
142
1.0
143
1.0
 70
1024
 72
1
 73
0
 74
0
  7

 75
0
147
1.0
148
0.0
149
0.0
100
AcDbLayout
  1
Model
 70
0
 71
0
 10
0.0
 20
0.0
 11
210.0
 21
297.0
 12
0.0
 22
0.0
 32
0.0
 14
0.0
 24
0.0
 34
0.0
 15
0.0
 25
0.0
 35
0.0
146
0.0
 13
0.0
 23
0.0
 33
0.0
 16
1.0
 26
0.0
 36
0.0
 17
0.0
 27
1.0
 37
0.0
 76
0
330
211
345
0
346
0
  0
LAYOUT
  5
2BB
102
{ACAD_REACTORS
330
1A
102
}
100
AcDbPlotSettings
  1

  2
none_device
  4

  6

 40
0.0
 41
0.0
 42
0.0
 43
0.0
 44
210.0
 45
297.0
 46
0.0
 47
0.0
 48
0.0
 49
0.0
140
0.0
141
0.0
142
1.0
143
1.0
 70
0
 72
1
 73
0
 74
0
  7

 75
0
147
1.0
148
0.0
149
0.0
100
AcDbLayout
  1
Layout1
 70
0
 71
1
 10
0.0
 20
0.0
 11
210.0
 21
297.0
 12
0.0
 22
0.0
 32
0.0
 14
0.0
 24
0.0
 34
0.0
 15
0.0
 25
0.0
 35
0.0
146
0.0
 13
0.0
 23
0.0
 33
0.0
 16
1.0
 26
0.0
 36
0.0
 17
0.0
 27
1.0
 37
0.0
 76
0
330
212
345
0
346
0
  0
ENDSEC
  0
EOF
