999
DXF file: C:\Users\sesa63760\Dev\_Creo\CAD\MCADPD0004205_3D-CAD\drw0001_1.dxf
999
Pro/ENGINEER 2019471 by Parametric Technology Corporation
  0
SECTION
  2
HEADER
  9
$ACADVER
  1
AC1024
  9
$DWGCODEPAGE
  3
ANSI_1252
  9
$EXTMAX
 10
82.5775469427
 20
116.7882449619
 30
0.0
  9
$EXTMIN
 10
0.0
 20
0.0
 30
0.0
  9
$LIMMIN
 10
0.0
 20
0.0
  9
$LIMMAX
 10
82.5775469427
 20
116.7882449619
  9
$VIEWCTR
 10
41.2887734714
 20
58.3941224809
  9
$VIEWSIZE
 40
116.7882449619
  9
$CLAYER
  8
0
  9
$LTSCALE
 40
7.6128633753
  9
$CELTYPE
  6
BYLAYER
  9
$DIMSCALE
 40
1.0
  9
$DIMASZ
 40
0.983066035
  9
$DIMEXO
 40
1.0
  9
$DIMDLI
 40
5.2597965138
  9
$DIMEXE
 40
1.0
  9
$DIMCEN
 40
1.2457412796
  9
$DIMLFAC
 40
1.0
  9
$DIMBLK
  1
_FILLED
  9
$DIMALT
 70
0
  9
$DIMALTF
 40
0.0393700787
  9
$DIMTXT
 40
1.376292449
  9
$DIMTOL
 70
1
  9
$DIMLIM
 70
0
  9
$DIMTFAC
 40
1.0
  9
$DIMTP
 40
0.01
  9
$DIMTM
 40
0.01
  9
$DIMGAP
 40
0.625
  9
$DIMDSEP
 70
46
  9
$AUNITS
 70
0
  9
$PDMODE
 70
3
  9
$PDSIZE
 40
0.3125
  9
$HANDSEED
  5
2B6
  9
$TILEMODE
 70
1
  9
$MEASUREMENT
 70
1
  9
$INSUNITS
 70
4
  0
ENDSEC
  0
SECTION
  2
CLASSES
  0
CLASS
  1
ACDBDICTIONARYWDFLT
  2
AcDbDictionaryWithDefault
  3
AutoCAD 2000
 90
0
 91
1
280
0
281
0
  0
CLASS
  1
ACDBPLACEHOLDER
  2
AcDbPlaceHolder
  3
AutoCAD 2000
 90
0
 91
1
280
0
281
0
  0
CLASS
  1
LAYOUT
  2
AcDbLayout
  3
AutoCAD 2000
 90
0
 91
0
280
0
281
0
  0
ENDSEC
  0
SECTION
  2
TABLES
  0
TABLE
  2
VPORT
  5
8
100
AcDbSymbolTable
 70
2
  0
VPORT
  5
1F4
100
AcDbSymbolTableRecord
100
AcDbViewportTableRecord
  2
*ACTIVE
 70
0
 10
0.0
 20
0.0
 11
1.0
 21
1.0
 12
41.2887734714
 22
58.3941224809
 13
0.0
 23
0.0
 14
1.0
 24
1.0
 15
0.0
 25
0.0
 16
0.0
 26
0.0
 36
1.0
 17
0.0
 27
0.0
 37
0.0
 40
116.7882449619
 41
0.7070707071
 42
50.0
 43
0.0
 44
0.0
 50
0.0
 51
0.0
 71
0
 72
100
 73
1
 74
1
 75
0
 76
0
 77
0
 78
0
  0
ENDTAB
  0
TABLE
  2
LTYPE
  5
5
100
AcDbSymbolTable
 70
6
  0
LTYPE
  5
14
100
AcDbSymbolTableRecord
100
AcDbLinetypeTableRecord
  2
BYBLOCK
 70
0
  3

 72
65
 73
0
 40
0.0
  0
LTYPE
  5
15
100
AcDbSymbolTableRecord
100
AcDbLinetypeTableRecord
  2
BYLAYER
 70
0
  3

 72
65
 73
0
 40
0.0
  0
LTYPE
  5
16
100
AcDbSymbolTableRecord
100
AcDbLinetypeTableRecord
  2
CONTINUOUS
 70
64
  3
Solid line
 72
65
 73
0
 40
0.0
  0
LTYPE
  5
1F5
100
AcDbSymbolTableRecord
100
AcDbLinetypeTableRecord
  2
CENTER
 70
64
  3
____ _ ____ _ ____ _ ____ _ ____ _ ____ _ ____
 72
65
 73
4
 40
0.6
 49
0.375
 74
0
 49
-0.075
 74
0
 49
0.075
 74
0
 49
-0.075
 74
0
  0
LTYPE
  5
1F6
100
AcDbSymbolTableRecord
100
AcDbLinetypeTableRecord
  2
HIDDEN
 70
64
  3
- - - - - - - - - - - - - - - - - - - -
 72
65
 73
2
 40
0.2
 49
0.1
 74
0
 49
-0.1
 74
0
  0
LTYPE
  5
1F7
100
AcDbSymbolTableRecord
100
AcDbLinetypeTableRecord
  2
PHANTOM
 70
64
  3
_____ _ _ _____ _ _ _____ _ _ _____
 72
65
 73
6
 40
0.8
 49
0.45
 74
0
 49
-0.05
 74
0
 49
0.1
 74
0
 49
-0.05
 74
0
 49
0.1
 74
0
 49
-0.05
 74
0
  0
LTYPE
  5
1F8
100
AcDbSymbolTableRecord
100
AcDbLinetypeTableRecord
  2
DOT
 70
64
  3
. . . . . . . . . . . . . . . . . . . .
 72
65
 73
2
 40
0.2
 49
0.1
 74
0
 49
-0.1
 74
0
  0
LTYPE
  5
1F9
100
AcDbSymbolTableRecord
100
AcDbLinetypeTableRecord
  2
DASHED
 70
64
  3
- - - - - - - - - - - - - - - - - - - -
 72
65
 73
2
 40
0.2
 49
0.1
 74
0
 49
-0.1
 74
0
  0
ENDTAB
  0
TABLE
  2
LAYER
  5
2
100
AcDbSymbolTable
 70
36
  0
LAYER
  5
10
100
AcDbSymbolTableRecord
100
AcDbLayerTableRecord
  2
0
 70
0
 62
7
  6
CONTINUOUS
370
-3
390
F
  0
LAYER
  5
1FA
100
AcDbSymbolTableRecord
100
AcDbLayerTableRecord
  2
DEFAULT_1
 70
0
 62
7
  6
CENTER
370
-3
390
F
  0
LAYER
  5
1FB
100
AcDbSymbolTableRecord
100
AcDbLayerTableRecord
  2
DEFAULT_2
 70
0
 62
7
  6
HIDDEN
370
-3
390
F
  0
LAYER
  5
1FC
100
AcDbSymbolTableRecord
100
AcDbLayerTableRecord
  2
DEFAULT_3
 70
0
 62
7
  6
PHANTOM
370
-3
390
F
  0
LAYER
  5
1FD
100
AcDbSymbolTableRecord
100
AcDbLayerTableRecord
  2
00_COMPONENTS
 70
0
 62
7
  6
CONTINUOUS
370
-3
390
F
  0
LAYER
  5
1FE
100
AcDbSymbolTableRecord
100
AcDbLayerTableRecord
  2
01_1_DEFAULT_DATUMS
 70
0
 62
7
  6
CONTINUOUS
370
-3
390
F
  0
LAYER
  5
1FF
100
AcDbSymbolTableRecord
100
AcDbLayerTableRecord
  2
01_PLANES
 70
0
 62
7
  6
CONTINUOUS
370
-3
390
F
  0
LAYER
  5
200
100
AcDbSymbolTableRecord
100
AcDbLayerTableRecord
  2
02_COORD_SYS
 70
0
 62
7
  6
CONTINUOUS
370
-3
390
F
  0
LAYER
  5
201
100
AcDbSymbolTableRecord
100
AcDbLayerTableRecord
  2
03_AXES
 70
0
 62
7
  6
CONTINUOUS
370
-3
390
F
  0
LAYER
  5
202
100
AcDbSymbolTableRecord
100
AcDbLayerTableRecord
  2
04_POINTS
 70
0
 62
7
  6
CONTINUOUS
370
-3
390
F
  0
LAYER
  5
203
100
AcDbSymbolTableRecord
100
AcDbLayerTableRecord
  2
05_CURVES
 70
0
 62
7
  6
CONTINUOUS
370
-3
390
F
  0
LAYER
  5
204
100
AcDbSymbolTableRecord
100
AcDbLayerTableRecord
  2
06_SURFS
 70
0
 62
7
  6
CONTINUOUS
370
-3
390
F
  0
LAYER
  5
205
100
AcDbSymbolTableRecord
100
AcDbLayerTableRecord
  2
07_COSMETICS
 70
0
 62
7
  6
CONTINUOUS
370
-3
390
F
  0
LAYER
  5
206
100
AcDbSymbolTableRecord
100
AcDbLayerTableRecord
  2
10_NOTES
 70
0
 62
7
  6
CONTINUOUS
370
-3
390
F
  0
LAYER
  5
207
100
AcDbSymbolTableRecord
100
AcDbLayerTableRecord
  2
11_NOTES_PUB
 70
0
 62
7
  6
CONTINUOUS
370
-3
390
F
  0
LAYER
  5
208
100
AcDbSymbolTableRecord
100
AcDbLayerTableRecord
  2
13_REF_GTOL
 70
0
 62
7
  6
CONTINUOUS
370
-3
390
F
  0
LAYER
  5
209
100
AcDbSymbolTableRecord
100
AcDbLayerTableRecord
  2
16_MISC
 70
0
 62
7
  6
CONTINUOUS
370
-3
390
F
  0
LAYER
  5
20A
100
AcDbSymbolTableRecord
100
AcDbLayerTableRecord
  2
17_NO_PRINT
 70
0
 62
7
  6
CONTINUOUS
370
-3
390
F
  0
LAYER
  5
20B
100
AcDbSymbolTableRecord
100
AcDbLayerTableRecord
  2
18_DATUM_CAMS_JOINTS
 70
0
 62
7
  6
CONTINUOUS
370
-3
390
F
  0
LAYER
  5
20C
100
AcDbSymbolTableRecord
100
AcDbLayerTableRecord
  2
19_DATUM_FUNCTIONAL
 70
0
 62
7
  6
CONTINUOUS
370
-3
390
F
  0
LAYER
  5
20D
100
AcDbSymbolTableRecord
100
AcDbLayerTableRecord
  2
20_DATUM_KINEMATIC_SCHEME
 70
0
 62
7
  6
CONTINUOUS
370
-3
390
F
  0
ENDTAB
  0
TABLE
  2
STYLE
  5
3
100
AcDbSymbolTable
 70
1
  0
STYLE
  5
11
100
AcDbSymbolTableRecord
100
AcDbTextStyleTableRecord
  2
STANDARD
 70
0
 40
0.0
 41
1.0
 50
0.0
 71
0
 42
0.2
  3
ARIAL.TTF
  4

  0
STYLE
  5
20E
100
AcDbSymbolTableRecord
100
AcDbTextStyleTableRecord
  2
TEXTSTYLE_1
 70
0
 40
0.0
 41
0.8
 50
0.0
 71
0
 42
0.2
  3
gdt
  4

  0
ENDTAB
  0
TABLE
  2
VIEW
  5
6
100
AcDbSymbolTable
 70
0
  0
ENDTAB
  0
TABLE
  2
UCS
  5
7
100
AcDbSymbolTable
 70
0
  0
ENDTAB
  0
TABLE
  2
APPID
  5
9
100
AcDbSymbolTable
 70
1
  0
APPID
  5
20F
100
AcDbSymbolTableRecord
100
AcDbRegAppTableRecord
  2
ACAD
 70
0
  0
ENDTAB
  0
TABLE
  2
BLOCK_RECORD
  5
1
100
AcDbSymbolTable
 70
0
  0
BLOCK_RECORD
  5
210
100
AcDbSymbolTableRecord
100
AcDbBlockTableRecord
  2
*Model_Space
  0
BLOCK_RECORD
  5
211
100
AcDbSymbolTableRecord
100
AcDbBlockTableRecord
  2
*Paper_Space
  0
BLOCK_RECORD
  5
212
100
AcDbSymbolTableRecord
100
AcDbBlockTableRecord
  2
_FILLED
  0
ENDTAB
  0
TABLE
  2
DIMSTYLE
  5
A
100
AcDbSymbolTable
 70
1
100
AcDbDimStyleTable
 71
0
  0
DIMSTYLE
105
213
100
AcDbSymbolTableRecord
100
AcDbDimStyleTableRecord
  2
STANDARD
 70
0
  3

  4

 40
1.0
 41
0.983066035
 42
1.0
 43
0.38
 44
1.0
 45
0.0
 46
0.0
 47
0.01
 48
0.01
140
1.376292449
141
0.09
142
0.0
143
25.4
144
1.0
145
0.0
146
1.0
147
0.625
 71
1
 72
0
 73
0
 74
0
 75
0
 76
0
 77
1
 78
8
 79
2
170
0
171
1
172
0
173
0
174
0
175
0
176
0
177
0
178
0
270
2
179
2
271
2
272
2
273
2
274
2
275
0
280
0
281
0
282
0
283
1
284
8
285
0
286
0
287
3
288
0
340
11
278
46
341
212
342
212
343
212
344
212
  0
ENDTAB
  0
ENDSEC
  0
SECTION
  2
BLOCKS
  0
BLOCK
  5
20
100
AcDbEntity
  8
0
100
AcDbBlockBegin
  2
*Model_Space
 70
0
 10
0.0
 20
0.0
 30
0.0
  3
*Model_Space
  1

  0
ENDBLK
  5
21
100
AcDbEntity
  8
0
100
AcDbBlockEnd
  0
BLOCK
  5
1C
100
AcDbEntity
  8
0
100
AcDbBlockBegin
  2
*Paper_Space
 70
0
 10
0.0
 20
0.0
 30
0.0
  3
*Paper_Space
  1

  0
ENDBLK
  5
1D
100
AcDbEntity
  8
0
100
AcDbBlockEnd
  0
BLOCK
  5
214
100
AcDbEntity
  8
0
100
AcDbBlockBegin
  2
_FILLED
 70
64
 10
0.0
 20
0.0
  3
_FILLED
  1

  0
SOLID
  5
215
100
AcDbEntity
  8
0
  6
BYBLOCK
 62
0
100
AcDbTrace
 10
0.0
 20
0.0
 11
-1.0
 21
0.25
 12
-1.0
 22
-0.25
 13
-1.0
 23
-0.25
  0
ENDBLK
  5
216
100
AcDbEntity
  8
0
  6
BYBLOCK
 62
0
100
AcDbBlockEnd
  0
ENDSEC
  0
SECTION
  2
ENTITIES
  0
LINE
  5
217
100
AcDbEntity
  8
0
100
AcDbLine
 62
7
  6
BYLAYER
 10
9.5799455226
 20
82.3579922791
 11
35.6720770555
 21
97.4222015222
  0
LINE
  5
218
100
AcDbEntity
  8
0
100
AcDbLine
 62
7
  6
BYLAYER
 10
9.5799455226
 20
37.6136598111
 11
40.6927734291
 21
19.6510666123
  0
LINE
  5
219
100
AcDbEntity
  8
0
100
AcDbLine
 62
7
  6
BYLAYER
 10
9.5799455226
 20
37.6136598111
 11
9.5799455226
 21
82.3579922791
  0
LINE
  5
21A
100
AcDbEntity
  8
0
100
AcDbLine
 62
7
  6
BYLAYER
 10
11.2416748677
 20
41.7574980613
 11
11.2416748677
 21
43.9620545875
  0
LINE
  5
21B
100
AcDbEntity
  8
0
100
AcDbLine
 62
7
  6
BYLAYER
 10
20.4340197467
 20
84.4196427628
 11
22.9795935607
 21
85.8893217168
  0
LINE
  5
21C
100
AcDbEntity
  8
0
100
AcDbLine
 62
7
  6
BYLAYER
 10
22.1230085611
 20
84.3333233574
 11
23.0503045332
 21
84.8686947408
  0
LINE
  5
21D
100
AcDbEntity
  8
0
100
AcDbLine
 62
7
  6
BYLAYER
 10
21.6538011295
 20
83.7154175848
 11
22.2682224992
 21
84.0701518106
  0
LINE
  5
21E
100
AcDbEntity
  8
0
100
AcDbLine
 62
7
  6
BYLAYER
 10
23.0856983229
 20
82.8887300569
 11
23.7140054426
 21
83.2514811763
  0
LINE
  5
21F
100
AcDbEntity
  8
0
100
AcDbLine
 62
7
  6
BYLAYER
 10
17.7117073618
 20
35.2050979114
 11
13.0447831758
 21
37.8994868912
  0
LINE
  5
220
100
AcDbEntity
  8
0
100
AcDbLine
 62
7
  6
BYLAYER
 10
13.0094312223
 20
60.0879500593
 11
13.0094312223
 21
66.3750186712
  0
LINE
  5
221
100
AcDbEntity
  8
0
100
AcDbLine
 62
7
  6
BYLAYER
 10
13.0447831758
 20
37.8994868912
 11
13.0447831758
 21
40.7164965448
  0
LINE
  5
222
100
AcDbEntity
  8
0
100
AcDbLine
 62
7
  6
BYLAYER
 10
13.0447831758
 20
45.0030734406
 11
13.0447831758
 21
47.5342154134
  0
LINE
  5
223
100
AcDbEntity
  8
0
100
AcDbLine
 62
7
  6
BYLAYER
 10
14.4236686308
 20
42.1249711922
 11
14.4236686308
 21
39.9204146659
  0
LINE
  5
224
100
AcDbEntity
  8
0
100
AcDbLine
 62
7
  6
BYLAYER
 10
26.1888894806
 20
81.8226385355
 11
25.5605823609
 21
81.4598874161
  0
LINE
  5
225
100
AcDbEntity
  8
0
100
AcDbLine
 62
7
  6
BYLAYER
 10
25.3484382244
 20
80.7658846105
 11
26.0555420616
 21
81.1741287644
  0
LINE
  5
226
100
AcDbEntity
  8
0
100
AcDbLine
 62
7
  6
BYLAYER
 10
28.7778933069
 20
82.5417475297
 11
25.6666364231
 21
80.7454732527
  0
LINE
  5
227
100
AcDbEntity
  8
0
100
AcDbLine
 62
7
  6
BYLAYER
 10
26.3737461483
 20
80.3372324982
 11
29.485003032
 21
82.1335067752
  0
LINE
  5
228
100
AcDbEntity
  8
0
100
AcDbLine
 62
7
  6
BYLAYER
 10
14.4236686308
 20
39.9204146659
 11
11.2416748677
 21
41.7574980613
  0
LINE
  5
229
100
AcDbEntity
  8
0
100
AcDbLine
 62
7
  6
BYLAYER
 10
11.2416748677
 20
43.9620545875
 11
14.4236686308
 21
42.1249711922
  0
LINE
  5
22A
100
AcDbEntity
  8
0
100
AcDbLine
 62
7
  6
BYLAYER
 10
17.7117073618
 20
40.7571784455
 11
17.6409581177
 21
40.7980246165
  0
LINE
  5
22B
100
AcDbEntity
  8
0
100
AcDbLine
 62
7
  6
BYLAYER
 10
17.6409581177
 20
40.7980246165
 11
17.6409581177
 21
41.7779065295
  0
LINE
  5
22C
100
AcDbEntity
  8
0
100
AcDbLine
 62
7
  6
BYLAYER
 10
17.7117073618
 20
44.8398264335
 11
17.7117073618
 21
35.2050979114
  0
LINE
  5
22D
100
AcDbEntity
  8
0
100
AcDbLine
 62
7
  6
BYLAYER
 10
27.1869176218
 20
80.5209435572
 11
26.4798137846
 21
80.1126994033
  0
LINE
  5
22E
100
AcDbEntity
  8
0
100
AcDbLine
 62
7
  6
BYLAYER
 10
28.6284180324
 20
80.5775084158
 11
29.5557140045
 21
81.1128797992
  0
LINE
  5
22F
100
AcDbEntity
  8
0
100
AcDbLine
 62
7
  6
BYLAYER
 10
28.1592106009
 20
79.9596026432
 11
28.7736319706
 21
80.314336869
  0
LINE
  5
230
100
AcDbEntity
  8
0
100
AcDbLine
 62
7
  6
BYLAYER
 10
29.5911077943
 20
79.1329151153
 11
30.219414914
 21
79.4956662347
  0
LINE
  5
231
100
AcDbEntity
  8
0
100
AcDbLine
 62
7
  6
BYLAYER
 10
13.0447831758
 20
47.5342154134
 11
17.7117073618
 21
44.8398264335
  0
LINE
  5
232
100
AcDbEntity
  8
0
100
AcDbLine
 62
7
  6
BYLAYER
 10
20.1865913998
 20
44.6357374184
 11
20.1865913998
 21
49.2898011961
  0
LINE
  5
233
100
AcDbEntity
  8
0
100
AcDbLine
 62
7
  6
BYLAYER
 10
22.1230085611
 20
83.9863130047
 11
22.1230085611
 21
84.3333233574
  0
LINE
  5
234
100
AcDbEntity
  8
0
100
AcDbLine
 62
7
  6
BYLAYER
 10
32.5963070192
 20
77.3979017851
 11
30.0392599702
 21
75.7583011338
  0
LINE
  5
235
100
AcDbEntity
  8
0
100
AcDbLine
 62
7
  6
BYLAYER
 10
31.1467509241
 20
75.622043625
 11
27.7295174113
 21
73.4308839843
  0
LINE
  5
236
100
AcDbEntity
  8
0
100
AcDbLine
 62
7
  6
BYLAYER
 10
32.694298952
 20
78.0668235939
 11
32.0659918323
 21
77.7040724745
  0
LINE
  5
237
100
AcDbEntity
  8
0
100
AcDbLine
 62
7
  6
BYLAYER
 10
13.0094312223
 20
66.3750186712
 11
13.4336935247
 21
66.6199651635
  0
LINE
  5
238
100
AcDbEntity
  8
0
100
AcDbLine
 62
7
  6
BYLAYER
 10
35.2833027782
 20
78.7859325881
 11
30.0392599702
 21
75.7583011338
  0
LINE
  5
239
100
AcDbEntity
  8
0
100
AcDbLine
 62
7
  6
BYLAYER
 10
31.1821064103
 20
75.6016315873
 11
33.6569698406
 21
77.0304861258
  0
LINE
  5
23A
100
AcDbEntity
  8
0
100
AcDbLine
 62
7
  6
BYLAYER
 10
28.0708515873
 20
73.4787624715
 11
33.7276822851
 21
76.7447157024
  0
LINE
  5
23B
100
AcDbEntity
  8
0
100
AcDbLine
 62
7
  6
BYLAYER
 10
25.4192033659
 20
41.614755835
 11
20.1865913998
 21
44.6357374184
  0
LINE
  5
23C
100
AcDbEntity
  8
0
100
AcDbLine
 62
7
  6
BYLAYER
 10
25.4192033659
 20
44.9215320818
 11
23.3820401402
 21
46.0976622109
  0
LINE
  5
23D
100
AcDbEntity
  8
0
100
AcDbLine
 62
7
  6
BYLAYER
 10
22.9795935607
 20
84.8278699854
 11
22.9795935607
 21
85.8893217168
  0
LINE
  5
23E
100
AcDbEntity
  8
0
100
AcDbLine
 62
7
  6
BYLAYER
 10
23.3820401402
 20
46.0976622109
 11
23.3820401402
 21
47.4449497417
  0
LINE
  5
23F
100
AcDbEntity
  8
0
100
AcDbLine
 62
7
  6
BYLAYER
 10
24.8181636323
 20
59.5573980707
 11
24.8181636323
 21
53.2703294588
  0
LINE
  5
240
100
AcDbEntity
  8
0
100
AcDbLine
 62
7
  6
BYLAYER
 10
25.2424259346
 20
59.802344563
 11
25.2424259346
 21
53.5152759511
  0
LINE
  5
241
100
AcDbEntity
  8
0
100
AcDbLine
 62
7
  6
BYLAYER
 10
25.4192033659
 20
46.2688196126
 11
25.4192033659
 21
41.614755835
  0
LINE
  5
242
100
AcDbEntity
  8
0
100
AcDbLine
 62
7
  6
BYLAYER
 10
20.1865913998
 20
49.2898011961
 11
25.4192033659
 21
46.2688196126
  0
LINE
  5
243
100
AcDbEntity
  8
0
100
AcDbLine
 62
7
  6
BYLAYER
 10
25.6666364231
 20
80.5821769509
 11
25.6666364231
 21
80.7454732527
  0
LINE
  5
244
100
AcDbEntity
  8
0
100
AcDbLine
 62
7
  6
BYLAYER
 10
26.0555420616
 20
80.9700066875
 11
26.0555420616
 21
81.1741287644
  0
LINE
  5
245
100
AcDbEntity
  8
0
100
AcDbLine
 62
7
  6
BYLAYER
 10
26.1888894806
 20
81.8226385355
 11
26.1888894806
 21
81.2602681132
  0
LINE
  5
246
100
AcDbEntity
  8
0
100
AcDbLine
 62
7
  6
BYLAYER
 10
26.3737461483
 20
80.1739361963
 11
26.3737461483
 21
80.3372324982
  0
LINE
  5
247
100
AcDbEntity
  8
0
100
AcDbLine
 62
7
  6
BYLAYER
 10
28.0708515873
 20
73.4787624715
 11
28.0708515873
 21
73.2338190641
  0
LINE
  5
248
100
AcDbEntity
  8
0
100
AcDbLine
 62
7
  6
BYLAYER
 10
28.6284180324
 20
80.2304980631
 11
28.6284180324
 21
80.5775084158
  0
LINE
  5
249
100
AcDbEntity
  8
0
100
AcDbLine
 62
7
  6
BYLAYER
 10
24.8181636323
 20
53.2703294588
 11
13.0094312223
 21
60.0879500593
  0
LINE
  5
24A
100
AcDbEntity
  8
0
100
AcDbLine
 62
7
  6
BYLAYER
 10
29.485003032
 20
81.0720550439
 11
29.485003032
 21
82.1335067752
  0
LINE
  5
24B
100
AcDbEntity
  8
0
100
AcDbLine
 62
7
  6
BYLAYER
 10
31.1467509241
 20
75.254623181
 11
31.1467509241
 21
75.622043625
  0
LINE
  5
24C
100
AcDbEntity
  8
0
100
AcDbLine
 62
7
  6
BYLAYER
 10
31.1821064103
 20
75.2750355587
 11
31.1821064103
 21
75.6016315873
  0
LINE
  5
24D
100
AcDbEntity
  8
0
100
AcDbLine
 62
7
  6
BYLAYER
 10
32.5963070192
 20
77.2346041235
 11
32.5963070192
 21
77.3979017851
  0
LINE
  5
24E
100
AcDbEntity
  8
0
100
AcDbLine
 62
7
  6
BYLAYER
 10
32.694298952
 20
78.0668235939
 11
32.694298952
 21
77.5044531716
  0
LINE
  5
24F
100
AcDbEntity
  8
0
100
AcDbLine
 62
7
  6
BYLAYER
 10
33.6569698406
 20
76.7038900973
 11
33.6569698406
 21
77.0304861258
  0
LINE
  5
250
100
AcDbEntity
  8
0
100
AcDbLine
 62
7
  6
BYLAYER
 10
24.8181636323
 20
59.5573980707
 11
25.2424259346
 21
59.802344563
  0
LINE
  5
251
100
AcDbEntity
  8
0
100
AcDbLine
 62
7
  6
BYLAYER
 10
44.3343281623
 20
70.6211043846
 11
42.0715967885
 21
69.3147236149
  0
LINE
  5
252
100
AcDbEntity
  8
0
100
AcDbLine
 62
7
  6
BYLAYER
 10
44.6878815528
 20
70.6619303553
 11
42.2130181226
 21
69.2330758168
  0
LINE
  5
253
100
AcDbEntity
  8
0
100
AcDbLine
 62
7
  6
BYLAYER
 10
38.2410150645
 20
67.3622052766
 11
42.0362406913
 21
69.3351360054
  0
LINE
  5
254
100
AcDbEntity
  8
0
100
AcDbLine
 62
7
  6
BYLAYER
 10
13.0094312223
 20
66.3750186712
 11
24.8181636323
 21
59.5573980707
  0
LINE
  5
255
100
AcDbEntity
  8
0
100
AcDbLine
 62
7
  6
BYLAYER
 10
13.4336935247
 20
66.6199651635
 11
25.2424259346
 21
59.802344563
  0
LINE
  5
256
100
AcDbEntity
  8
0
100
AcDbLine
 62
7
  6
BYLAYER
 10
40.6927734291
 20
64.3953990802
 11
66.784904962
 21
79.4596083233
  0
LINE
  5
257
100
AcDbEntity
  8
0
100
AcDbLine
 62
7
  6
BYLAYER
 10
61.9765989292
 20
75.6220949695
 11
65.8656733457
 21
77.8674426957
  0
LINE
  5
258
100
AcDbEntity
  8
0
100
AcDbLine
 62
7
  6
BYLAYER
 10
24.8181636323
 20
53.2703294588
 11
25.2424259346
 21
53.5152759511
  0
LINE
  5
259
100
AcDbEntity
  8
0
100
AcDbLine
 62
7
  6
BYLAYER
 10
22.2682224992
 20
84.0701518106
 11
22.8807824695
 21
83.0070356036
  0
LINE
  5
25A
100
AcDbEntity
  8
0
100
AcDbLine
 62
7
  6
BYLAYER
 10
40.6927734291
 20
19.6510666123
 11
40.6927734291
 21
64.3953990802
  0
LINE
  5
25B
100
AcDbEntity
  8
0
100
AcDbLine
 62
7
  6
BYLAYER
 10
11.2416748677
 20
43.9620545875
 11
15.2368477623
 21
46.2686549651
  0
LINE
  5
25C
100
AcDbEntity
  8
0
100
AcDbLine
 62
7
  6
BYLAYER
 10
64.4514505836
 20
74.0298555472
 11
61.9765989292
 21
72.6010078074
  0
LINE
  5
25D
100
AcDbEntity
  8
0
100
AcDbLine
 62
7
  6
BYLAYER
 10
65.8656700339
 20
73.2133740382
 11
61.9765989292
 21
70.9680311919
  0
LINE
  5
25E
100
AcDbEntity
  8
0
100
AcDbLine
 62
7
  6
BYLAYER
 10
49.6729903953
 20
51.4129095282
 11
50.097254464
 21
51.1679660953
  0
LINE
  5
25F
100
AcDbEntity
  8
0
100
AcDbLine
 62
7
  6
BYLAYER
 10
28.7736319706
 20
80.314336869
 11
29.3861919409
 21
79.251220662
  0
LINE
  5
260
100
AcDbEntity
  8
0
100
AcDbLine
 62
7
  6
BYLAYER
 10
44.3343281623
 20
70.6211043846
 11
44.3343281623
 21
70.4578074285
  0
LINE
  5
261
100
AcDbEntity
  8
0
100
AcDbLine
 62
7
  6
BYLAYER
 10
14.4236686308
 20
42.1249711922
 11
17.7117073618
 21
44.0233099071
  0
LINE
  5
262
100
AcDbEntity
  8
0
100
AcDbLine
 62
7
  6
BYLAYER
 10
23.3820401402
 20
46.4806195964
 11
20.1865913998
 21
44.6357374184
  0
LINE
  5
263
100
AcDbEntity
  8
0
100
AcDbLine
 62
7
  6
BYLAYER
 10
14.4236686308
 20
39.9204146659
 11
17.7117073618
 21
41.8187533808
  0
LINE
  5
264
100
AcDbEntity
  8
0
100
AcDbLine
 62
7
  6
BYLAYER
 10
17.7117073618
 20
40.5939207427
 11
13.0447831758
 21
37.8994868912
  0
LINE
  5
265
100
AcDbEntity
  8
0
100
AcDbLine
 62
7
  6
BYLAYER
 10
71.9467512581
 20
44.4723932674
 11
73.3609707083
 21
43.6559117583
  0
LINE
  5
266
100
AcDbEntity
  8
0
100
AcDbLine
 62
7
  6
BYLAYER
 10
47.6223910338
 20
49.7391115568
 11
47.6223910338
 21
53.9032738841
  0
LINE
  5
267
100
AcDbEntity
  8
0
100
AcDbLine
 62
7
  6
BYLAYER
 10
68.9062165339
 20
66.2730731574
 11
74.2802056967
 21
69.3757287268
  0
LINE
  5
268
100
AcDbEntity
  8
0
100
AcDbLine
 62
7
  6
BYLAYER
 10
47.6223910338
 20
53.9032738841
 11
50.097254464
 21
55.3321284227
  0
LINE
  5
269
100
AcDbEntity
  8
0
100
AcDbLine
 62
7
  6
BYLAYER
 10
9.5799455226
 20
82.3579922791
 11
40.6927734291
 21
64.3953990802
  0
LINE
  5
26A
100
AcDbEntity
  8
0
100
AcDbLine
 62
7
  6
BYLAYER
 10
38.2410150645
 20
67.3622052766
 11
27.7295174113
 21
73.4308839843
  0
LINE
  5
26B
100
AcDbEntity
  8
0
100
AcDbLine
 62
7
  6
BYLAYER
 10
38.4642626779
 20
67.47825953
 11
28.0708515873
 21
73.4787624715
  0
LINE
  5
26C
100
AcDbEntity
  8
0
100
AcDbLine
 62
7
  6
BYLAYER
 10
49.6729903953
 20
55.0871809105
 11
49.6729903953
 21
51.2087901964
  0
LINE
  5
26D
100
AcDbEntity
  8
0
100
AcDbLine
 62
7
  6
BYLAYER
 10
50.097254464
 20
55.3321284227
 11
50.097254464
 21
51.1679660953
  0
LINE
  5
26E
100
AcDbEntity
  8
0
100
AcDbLine
 62
7
  6
BYLAYER
 10
68.7761094279
 20
65.1365030908
 11
73.3609707083
 21
67.7835581845
  0
LINE
  5
26F
100
AcDbEntity
  8
0
100
AcDbLine
 62
7
  6
BYLAYER
 10
49.6729903953
 20
51.2087901964
 11
47.6223892674
 21
50.0248821501
  0
LINE
  5
270
100
AcDbEntity
  8
0
100
AcDbLine
 62
7
  6
BYLAYER
 10
50.097254464
 20
51.1679660953
 11
47.6223910338
 21
49.7391115568
  0
LINE
  5
271
100
AcDbEntity
  8
0
100
AcDbLine
 62
7
  6
BYLAYER
 10
70.0488963348
 20
62.6053328992
 11
69.3417924976
 21
62.1970887454
  0
LINE
  5
272
100
AcDbEntity
  8
0
100
AcDbLine
 62
7
  6
BYLAYER
 10
42.2130181226
 20
69.2330758168
 11
42.0362406913
 21
69.3351360054
  0
LINE
  5
273
100
AcDbEntity
  8
0
100
AcDbLine
 62
7
  6
BYLAYER
 10
31.1467509241
 20
75.622043625
 11
31.1821064103
 21
75.6016315873
  0
LINE
  5
274
100
AcDbEntity
  8
0
100
AcDbLine
 62
7
  6
BYLAYER
 10
71.9467512581
 20
60.9286728836
 11
70.6120154677
 21
60.1580674156
  0
LINE
  5
275
100
AcDbEntity
  8
0
100
AcDbLine
 62
7
  6
BYLAYER
 10
26.4798137846
 20
80.1126994033
 11
25.3484382244
 21
80.7658846105
  0
LINE
  5
276
100
AcDbEntity
  8
0
100
AcDbLine
 62
7
  6
BYLAYER
 10
25.6666364231
 20
80.7454732527
 11
26.3737461483
 21
80.3372324982
  0
LINE
  5
277
100
AcDbEntity
  8
0
100
AcDbLine
 62
7
  6
BYLAYER
 10
33.7276822851
 20
76.7447157024
 11
44.3343281623
 21
70.6211043846
  0
LINE
  5
278
100
AcDbEntity
  8
0
100
AcDbLine
 62
7
  6
BYLAYER
 10
32.5963070192
 20
77.3979017851
 11
27.1869176218
 21
80.5209435572
  0
LINE
  5
279
100
AcDbEntity
  8
0
100
AcDbLine
 62
7
  6
BYLAYER
 10
26.0555420616
 20
81.1741287644
 11
20.4340197467
 21
84.4196427628
  0
LINE
  5
27A
100
AcDbEntity
  8
0
100
AcDbLine
 62
7
  6
BYLAYER
 10
33.6569698406
 20
77.0304861258
 11
44.6878815529
 21
70.6619303553
  0
LINE
  5
27B
100
AcDbEntity
  8
0
100
AcDbLine
 62
7
  6
BYLAYER
 10
32.694298952
 20
78.0668235939
 11
30.219414914
 21
79.4956662347
  0
LINE
  5
27C
100
AcDbEntity
  8
0
100
AcDbLine
 62
7
  6
BYLAYER
 10
23.7140054426
 20
83.2514811763
 11
26.1888894806
 21
81.8226385355
  0
LINE
  5
27D
100
AcDbEntity
  8
0
100
AcDbLine
 62
7
  6
BYLAYER
 10
33.5074604728
 20
77.7606556752
 11
28.6284180324
 21
80.5775084158
  0
LINE
  5
27E
100
AcDbEntity
  8
0
100
AcDbLine
 62
7
  6
BYLAYER
 10
27.0020510015
 20
81.5164706167
 11
22.1230085611
 21
84.3333233574
  0
LINE
  5
27F
100
AcDbEntity
  8
0
100
AcDbLine
 62
7
  6
BYLAYER
 10
34.434756445
 20
78.2960270585
 11
29.5557140045
 21
81.1128797992
  0
LINE
  5
280
100
AcDbEntity
  8
0
100
AcDbLine
 62
7
  6
BYLAYER
 10
23.0503045332
 20
84.8686947408
 11
27.9293469736
 21
82.0518420001
  0
LINE
  5
281
100
AcDbEntity
  8
0
100
AcDbLine
 62
7
  6
BYLAYER
 10
73.3609707083
 20
60.1121913746
 11
70.7446865107
 21
58.6016880053
  0
LINE
  5
282
100
AcDbEntity
  8
0
100
AcDbLine
 62
7
  6
BYLAYER
 10
32.2709076857
 20
77.5857669278
 11
32.9714937005
 21
77.451216962
  0
LINE
  5
283
100
AcDbEntity
  8
0
100
AcDbLine
 62
7
  6
BYLAYER
 10
22.9795935607
 20
85.8893217168
 11
28.7778933069
 21
82.5417475297
  0
LINE
  5
284
100
AcDbEntity
  8
0
100
AcDbLine
 62
7
  6
BYLAYER
 10
29.485003032
 20
82.1335067752
 11
35.2833027782
 21
78.7859325881
  0
LINE
  5
285
100
AcDbEntity
  8
0
100
AcDbLine
 62
7
  6
BYLAYER
 10
68.7761094279
 20
62.523695356
 11
69.3417924976
 21
62.1970887454
  0
LINE
  5
286
100
AcDbEntity
  8
0
100
AcDbLine
 62
7
  6
BYLAYER
 10
71.9467512581
 20
60.9286728836
 11
73.3609707083
 21
60.1121913746
  0
LINE
  5
287
100
AcDbEntity
  8
0
100
AcDbLine
 62
7
  6
BYLAYER
 10
61.9765989292
 20
70.9680311919
 11
61.9765989292
 21
75.6220949695
  0
LINE
  5
288
100
AcDbEntity
  8
0
100
AcDbLine
 62
7
  6
BYLAYER
 10
25.7654982144
 20
81.3415818694
 11
26.4660842292
 21
81.2070319036
  0
LINE
  5
289
100
AcDbEntity
  8
0
100
AcDbLine
 62
7
  6
BYLAYER
 10
68.7761094279
 20
63.3401601386
 11
70.0488963348
 21
62.6053328992
  0
LINE
  5
28A
100
AcDbEntity
  8
0
100
AcDbLine
 62
7
  6
BYLAYER
 10
64.4514527334
 20
77.0509458391
 11
64.4514505836
 21
74.0298555472
  0
LINE
  5
28B
100
AcDbEntity
  8
0
100
AcDbLine
 62
7
  6
BYLAYER
 10
65.8656733457
 20
77.8674426957
 11
65.8656700339
 21
73.2133740382
  0
LINE
  5
28C
100
AcDbEntity
  8
0
100
AcDbLine
 62
7
  6
BYLAYER
 10
69.8254515223
 20
48.5549615346
 11
73.3609707083
 21
50.5961823039
  0
LINE
  5
28D
100
AcDbEntity
  8
0
100
AcDbLine
 62
7
  6
BYLAYER
 10
66.784904962
 20
79.4596083233
 11
66.7849050223
 21
69.8785240448
  0
LINE
  5
28E
100
AcDbEntity
  8
0
100
AcDbLine
 62
7
  6
BYLAYER
 10
68.7761094279
 20
62.523695356
 11
68.7761094279
 21
65.1365030908
  0
LINE
  5
28F
100
AcDbEntity
  8
0
100
AcDbLine
 62
7
  6
BYLAYER
 10
71.9467512581
 20
44.4723932674
 11
69.8254515223
 21
43.2476652328
  0
LINE
  5
290
100
AcDbEntity
  8
0
100
AcDbLine
 62
7
  6
BYLAYER
 10
64.4514505836
 20
74.0298555472
 11
65.8656700339
 21
73.2133740382
  0
LINE
  5
291
100
AcDbEntity
  8
0
100
AcDbLine
 62
7
  6
BYLAYER
 10
66.7849049982
 20
73.7030447058
 11
74.2802056967
 21
69.3757287268
  0
LINE
  5
292
100
AcDbEntity
  8
0
100
AcDbLine
 62
7
  6
BYLAYER
 10
66.7849050223
 20
69.8785240448
 11
68.9062165339
 21
66.2730731574
  0
LINE
  5
293
100
AcDbEntity
  8
0
100
AcDbLine
 62
7
  6
BYLAYER
 10
69.8254515223
 20
41.6146870362
 11
69.8254515223
 21
48.5549615346
  0
LINE
  5
294
100
AcDbEntity
  8
0
100
AcDbLine
 62
7
  6
BYLAYER
 10
70.7446865107
 20
58.6016880053
 11
70.7446865107
 21
59.5814909058
  0
LINE
  5
295
100
AcDbEntity
  8
0
100
AcDbLine
 62
7
  6
BYLAYER
 10
71.9467512581
 20
66.967063078
 11
71.9467512581
 21
60.9286728836
  0
LINE
  5
296
100
AcDbEntity
  8
0
100
AcDbLine
 62
7
  6
BYLAYER
 10
71.9467512581
 20
49.7796871974
 11
71.9467512581
 21
44.4723932674
  0
LINE
  5
297
100
AcDbEntity
  8
0
100
AcDbLine
 62
7
  6
BYLAYER
 10
73.3609707083
 20
43.6559117583
 11
69.8254515223
 21
41.6146870362
  0
LINE
  5
298
100
AcDbEntity
  8
0
100
AcDbLine
 62
7
  6
BYLAYER
 10
74.2802056967
 20
43.1251760161
 11
70.4618449758
 21
40.9206575852
  0
LINE
  5
299
100
AcDbEntity
  8
0
100
AcDbLine
 62
7
  6
BYLAYER
 10
35.6720770555
 20
97.4222015222
 11
66.784904962
 21
79.4596083233
  0
LINE
  5
29A
100
AcDbEntity
  8
0
100
AcDbLine
 62
7
  6
BYLAYER
 10
70.0488963348
 20
62.6053328992
 11
70.7446865107
 21
59.5814909058
  0
LINE
  5
29B
100
AcDbEntity
  8
0
100
AcDbLine
 62
7
  6
BYLAYER
 10
73.3609707083
 20
67.7835581845
 11
73.3609707083
 21
60.1121913746
  0
LINE
  5
29C
100
AcDbEntity
  8
0
100
AcDbLine
 62
7
  6
BYLAYER
 10
73.3609707083
 20
50.5961823039
 11
73.3609707083
 21
43.6559117583
  0
LINE
  5
29D
100
AcDbEntity
  8
0
100
AcDbLine
 62
7
  6
BYLAYER
 10
74.2802056967
 20
69.3757287268
 11
74.2802056967
 21
43.1251760161
  0
LINE
  5
29E
100
AcDbEntity
  8
0
100
AcDbLine
 62
7
  6
BYLAYER
 10
70.4618449758
 20
40.9206575852
 11
67.209167218
 21
34.9602223707
  0
LINE
  5
29F
100
AcDbEntity
  8
0
100
AcDbLine
 62
7
  6
BYLAYER
 10
67.209167218
 20
34.9602223707
 11
40.6927734291
 21
19.6510666123
  0
ARC
  5
2A0
100
AcDbEntity
  8
0
100
AcDbCircle
 62
7
  6
BYLAYER
 10
55.5302409061
 20
56.4954154779
 40
1.9326040907
100
AcDbArc
 50
298.0884654663
 51
300.1998296023
  0
ARC
  5
2A1
100
AcDbEntity
  8
0
100
AcDbCircle
 62
7
  6
BYLAYER
 10
56.073506817
 20
57.3939669263
 40
1.9079436772
100
AcDbArc
 50
359.9914841283
 51
1.9803739627
  0
SPLINE
  5
2A2
100
AcDbEntity
  8
0
100
AcDbSpline
 62
7
  6
BYLAYER
 70
0
 71
3
 72
11
 73
7
 74
0
 42
0.0000001
 43
0.0000001
 44
0.0000000001
 40
0.0
 40
0.0
 40
0.0
 40
0.0
 40
0.2897026209
 40
0.5490908265
 40
0.782219764
 40
1.0
 40
1.0
 40
1.0
 40
1.0
 10
56.4258338071
 20
54.8625763933
 30
0.0
 10
56.4258338071
 20
54.7561731845
 30
0.0
 10
56.4419658958
 20
54.5538160068
 30
0.0
 10
56.5239136337
 20
54.2757860847
 30
0.0
 10
56.6618965405
 20
54.0501813823
 30
0.0
 10
56.7915049011
 20
53.9412298571
 30
0.0
 10
56.8607732628
 20
53.9012316795
 30
0.0
  0
SPLINE
  5
2A3
100
AcDbEntity
  8
0
100
AcDbSpline
 62
7
  6
BYLAYER
 70
0
 71
3
 72
11
 73
7
 74
0
 42
0.0000001
 43
0.0000001
 44
0.0000000001
 40
0.0
 40
0.0
 40
0.0
 40
0.0
 40
0.2896423581
 40
0.5491120121
 40
0.7822364467
 40
1.0
 40
1.0
 40
1.0
 40
1.0
 10
55.2591124757
 20
34.8378662535
 30
0.0
 10
55.2591124757
 20
34.756814342
 30
0.0
 10
55.2714323276
 20
34.602634584
 30
0.0
 10
55.3338345882
 20
34.3907967704
 30
0.0
 10
55.4389510224
 20
34.2188607611
 30
0.0
 10
55.537744851
 20
34.1359227271
 30
0.0
 10
55.5905065399
 20
34.1054331719
 30
0.0
  0
SPLINE
  5
2A4
100
AcDbEntity
  8
0
100
AcDbSpline
 62
7
  6
BYLAYER
 70
0
 71
3
 72
17
 73
13
 74
0
 42
0.0000001
 43
0.0000001
 44
0.0000000001
 40
0.0
 40
0.0
 40
0.0
 40
0.0
 40
0.0428576877
 40
0.0874849505
 40
0.1353173333
 40
0.1872806034
 40
0.3045412648
 40
0.4382087218
 40
0.5825511809
 40
0.7297102049
 40
0.8713097134
 40
1.0
 40
1.0
 40
1.0
 40
1.0
 10
57.1904506905
 20
36.8766806274
 30
0.0
 10
57.1510160879
 20
36.8994688193
 30
0.0
 10
57.0640589339
 20
36.9355910742
 30
0.0
 10
56.9205387686
 20
36.9566396285
 30
0.0
 10
56.7664046566
 20
36.9452800173
 30
0.0
 10
56.5424465703
 20
36.8857259034
 30
0.0
 10
56.2561506931
 20
36.7291749624
 30
0.0
 10
55.9398412414
 20
36.4490483231
 30
0.0
 10
55.6602365373
 20
36.0911624859
 30
0.0
 10
55.4401763187
 20
35.6844270882
 30
0.0
 10
55.2973754147
 20
35.2621952369
 30
0.0
 10
55.2591124757
 20
34.9746272297
 30
0.0
 10
55.2591124757
 20
34.8378662535
 30
0.0
  0
SPLINE
  5
2A5
100
AcDbEntity
  8
0
100
AcDbSpline
 62
7
  6
BYLAYER
 70
0
 71
3
 72
18
 73
14
 74
0
 42
0.0000001
 43
0.0000001
 44
0.0000000001
 40
0.0
 40
0.0
 40
0.0
 40
0.0
 40
0.0428476658
 40
0.087461778
 40
0.1352833064
 40
0.1872314155
 40
0.2437210846
 40
0.3047253107
 40
0.438355177
 40
0.5826586073
 40
0.7297839596
 40
0.8713397786
 40
1.0
 40
1.0
 40
1.0
 40
1.0
 10
58.9607304677
 20
57.5385465534
 30
0.0
 10
58.9089611585
 20
57.5684401149
 30
0.0
 10
58.7948270205
 20
57.6158310204
 30
0.0
 10
58.6064555937
 20
57.6434817042
 30
0.0
 10
58.4041638509
 20
57.6285596493
 30
0.0
 10
58.1924556569
 20
57.5723240654
 30
0.0
 10
57.9754640696
 20
57.476446021
 30
0.0
 10
57.6759380553
 20
57.293090335
 30
0.0
 10
57.3191009533
 20
56.9770710293
 30
0.0
 10
56.9523747725
 20
56.5075836811
 30
0.0
 10
56.6634827975
 20
55.9736751954
 30
0.0
 10
56.4760504077
 20
55.4195166061
 30
0.0
 10
56.4258338071
 20
55.0420808952
 30
0.0
 10
56.4258338071
 20
54.8625763933
 30
0.0
  0
SPLINE
  5
2A6
100
AcDbEntity
  8
0
100
AcDbSpline
 62
7
  6
BYLAYER
 70
0
 71
3
 72
20
 73
16
 74
0
 42
0.0000001
 43
0.0000001
 44
0.0000000001
 40
0.0
 40
0.0
 40
0.0
 40
0.0
 40
0.0428311613
 40
0.0874319279
 40
0.1352333838
 40
0.1871657716
 40
0.2436348819
 40
0.3046161584
 40
0.3697415862
 40
0.4383764435
 40
0.5826277449
 40
0.7296929665
 40
0.8711902206
 40
0.9376090813
 40
1.0
 40
1.0
 40
1.0
 40
1.0
 10
24.2053919246
 20
67.3956644203
 30
0.0
 10
24.2867393087
 20
67.4426487012
 30
0.0
 10
24.4409881119
 20
67.5606540759
 30
0.0
 10
24.6265266544
 20
67.7953781975
 30
0.0
 10
24.765272028
 20
68.0823525997
 30
0.0
 10
24.8550331466
 20
68.4146918582
 30
0.0
 10
24.895022722
 20
68.7853208641
 30
0.0
 10
24.8848381707
 20
69.1866411968
 30
0.0
 10
24.8248307611
 20
69.610392571
 30
0.0
 10
24.6778957806
 20
70.2030563098
 30
0.0
 10
24.3802091966
 20
70.939221302
 30
0.0
 10
23.8810040977
 20
71.7512752968
 30
0.0
 10
23.3637834136
 20
72.3398471442
 30
0.0
 10
22.9094520108
 20
72.7221001213
 30
0.0
 10
22.6739176141
 20
72.8795743089
 30
0.0
 10
22.555408979
 20
72.9479937534
 30
0.0
  0
SPLINE
  5
2A7
100
AcDbEntity
  8
0
100
AcDbSpline
 62
7
  6
BYLAYER
 70
0
 71
3
 72
20
 73
16
 74
0
 42
0.0000001
 43
0.0000001
 44
0.0000000001
 40
0.0
 40
0.0
 40
0.0
 40
0.0
 40
0.0428311613
 40
0.0874319279
 40
0.1352333838
 40
0.1871657716
 40
0.2436348819
 40
0.3046161584
 40
0.3697415862
 40
0.4383764435
 40
0.5826277449
 40
0.7296929665
 40
0.8711902206
 40
0.9376090813
 40
1.0
 40
1.0
 40
1.0
 40
1.0
 10
17.7706934258
 20
71.1106552865
 30
0.0
 10
17.8520408099
 20
71.1576395673
 30
0.0
 10
18.0062896131
 20
71.275644942
 30
0.0
 10
18.1918281556
 20
71.5103690636
 30
0.0
 10
18.3305735292
 20
71.7973434658
 30
0.0
 10
18.4203346478
 20
72.1296827243
 30
0.0
 10
18.4603242232
 20
72.5003117303
 30
0.0
 10
18.4501396719
 20
72.9016320629
 30
0.0
 10
18.3901322623
 20
73.3253834371
 30
0.0
 10
18.2431972817
 20
73.918047176
 30
0.0
 10
17.9455106978
 20
74.6542121682
 30
0.0
 10
17.4463055988
 20
75.4662661629
 30
0.0
 10
16.9290849148
 20
76.0548380104
 30
0.0
 10
16.474753512
 20
76.4370909874
 30
0.0
 10
16.2392191152
 20
76.5945651751
 30
0.0
 10
16.1207104802
 20
76.6629846196
 30
0.0
  0
SPLINE
  5
2A8
100
AcDbEntity
  8
0
100
AcDbSpline
 62
7
  6
BYLAYER
 70
0
 71
3
 72
13
 73
9
 74
0
 42
0.0000001
 43
0.0000001
 44
0.0000000001
 40
0.0
 40
0.0
 40
0.0
 40
0.0
 40
0.2893458231
 40
0.5483208405
 40
0.6677472462
 40
0.7817619935
 40
0.8919039107
 40
1.0
 40
1.0
 40
1.0
 40
1.0
 10
16.1207104802
 20
76.6629846196
 30
0.0
 10
15.9758886603
 20
76.7465956448
 30
0.0
 10
15.6880107256
 20
76.8836678412
 30
0.0
 10
15.3089900141
 20
76.9750059473
 30
0.0
 10
15.023702314
 20
76.9849523585
 30
0.0
 10
14.825582242
 20
76.9627760052
 30
0.0
 10
14.6397066507
 20
76.9114369188
 30
0.0
 10
14.5248256197
 20
76.8576437446
 30
0.0
 10
14.4707275346
 20
76.8263979996
 30
0.0
  0
SPLINE
  5
2A9
100
AcDbEntity
  8
0
100
AcDbSpline
 62
7
  6
BYLAYER
 70
0
 71
3
 72
13
 73
9
 74
0
 42
0.0000001
 43
0.0000001
 44
0.0000000001
 40
0.0
 40
0.0
 40
0.0
 40
0.0
 40
0.2893458231
 40
0.5483208405
 40
0.6677472462
 40
0.7817619935
 40
0.8919039107
 40
1.0
 40
1.0
 40
1.0
 40
1.0
 10
22.555408979
 20
72.9479937534
 30
0.0
 10
22.4105871591
 20
73.0316047786
 30
0.0
 10
22.1227092244
 20
73.1686769751
 30
0.0
 10
21.7436885129
 20
73.2600150812
 30
0.0
 10
21.4584008128
 20
73.2699614924
 30
0.0
 10
21.2602807408
 20
73.247785139
 30
0.0
 10
21.0744051496
 20
73.1964460527
 30
0.0
 10
20.9595241185
 20
73.1426528785
 30
0.0
 10
20.9054260335
 20
73.1114071335
 30
0.0
  0
SPLINE
  5
2AA
100
AcDbEntity
  8
0
100
AcDbSpline
 62
7
  6
BYLAYER
 70
0
 71
3
 72
20
 73
16
 74
0
 42
0.0000001
 43
0.0000001
 44
0.0000000001
 40
0.0
 40
0.0
 40
0.0
 40
0.0
 40
0.0428311613
 40
0.0874319279
 40
0.1352333838
 40
0.1871657716
 40
0.2436348819
 40
0.3046161584
 40
0.3697415862
 40
0.4383764435
 40
0.5826277449
 40
0.7296929665
 40
0.8711902206
 40
0.9376090813
 40
1.0
 40
1.0
 40
1.0
 40
1.0
 10
20.9054260335
 20
73.1114071335
 30
0.0
 10
20.8240786494
 20
73.0644228526
 30
0.0
 10
20.6698298462
 20
72.9464174779
 30
0.0
 10
20.4842913037
 20
72.7116933563
 30
0.0
 10
20.3455459301
 20
72.4247189541
 30
0.0
 10
20.2557848115
 20
72.0923796956
 30
0.0
 10
20.2157952361
 20
71.7217506897
 30
0.0
 10
20.2259797874
 20
71.320430357
 30
0.0
 10
20.285987197
 20
70.8966789828
 30
0.0
 10
20.4329221775
 20
70.304015244
 30
0.0
 10
20.7306087615
 20
69.5678502518
 30
0.0
 10
21.2298138604
 20
68.755796257
 30
0.0
 10
21.7470345445
 20
68.1672244096
 30
0.0
 10
22.2013659473
 20
67.7849714325
 30
0.0
 10
22.436900344
 20
67.6274972449
 30
0.0
 10
22.555408979
 20
67.5590778004
 30
0.0
  0
SPLINE
  5
2AB
100
AcDbEntity
  8
0
100
AcDbSpline
 62
7
  6
BYLAYER
 70
0
 71
3
 72
11
 73
7
 74
0
 42
0.0000001
 43
0.0000001
 44
0.0000000001
 40
0.0
 40
0.0
 40
0.0
 40
0.0
 40
0.2897026209
 40
0.5490908265
 40
0.782219764
 40
1.0
 40
1.0
 40
1.0
 40
1.0
 10
59.3956699234
 20
56.5772018396
 30
0.0
 10
59.3956699234
 20
56.6836050484
 30
0.0
 10
59.3795378347
 20
56.8859622261
 30
0.0
 10
59.2975900968
 20
57.1639921482
 30
0.0
 10
59.1596071899
 20
57.3895968507
 30
0.0
 10
59.0299988294
 20
57.4985483758
 30
0.0
 10
58.9607304677
 20
57.5385465534
 30
0.0
  0
SPLINE
  5
2AC
100
AcDbEntity
  8
0
100
AcDbSpline
 62
7
  6
BYLAYER
 70
0
 71
3
 72
17
 73
13
 74
0
 42
0.0000001
 43
0.0000001
 44
0.0000000001
 40
0.0
 40
0.0
 40
0.0
 40
0.0
 40
0.0428576877
 40
0.0874849505
 40
0.1353173333
 40
0.1872806034
 40
0.3045412648
 40
0.4382087218
 40
0.5825511809
 40
0.7297102049
 40
0.8713097134
 40
1.0
 40
1.0
 40
1.0
 40
1.0
 10
55.5905065399
 20
34.1054331719
 30
0.0
 10
55.6299411425
 20
34.08264498
 30
0.0
 10
55.7168982965
 20
34.0465227251
 30
0.0
 10
55.8604184618
 20
34.0254741708
 30
0.0
 10
56.0145525738
 20
34.0368337821
 30
0.0
 10
56.2385106602
 20
34.0963878959
 30
0.0
 10
56.5248065373
 20
34.2529388369
 30
0.0
 10
56.841115989
 20
34.5330654762
 30
0.0
 10
57.1207206932
 20
34.8909513135
 30
0.0
 10
57.3407809117
 20
35.2976867111
 30
0.0
 10
57.4835818157
 20
35.7199185624
 30
0.0
 10
57.5218447548
 20
36.0074865696
 30
0.0
 10
57.5218447548
 20
36.1442475459
 30
0.0
  0
SPLINE
  5
2AD
100
AcDbEntity
  8
0
100
AcDbSpline
 62
7
  6
BYLAYER
 70
0
 71
3
 72
13
 73
9
 74
0
 42
0.0000001
 43
0.0000001
 44
0.0000000001
 40
0.0
 40
0.0
 40
0.0
 40
0.0
 40
0.2893458231
 40
0.5483208405
 40
0.6677472462
 40
0.7817619935
 40
0.8919039107
 40
1.0
 40
1.0
 40
1.0
 40
1.0
 10
16.1207104802
 20
71.2740686665
 30
0.0
 10
16.2655323002
 20
71.1904576413
 30
0.0
 10
16.5534102349
 20
71.0533854448
 30
0.0
 10
16.9324309463
 20
70.9620473388
 30
0.0
 10
17.2177186464
 20
70.9521009276
 30
0.0
 10
17.4158387185
 20
70.9742772809
 30
0.0
 10
17.6017143097
 20
71.0256163673
 30
0.0
 10
17.7165953407
 20
71.0794095414
 30
0.0
 10
17.7706934258
 20
71.1106552865
 30
0.0
  0
SPLINE
  5
2AE
100
AcDbEntity
  8
0
100
AcDbSpline
 62
7
  6
BYLAYER
 70
0
 71
3
 72
13
 73
9
 74
0
 42
0.0000001
 43
0.0000001
 44
0.0000000001
 40
0.0
 40
0.0
 40
0.0
 40
0.0
 40
0.2893458231
 40
0.5483208405
 40
0.6677472462
 40
0.7817619935
 40
0.8919039107
 40
1.0
 40
1.0
 40
1.0
 40
1.0
 10
22.555408979
 20
67.5590778004
 30
0.0
 10
22.700230799
 20
67.4754667752
 30
0.0
 10
22.9881087337
 20
67.3383945787
 30
0.0
 10
23.3671294451
 20
67.2470564726
 30
0.0
 10
23.6524171453
 20
67.2371100614
 30
0.0
 10
23.8505372173
 20
67.2592864148
 30
0.0
 10
24.0364128085
 20
67.3106255011
 30
0.0
 10
24.1512938396
 20
67.3644186753
 30
0.0
 10
24.2053919246
 20
67.3956644203
 30
0.0
  0
SPLINE
  5
2AF
100
AcDbEntity
  8
0
100
AcDbSpline
 62
7
  6
BYLAYER
 70
0
 71
3
 72
11
 73
7
 74
0
 42
0.0000001
 43
0.0000001
 44
0.0000000001
 40
0.0
 40
0.0
 40
0.0
 40
0.0
 40
0.2896423581
 40
0.5491120121
 40
0.7822364467
 40
1.0
 40
1.0
 40
1.0
 40
1.0
 10
57.5218447548
 20
36.1442475459
 30
0.0
 10
57.5218447548
 20
36.2252994573
 30
0.0
 10
57.5095249028
 20
36.3794792153
 30
0.0
 10
57.4471226422
 20
36.5913170289
 30
0.0
 10
57.342006208
 20
36.7632530382
 30
0.0
 10
57.2432123795
 20
36.8461910722
 30
0.0
 10
57.1904506905
 20
36.8766806274
 30
0.0
  0
SPLINE
  5
2B0
100
AcDbEntity
  8
0
100
AcDbSpline
 62
7
  6
BYLAYER
 70
0
 71
3
 72
11
 73
7
 74
0
 42
0.0000001
 43
0.0000001
 44
0.0000000001
 40
0.0
 40
0.0
 40
0.0
 40
0.0
 40
0.2464149238
 40
0.5003458246
 40
0.7540934248
 40
1.0
 40
1.0
 40
1.0
 40
1.0
 10
56.0344897294
 20
36.4564127053
 30
0.0
 10
56.0051685364
 20
36.3499717455
 30
0.0
 10
55.9302466472
 20
36.1378615892
 30
0.0
 10
55.7782327836
 20
35.8352072509
 30
0.0
 10
55.5906000829
 20
35.5535234429
 30
0.0
 10
55.443531532
 20
35.3837023504
 30
0.0
 10
55.3656389575
 20
35.3057798503
 30
0.0
  0
SPLINE
  5
2B1
100
AcDbEntity
  8
0
100
AcDbSpline
 62
7
  6
BYLAYER
 70
0
 71
3
 72
15
 73
11
 74
0
 42
0.0000001
 43
0.0000001
 44
0.0000000001
 40
0.0
 40
0.0
 40
0.0
 40
0.0
 40
0.1140769386
 40
0.2372361682
 40
0.3667941611
 40
0.4997661882
 40
0.632764112
 40
0.7624356503
 40
0.8856944991
 40
1.0
 40
1.0
 40
1.0
 40
1.0
 10
57.9814504731
 20
57.3936833486
 30
0.0
 10
57.9814504731
 20
57.2766392084
 30
0.0
 10
57.9600158011
 20
57.0330116839
 30
0.0
 10
57.8747948629
 20
56.6654489283
 30
0.0
 10
57.7380810772
 20
56.2930757505
 30
0.0
 10
57.5551915784
 20
55.9298528621
 30
0.0
 10
57.3327911755
 20
55.5892427635
 30
0.0
 10
57.0791807236
 20
55.2839157324
 30
0.0
 10
56.803876038
 20
55.0252430329
 30
0.0
 10
56.6037408149
 20
54.8840956346
 30
0.0
 10
56.5023743452
 20
54.825111569
 30
0.0
  0
SPLINE
  5
2B2
100
AcDbEntity
  8
0
100
AcDbSpline
 62
7
  6
BYLAYER
 70
0
 71
3
 72
20
 73
16
 74
0
 42
0.0000001
 43
0.0000001
 44
0.0000000001
 40
0.0
 40
0.0
 40
0.0
 40
0.0
 40
0.0428311613
 40
0.0874319279
 40
0.1352333838
 40
0.1871657716
 40
0.2436348819
 40
0.3046161584
 40
0.3697415862
 40
0.4383764435
 40
0.5826277449
 40
0.7296929665
 40
0.8711902206
 40
0.9376090813
 40
1.0
 40
1.0
 40
1.0
 40
1.0
 10
14.4707275346
 20
76.8263979996
 30
0.0
 10
14.3893801505
 20
76.7794137188
 30
0.0
 10
14.2351313474
 20
76.6614083441
 30
0.0
 10
14.0495928048
 20
76.4266842224
 30
0.0
 10
13.9108474313
 20
76.1397098203
 30
0.0
 10
13.8210863127
 20
75.8073705618
 30
0.0
 10
13.7810967372
 20
75.4367415558
 30
0.0
 10
13.7912812885
 20
75.0354212232
 30
0.0
 10
13.8512886982
 20
74.611669849
 30
0.0
 10
13.9982236787
 20
74.0190061101
 30
0.0
 10
14.2959102627
 20
73.2828411179
 30
0.0
 10
14.7951153616
 20
72.4707871231
 30
0.0
 10
15.3123360457
 20
71.8822152757
 30
0.0
 10
15.7666674484
 20
71.4999622987
 30
0.0
 10
16.0022018452
 20
71.342488111
 30
0.0
 10
16.1207104802
 20
71.2740686665
 30
0.0
  0
SPLINE
  5
2B3
100
AcDbEntity
  8
0
100
AcDbSpline
 62
7
  6
BYLAYER
 70
0
 71
3
 72
18
 73
14
 74
0
 42
0.0000001
 43
0.0000001
 44
0.0000000001
 40
0.0
 40
0.0
 40
0.0
 40
0.0
 40
0.0428476658
 40
0.087461778
 40
0.1352833064
 40
0.1872314155
 40
0.2437210846
 40
0.3047253107
 40
0.438355177
 40
0.5826586073
 40
0.7297839596
 40
0.8713397786
 40
1.0
 40
1.0
 40
1.0
 40
1.0
 10
56.8607732628
 20
53.9012316795
 30
0.0
 10
56.9125425719
 20
53.871338118
 30
0.0
 10
57.02667671
 20
53.8239472125
 30
0.0
 10
57.2150481367
 20
53.7962965287
 30
0.0
 10
57.4173398796
 20
53.8112185836
 30
0.0
 10
57.6290480735
 20
53.8674541675
 30
0.0
 10
57.8460396608
 20
53.9633322119
 30
0.0
 10
58.1455656751
 20
54.146687898
 30
0.0
 10
58.5024027772
 20
54.4627072036
 30
0.0
 10
58.869128958
 20
54.9321945518
 30
0.0
 10
59.1580209329
 20
55.4661030375
 30
0.0
 10
59.3454533228
 20
56.0202616268
 30
0.0
 10
59.3956699234
 20
56.3976973377
 30
0.0
 10
59.3956699234
 20
56.5772018396
 30
0.0
  0
ENDSEC
  0
SECTION
  2
OBJECTS
  0
DICTIONARY
  5
C
100
AcDbDictionary
280
0
281
1
  3
ACAD_GROUP
350
D
  3
ACAD_MLINESTYLE
350
17
  3
ACAD_LAYOUT
350
1A
  3
ACAD_PLOTSETTINGS
350
19
  3
ACAD_PLOTSTYLENAME
350
E
  0
DICTIONARY
  5
D
102
{ACAD_REACTORS
330
C
102
}
100
AcDbDictionary
280
0
281
1
  0
ACDBDICTIONARYWDFLT
  5
E
102
{ACAD_REACTORS
330
C
102
}
100
AcDbDictionary
281
1
  3
Normal
350
F
100
AcDbDictionaryWithDefault
340
F
  0
DICTIONARY
  5
17
102
{ACAD_REACTORS
330
C
102
}
100
AcDbDictionary
280
0
281
1
  3
Standard
350
18
  0
DICTIONARY
  5
19
102
{ACAD_REACTORS
330
C
102
}
100
AcDbDictionary
281
1
  0
DICTIONARY
  5
1A
102
{ACAD_REACTORS
330
C
102
}
100
AcDbDictionary
281
1
  3
Model
350
2B4
  3
Layout1
350
2B5
  0
ACDBPLACEHOLDER
  5
F
102
{ACAD_REACTORS
330
E
102
}
  0
MLINESTYLE
  5
18
102
{ACAD_REACTORS
330
17
102
}
100
AcDbMlineStyle
  2
STANDARD
 70
0
  3

 62
256
 51
90.0
 52
90.0
 71
2
 49
0.5
 62
256
  6
BYLAYER
 49
-0.5
 62
256
  6
BYLAYER
  0
LAYOUT
  5
2B4
102
{ACAD_REACTORS
330
1A
102
}
100
AcDbPlotSettings
  1

  2
none_device
  4

  6

 40
0.0
 41
0.0
 42
0.0
 43
0.0
 44
210.0
 45
297.0
 46
0.0
 47
0.0
 48
0.0
 49
0.0
140
0.0
141
0.0
142
1.0
143
1.0
 70
1024
 72
1
 73
0
 74
0
  7

 75
0
147
1.0
148
0.0
149
0.0
100
AcDbLayout
  1
Model
 70
0
 71
0
 10
0.0
 20
0.0
 11
210.0
 21
297.0
 12
0.0
 22
0.0
 32
0.0
 14
0.0
 24
0.0
 34
0.0
 15
0.0
 25
0.0
 35
0.0
146
0.0
 13
0.0
 23
0.0
 33
0.0
 16
1.0
 26
0.0
 36
0.0
 17
0.0
 27
1.0
 37
0.0
 76
0
330
210
345
0
346
0
  0
LAYOUT
  5
2B5
102
{ACAD_REACTORS
330
1A
102
}
100
AcDbPlotSettings
  1

  2
none_device
  4

  6

 40
0.0
 41
0.0
 42
0.0
 43
0.0
 44
210.0
 45
297.0
 46
0.0
 47
0.0
 48
0.0
 49
0.0
140
0.0
141
0.0
142
1.0
143
1.0
 70
0
 72
1
 73
0
 74
0
  7

 75
0
147
1.0
148
0.0
149
0.0
100
AcDbLayout
  1
Layout1
 70
0
 71
1
 10
0.0
 20
0.0
 11
210.0
 21
297.0
 12
0.0
 22
0.0
 32
0.0
 14
0.0
 24
0.0
 34
0.0
 15
0.0
 25
0.0
 35
0.0
146
0.0
 13
0.0
 23
0.0
 33
0.0
 16
1.0
 26
0.0
 36
0.0
 17
0.0
 27
1.0
 37
0.0
 76
0
330
211
345
0
346
0
  0
ENDSEC
  0
EOF
