999
DXF file: C:\Users\sesa63760\Dev\_Creo\CAD\MCADPD0004190_3D-CAD\drw0001_1.dxf
999
Pro/ENGINEER 2019471 by Parametric Technology Corporation
  0
SECTION
  2
HEADER
  9
$ACADVER
  1
AC1024
  9
$DWGCODEPAGE
  3
ANSI_1252
  9
$EXTMAX
 10
67.3334050199
 20
95.2286728139
 30
0.0
  9
$EXTMIN
 10
0.0
 20
0.0
 30
0.0
  9
$LIMMIN
 10
0.0
 20
0.0
  9
$LIMMAX
 10
67.3334050199
 20
95.2286728139
  9
$VIEWCTR
 10
33.6667025099
 20
47.6143364069
  9
$VIEWSIZE
 40
95.2286728139
  9
$CLAYER
  8
0
  9
$LTSCALE
 40
6.2074986723
  9
$CELTYPE
  6
BYLAYER
  9
$DIMSCALE
 40
1.0
  9
$DIMASZ
 40
0.801588155
  9
$DIMEXO
 40
1.0
  9
$DIMDLI
 40
4.2888172645
  9
$DIMEXE
 40
1.0
  9
$DIMCEN
 40
1.01577251
  9
$DIMLFAC
 40
1.0
  9
$DIMBLK
  1
_FILLED
  9
$DIMALT
 70
0
  9
$DIMALTF
 40
0.0393700787
  9
$DIMTXT
 40
1.122223417
  9
$DIMTOL
 70
1
  9
$DIMLIM
 70
0
  9
$DIMTFAC
 40
1.0
  9
$DIMTP
 40
0.01
  9
$DIMTM
 40
0.01
  9
$DIMGAP
 40
0.625
  9
$DIMDSEP
 70
46
  9
$AUNITS
 70
0
  9
$PDMODE
 70
3
  9
$PDSIZE
 40
0.3125
  9
$HANDSEED
  5
2AE
  9
$TILEMODE
 70
1
  9
$MEASUREMENT
 70
1
  9
$INSUNITS
 70
4
  0
ENDSEC
  0
SECTION
  2
CLASSES
  0
CLASS
  1
ACDBDICTIONARYWDFLT
  2
AcDbDictionaryWithDefault
  3
AutoCAD 2000
 90
0
 91
1
280
0
281
0
  0
CLASS
  1
ACDBPLACEHOLDER
  2
AcDbPlaceHolder
  3
AutoCAD 2000
 90
0
 91
1
280
0
281
0
  0
CLASS
  1
LAYOUT
  2
AcDbLayout
  3
AutoCAD 2000
 90
0
 91
0
280
0
281
0
  0
ENDSEC
  0
SECTION
  2
TABLES
  0
TABLE
  2
VPORT
  5
8
100
AcDbSymbolTable
 70
2
  0
VPORT
  5
1F4
100
AcDbSymbolTableRecord
100
AcDbViewportTableRecord
  2
*ACTIVE
 70
0
 10
0.0
 20
0.0
 11
1.0
 21
1.0
 12
33.6667025099
 22
47.6143364069
 13
0.0
 23
0.0
 14
1.0
 24
1.0
 15
0.0
 25
0.0
 16
0.0
 26
0.0
 36
1.0
 17
0.0
 27
0.0
 37
0.0
 40
95.2286728139
 41
0.7070707071
 42
50.0
 43
0.0
 44
0.0
 50
0.0
 51
0.0
 71
0
 72
100
 73
1
 74
1
 75
0
 76
0
 77
0
 78
0
  0
ENDTAB
  0
TABLE
  2
LTYPE
  5
5
100
AcDbSymbolTable
 70
6
  0
LTYPE
  5
14
100
AcDbSymbolTableRecord
100
AcDbLinetypeTableRecord
  2
BYBLOCK
 70
0
  3

 72
65
 73
0
 40
0.0
  0
LTYPE
  5
15
100
AcDbSymbolTableRecord
100
AcDbLinetypeTableRecord
  2
BYLAYER
 70
0
  3

 72
65
 73
0
 40
0.0
  0
LTYPE
  5
16
100
AcDbSymbolTableRecord
100
AcDbLinetypeTableRecord
  2
CONTINUOUS
 70
64
  3
Solid line
 72
65
 73
0
 40
0.0
  0
LTYPE
  5
1F5
100
AcDbSymbolTableRecord
100
AcDbLinetypeTableRecord
  2
CENTER
 70
64
  3
____ _ ____ _ ____ _ ____ _ ____ _ ____ _ ____
 72
65
 73
4
 40
0.6
 49
0.375
 74
0
 49
-0.075
 74
0
 49
0.075
 74
0
 49
-0.075
 74
0
  0
LTYPE
  5
1F6
100
AcDbSymbolTableRecord
100
AcDbLinetypeTableRecord
  2
HIDDEN
 70
64
  3
- - - - - - - - - - - - - - - - - - - -
 72
65
 73
2
 40
0.2
 49
0.1
 74
0
 49
-0.1
 74
0
  0
LTYPE
  5
1F7
100
AcDbSymbolTableRecord
100
AcDbLinetypeTableRecord
  2
PHANTOM
 70
64
  3
_____ _ _ _____ _ _ _____ _ _ _____
 72
65
 73
6
 40
0.8
 49
0.45
 74
0
 49
-0.05
 74
0
 49
0.1
 74
0
 49
-0.05
 74
0
 49
0.1
 74
0
 49
-0.05
 74
0
  0
LTYPE
  5
1F8
100
AcDbSymbolTableRecord
100
AcDbLinetypeTableRecord
  2
DOT
 70
64
  3
. . . . . . . . . . . . . . . . . . . .
 72
65
 73
2
 40
0.2
 49
0.1
 74
0
 49
-0.1
 74
0
  0
LTYPE
  5
1F9
100
AcDbSymbolTableRecord
100
AcDbLinetypeTableRecord
  2
DASHED
 70
64
  3
- - - - - - - - - - - - - - - - - - - -
 72
65
 73
2
 40
0.2
 49
0.1
 74
0
 49
-0.1
 74
0
  0
ENDTAB
  0
TABLE
  2
LAYER
  5
2
100
AcDbSymbolTable
 70
36
  0
LAYER
  5
10
100
AcDbSymbolTableRecord
100
AcDbLayerTableRecord
  2
0
 70
0
 62
7
  6
CONTINUOUS
370
-3
390
F
  0
LAYER
  5
1FA
100
AcDbSymbolTableRecord
100
AcDbLayerTableRecord
  2
DEFAULT_1
 70
0
 62
7
  6
CENTER
370
-3
390
F
  0
LAYER
  5
1FB
100
AcDbSymbolTableRecord
100
AcDbLayerTableRecord
  2
DEFAULT_2
 70
0
 62
7
  6
HIDDEN
370
-3
390
F
  0
LAYER
  5
1FC
100
AcDbSymbolTableRecord
100
AcDbLayerTableRecord
  2
DEFAULT_3
 70
0
 62
7
  6
PHANTOM
370
-3
390
F
  0
LAYER
  5
1FD
100
AcDbSymbolTableRecord
100
AcDbLayerTableRecord
  2
00_COMPONENTS
 70
0
 62
7
  6
CONTINUOUS
370
-3
390
F
  0
LAYER
  5
1FE
100
AcDbSymbolTableRecord
100
AcDbLayerTableRecord
  2
01_1_DEFAULT_DATUMS
 70
0
 62
7
  6
CONTINUOUS
370
-3
390
F
  0
LAYER
  5
1FF
100
AcDbSymbolTableRecord
100
AcDbLayerTableRecord
  2
01_PLANES
 70
0
 62
7
  6
CONTINUOUS
370
-3
390
F
  0
LAYER
  5
200
100
AcDbSymbolTableRecord
100
AcDbLayerTableRecord
  2
02_COORD_SYS
 70
0
 62
7
  6
CONTINUOUS
370
-3
390
F
  0
LAYER
  5
201
100
AcDbSymbolTableRecord
100
AcDbLayerTableRecord
  2
03_AXES
 70
0
 62
7
  6
CONTINUOUS
370
-3
390
F
  0
LAYER
  5
202
100
AcDbSymbolTableRecord
100
AcDbLayerTableRecord
  2
04_POINTS
 70
0
 62
7
  6
CONTINUOUS
370
-3
390
F
  0
LAYER
  5
203
100
AcDbSymbolTableRecord
100
AcDbLayerTableRecord
  2
05_CURVES
 70
0
 62
7
  6
CONTINUOUS
370
-3
390
F
  0
LAYER
  5
204
100
AcDbSymbolTableRecord
100
AcDbLayerTableRecord
  2
06_SURFS
 70
0
 62
7
  6
CONTINUOUS
370
-3
390
F
  0
LAYER
  5
205
100
AcDbSymbolTableRecord
100
AcDbLayerTableRecord
  2
07_COSMETICS
 70
0
 62
7
  6
CONTINUOUS
370
-3
390
F
  0
LAYER
  5
206
100
AcDbSymbolTableRecord
100
AcDbLayerTableRecord
  2
10_NOTES
 70
0
 62
7
  6
CONTINUOUS
370
-3
390
F
  0
LAYER
  5
207
100
AcDbSymbolTableRecord
100
AcDbLayerTableRecord
  2
11_NOTES_PUB
 70
0
 62
7
  6
CONTINUOUS
370
-3
390
F
  0
LAYER
  5
208
100
AcDbSymbolTableRecord
100
AcDbLayerTableRecord
  2
13_REF_GTOL
 70
0
 62
7
  6
CONTINUOUS
370
-3
390
F
  0
LAYER
  5
209
100
AcDbSymbolTableRecord
100
AcDbLayerTableRecord
  2
16_MISC
 70
0
 62
7
  6
CONTINUOUS
370
-3
390
F
  0
LAYER
  5
20A
100
AcDbSymbolTableRecord
100
AcDbLayerTableRecord
  2
17_NO_PRINT
 70
0
 62
7
  6
CONTINUOUS
370
-3
390
F
  0
LAYER
  5
20B
100
AcDbSymbolTableRecord
100
AcDbLayerTableRecord
  2
18_DATUM_CAMS_JOINTS
 70
0
 62
7
  6
CONTINUOUS
370
-3
390
F
  0
LAYER
  5
20C
100
AcDbSymbolTableRecord
100
AcDbLayerTableRecord
  2
19_DATUM_FUNCTIONAL
 70
0
 62
7
  6
CONTINUOUS
370
-3
390
F
  0
LAYER
  5
20D
100
AcDbSymbolTableRecord
100
AcDbLayerTableRecord
  2
20_DATUM_KINEMATIC_SCHEME
 70
0
 62
7
  6
CONTINUOUS
370
-3
390
F
  0
ENDTAB
  0
TABLE
  2
STYLE
  5
3
100
AcDbSymbolTable
 70
1
  0
STYLE
  5
11
100
AcDbSymbolTableRecord
100
AcDbTextStyleTableRecord
  2
STANDARD
 70
0
 40
0.0
 41
1.0
 50
0.0
 71
0
 42
0.2
  3
ARIAL.TTF
  4

  0
STYLE
  5
20E
100
AcDbSymbolTableRecord
100
AcDbTextStyleTableRecord
  2
TEXTSTYLE_1
 70
0
 40
0.0
 41
0.8
 50
0.0
 71
0
 42
0.2
  3
gdt
  4

  0
ENDTAB
  0
TABLE
  2
VIEW
  5
6
100
AcDbSymbolTable
 70
0
  0
ENDTAB
  0
TABLE
  2
UCS
  5
7
100
AcDbSymbolTable
 70
0
  0
ENDTAB
  0
TABLE
  2
APPID
  5
9
100
AcDbSymbolTable
 70
1
  0
APPID
  5
20F
100
AcDbSymbolTableRecord
100
AcDbRegAppTableRecord
  2
ACAD
 70
0
  0
ENDTAB
  0
TABLE
  2
BLOCK_RECORD
  5
1
100
AcDbSymbolTable
 70
0
  0
BLOCK_RECORD
  5
210
100
AcDbSymbolTableRecord
100
AcDbBlockTableRecord
  2
*Model_Space
  0
BLOCK_RECORD
  5
211
100
AcDbSymbolTableRecord
100
AcDbBlockTableRecord
  2
*Paper_Space
  0
BLOCK_RECORD
  5
212
100
AcDbSymbolTableRecord
100
AcDbBlockTableRecord
  2
_FILLED
  0
ENDTAB
  0
TABLE
  2
DIMSTYLE
  5
A
100
AcDbSymbolTable
 70
1
100
AcDbDimStyleTable
 71
0
  0
DIMSTYLE
105
213
100
AcDbSymbolTableRecord
100
AcDbDimStyleTableRecord
  2
STANDARD
 70
0
  3

  4

 40
1.0
 41
0.801588155
 42
1.0
 43
0.38
 44
1.0
 45
0.0
 46
0.0
 47
0.01
 48
0.01
140
1.122223417
141
0.09
142
0.0
143
25.4
144
1.0
145
0.0
146
1.0
147
0.625
 71
1
 72
0
 73
0
 74
0
 75
0
 76
0
 77
1
 78
8
 79
2
170
0
171
1
172
0
173
0
174
0
175
0
176
0
177
0
178
0
270
2
179
2
271
2
272
2
273
2
274
2
275
0
280
0
281
0
282
0
283
1
284
8
285
0
286
0
287
3
288
0
340
11
278
46
341
212
342
212
343
212
344
212
  0
ENDTAB
  0
ENDSEC
  0
SECTION
  2
BLOCKS
  0
BLOCK
  5
20
100
AcDbEntity
  8
0
100
AcDbBlockBegin
  2
*Model_Space
 70
0
 10
0.0
 20
0.0
 30
0.0
  3
*Model_Space
  1

  0
ENDBLK
  5
21
100
AcDbEntity
  8
0
100
AcDbBlockEnd
  0
BLOCK
  5
1C
100
AcDbEntity
  8
0
100
AcDbBlockBegin
  2
*Paper_Space
 70
0
 10
0.0
 20
0.0
 30
0.0
  3
*Paper_Space
  1

  0
ENDBLK
  5
1D
100
AcDbEntity
  8
0
100
AcDbBlockEnd
  0
BLOCK
  5
214
100
AcDbEntity
  8
0
100
AcDbBlockBegin
  2
_FILLED
 70
64
 10
0.0
 20
0.0
  3
_FILLED
  1

  0
SOLID
  5
215
100
AcDbEntity
  8
0
  6
BYBLOCK
 62
0
100
AcDbTrace
 10
0.0
 20
0.0
 11
-1.0
 21
0.25
 12
-1.0
 22
-0.25
 13
-1.0
 23
-0.25
  0
ENDBLK
  5
216
100
AcDbEntity
  8
0
  6
BYBLOCK
 62
0
100
AcDbBlockEnd
  0
ENDSEC
  0
SECTION
  2
ENTITIES
  0
LINE
  5
217
100
AcDbEntity
  8
0
100
AcDbLine
 62
7
  6
BYLAYER
 10
7.8065252683
 20
58.5991830183
 11
7.8065252683
 21
37.2068196895
  0
LINE
  5
218
100
AcDbEntity
  8
0
100
AcDbLine
 62
7
  6
BYLAYER
 10
7.9236837334
 20
58.4358853567
 11
7.9236837334
 21
37.0435220279
  0
LINE
  5
219
100
AcDbEntity
  8
0
100
AcDbLine
 62
7
  6
BYLAYER
 10
8.0065261637
 20
58.9455936967
 11
33.7804610301
 21
73.8260931053
  0
LINE
  5
21A
100
AcDbEntity
  8
0
100
AcDbLine
 62
7
  6
BYLAYER
 10
33.9804601347
 20
73.8062833937
 11
8.2065252683
 21
58.9257839851
  0
LINE
  5
21B
100
AcDbEntity
  8
0
100
AcDbLine
 62
7
  6
BYLAYER
 10
8.0065286617
 20
36.8604075688
 11
34.3110104372
 21
21.6738515006
  0
LINE
  5
21C
100
AcDbEntity
  8
0
100
AcDbLine
 62
7
  6
BYLAYER
 10
7.9236837334
 20
37.0435220279
 11
34.2281655089
 21
21.8569659598
  0
LINE
  5
21D
100
AcDbEntity
  8
0
100
AcDbLine
 62
7
  6
BYLAYER
 10
35.5007460438
 20
72.9285657715
 11
33.0258826135
 21
71.4997112329
  0
LINE
  5
21E
100
AcDbEntity
  8
0
100
AcDbLine
 62
7
  6
BYLAYER
 10
35.6775234751
 20
72.8265055829
 11
33.2026600448
 21
71.3976510443
  0
LINE
  5
21F
100
AcDbEntity
  8
0
100
AcDbLine
 62
7
  6
BYLAYER
 10
17.3988975262
 20
61.1303153335
 11
15.419006782
 21
59.9872317027
  0
LINE
  5
220
100
AcDbEntity
  8
0
100
AcDbLine
 62
7
  6
BYLAYER
 10
15.419006782
 20
59.9872317027
 11
15.419006782
 21
59.3340464954
  0
LINE
  5
221
100
AcDbEntity
  8
0
100
AcDbLine
 62
7
  6
BYLAYER
 10
16.8332309427
 20
58.5175622669
 11
16.8332262323
 21
59.1707501937
  0
LINE
  5
222
100
AcDbEntity
  8
0
100
AcDbLine
 62
7
  6
BYLAYER
 10
17.3988975262
 20
60.3138129164
 11
15.5604456566
 21
59.2523885705
  0
LINE
  5
223
100
AcDbEntity
  8
0
100
AcDbLine
 62
7
  6
BYLAYER
 10
16.8332262323
 20
59.1707501937
 11
18.8131169765
 21
60.3138338245
  0
LINE
  5
224
100
AcDbEntity
  8
0
100
AcDbLine
 62
7
  6
BYLAYER
 10
17.3988975262
 20
61.1303153335
 11
17.3988975262
 21
60.3138129164
  0
LINE
  5
225
100
AcDbEntity
  8
0
100
AcDbLine
 62
7
  6
BYLAYER
 10
39.1768505182
 20
68.947798148
 11
43.644080091
 21
71.526938949
  0
LINE
  5
226
100
AcDbEntity
  8
0
100
AcDbLine
 62
7
  6
BYLAYER
 10
22.5254430335
 20
58.1705698633
 11
20.5455522893
 21
57.0274862324
  0
LINE
  5
227
100
AcDbEntity
  8
0
100
AcDbLine
 62
7
  6
BYLAYER
 10
20.6870160387
 20
37.4759043986
 11
21.2527038188
 21
37.149311795
  0
LINE
  5
228
100
AcDbEntity
  8
0
100
AcDbLine
 62
7
  6
BYLAYER
 10
19.9476032577
 20
38.7565977936
 11
20.6870160387
 21
38.329707283
  0
LINE
  5
229
100
AcDbEntity
  8
0
100
AcDbLine
 62
7
  6
BYLAYER
 10
21.2527038188
 20
38.0031146794
 11
21.9921165998
 21
37.5762241688
  0
LINE
  5
22A
100
AcDbEntity
  8
0
100
AcDbLine
 62
7
  6
BYLAYER
 10
18.5323112884
 20
42.2620688411
 11
24.1518536919
 21
36.6559285527
  0
LINE
  5
22B
100
AcDbEntity
  8
0
100
AcDbLine
 62
7
  6
BYLAYER
 10
24.3639848431
 20
36.7784017989
 11
18.7444424396
 21
42.3845420873
  0
LINE
  5
22C
100
AcDbEntity
  8
0
100
AcDbLine
 62
7
  6
BYLAYER
 10
19.9476032577
 20
39.4097997273
 11
19.9476032577
 21
38.7565977936
  0
LINE
  5
22D
100
AcDbEntity
  8
0
100
AcDbLine
 62
7
  6
BYLAYER
 10
20.5455522893
 20
57.0274862324
 11
20.5455522893
 21
56.3743010252
  0
LINE
  5
22E
100
AcDbEntity
  8
0
100
AcDbLine
 62
7
  6
BYLAYER
 10
20.6870160387
 20
39.8367121011
 11
20.6870160387
 21
38.9829092167
  0
LINE
  5
22F
100
AcDbEntity
  8
0
100
AcDbLine
 62
7
  6
BYLAYER
 10
20.6870160387
 20
38.329707283
 11
20.6870160387
 21
37.4759043986
  0
LINE
  5
230
100
AcDbEntity
  8
0
100
AcDbLine
 62
7
  6
BYLAYER
 10
21.2527038188
 20
37.149311795
 11
21.2527038188
 21
39.5101194975
  0
LINE
  5
231
100
AcDbEntity
  8
0
100
AcDbLine
 62
7
  6
BYLAYER
 10
21.95977645
 20
55.5578167967
 11
21.9597717396
 21
56.2110047234
  0
LINE
  5
232
100
AcDbEntity
  8
0
100
AcDbLine
 62
7
  6
BYLAYER
 10
21.9921165998
 20
37.5762241688
 11
21.9921165998
 21
38.2294261025
  0
LINE
  5
233
100
AcDbEntity
  8
0
100
AcDbLine
 62
7
  6
BYLAYER
 10
40.5910699685
 20
68.1313166389
 11
45.0582995413
 21
70.71045744
  0
LINE
  5
234
100
AcDbEntity
  8
0
100
AcDbLine
 62
7
  6
BYLAYER
 10
22.5254430335
 20
57.3540674461
 11
20.6869911639
 21
56.2926431002
  0
LINE
  5
235
100
AcDbEntity
  8
0
100
AcDbLine
 62
7
  6
BYLAYER
 10
21.9597717396
 20
56.2110047234
 11
23.9396624838
 21
57.3540883542
  0
LINE
  5
236
100
AcDbEntity
  8
0
100
AcDbLine
 62
7
  6
BYLAYER
 10
43.5795029157
 20
68.0195484679
 11
40.3789388173
 21
66.1717129542
  0
LINE
  5
237
100
AcDbEntity
  8
0
100
AcDbLine
 62
7
  6
BYLAYER
 10
41.9001096641
 20
66.3762897637
 11
41.1576506351
 21
65.9476334022
  0
LINE
  5
238
100
AcDbEntity
  8
0
100
AcDbLine
 62
7
  6
BYLAYER
 10
24.1518536919
 20
36.6559285527
 11
18.5323112884
 21
37.5385301081
  0
LINE
  5
239
100
AcDbEntity
  8
0
100
AcDbLine
 62
7
  6
BYLAYER
 10
21.9921165998
 20
38.2294261025
 11
19.9476032577
 21
39.4097997273
  0
LINE
  5
23A
100
AcDbEntity
  8
0
100
AcDbLine
 62
7
  6
BYLAYER
 10
21.2527038188
 20
39.5101194975
 11
20.6870160387
 21
39.8367121011
  0
LINE
  5
23B
100
AcDbEntity
  8
0
100
AcDbLine
 62
7
  6
BYLAYER
 10
22.5254430335
 20
58.1705698633
 11
22.5254430335
 21
57.3540674461
  0
LINE
  5
23C
100
AcDbEntity
  8
0
100
AcDbLine
 62
7
  6
BYLAYER
 10
27.6519885408
 20
55.210824393
 11
25.6720977966
 21
54.0677407622
  0
LINE
  5
23D
100
AcDbEntity
  8
0
100
AcDbLine
 62
7
  6
BYLAYER
 10
46.3372078808
 20
65.9374397909
 11
44.4987379041
 21
64.8760049909
  0
LINE
  5
23E
100
AcDbEntity
  8
0
100
AcDbLine
 62
7
  6
BYLAYER
 10
25.6720977966
 20
54.0677407622
 11
25.6720977966
 21
53.4145555549
  0
LINE
  5
23F
100
AcDbEntity
  8
0
100
AcDbLine
 62
7
  6
BYLAYER
 10
26.6265837605
 20
53.8023077837
 11
26.6265837605
 21
52.8634952934
  0
LINE
  5
240
100
AcDbEntity
  8
0
100
AcDbLine
 62
7
  6
BYLAYER
 10
27.0863219573
 20
52.5980713264
 11
27.0863172469
 21
53.2512592531
  0
LINE
  5
241
100
AcDbEntity
  8
0
100
AcDbLine
 62
7
  6
BYLAYER
 10
27.6519885408
 20
54.3943219759
 11
25.8135366713
 21
53.3328976299
  0
LINE
  5
242
100
AcDbEntity
  8
0
100
AcDbLine
 62
7
  6
BYLAYER
 10
45.6831466937
 20
64.192201727
 11
44.9406876646
 21
63.7635453655
  0
LINE
  5
243
100
AcDbEntity
  8
0
100
AcDbLine
 62
7
  6
BYLAYER
 10
27.0863172469
 20
53.2512592531
 11
29.0662079911
 21
54.394342884
  0
LINE
  5
244
100
AcDbEntity
  8
0
100
AcDbLine
 62
7
  6
BYLAYER
 10
27.6519885408
 20
55.210824393
 11
27.6519885408
 21
54.3943219759
  0
LINE
  5
245
100
AcDbEntity
  8
0
100
AcDbLine
 62
7
  6
BYLAYER
 10
18.7444424396
 20
42.3845420873
 11
18.9320087967
 21
42.5125920902
  0
LINE
  5
246
100
AcDbEntity
  8
0
100
AcDbLine
 62
7
  6
BYLAYER
 10
19.2378333498
 20
42.6891765741
 11
18.9320011529
 21
42.5126053269
  0
LINE
  5
247
100
AcDbEntity
  8
0
100
AcDbLine
 62
7
  6
BYLAYER
 10
18.7444424396
 20
42.3845420873
 11
18.5323112884
 21
42.2620688411
  0
LINE
  5
248
100
AcDbEntity
  8
0
100
AcDbLine
 62
7
  6
BYLAYER
 10
34.2281655089
 20
43.2493292885
 11
7.9236837334
 21
58.4358853567
  0
LINE
  5
249
100
AcDbEntity
  8
0
100
AcDbLine
 62
7
  6
BYLAYER
 10
8.2065252683
 20
58.9257839851
 11
34.5110070438
 21
43.7392279169
  0
LINE
  5
24A
100
AcDbEntity
  8
0
100
AcDbLine
 62
7
  6
BYLAYER
 10
34.2281655089
 20
21.8569659598
 11
34.2281655089
 21
43.2493292885
  0
LINE
  5
24B
100
AcDbEntity
  8
0
100
AcDbLine
 62
7
  6
BYLAYER
 10
36.9151259403
 20
49.8628705088
 11
34.9352351961
 21
48.7197868779
  0
LINE
  5
24C
100
AcDbEntity
  8
0
100
AcDbLine
 62
7
  6
BYLAYER
 10
56.8554597432
 20
60.599694985
 11
54.380596313
 21
59.1708404464
  0
LINE
  5
24D
100
AcDbEntity
  8
0
100
AcDbLine
 62
7
  6
BYLAYER
 10
36.9151259403
 20
49.0463680917
 11
35.0766740707
 21
47.9849437457
  0
LINE
  5
24E
100
AcDbEntity
  8
0
100
AcDbLine
 62
7
  6
BYLAYER
 10
34.7938509338
 20
43.2493306483
 11
34.7938509338
 21
21.8569673195
  0
LINE
  5
24F
100
AcDbEntity
  8
0
100
AcDbLine
 62
7
  6
BYLAYER
 10
34.9352351961
 20
48.7197868779
 11
34.9352351961
 21
48.0666016707
  0
LINE
  5
250
100
AcDbEntity
  8
0
100
AcDbLine
 62
7
  6
BYLAYER
 10
35.5007460438
 20
72.9285657715
 11
35.5007460438
 21
72.7244436946
  0
LINE
  5
251
100
AcDbEntity
  8
0
100
AcDbLine
 62
7
  6
BYLAYER
 10
36.3494593567
 20
47.2501174422
 11
36.3494546464
 21
47.9033053689
  0
LINE
  5
252
100
AcDbEntity
  8
0
100
AcDbLine
 62
7
  6
BYLAYER
 10
36.9151259403
 20
49.8628705088
 11
36.9151259403
 21
49.0463680917
  0
LINE
  5
253
100
AcDbEntity
  8
0
100
AcDbLine
 62
7
  6
BYLAYER
 10
57.0322371745
 20
60.4976347964
 11
54.5573737443
 21
59.0687802578
  0
LINE
  5
254
100
AcDbEntity
  8
0
100
AcDbLine
 62
7
  6
BYLAYER
 10
19.9476032577
 20
38.7565977936
 11
20.5132863275
 21
39.0831931167
  0
LINE
  5
255
100
AcDbEntity
  8
0
100
AcDbLine
 62
7
  6
BYLAYER
 10
20.6870160387
 20
38.9829092167
 11
21.2526991085
 21
39.3095045398
  0
LINE
  5
256
100
AcDbEntity
  8
0
100
AcDbLine
 62
7
  6
BYLAYER
 10
36.3494546464
 20
47.9033053689
 11
38.3293453906
 21
49.0463889997
  0
LINE
  5
257
100
AcDbEntity
  8
0
100
AcDbLine
 62
7
  6
BYLAYER
 10
20.6870160387
 20
38.329707283
 11
21.2526991085
 21
38.6563026061
  0
LINE
  5
258
100
AcDbEntity
  8
0
100
AcDbLine
 62
7
  6
BYLAYER
 10
21.2527038188
 20
38.0031146794
 11
21.8183868886
 21
38.3297100025
  0
LINE
  5
259
100
AcDbEntity
  8
0
100
AcDbLine
 62
7
  6
BYLAYER
 10
20.6870160387
 20
37.4759043986
 11
21.2526991085
 21
37.8024997217
  0
LINE
  5
25A
100
AcDbEntity
  8
0
100
AcDbLine
 62
7
  6
BYLAYER
 10
34.9352351961
 20
48.7197868779
 11
33.8038643462
 21
48.7197841585
  0
LINE
  5
25B
100
AcDbEntity
  8
0
100
AcDbLine
 62
7
  6
BYLAYER
 10
38.4707885322
 20
46.0253951786
 11
12.1663067567
 21
61.2119512468
  0
LINE
  5
25C
100
AcDbEntity
  8
0
100
AcDbLine
 62
7
  6
BYLAYER
 10
37.6222234462
 20
48.6381343918
 11
36.9151259403
 21
49.0463680917
  0
LINE
  5
25D
100
AcDbEntity
  8
0
100
AcDbLine
 62
7
  6
BYLAYER
 10
28.3590860468
 20
53.986088276
 11
27.6519885408
 21
54.3943219759
  0
LINE
  5
25E
100
AcDbEntity
  8
0
100
AcDbLine
 62
7
  6
BYLAYER
 10
23.2325405394
 20
56.9458337462
 11
22.5254430335
 21
57.3540674461
  0
LINE
  5
25F
100
AcDbEntity
  8
0
100
AcDbLine
 62
7
  6
BYLAYER
 10
18.1059950321
 20
59.9055792165
 11
17.3988975262
 21
60.3138129164
  0
LINE
  5
260
100
AcDbEntity
  8
0
100
AcDbLine
 62
7
  6
BYLAYER
 10
38.7536324222
 20
24.1431345812
 11
38.7536324222
 21
45.53549791
  0
LINE
  5
261
100
AcDbEntity
  8
0
100
AcDbLine
 62
7
  6
BYLAYER
 10
38.964719367
 20
66.9881944633
 11
38.964719367
 21
68.5803741767
  0
LINE
  5
262
100
AcDbEntity
  8
0
100
AcDbLine
 62
7
  6
BYLAYER
 10
34.5110070438
 20
43.7392279169
 11
60.2849419102
 21
58.6197273256
  0
LINE
  5
263
100
AcDbEntity
  8
0
100
AcDbLine
 62
7
  6
BYLAYER
 10
60.5677858003
 20
58.1298300569
 11
34.7938509338
 21
43.2493306483
  0
LINE
  5
264
100
AcDbEntity
  8
0
100
AcDbLine
 62
7
  6
BYLAYER
 10
24.3639848431
 20
36.7784017989
 11
24.1518536919
 21
36.6559285527
  0
LINE
  5
265
100
AcDbEntity
  8
0
100
AcDbLine
 62
7
  6
BYLAYER
 10
38.3293453906
 20
49.0463889997
 11
36.9151259403
 21
49.8628705088
  0
LINE
  5
266
100
AcDbEntity
  8
0
100
AcDbLine
 62
7
  6
BYLAYER
 10
29.0662079911
 20
54.394342884
 11
27.6519885408
 21
55.210824393
  0
LINE
  5
267
100
AcDbEntity
  8
0
100
AcDbLine
 62
7
  6
BYLAYER
 10
23.9396624838
 20
57.3540883542
 11
22.5254430335
 21
58.1705698633
  0
LINE
  5
268
100
AcDbEntity
  8
0
100
AcDbLine
 62
7
  6
BYLAYER
 10
18.8131169765
 20
60.3138338245
 11
17.3988975262
 21
61.1303153335
  0
LINE
  5
269
100
AcDbEntity
  8
0
100
AcDbLine
 62
7
  6
BYLAYER
 10
40.3789388173
 20
66.1717129542
 11
40.3789388173
 21
67.7638926676
  0
LINE
  5
26A
100
AcDbEntity
  8
0
100
AcDbLine
 62
7
  6
BYLAYER
 10
41.9001096641
 20
66.3762897637
 11
41.9001096641
 21
65.5189841792
  0
LINE
  5
26B
100
AcDbEntity
  8
0
100
AcDbLine
 62
7
  6
BYLAYER
 10
23.7400202798
 20
34.8962105571
 11
23.4319810069
 21
34.7183650616
  0
LINE
  5
26C
100
AcDbEntity
  8
0
100
AcDbLine
 62
7
  6
BYLAYER
 10
25.6720977966
 20
54.0677407622
 11
24.5407269468
 21
54.0677380427
  0
LINE
  5
26D
100
AcDbEntity
  8
0
100
AcDbLine
 62
7
  6
BYLAYER
 10
43.0845184538
 20
67.7337707614
 11
43.0845184538
 21
65.6924864999
  0
LINE
  5
26E
100
AcDbEntity
  8
0
100
AcDbLine
 62
7
  6
BYLAYER
 10
20.5455522893
 20
57.0274862324
 11
19.4141814394
 21
57.0274835129
  0
LINE
  5
26F
100
AcDbEntity
  8
0
100
AcDbLine
 62
7
  6
BYLAYER
 10
44.4987379041
 20
64.8760049909
 11
44.4987379041
 21
67.4888127257
  0
LINE
  5
270
100
AcDbEntity
  8
0
100
AcDbLine
 62
7
  6
BYLAYER
 10
15.419006782
 20
59.9872317027
 11
14.2876359321
 21
59.9872289832
  0
LINE
  5
271
100
AcDbEntity
  8
0
100
AcDbLine
 62
7
  6
BYLAYER
 10
45.0582995413
 20
70.71045744
 11
46.3372078808
 21
65.9374397909
  0
LINE
  5
272
100
AcDbEntity
  8
0
100
AcDbLine
 62
7
  6
BYLAYER
 10
38.964719367
 20
66.9881944633
 11
40.3789388173
 21
66.1717129542
  0
LINE
  5
273
100
AcDbEntity
  8
0
100
AcDbLine
 62
7
  6
BYLAYER
 10
44.9406876646
 20
63.7635453655
 11
41.1576506351
 21
65.9476334022
  0
LINE
  5
274
100
AcDbEntity
  8
0
100
AcDbLine
 62
7
  6
BYLAYER
 10
54.5573737443
 20
59.0687802578
 11
44.4987379041
 21
64.8760049909
  0
LINE
  5
275
100
AcDbEntity
  8
0
100
AcDbLine
 62
7
  6
BYLAYER
 10
43.0845184538
 20
65.6924864999
 11
41.3166891543
 21
66.713120132
  0
LINE
  5
276
100
AcDbEntity
  8
0
100
AcDbLine
 62
7
  6
BYLAYER
 10
38.964719367
 20
68.0709998025
 11
33.0258826135
 21
71.4997112329
  0
LINE
  5
277
100
AcDbEntity
  8
0
100
AcDbLine
 62
7
  6
BYLAYER
 10
40.3789388173
 20
67.7638926676
 11
38.964719367
 21
68.5803741767
  0
LINE
  5
278
100
AcDbEntity
  8
0
100
AcDbLine
 62
7
  6
BYLAYER
 10
39.1768505182
 20
68.947798148
 11
40.5910699685
 21
68.1313166389
  0
LINE
  5
279
100
AcDbEntity
  8
0
100
AcDbLine
 62
7
  6
BYLAYER
 10
44.4987379041
 20
67.4888127257
 11
43.5795029157
 21
68.0195484679
  0
LINE
  5
27A
100
AcDbEntity
  8
0
100
AcDbLine
 62
7
  6
BYLAYER
 10
60.2849419102
 20
58.6197273256
 11
57.0322371745
 21
60.4976347964
  0
LINE
  5
27B
100
AcDbEntity
  8
0
100
AcDbLine
 62
7
  6
BYLAYER
 10
35.5007460438
 20
72.9285657715
 11
33.9804601347
 21
73.8062833937
  0
LINE
  5
27C
100
AcDbEntity
  8
0
100
AcDbLine
 62
7
  6
BYLAYER
 10
35.6775234751
 20
72.8265055829
 11
40.7863087594
 21
69.8770137501
  0
LINE
  5
27D
100
AcDbEntity
  8
0
100
AcDbLine
 62
7
  6
BYLAYER
 10
46.104279858
 20
66.8067511635
 11
56.8554597432
 21
60.599694985
  0
LINE
  5
27E
100
AcDbEntity
  8
0
100
AcDbLine
 62
7
  6
BYLAYER
 10
56.8554597432
 20
60.599694985
 11
56.8554597432
 21
60.395572908
  0
LINE
  5
27F
100
AcDbEntity
  8
0
100
AcDbLine
 62
7
  6
BYLAYER
 10
34.7938509338
 20
21.8569673195
 11
60.5677858003
 21
36.7374667281
  0
LINE
  5
280
100
AcDbEntity
  8
0
100
AcDbLine
 62
7
  6
BYLAYER
 10
34.7110061484
 20
21.6738529428
 11
60.4849410148
 21
36.5543523515
  0
LINE
  5
281
100
AcDbEntity
  8
0
100
AcDbLine
 62
7
  6
BYLAYER
 10
60.5677858003
 20
36.7374667281
 11
60.5677858003
 21
58.1298300569
  0
LINE
  5
282
100
AcDbEntity
  8
0
100
AcDbLine
 62
7
  6
BYLAYER
 10
45.0582995413
 20
70.71045744
 11
43.644080091
 21
71.526938949
  0
ARC
  5
283
100
AcDbEntity
  8
0
100
AcDbCircle
 62
7
  6
BYLAYER
 10
19.6901672102
 20
41.2177417429
 40
1.6011462171
100
AcDbArc
 50
129.4114869228
 51
134.939505006
  0
ARC
  5
284
100
AcDbEntity
  8
0
100
AcDbCircle
 62
7
  6
BYLAYER
 10
19.6522086792
 20
41.2651466675
 40
1.5404217478
100
AcDbArc
 50
119.9995715473
 51
129.4401156321
  0
ARC
  5
285
100
AcDbEntity
  8
0
100
AcDbCircle
 62
7
  6
BYLAYER
 10
38.0743452665
 20
45.4701189414
 40
0.688597396
100
AcDbArc
 50
24.8184717366
 51
35.1818216219
  0
ARC
  5
286
100
AcDbEntity
  8
0
100
AcDbCircle
 62
7
  6
BYLAYER
 10
8.2065252683
 20
37.2068196895
 40
0.4
100
AcDbArc
 50
180.0
 51
240.0005612632
  0
ARC
  5
287
100
AcDbEntity
  8
0
100
AcDbCircle
 62
7
  6
BYLAYER
 10
34.5110070438
 20
22.0202636213
 40
0.4
100
AcDbArc
 50
240.0005612632
 51
299.9998519061
  0
ARC
  5
288
100
AcDbEntity
  8
0
100
AcDbCircle
 62
7
  6
BYLAYER
 10
8.2065252683
 20
58.5991830183
 40
0.4
100
AcDbArc
 50
119.9998519061
 51
180.0
  0
SPLINE
  5
289
100
AcDbEntity
  8
0
100
AcDbSpline
 62
7
  6
BYLAYER
 70
0
 71
3
 72
13
 73
9
 74
0
 42
0.0000001
 43
0.0000001
 44
0.0000000001
 40
0.0
 40
0.0
 40
0.0
 40
0.0
 40
0.2664570127
 40
0.5249107205
 40
0.6496826057
 40
0.7707360314
 40
0.887653045
 40
1.0
 40
1.0
 40
1.0
 40
1.0
 10
18.5323112884
 20
37.5385301081
 30
0.0
 10
18.4143674241
 20
37.7689287093
 30
0.0
 10
18.2045474193
 20
38.2347536772
 30
0.0
 10
18.0064155302
 20
38.8353415771
 30
0.0
 10
17.893487761
 20
39.3122525361
 30
0.0
 10
17.8330826434
 20
39.6596404976
 30
0.0
 10
17.7964554557
 20
39.9981924231
 30
0.0
 10
17.7878661656
 20
40.2209631252
 30
0.0
 10
17.7878661656
 20
40.3300953434
 30
0.0
  0
SPLINE
  5
28A
100
AcDbEntity
  8
0
100
AcDbSpline
 62
7
  6
BYLAYER
 70
0
 71
3
 72
15
 73
11
 74
0
 42
0.0000001
 43
0.0000001
 44
0.0000000001
 40
0.0
 40
0.0
 40
0.0
 40
0.0
 40
0.1464956437
 40
0.2863199471
 40
0.4193689771
 40
0.5458934917
 40
0.6663538888
 40
0.7814721083
 40
0.8922867244
 40
1.0
 40
1.0
 40
1.0
 40
1.0
 10
17.7878661656
 20
40.3300953434
 30
0.0
 10
17.7878661656
 20
40.434569239
 30
0.0
 10
17.7954072883
 20
40.6388671908
 30
0.0
 10
17.8310413614
 20
40.936172369
 30
0.0
 10
17.8905805569
 20
41.2151590036
 30
0.0
 10
17.9736360705
 20
41.4736710163
 30
0.0
 10
18.079640499
 20
41.7097853592
 30
0.0
 10
18.2079766541
 20
41.9216698576
 30
0.0
 10
18.3577225754
 20
42.107506574
 30
0.0
 10
18.4722924404
 20
42.2141266608
 30
0.0
 10
18.5323112884
 20
42.2620688411
 30
0.0
  0
SPLINE
  5
28B
100
AcDbEntity
  8
0
100
AcDbSpline
 62
7
  6
BYLAYER
 70
0
 71
3
 72
23
 73
19
 74
0
 42
0.0000001
 43
0.0000001
 44
0.0000000001
 40
0.0
 40
0.0
 40
0.0
 40
0.0
 40
0.0223496141
 40
0.0448120724
 40
0.0904708897
 40
0.1378232132
 40
0.1875269422
 40
0.2400645857
 40
0.2957400294
 40
0.3546910695
 40
0.4169123522
 40
0.4822773226
 40
0.550557051
 40
0.6214388352
 40
0.6945447049
 40
0.7694449357
 40
0.8456612561
 40
1.0
 40
1.0
 40
1.0
 40
1.0
 10
23.4319776127
 20
34.7183709442
 30
0.0
 10
23.3941520069
 20
34.6965329069
 30
0.0
 10
23.3163480668
 20
34.65603903
 30
0.0
 10
23.1528496017
 20
34.5882825472
 30
0.0
 10
22.9338297386
 20
34.5292558479
 30
0.0
 10
22.6552478586
 20
34.5011478075
 30
0.0
 10
22.3622640835
 20
34.5151951005
 30
0.0
 10
22.0579149369
 20
34.5709958284
 30
0.0
 10
21.7451823403
 20
34.6677707018
 30
0.0
 10
21.4271088217
 20
34.8044042405
 30
0.0
 10
21.106793047
 20
34.9794581843
 30
0.0
 10
20.7873874049
 20
35.191158131
 30
0.0
 10
20.4720518875
 20
35.4373616027
 30
0.0
 10
20.1639205517
 20
35.7155880547
 30
0.0
 10
19.8660861957
 20
36.0230441704
 30
0.0
 10
19.5815295324
 20
36.3566624766
 30
0.0
 10
19.2222524539
 20
36.8336818881
 30
0.0
 10
18.9833834636
 20
37.2173191192
 30
0.0
 10
18.8389835743
 20
37.4821248951
 30
0.0
  0
SPLINE
  5
28C
100
AcDbEntity
  8
0
100
AcDbSpline
 62
7
  6
BYLAYER
 70
0
 71
3
 72
15
 73
11
 74
0
 42
0.0000001
 43
0.0000001
 44
0.0000000001
 40
0.0
 40
0.0
 40
0.0
 40
0.0
 40
0.1485838638
 40
0.2895068727
 40
0.422721595
 40
0.5486406116
 40
0.6679996016
 40
0.7819369216
 40
0.891986637
 40
1.0
 40
1.0
 40
1.0
 40
1.0
 10
24.3639848431
 20
36.7784017989
 30
0.0
 10
24.3639848431
 20
36.6612080298
 30
0.0
 10
24.3545337417
 20
36.4327056079
 30
0.0
 10
24.3095583567
 20
36.1018066467
 30
0.0
 10
24.2344185052
 20
35.7946740027
 30
0.0
 10
24.1297130745
 20
35.5142875521
 30
0.0
 10
23.9962427059
 20
35.2633453077
 30
0.0
 10
23.8350467102
 20
35.0444106464
 30
0.0
 10
23.6476127506
 20
34.8599494565
 30
0.0
 10
23.5057585059
 20
34.7609672192
 30
0.0
 10
23.4319776127
 20
34.7183709442
 30
0.0
  0
SPLINE
  5
28D
100
AcDbEntity
  8
0
100
AcDbSpline
 62
7
  6
BYLAYER
 70
0
 71
3
 72
29
 73
25
 74
0
 42
0.0000001
 43
0.0000001
 44
0.0000000001
 40
0.0
 40
0.0
 40
0.0
 40
0.0
 40
0.0213340533
 40
0.0428913639
 40
0.0648917905
 40
0.0875330038
 40
0.1109788482
 40
0.1353617436
 40
0.1607805067
 40
0.1873019571
 40
0.2437304318
 40
0.2736672714
 40
0.3046976779
 40
0.3697743389
 40
0.4383597448
 40
0.5096337333
 40
0.5826451313
 40
0.6563636387
 40
0.7297279742
 40
0.8016913943
 40
0.8712721441
 40
0.937599065
 40
0.9693364352
 40
1.0
 40
1.0
 40
1.0
 40
1.0
 10
18.9320066502
 20
42.5125958079
 30
0.0
 10
18.9873056246
 20
42.5445248262
 30
0.0
 10
19.1027267898
 20
42.6016632489
 30
0.0
 10
19.2867561783
 20
42.6652612416
 30
0.0
 10
19.4810078603
 20
42.7066907504
 30
0.0
 10
19.6843408111
 20
42.7257483157
 30
0.0
 10
19.8956283542
 20
42.7224260215
 30
0.0
 10
20.1137046433
 20
42.6967724947
 30
0.0
 10
20.3374167773
 20
42.649005995
 30
0.0
 10
20.6479614097
 20
42.554260523
 30
0.0
 10
20.9583173447
 20
42.4171062825
 30
0.0
 10
21.2643955173
 20
42.2442529668
 30
0.0
 10
21.5809298326
 20
42.0385667503
 30
0.0
 10
21.969907524
 20
41.7340230355
 30
0.0
 10
22.4123891966
 20
41.3078707384
 30
0.0
 10
22.8285880042
 20
40.8242903972
 30
0.0
 10
23.2096278156
 20
40.2936071862
 30
0.0
 10
23.5474063839
 20
39.7271155816
 30
0.0
 10
23.8347109595
 20
39.1369096603
 30
0.0
 10
24.0654258735
 20
38.5355509159
 30
0.0
 10
24.2346077451
 20
37.935894254
 30
0.0
 10
24.3226464638
 20
37.4408503323
 30
0.0
 10
24.3579193682
 20
37.0569980359
 30
0.0
 10
24.3639848431
 20
36.870180729
 30
0.0
 10
24.3639848431
 20
36.7784017989
 30
0.0
  0
SPLINE
  5
28E
100
AcDbEntity
  8
0
100
AcDbSpline
 62
7
  6
BYLAYER
 70
0
 71
3
 72
14
 73
10
 74
0
 42
0.0000001
 43
0.0000001
 44
0.0000000001
 40
0.0
 40
0.0
 40
0.0
 40
0.0
 40
0.2533633561
 40
0.3844992983
 40
0.5156781367
 40
0.6447435048
 40
0.7696258435
 40
0.8885829376
 40
1.0
 40
1.0
 40
1.0
 40
1.0
 10
44.8017924222
 20
63.8496639556
 30
0.0
 10
44.7665129751
 20
63.9972761313
 30
0.0
 10
44.6886282648
 20
64.2160764664
 30
0.0
 10
44.5467625738
 20
64.4907212114
 30
0.0
 10
44.4206043034
 20
64.6887603451
 30
0.0
 10
44.2791372719
 20
64.8714027548
 30
0.0
 10
44.1257362818
 20
65.0343075463
 30
0.0
 10
43.964157466
 20
65.173398846
 30
0.0
 10
43.8494278825
 20
65.2508758259
 30
0.0
 10
43.7916281789
 20
65.2842457454
 30
0.0
  0
SPLINE
  5
28F
100
AcDbEntity
  8
0
100
AcDbSpline
 62
7
  6
BYLAYER
 70
0
 71
3
 72
13
 73
9
 74
0
 42
0.0000001
 43
0.0000001
 44
0.0000000001
 40
0.0
 40
0.0
 40
0.0
 40
0.0
 40
0.2893765834
 40
0.5483136017
 40
0.667742933
 40
0.7817679834
 40
0.8919071237
 40
1.0
 40
1.0
 40
1.0
 40
1.0
 10
43.7916281789
 20
65.2842457454
 30
0.0
 10
43.72579283
 20
65.3222549419
 30
0.0
 10
43.594943964
 20
65.3845663977
 30
0.0
 10
43.4226591088
 20
65.4260812051
 30
0.0
 10
43.2929893368
 20
65.4305842521
 30
0.0
 10
43.2029303132
 20
65.4205239305
 30
0.0
 10
43.1184372342
 20
65.3971882353
 30
0.0
 10
43.066228344
 20
65.3727215796
 30
0.0
 10
43.0416366163
 20
65.3585233647
 30
0.0
  0
SPLINE
  5
290
100
AcDbEntity
  8
0
100
AcDbSpline
 62
7
  6
BYLAYER
 70
0
 71
3
 72
13
 73
9
 74
0
 42
0.0000001
 43
0.0000001
 44
0.0000000001
 40
0.0
 40
0.0
 40
0.0
 40
0.0
 40
0.114175582
 40
0.23756922
 40
0.49999856
 40
0.7624286893
 40
0.8858231943
 40
1.0
 40
1.0
 40
1.0
 40
1.0
 10
39.1768505182
 20
68.947798148
 30
0.0
 10
39.1623388513
 20
68.9394198832
 30
0.0
 10
39.1336595944
 20
68.9192957508
 30
0.0
 10
39.0799318746
 20
68.8690572296
 30
0.0
 10
39.0232324734
 20
68.7915410796
 30
0.0
 10
38.9844516652
 20
68.7036795706
 30
0.0
 10
38.9678077669
 20
68.6320302922
 30
0.0
 10
38.964719367
 20
68.5971309608
 30
0.0
 10
38.964719367
 20
68.5803741767
 30
0.0
  0
SPLINE
  5
291
100
AcDbEntity
  8
0
100
AcDbSpline
 62
7
  6
BYLAYER
 70
0
 71
3
 72
13
 73
9
 74
0
 42
0.0000001
 43
0.0000001
 44
0.0000000001
 40
0.0
 40
0.0
 40
0.0
 40
0.0
 40
0.114176888
 40
0.2375715548
 40
0.5000017735
 40
0.762431024
 40
0.8858245003
 40
1.0
 40
1.0
 40
1.0
 40
1.0
 10
40.3789388173
 20
67.7638926676
 30
0.0
 10
40.3789388173
 20
67.7806494639
 30
0.0
 10
40.3820272366
 20
67.8155488296
 30
0.0
 10
40.3986711367
 20
67.8871981571
 30
0.0
 10
40.4374519863
 20
67.9750596791
 30
0.0
 10
40.4941513971
 20
68.0525757868
 30
0.0
 10
40.5478790753
 20
68.1028142819
 30
0.0
 10
40.5765583121
 20
68.1229383802
 30
0.0
 10
40.5910699685
 20
68.1313166389
 30
0.0
  0
SPLINE
  5
292
100
AcDbEntity
  8
0
100
AcDbSpline
 62
7
  6
BYLAYER
 70
0
 71
3
 72
11
 73
7
 74
0
 42
0.0000001
 43
0.0000001
 44
0.0000000001
 40
0.0
 40
0.0
 40
0.0
 40
0.0
 40
0.235059831
 40
0.4765741697
 40
0.730133015
 40
1.0
 40
1.0
 40
1.0
 40
1.0
 10
43.0416366163
 20
65.3585233647
 30
0.0
 10
43.011808884
 20
65.3413021039
 30
0.0
 10
42.9548098448
 20
65.2999595488
 30
0.0
 10
42.8822218295
 20
65.2204858292
 30
0.0
 10
42.8229223508
 20
65.1247041411
 30
0.0
 10
42.7937660737
 20
65.053381862
 30
0.0
 10
42.7813821689
 20
65.0158287674
 30
0.0
  0
SPLINE
  5
293
100
AcDbEntity
  8
0
100
AcDbSpline
 62
7
  6
BYLAYER
 70
0
 71
3
 72
9
 73
5
 74
0
 42
0.0000001
 43
0.0000001
 44
0.0000000001
 40
0.0
 40
0.0
 40
0.0
 40
0.0
 40
0.494744994
 40
1.0
 40
1.0
 40
1.0
 40
1.0
 10
23.4819743787
 20
34.6317735953
 30
0.0
 10
23.5621693565
 20
34.6780638964
 30
0.0
 10
23.716011379
 20
34.7866737338
 30
0.0
 10
23.8480418135
 20
34.9207865968
 30
0.0
 10
23.9086449839
 20
34.993377454
 30
0.0
  0
SPLINE
  5
294
100
AcDbEntity
  8
0
100
AcDbSpline
 62
7
  6
BYLAYER
 70
0
 71
3
 72
11
 73
7
 74
0
 42
0.0000001
 43
0.0000001
 44
0.0000000001
 40
0.0
 40
0.0
 40
0.0
 40
0.0
 40
0.2213963054
 40
0.4599765055
 40
0.719200381
 40
1.0
 40
1.0
 40
1.0
 40
1.0
 10
23.9086449839
 20
34.993377454
 30
0.0
 10
23.9964249357
 20
35.0985208303
 30
0.0
 10
24.1530349078
 20
35.3393099401
 30
0.0
 10
24.31673805
 20
35.7556041412
 30
0.0
 10
24.4147129027
 20
36.2292231133
 30
0.0
 10
24.4346958156
 20
36.5638585455
 30
0.0
 10
24.4346958156
 20
36.7375777234
 30
0.0
  0
SPLINE
  5
295
100
AcDbEntity
  8
0
100
AcDbSpline
 62
7
  6
BYLAYER
 70
0
 71
3
 72
11
 73
7
 74
0
 42
0.0000001
 43
0.0000001
 44
0.0000000001
 40
0.0
 40
0.0
 40
0.0
 40
0.0
 40
0.2895391946
 40
0.5491157945
 40
0.7822541179
 40
1.0
 40
1.0
 40
1.0
 40
1.0
 10
12.1663067567
 20
61.2119512468
 30
0.0
 10
12.1487654536
 20
61.2220784938
 30
0.0
 10
12.1138410303
 20
61.2386705173
 30
0.0
 10
12.0601833561
 20
61.2516581443
 30
0.0
 10
12.0098107916
 20
61.2503927623
 30
0.0
 10
11.9795105968
 20
61.2393577993
 30
0.0
 10
11.9663188427
 20
61.2317415758
 30
0.0
  0
SPLINE
  5
296
100
AcDbEntity
  8
0
100
AcDbSpline
 62
7
  6
BYLAYER
 70
0
 71
3
 72
11
 73
7
 74
0
 42
0.0000001
 43
0.0000001
 44
0.0000000001
 40
0.0
 40
0.0
 40
0.0
 40
0.0
 40
0.217745073
 40
0.4508830113
 40
0.7104597664
 40
1.0
 40
1.0
 40
1.0
 40
1.0
 10
38.6707764461
 20
23.9600395871
 30
0.0
 10
38.683968504
 20
23.9676559861
 30
0.0
 10
38.7086758097
 20
23.9883797228
 30
0.0
 10
38.734958374
 20
24.0313722099
 30
0.0
 10
38.7505396264
 20
24.0843365284
 30
0.0
 10
38.7536324222
 20
24.1228791291
 30
0.0
 10
38.7536324222
 20
24.1431345812
 30
0.0
  0
SPLINE
  5
297
100
AcDbEntity
  8
0
100
AcDbSpline
 62
7
  6
BYLAYER
 70
0
 71
3
 72
13
 73
9
 74
0
 42
0.0000001
 43
0.0000001
 44
0.0000000001
 40
0.0
 40
0.0
 40
0.0
 40
0.0
 40
0.1141767831
 40
0.2375713001
 40
0.500001251
 40
0.7624305195
 40
0.8858241805
 40
1.0
 40
1.0
 40
1.0
 40
1.0
 10
38.7536324222
 20
45.53549791
 30
0.0
 10
38.7536324222
 20
45.5578402974
 30
0.0
 10
38.7495144975
 20
45.6043727634
 30
0.0
 10
38.7273224416
 20
45.6999051146
 30
0.0
 10
38.675614175
 20
45.8170536258
 30
0.0
 10
38.6000143122
 20
45.920408058
 30
0.0
 10
38.5283768343
 20
45.9873923416
 30
0.0
 10
38.4901375534
 20
46.0142242687
 30
0.0
 10
38.4707885322
 20
46.0253951786
 30
0.0
  0
SPLINE
  5
298
100
AcDbEntity
  8
0
100
AcDbSpline
 62
7
  6
BYLAYER
 70
0
 71
3
 72
23
 73
19
 74
0
 42
0.0000001
 43
0.0000001
 44
0.0000000001
 40
0.0
 40
0.0
 40
0.0
 40
0.0
 40
0.060335141
 40
0.12423448
 40
0.1911096968
 40
0.260316774
 40
0.3310817776
 40
0.4025812608
 40
0.4739665478
 40
0.5443884617
 40
0.6130348583
 40
0.6791627409
 40
0.7421312555
 40
0.8014415744
 40
0.8567868049
 40
0.9081049359
 40
0.9556396351
 40
1.0
 40
1.0
 40
1.0
 40
1.0
 10
24.4346958156
 20
36.7375777234
 30
0.0
 10
24.4346958156
 20
36.9106085923
 30
0.0
 10
24.4134374692
 20
37.2670982546
 30
0.0
 10
24.3253722715
 20
37.8088405064
 30
0.0
 10
24.1816005905
 20
38.3648238702
 30
0.0
 10
23.984795686
 20
38.9251310872
 30
0.0
 10
23.7383624413
 20
39.4799570968
 30
0.0
 10
23.4466869392
 20
40.0194788174
 30
0.0
 10
23.1149393372
 20
40.5341639771
 30
0.0
 10
22.7489585701
 20
41.0148845784
 30
0.0
 10
22.3552262459
 20
41.4531483776
 30
0.0
 10
21.9406810523
 20
41.841238458
 30
0.0
 10
21.5125631502
 20
42.172319764
 30
0.0
 10
21.0782574675
 20
42.4405421297
 30
0.0
 10
20.6451942934
 20
42.6411587212
 30
0.0
 10
20.2205364216
 20
42.7704087712
 30
0.0
 10
19.8115713619
 20
42.8254924206
 30
0.0
 10
19.5462998937
 20
42.8108452496
 30
0.0
 10
19.4208050927
 20
42.7899775775
 30
0.0
  0
SPLINE
  5
299
100
AcDbEntity
  8
0
100
AcDbSpline
 62
7
  6
BYLAYER
 70
0
 71
3
 72
9
 73
5
 74
0
 42
0.0000001
 43
0.0000001
 44
0.0000000001
 40
0.0
 40
0.0
 40
0.0
 40
0.0
 40
0.5054750395
 40
1.0
 40
1.0
 40
1.0
 40
1.0
 10
19.4208050927
 20
42.7899775775
 30
0.0
 10
19.3254163024
 20
42.774116028
 30
0.0
 10
19.1388992755
 20
42.7268644332
 30
0.0
 10
18.9639416076
 20
42.646490796
 30
0.0
 10
18.8820077811
 20
42.5991967932
 30
0.0
  0
SPLINE
  5
29A
100
AcDbEntity
  8
0
100
AcDbSpline
 62
7
  6
BYLAYER
 70
0
 71
3
 72
11
 73
7
 74
0
 42
0.0000001
 43
0.0000001
 44
0.0000000001
 40
0.0
 40
0.0
 40
0.0
 40
0.0
 40
0.2177508335
 40
0.4508940037
 40
0.710465094
 40
1.0
 40
1.0
 40
1.0
 40
1.0
 10
8.0065354552
 20
58.9455776032
 30
0.0
 10
8.0197276584
 20
58.9531940813
 30
0.0
 10
8.0500291179
 20
58.9642291305
 30
0.0
 10
8.1004025803
 20
58.9654922324
 30
0.0
 10
8.1540603681
 20
58.9525042566
 30
0.0
 10
8.1889840293
 20
58.935911195
 30
0.0
 10
8.2065252683
 20
58.9257839851
 30
0.0
  0
SPLINE
  5
29B
100
AcDbEntity
  8
0
100
AcDbSpline
 62
7
  6
BYLAYER
 70
0
 71
3
 72
13
 73
9
 74
0
 42
0.0000001
 43
0.0000001
 44
0.0000000001
 40
0.0
 40
0.0
 40
0.0
 40
0.0
 40
0.1141728891
 40
0.2375633663
 40
0.4999983932
 40
0.762434299
 40
0.8858258049
 40
1.0
 40
1.0
 40
1.0
 40
1.0
 10
8.2065252683
 20
58.9257839851
 30
0.0
 10
8.1871767972
 20
58.9146132068
 30
0.0
 10
8.1489379669
 20
58.8877826576
 30
0.0
 10
8.0773005719
 20
58.8207981477
 30
0.0
 10
8.0016985212
 20
58.7174428752
 30
0.0
 10
7.9499917949
 20
58.6002915091
 30
0.0
 10
7.927800306
 20
58.504758788
 30
0.0
 10
7.9236837334
 20
58.4582272689
 30
0.0
 10
7.9236837334
 20
58.4358853567
 30
0.0
  0
SPLINE
  5
29C
100
AcDbEntity
  8
0
100
AcDbSpline
 62
7
  6
BYLAYER
 70
0
 71
3
 72
11
 73
7
 74
0
 42
0.0000001
 43
0.0000001
 44
0.0000000001
 40
0.0
 40
0.0
 40
0.0
 40
0.0
 40
0.2895378634
 40
0.5491098265
 40
0.7822517759
 40
1.0
 40
1.0
 40
1.0
 40
1.0
 10
7.9236837334
 20
58.4358853567
 30
0.0
 10
7.9061422508
 20
58.4460127073
 30
0.0
 10
7.8743096165
 20
58.4679605271
 30
0.0
 10
7.8362317043
 20
58.5079350395
 30
0.0
 10
7.8121380988
 20
58.5521908913
 30
0.0
 10
7.8065438522
 20
58.5839501226
 30
0.0
 10
7.8065438515
 20
58.5991830183
 30
0.0
  0
SPLINE
  5
29D
100
AcDbEntity
  8
0
100
AcDbSpline
 62
7
  6
BYLAYER
 70
0
 71
3
 72
11
 73
7
 74
0
 42
0.0000001
 43
0.0000001
 44
0.0000000001
 40
0.0
 40
0.0
 40
0.0
 40
0.0
 40
0.2177490368
 40
0.4508914017
 40
0.7104631294
 40
1.0
 40
1.0
 40
1.0
 40
1.0
 10
34.3110197286
 20
21.6738675942
 30
0.0
 10
34.2978272113
 20
21.6814841277
 30
0.0
 10
34.2731191435
 20
21.7022087826
 30
0.0
 10
34.2468380434
 20
21.745203155
 30
0.0
 10
34.2312570455
 20
21.7981678932
 30
0.0
 10
34.2281655089
 20
21.8367104931
 30
0.0
 10
34.2281655089
 20
21.8569659598
 30
0.0
  0
SPLINE
  5
29E
100
AcDbEntity
  8
0
100
AcDbSpline
 62
7
  6
BYLAYER
 70
0
 71
3
 72
19
 73
15
 74
0
 42
0.0000001
 43
0.0000001
 44
0.0000000001
 40
0.0
 40
0.0
 40
0.0
 40
0.0
 40
0.1541785384
 40
0.3052611715
 40
0.449310557
 40
0.5830323916
 40
0.6453378921
 40
0.7043567502
 40
0.7600813738
 40
0.8126425715
 40
0.8623454164
 40
0.909671444
 40
0.9552853956
 40
1.0
 40
1.0
 40
1.0
 40
1.0
 10
18.7632284708
 20
37.5007017488
 30
0.0
 10
18.9101456899
 20
37.2272009243
 30
0.0
 10
19.2329110799
 20
36.702137191
 30
0.0
 10
19.7952304914
 20
35.990611754
 30
0.0
 10
20.4130501376
 20
35.3838219861
 30
0.0
 10
20.9669843046
 20
34.9759298299
 30
0.0
 10
21.4170509622
 20
34.7272274348
 30
0.0
 10
21.7445688339
 20
34.5848699788
 30
0.0
 10
22.0666508613
 20
34.4836988531
 30
0.0
 10
22.3801839667
 20
34.4249981933
 30
0.0
 10
22.6820082726
 20
34.4094661101
 30
0.0
 10
22.9690470233
 20
34.4377116348
 30
0.0
 10
23.2380465191
 20
34.5096254962
 30
0.0
 10
23.40399311
 20
34.5867610956
 30
0.0
 10
23.4819743787
 20
34.6317735953
 30
0.0
  0
SPLINE
  5
29F
100
AcDbEntity
  8
0
100
AcDbSpline
 62
7
  6
BYLAYER
 70
0
 71
3
 72
9
 73
5
 74
0
 42
0.0000001
 43
0.0000001
 44
0.0000000001
 40
0.0
 40
0.0
 40
0.0
 40
0.0
 40
0.2475652986
 40
1.0
 40
1.0
 40
1.0
 40
1.0
 10
7.8065438515
 20
37.2068196895
 30
0.0
 10
7.8065438517
 20
37.2030452469
 30
0.0
 10
7.8071825556
 20
37.1878030168
 30
0.0
 10
7.8104520586
 20
37.1726926383
 30
0.0
 10
7.8141824274
 20
37.161844287
 30
0.0
  0
SPLINE
  5
2A0
100
AcDbEntity
  8
0
100
AcDbSpline
 62
7
  6
BYLAYER
 70
0
 71
3
 72
10
 73
6
 74
0
 42
0.0000001
 43
0.0000001
 44
0.0000000001
 40
0.0
 40
0.0
 40
0.0
 40
0.0
 40
0.457970038
 40
0.7182641692
 40
1.0
 40
1.0
 40
1.0
 40
1.0
 10
7.8141824274
 20
37.161844287
 30
0.0
 10
7.8223240992
 20
37.1381673475
 30
0.0
 10
7.8447798619
 20
37.1041784812
 30
0.0
 10
7.8855388681
 20
37.0676889336
 30
0.0
 10
7.9103444716
 20
37.0512232801
 30
0.0
 10
7.9236837334
 20
37.0435220279
 30
0.0
  0
SPLINE
  5
2A1
100
AcDbEntity
  8
0
100
AcDbSpline
 62
7
  6
BYLAYER
 70
0
 71
3
 72
13
 73
9
 74
0
 42
0.0000001
 43
0.0000001
 44
0.0000000001
 40
0.0
 40
0.0
 40
0.0
 40
0.0
 40
0.1141735313
 40
0.237564654
 40
0.5000005225
 40
0.7624361052
 40
0.8858268933
 40
1.0
 40
1.0
 40
1.0
 40
1.0
 10
34.2281655089
 20
21.8569659598
 30
0.0
 10
34.2475141459
 20
21.8457952717
 30
0.0
 10
34.2898698649
 20
21.8260950979
 30
0.0
 10
34.3836993066
 20
21.797548067
 30
0.0
 10
34.5110086643
 20
21.7837526223
 30
0.0
 10
34.6383178999
 20
21.7975486556
 30
0.0
 10
34.7321469896
 20
21.8260961481
 30
0.0
 10
34.7745024493
 20
21.8457965335
 30
0.0
 10
34.7938509338
 20
21.8569673195
 30
0.0
  0
SPLINE
  5
2A2
100
AcDbEntity
  8
0
100
AcDbSpline
 62
7
  6
BYLAYER
 70
0
 71
3
 72
11
 73
7
 74
0
 42
0.0000001
 43
0.0000001
 44
0.0000000001
 40
0.0
 40
0.0
 40
0.0
 40
0.0
 40
0.289535909
 40
0.5491073528
 40
0.7822501147
 40
1.0
 40
1.0
 40
1.0
 40
1.0
 10
34.7938509338
 20
21.8569673195
 30
0.0
 10
34.7938509338
 20
21.8367119443
 30
0.0
 10
34.7907593939
 20
21.798169478
 30
0.0
 10
34.7751784115
 20
21.7452048682
 30
0.0
 10
34.748897351
 20
21.7022104757
 30
0.0
 10
34.7241893552
 20
21.681485685
 30
0.0
 10
34.7109968568
 20
21.6738690364
 30
0.0
  0
SPLINE
  5
2A3
100
AcDbEntity
  8
0
100
AcDbSpline
 62
7
  6
BYLAYER
 70
0
 71
3
 72
13
 73
9
 74
0
 42
0.0000001
 43
0.0000001
 44
0.0000000001
 40
0.0
 40
0.0
 40
0.0
 40
0.0
 40
0.1141732089
 40
0.2375638708
 40
0.4999989157
 40
0.7624345537
 40
0.8858259098
 40
1.0
 40
1.0
 40
1.0
 40
1.0
 10
34.5110070438
 20
43.7392279169
 30
0.0
 10
34.5303556609
 20
43.7280572404
 30
0.0
 10
34.5685947897
 20
43.7012268952
 30
0.0
 10
34.6402327583
 20
43.6342427618
 30
0.0
 10
34.7158354575
 20
43.5308878675
 30
0.0
 10
34.767542651
 20
43.4137366861
 30
0.0
 10
34.789734329
 20
43.3182040505
 30
0.0
 10
34.7938509338
 20
43.271672553
 30
0.0
 10
34.7938509338
 20
43.2493306483
 30
0.0
  0
SPLINE
  5
2A4
100
AcDbEntity
  8
0
100
AcDbSpline
 62
7
  6
BYLAYER
 70
0
 71
3
 72
13
 73
9
 74
0
 42
0.0000001
 43
0.0000001
 44
0.0000000001
 40
0.0
 40
0.0
 40
0.0
 40
0.0
 40
0.1141741951
 40
0.237565701
 40
0.5000016068
 40
0.7624366337
 40
0.8858271109
 40
1.0
 40
1.0
 40
1.0
 40
1.0
 10
34.2281655089
 20
43.2493292885
 30
0.0
 10
34.2281655089
 20
43.2716712007
 30
0.0
 10
34.2322820814
 20
43.3182027199
 30
0.0
 10
34.2544735703
 20
43.413735441
 30
0.0
 10
34.3061802967
 20
43.5308868071
 30
0.0
 10
34.3817823474
 20
43.6342420796
 30
0.0
 10
34.4534197424
 20
43.7012265894
 30
0.0
 10
34.4916585727
 20
43.7280571387
 30
0.0
 10
34.5110070438
 20
43.7392279169
 30
0.0
  0
SPLINE
  5
2A5
100
AcDbEntity
  8
0
100
AcDbSpline
 62
7
  6
BYLAYER
 70
0
 71
3
 72
11
 73
7
 74
0
 42
0.0000001
 43
0.0000001
 44
0.0000000001
 40
0.0
 40
0.0
 40
0.0
 40
0.0
 40
0.2895368706
 40
0.5491085983
 40
0.7822509632
 40
1.0
 40
1.0
 40
1.0
 40
1.0
 10
7.9236837334
 20
37.0435220279
 30
0.0
 10
7.9236837334
 20
37.0232665613
 30
0.0
 10
7.92677527
 20
36.9847239613
 30
0.0
 10
7.9423562679
 20
36.9317592232
 30
0.0
 10
7.968637368
 20
36.8887648507
 30
0.0
 10
7.9933454358
 20
36.8680401959
 30
0.0
 10
8.0065379531
 20
36.8604236624
 30
0.0
  0
SPLINE
  5
2A6
100
AcDbEntity
  8
0
100
AcDbSpline
 62
7
  6
BYLAYER
 70
0
 71
3
 72
13
 73
9
 74
0
 42
0.0000001
 43
0.0000001
 44
0.0000000001
 40
0.0
 40
0.0
 40
0.0
 40
0.0
 40
0.1141731067
 40
0.2375638948
 40
0.4999994775
 40
0.762435346
 40
0.8858264687
 40
1.0
 40
1.0
 40
1.0
 40
1.0
 10
34.7938509338
 20
43.2493306483
 30
0.0
 10
34.7745024493
 20
43.2381598622
 30
0.0
 10
34.7321469896
 20
43.2184594769
 30
0.0
 10
34.6383178999
 20
43.1899119844
 30
0.0
 10
34.5110086643
 20
43.1761159511
 30
0.0
 10
34.3836993066
 20
43.1899113958
 30
0.0
 10
34.2898698649
 20
43.2184584266
 30
0.0
 10
34.2475141459
 20
43.2381586005
 30
0.0
 10
34.2281655089
 20
43.2493292885
 30
0.0
  0
SPLINE
  5
2A7
100
AcDbEntity
  8
0
100
AcDbSpline
 62
7
  6
BYLAYER
 70
0
 71
3
 72
11
 73
7
 74
0
 42
0.0000001
 43
0.0000001
 44
0.0000000001
 40
0.0
 40
0.0
 40
0.0
 40
0.0
 40
0.2372539654
 40
0.5000012591
 40
0.7627478695
 40
1.0
 40
1.0
 40
1.0
 40
1.0
 10
60.5677858003
 20
58.1298300569
 30
0.0
 10
60.5677858003
 20
58.1762004102
 30
0.0
 10
60.550400094
 20
58.27398962
 30
0.0
 10
60.4897577919
 20
58.4113801394
 30
0.0
 10
60.4010948967
 20
58.5325924591
 30
0.0
 10
60.3250997306
 20
58.5965427216
 30
0.0
 10
60.2849419102
 20
58.6197273256
 30
0.0
  0
SPLINE
  5
2A8
100
AcDbEntity
  8
0
100
AcDbSpline
 62
7
  6
BYLAYER
 70
0
 71
3
 72
11
 73
7
 74
0
 42
0.0000001
 43
0.0000001
 44
0.0000000001
 40
0.0
 40
0.0
 40
0.0
 40
0.0
 40
0.217745073
 40
0.4508830113
 40
0.7104597664
 40
1.0
 40
1.0
 40
1.0
 40
1.0
 10
60.4849298241
 20
36.5543717341
 30
0.0
 10
60.498121882
 20
36.5619881331
 30
0.0
 10
60.5228291878
 20
36.5827118698
 30
0.0
 10
60.5491117521
 20
36.6257043568
 30
0.0
 10
60.5646930045
 20
36.6786686754
 30
0.0
 10
60.5677858003
 20
36.717211276
 30
0.0
 10
60.5677858003
 20
36.7374667281
 30
0.0
  0
SPLINE
  5
2A9
100
AcDbEntity
  8
0
100
AcDbSpline
 62
7
  6
BYLAYER
 70
0
 71
3
 72
11
 73
7
 74
0
 42
0.0000001
 43
0.0000001
 44
0.0000000001
 40
0.0
 40
0.0
 40
0.0
 40
0.0
 40
0.2895391946
 40
0.5491157945
 40
0.7822541179
 40
1.0
 40
1.0
 40
1.0
 40
1.0
 10
33.9804601347
 20
73.8062833937
 30
0.0
 10
33.9629188316
 20
73.8164106407
 30
0.0
 10
33.9279944083
 20
73.8330026643
 30
0.0
 10
33.8743367341
 20
73.8459902912
 30
0.0
 10
33.8239641696
 20
73.8447249093
 30
0.0
 10
33.7936639748
 20
73.8336899463
 30
0.0
 10
33.7804722208
 20
73.8260737227
 30
0.0
  0
SPLINE
  5
2AA
100
AcDbEntity
  8
0
100
AcDbSpline
 62
7
  6
BYLAYER
 70
0
 71
3
 72
9
 73
5
 74
0
 42
0.0000001
 43
0.0000001
 44
0.0000000001
 40
0.0
 40
0.0
 40
0.0
 40
0.0
 40
0.7471535551
 40
1.0
 40
1.0
 40
1.0
 40
1.0
 10
11.9663188425
 20
61.2317415756
 30
0.0
 10
11.9741689256
 20
61.2362737943
 30
0.0
 10
11.985341357
 20
61.2412826168
 30
0.0
 10
11.9969718464
 20
61.2447448373
 30
0.0
 10
11.9999385357
 20
61.2455249286
 30
0.0
  0
SPLINE
  5
2AB
100
AcDbEntity
  8
0
100
AcDbSpline
 62
7
  6
BYLAYER
 70
0
 71
3
 72
9
 73
5
 74
0
 42
0.0000001
 43
0.0000001
 44
0.0000000001
 40
0.0
 40
0.0
 40
0.0
 40
0.0
 40
0.2528470843
 40
1.0
 40
1.0
 40
1.0
 40
1.0
 10
38.6995260184
 20
23.9822661722
 30
0.0
 10
38.6973669005
 20
23.9800866882
 30
0.0
 10
38.6885524712
 20
23.9717443835
 30
0.0
 10
38.6786274008
 20
23.9645723091
 30
0.0
 10
38.6707764464
 20
23.9600395873
 30
0.0
  0
ENDSEC
  0
SECTION
  2
OBJECTS
  0
DICTIONARY
  5
C
100
AcDbDictionary
280
0
281
1
  3
ACAD_GROUP
350
D
  3
ACAD_MLINESTYLE
350
17
  3
ACAD_LAYOUT
350
1A
  3
ACAD_PLOTSETTINGS
350
19
  3
ACAD_PLOTSTYLENAME
350
E
  0
DICTIONARY
  5
D
102
{ACAD_REACTORS
330
C
102
}
100
AcDbDictionary
280
0
281
1
  0
ACDBDICTIONARYWDFLT
  5
E
102
{ACAD_REACTORS
330
C
102
}
100
AcDbDictionary
281
1
  3
Normal
350
F
100
AcDbDictionaryWithDefault
340
F
  0
DICTIONARY
  5
17
102
{ACAD_REACTORS
330
C
102
}
100
AcDbDictionary
280
0
281
1
  3
Standard
350
18
  0
DICTIONARY
  5
19
102
{ACAD_REACTORS
330
C
102
}
100
AcDbDictionary
281
1
  0
DICTIONARY
  5
1A
102
{ACAD_REACTORS
330
C
102
}
100
AcDbDictionary
281
1
  3
Model
350
2AC
  3
Layout1
350
2AD
  0
ACDBPLACEHOLDER
  5
F
102
{ACAD_REACTORS
330
E
102
}
  0
MLINESTYLE
  5
18
102
{ACAD_REACTORS
330
17
102
}
100
AcDbMlineStyle
  2
STANDARD
 70
0
  3

 62
256
 51
90.0
 52
90.0
 71
2
 49
0.5
 62
256
  6
BYLAYER
 49
-0.5
 62
256
  6
BYLAYER
  0
LAYOUT
  5
2AC
102
{ACAD_REACTORS
330
1A
102
}
100
AcDbPlotSettings
  1

  2
none_device
  4

  6

 40
0.0
 41
0.0
 42
0.0
 43
0.0
 44
210.0
 45
297.0
 46
0.0
 47
0.0
 48
0.0
 49
0.0
140
0.0
141
0.0
142
1.0
143
1.0
 70
1024
 72
1
 73
0
 74
0
  7

 75
0
147
1.0
148
0.0
149
0.0
100
AcDbLayout
  1
Model
 70
0
 71
0
 10
0.0
 20
0.0
 11
210.0
 21
297.0
 12
0.0
 22
0.0
 32
0.0
 14
0.0
 24
0.0
 34
0.0
 15
0.0
 25
0.0
 35
0.0
146
0.0
 13
0.0
 23
0.0
 33
0.0
 16
1.0
 26
0.0
 36
0.0
 17
0.0
 27
1.0
 37
0.0
 76
0
330
210
345
0
346
0
  0
LAYOUT
  5
2AD
102
{ACAD_REACTORS
330
1A
102
}
100
AcDbPlotSettings
  1

  2
none_device
  4

  6

 40
0.0
 41
0.0
 42
0.0
 43
0.0
 44
210.0
 45
297.0
 46
0.0
 47
0.0
 48
0.0
 49
0.0
140
0.0
141
0.0
142
1.0
143
1.0
 70
0
 72
1
 73
0
 74
0
  7

 75
0
147
1.0
148
0.0
149
0.0
100
AcDbLayout
  1
Layout1
 70
0
 71
1
 10
0.0
 20
0.0
 11
210.0
 21
297.0
 12
0.0
 22
0.0
 32
0.0
 14
0.0
 24
0.0
 34
0.0
 15
0.0
 25
0.0
 35
0.0
146
0.0
 13
0.0
 23
0.0
 33
0.0
 16
1.0
 26
0.0
 36
0.0
 17
0.0
 27
1.0
 37
0.0
 76
0
330
211
345
0
346
0
  0
ENDSEC
  0
EOF
