999
DXF file: C:\Users\sesa63760\OneDrive - Schneider Electric\Documents\7-Dev\_Creo\CAD\MCADPP0000101_3D-CAD\drw0001_1.dxf
999
Pro/ENGINEER 2019471 by Parametric Technology Corporation
  0
SECTION
  2
HEADER
  9
$ACADVER
  1
AC1024
  9
$DWGCODEPAGE
  3
ANSI_1252
  9
$EXTMAX
 10
592.7214257898
 20
838.2774450455
 30
0.0
  9
$EXTMIN
 10
0.0
 20
0.0
 30
0.0
  9
$LIMMIN
 10
0.0
 20
0.0
  9
$LIMMAX
 10
592.7214257898
 20
838.2774450455
  9
$VIEWCTR
 10
296.3607128949
 20
419.1387225228
  9
$VIEWSIZE
 40
838.2774450455
  9
$CLAYER
  8
0
  9
$LTSCALE
 40
54.6432704919
  9
$CELTYPE
  6
BYLAYER
  9
$DIMSCALE
 40
1.0
  9
$DIMASZ
 40
7.0562074499
  9
$DIMEXO
 40
1.0
  9
$DIMDLI
 40
37.7535323398
  9
$DIMEXE
 40
1.0
  9
$DIMCEN
 40
8.9416260805
  9
$DIMLFAC
 40
1.0
  9
$DIMBLK
  1
_FILLED
  9
$DIMALT
 70
0
  9
$DIMALTF
 40
0.0393700787
  9
$DIMTXT
 40
9.8786904298
  9
$DIMTOL
 70
1
  9
$DIMLIM
 70
0
  9
$DIMTFAC
 40
1.0
  9
$DIMTP
 40
0.01
  9
$DIMTM
 40
0.01
  9
$DIMGAP
 40
0.625
  9
$DIMDSEP
 70
46
  9
$AUNITS
 70
0
  9
$PDMODE
 70
3
  9
$PDSIZE
 40
0.3125
  9
$HANDSEED
  5
36A
  9
$TILEMODE
 70
1
  9
$MEASUREMENT
 70
1
  9
$INSUNITS
 70
4
  0
ENDSEC
  0
SECTION
  2
CLASSES
  0
CLASS
  1
ACDBDICTIONARYWDFLT
  2
AcDbDictionaryWithDefault
  3
AutoCAD 2000
 90
0
 91
1
280
0
281
0
  0
CLASS
  1
ACDBPLACEHOLDER
  2
AcDbPlaceHolder
  3
AutoCAD 2000
 90
0
 91
1
280
0
281
0
  0
CLASS
  1
LAYOUT
  2
AcDbLayout
  3
AutoCAD 2000
 90
0
 91
0
280
0
281
0
  0
ENDSEC
  0
SECTION
  2
TABLES
  0
TABLE
  2
VPORT
  5
8
100
AcDbSymbolTable
 70
2
  0
VPORT
  5
1F4
100
AcDbSymbolTableRecord
100
AcDbViewportTableRecord
  2
*ACTIVE
 70
0
 10
0.0
 20
0.0
 11
1.0
 21
1.0
 12
296.3607128949
 22
419.1387225228
 13
0.0
 23
0.0
 14
1.0
 24
1.0
 15
0.0
 25
0.0
 16
0.0
 26
0.0
 36
1.0
 17
0.0
 27
0.0
 37
0.0
 40
838.2774450455
 41
0.7070707071
 42
50.0
 43
0.0
 44
0.0
 50
0.0
 51
0.0
 71
0
 72
100
 73
1
 74
1
 75
0
 76
0
 77
0
 78
0
  0
ENDTAB
  0
TABLE
  2
LTYPE
  5
5
100
AcDbSymbolTable
 70
6
  0
LTYPE
  5
14
100
AcDbSymbolTableRecord
100
AcDbLinetypeTableRecord
  2
BYBLOCK
 70
0
  3

 72
65
 73
0
 40
0.0
  0
LTYPE
  5
15
100
AcDbSymbolTableRecord
100
AcDbLinetypeTableRecord
  2
BYLAYER
 70
0
  3

 72
65
 73
0
 40
0.0
  0
LTYPE
  5
16
100
AcDbSymbolTableRecord
100
AcDbLinetypeTableRecord
  2
CONTINUOUS
 70
64
  3
Solid line
 72
65
 73
0
 40
0.0
  0
LTYPE
  5
1F5
100
AcDbSymbolTableRecord
100
AcDbLinetypeTableRecord
  2
CENTER
 70
64
  3
____ _ ____ _ ____ _ ____ _ ____ _ ____ _ ____
 72
65
 73
4
 40
0.6
 49
0.375
 74
0
 49
-0.075
 74
0
 49
0.075
 74
0
 49
-0.075
 74
0
  0
LTYPE
  5
1F6
100
AcDbSymbolTableRecord
100
AcDbLinetypeTableRecord
  2
HIDDEN
 70
64
  3
- - - - - - - - - - - - - - - - - - - -
 72
65
 73
2
 40
0.2
 49
0.1
 74
0
 49
-0.1
 74
0
  0
LTYPE
  5
1F7
100
AcDbSymbolTableRecord
100
AcDbLinetypeTableRecord
  2
PHANTOM
 70
64
  3
_____ _ _ _____ _ _ _____ _ _ _____
 72
65
 73
6
 40
0.8
 49
0.45
 74
0
 49
-0.05
 74
0
 49
0.1
 74
0
 49
-0.05
 74
0
 49
0.1
 74
0
 49
-0.05
 74
0
  0
LTYPE
  5
1F8
100
AcDbSymbolTableRecord
100
AcDbLinetypeTableRecord
  2
DOT
 70
64
  3
. . . . . . . . . . . . . . . . . . . .
 72
65
 73
2
 40
0.2
 49
0.1
 74
0
 49
-0.1
 74
0
  0
LTYPE
  5
1F9
100
AcDbSymbolTableRecord
100
AcDbLinetypeTableRecord
  2
DASHED
 70
64
  3
- - - - - - - - - - - - - - - - - - - -
 72
65
 73
2
 40
0.2
 49
0.1
 74
0
 49
-0.1
 74
0
  0
ENDTAB
  0
TABLE
  2
LAYER
  5
2
100
AcDbSymbolTable
 70
36
  0
LAYER
  5
10
100
AcDbSymbolTableRecord
100
AcDbLayerTableRecord
  2
0
 70
0
 62
7
  6
CONTINUOUS
370
-3
390
F
  0
LAYER
  5
1FA
100
AcDbSymbolTableRecord
100
AcDbLayerTableRecord
  2
DEFAULT_1
 70
0
 62
7
  6
CENTER
370
-3
390
F
  0
LAYER
  5
1FB
100
AcDbSymbolTableRecord
100
AcDbLayerTableRecord
  2
DEFAULT_2
 70
0
 62
8
  6
HIDDEN
370
-3
390
F
  0
LAYER
  5
1FC
100
AcDbSymbolTableRecord
100
AcDbLayerTableRecord
  2
DEFAULT_3
 70
0
 62
7
  6
PHANTOM
370
-3
390
F
  0
LAYER
  5
1FD
100
AcDbSymbolTableRecord
100
AcDbLayerTableRecord
  2
00_COMPONENTS
 70
0
 62
7
  6
CONTINUOUS
370
-3
390
F
  0
LAYER
  5
1FE
100
AcDbSymbolTableRecord
100
AcDbLayerTableRecord
  2
01_1_DEFAULT_DATUMS
 70
0
 62
7
  6
CONTINUOUS
370
-3
390
F
  0
LAYER
  5
1FF
100
AcDbSymbolTableRecord
100
AcDbLayerTableRecord
  2
01_PLANES
 70
0
 62
7
  6
CONTINUOUS
370
-3
390
F
  0
LAYER
  5
200
100
AcDbSymbolTableRecord
100
AcDbLayerTableRecord
  2
02_COORD_SYS
 70
0
 62
7
  6
CONTINUOUS
370
-3
390
F
  0
LAYER
  5
201
100
AcDbSymbolTableRecord
100
AcDbLayerTableRecord
  2
03_AXES
 70
0
 62
7
  6
CONTINUOUS
370
-3
390
F
  0
LAYER
  5
202
100
AcDbSymbolTableRecord
100
AcDbLayerTableRecord
  2
04_POINTS
 70
0
 62
7
  6
CONTINUOUS
370
-3
390
F
  0
LAYER
  5
203
100
AcDbSymbolTableRecord
100
AcDbLayerTableRecord
  2
05_CURVES
 70
0
 62
7
  6
CONTINUOUS
370
-3
390
F
  0
LAYER
  5
204
100
AcDbSymbolTableRecord
100
AcDbLayerTableRecord
  2
06_SURFS
 70
0
 62
7
  6
CONTINUOUS
370
-3
390
F
  0
LAYER
  5
205
100
AcDbSymbolTableRecord
100
AcDbLayerTableRecord
  2
07_COSMETICS
 70
0
 62
7
  6
CONTINUOUS
370
-3
390
F
  0
LAYER
  5
206
100
AcDbSymbolTableRecord
100
AcDbLayerTableRecord
  2
10_NOTES
 70
0
 62
7
  6
CONTINUOUS
370
-3
390
F
  0
LAYER
  5
207
100
AcDbSymbolTableRecord
100
AcDbLayerTableRecord
  2
11_NOTES_PUB
 70
0
 62
7
  6
CONTINUOUS
370
-3
390
F
  0
LAYER
  5
208
100
AcDbSymbolTableRecord
100
AcDbLayerTableRecord
  2
13_REF_GTOL
 70
0
 62
7
  6
CONTINUOUS
370
-3
390
F
  0
LAYER
  5
209
100
AcDbSymbolTableRecord
100
AcDbLayerTableRecord
  2
16_MISC
 70
0
 62
7
  6
CONTINUOUS
370
-3
390
F
  0
LAYER
  5
20A
100
AcDbSymbolTableRecord
100
AcDbLayerTableRecord
  2
17_NO_PRINT
 70
0
 62
7
  6
CONTINUOUS
370
-3
390
F
  0
LAYER
  5
20B
100
AcDbSymbolTableRecord
100
AcDbLayerTableRecord
  2
18_DATUM_CAMS_JOINTS
 70
0
 62
7
  6
CONTINUOUS
370
-3
390
F
  0
LAYER
  5
20C
100
AcDbSymbolTableRecord
100
AcDbLayerTableRecord
  2
19_DATUM_FUNCTIONAL
 70
0
 62
7
  6
CONTINUOUS
370
-3
390
F
  0
LAYER
  5
20D
100
AcDbSymbolTableRecord
100
AcDbLayerTableRecord
  2
20_DATUM_KINEMATIC_SCHEME
 70
0
 62
7
  6
CONTINUOUS
370
-3
390
F
  0
ENDTAB
  0
TABLE
  2
STYLE
  5
3
100
AcDbSymbolTable
 70
1
  0
STYLE
  5
11
100
AcDbSymbolTableRecord
100
AcDbTextStyleTableRecord
  2
STANDARD
 70
0
 40
0.0
 41
0.8
 50
0.0
 71
0
 42
0.2
  3
txt
  4

  0
STYLE
  5
20E
100
AcDbSymbolTableRecord
100
AcDbTextStyleTableRecord
  2
TEXTSTYLE_1
 70
0
 40
0.0
 41
0.8
 50
0.0
 71
0
 42
0.2
  3
gdt
  4

  0
ENDTAB
  0
TABLE
  2
VIEW
  5
6
100
AcDbSymbolTable
 70
0
  0
ENDTAB
  0
TABLE
  2
UCS
  5
7
100
AcDbSymbolTable
 70
0
  0
ENDTAB
  0
TABLE
  2
APPID
  5
9
100
AcDbSymbolTable
 70
1
  0
APPID
  5
20F
100
AcDbSymbolTableRecord
100
AcDbRegAppTableRecord
  2
ACAD
 70
0
  0
ENDTAB
  0
TABLE
  2
BLOCK_RECORD
  5
1
100
AcDbSymbolTable
 70
0
  0
BLOCK_RECORD
  5
210
100
AcDbSymbolTableRecord
100
AcDbBlockTableRecord
  2
*Model_Space
  0
BLOCK_RECORD
  5
211
100
AcDbSymbolTableRecord
100
AcDbBlockTableRecord
  2
*Paper_Space
  0
BLOCK_RECORD
  5
212
100
AcDbSymbolTableRecord
100
AcDbBlockTableRecord
  2
_FILLED
  0
ENDTAB
  0
TABLE
  2
DIMSTYLE
  5
A
100
AcDbSymbolTable
 70
1
100
AcDbDimStyleTable
 71
0
  0
DIMSTYLE
105
213
100
AcDbSymbolTableRecord
100
AcDbDimStyleTableRecord
  2
STANDARD
 70
0
  3

  4

 40
1.0
 41
7.0562074499
 42
1.0
 43
0.38
 44
1.0
 45
0.0
 46
0.0
 47
0.01
 48
0.01
140
9.8786904298
141
0.09
142
0.0
143
25.4
144
1.0
145
0.0
146
1.0
147
0.625
 71
1
 72
0
 73
0
 74
0
 75
0
 76
0
 77
1
 78
8
 79
2
170
0
171
1
172
0
173
0
174
0
175
0
176
0
177
0
178
0
270
2
179
2
271
2
272
2
273
2
274
2
275
0
280
0
281
0
282
0
283
1
284
8
285
0
286
0
287
3
288
0
340
11
278
46
341
212
342
212
343
212
344
212
  0
ENDTAB
  0
ENDSEC
  0
SECTION
  2
BLOCKS
  0
BLOCK
  5
20
100
AcDbEntity
  8
0
100
AcDbBlockBegin
  2
*Model_Space
 70
0
 10
0.0
 20
0.0
 30
0.0
  3
*Model_Space
  1

  0
ENDBLK
  5
21
100
AcDbEntity
  8
0
100
AcDbBlockEnd
  0
BLOCK
  5
1C
100
AcDbEntity
  8
0
100
AcDbBlockBegin
  2
*Paper_Space
 70
0
 10
0.0
 20
0.0
 30
0.0
  3
*Paper_Space
  1

  0
ENDBLK
  5
1D
100
AcDbEntity
  8
0
100
AcDbBlockEnd
  0
BLOCK
  5
214
100
AcDbEntity
  8
0
100
AcDbBlockBegin
  2
_FILLED
 70
64
 10
0.0
 20
0.0
  3
_FILLED
  1

  0
SOLID
  5
215
100
AcDbEntity
  8
0
  6
BYBLOCK
 62
0
100
AcDbTrace
 10
0.0
 20
0.0
 11
-1.0
 21
0.25
 12
-1.0
 22
-0.25
 13
-1.0
 23
-0.25
  0
ENDBLK
  5
216
100
AcDbEntity
  8
0
  6
BYBLOCK
 62
0
100
AcDbBlockEnd
  0
ENDSEC
  0
SECTION
  2
ENTITIES
  0
LINE
  5
217
100
AcDbEntity
  8
0
100
AcDbLine
 62
7
  6
CONTINUOUS
 10
102.3156733258
 20
267.0714871042
 11
132.9225192693
 21
249.4010161192
  0
LINE
  5
218
100
AcDbEntity
  8
0
100
AcDbLine
 62
7
  6
CONTINUOUS
 10
101.9794884143
 20
269.7640125802
 11
98.4437192467
 21
271.8053436798
  0
LINE
  5
219
100
AcDbEntity
  8
0
100
AcDbLine
 62
7
  6
CONTINUOUS
 10
82.0530276251
 20
342.5059811038
 11
82.0530276251
 21
293.2428546084
  0
LINE
  5
21A
100
AcDbEntity
  8
0
100
AcDbLine
 62
7
  6
CONTINUOUS
 10
101.4278166625
 20
292.6754994357
 11
98.5047723377
 21
294.9584491154
  0
LINE
  5
21B
100
AcDbEntity
  8
0
100
AcDbLine
 62
7
  6
CONTINUOUS
 10
105.5091682803
 20
306.1091472763
 11
108.4322126051
 21
303.8261975965
  0
LINE
  5
21C
100
AcDbEntity
  8
0
100
AcDbLine
 62
7
  6
CONTINUOUS
 10
132.9225192693
 20
310.6386974039
 11
102.3156733258
 21
328.3091683889
  0
LINE
  5
21D
100
AcDbEntity
  8
0
100
AcDbLine
 62
7
  6
CONTINUOUS
 10
104.4794110677
 20
329.5583954998
 11
82.0530276251
 21
342.5059811038
  0
LINE
  5
21E
100
AcDbEntity
  8
0
100
AcDbLine
 62
7
  6
CONTINUOUS
 10
132.9225192693
 20
249.4010161192
 11
132.9225192693
 21
310.6386974039
  0
LINE
  5
21F
100
AcDbEntity
  8
0
100
AcDbLine
 62
7
  6
CONTINUOUS
 10
144.5581250418
 20
256.1187961444
 11
144.5581250418
 21
317.3564774291
  0
LINE
  5
220
100
AcDbEntity
  8
0
100
AcDbLine
 62
7
  6
CONTINUOUS
 10
110.7389891141
 20
290.9230697283
 11
110.7330480112
 21
290.8991043958
  0
LINE
  5
221
100
AcDbEntity
  8
0
100
AcDbLine
 62
7
  6
CONTINUOUS
 10
144.5581250418
 20
317.3564774291
 11
91.5248956558
 21
347.9745340181
  0
LINE
  5
222
100
AcDbEntity
  8
0
100
AcDbLine
 62
7
  6
CONTINUOUS
 10
110.7495367631
 20
290.9174332735
 11
110.7417260869
 21
290.89444054
  0
LINE
  5
223
100
AcDbEntity
  8
0
100
AcDbLine
 62
7
  6
CONTINUOUS
 10
103.4989062614
 20
304.4215967072
 11
97.4092309737
 21
294.7270946279
  0
LINE
  5
224
100
AcDbEntity
  8
0
100
AcDbLine
 62
7
  6
CONTINUOUS
 10
98.5047723377
 20
294.9584491154
 11
105.5091682803
 21
306.1091472763
  0
LINE
  5
225
100
AcDbEntity
  8
0
100
AcDbLine
 62
7
  6
CONTINUOUS
 10
108.4322126051
 20
303.8261975965
 11
101.4278166625
 21
292.6754994357
  0
LINE
  5
226
100
AcDbEntity
  8
0
100
AcDbLine
 62
7
  6
CONTINUOUS
 10
86.9406332493
 20
313.6650071751
 11
93.5204022773
 21
319.1885125009
  0
LINE
  5
227
100
AcDbEntity
  8
0
100
AcDbLine
 62
7
  6
CONTINUOUS
 10
452.5546878975
 20
585.3387459302
 11
459.2721743511
 21
589.217065392
  0
LINE
  5
228
100
AcDbEntity
  8
0
100
AcDbLine
 62
7
  6
CONTINUOUS
 10
462.5696416426
 20
590.9222555158
 11
455.8521551891
 21
587.0439360541
  0
LINE
  5
229
100
AcDbEntity
  8
0
100
AcDbLine
 62
7
  6
CONTINUOUS
 10
449.0545239033
 20
578.7618538809
 11
452.5546878975
 21
580.7826624426
  0
LINE
  5
22A
100
AcDbEntity
  8
0
100
AcDbLine
 62
7
  6
CONTINUOUS
 10
92.1372604553
 20
299.8870286824
 11
68.7625048136
 21
280.2646700974
  0
LINE
  5
22B
100
AcDbEntity
  8
0
100
AcDbLine
 62
7
  6
CONTINUOUS
 10
105.5091682803
 20
306.1091472763
 11
103.4989062614
 21
304.4215967072
  0
LINE
  5
22C
100
AcDbEntity
  8
0
100
AcDbLine
 62
7
  6
CONTINUOUS
 10
101.4944581509
 20
302.0890448177
 11
101.015610377
 21
301.6870674507
  0
LINE
  5
22D
100
AcDbEntity
  8
0
100
AcDbLine
 62
7
  6
CONTINUOUS
 10
429.0435250537
 20
555.9817542748
 11
453.8275145481
 21
570.290711868
  0
LINE
  5
22E
100
AcDbEntity
  8
0
100
AcDbLine
 62
7
  6
CONTINUOUS
 10
91.5248956558
 20
347.9745340181
 11
82.0530276251
 21
342.5059811038
  0
LINE
  5
22F
100
AcDbEntity
  8
0
100
AcDbLine
 62
7
  6
CONTINUOUS
 10
98.5047723377
 20
294.9584491154
 11
97.2291055412
 21
293.8875677039
  0
LINE
  5
230
100
AcDbEntity
  8
0
100
AcDbLine
 62
7
  6
CONTINUOUS
 10
101.4278166625
 20
292.6754994357
 11
100.0474601707
 21
291.5167343785
  0
LINE
  5
231
100
AcDbEntity
  8
0
100
AcDbLine
 62
7
  6
CONTINUOUS
 10
107.1644782044
 20
292.3504587646
 11
107.6433259783
 21
292.7524361316
  0
LINE
  5
232
100
AcDbEntity
  8
0
100
AcDbLine
 62
7
  6
CONTINUOUS
 10
101.448614619
 20
285.7284179961
 11
78.0908202531
 21
266.1202978588
  0
LINE
  5
233
100
AcDbEntity
  8
0
100
AcDbLine
 62
7
  6
CONTINUOUS
 10
79.7688457087
 20
267.1889918692
 11
103.1527055999
 21
286.8189931799
  0
LINE
  5
234
100
AcDbEntity
  8
0
100
AcDbLine
 62
7
  6
CONTINUOUS
 10
98.6464967373
 20
301.4160636526
 11
98.0393471141
 21
300.99242847
  0
LINE
  5
235
100
AcDbEntity
  8
0
100
AcDbLine
 62
7
  6
CONTINUOUS
 10
488.2882673776
 20
566.3139072711
 11
487.9591172942
 21
566.1238735162
  0
LINE
  5
236
100
AcDbEntity
  8
0
100
AcDbLine
 62
7
  6
CONTINUOUS
 10
488.9354761908
 20
564.0244671811
 11
488.2283723536
 21
563.6162230273
  0
LINE
  5
237
100
AcDbEntity
  8
0
100
AcDbLine
 62
7
  6
CONTINUOUS
 10
489.9961407785
 20
564.2286084665
 11
489.2890369413
 21
563.8203643126
  0
LINE
  5
238
100
AcDbEntity
  8
0
100
AcDbLine
 62
7
  6
CONTINUOUS
 10
489.9961407785
 20
563.4121060493
 11
489.2890369413
 21
563.0038618955
  0
LINE
  5
239
100
AcDbEntity
  8
0
100
AcDbLine
 62
7
  6
CONTINUOUS
 10
490.7032505037
 20
563.0038652948
 11
489.9961466665
 21
562.595621141
  0
LINE
  5
23A
100
AcDbEntity
  8
0
100
AcDbLine
 62
7
  6
CONTINUOUS
 10
489.9961407785
 20
562.1873524236
 11
489.2890369413
 21
561.7791082698
  0
LINE
  5
23B
100
AcDbEntity
  8
0
100
AcDbLine
 62
7
  6
CONTINUOUS
 10
491.6453767574
 20
560.4764648076
 11
491.3260663136
 21
560.2921119374
  0
LINE
  5
23C
100
AcDbEntity
  8
0
100
AcDbLine
 62
7
  6
CONTINUOUS
 10
498.5875310046
 20
562.3712134946
 11
505.3050174581
 21
566.2495329564
  0
LINE
  5
23D
100
AcDbEntity
  8
0
100
AcDbLine
 62
7
  6
CONTINUOUS
 10
104.4794110677
 20
329.5583954998
 11
102.3156733258
 21
328.3091683889
  0
LINE
  5
23E
100
AcDbEntity
  8
0
100
AcDbLine
 62
7
  6
CONTINUOUS
 10
511.881137902
 20
562.4528939394
 11
505.1636514485
 21
558.5745744776
  0
LINE
  5
23F
100
AcDbEntity
  8
0
100
AcDbLine
 62
7
  6
CONTINUOUS
 10
95.4560973287
 20
320.7612660494
 11
91.0006044026
 21
318.188901364
  0
LINE
  5
240
100
AcDbEntity
  8
0
100
AcDbLine
 62
7
  6
CONTINUOUS
 10
122.9207185445
 20
275.2904163025
 11
116.3387130449
 21
269.7650335304
  0
LINE
  5
241
100
AcDbEntity
  8
0
100
AcDbLine
 62
7
  6
CONTINUOUS
 10
105.7440389021
 20
290.638961967
 11
106.3651031384
 21
291.0745886159
  0
LINE
  5
242
100
AcDbEntity
  8
0
100
AcDbLine
 62
7
  6
CONTINUOUS
 10
455.1728063428
 20
517.3469174101
 11
456.2476041753
 21
517.967448524
  0
LINE
  5
243
100
AcDbEntity
  8
0
100
AcDbLine
 62
7
  6
CONTINUOUS
 10
450.2711617165
 20
510.3600527233
 11
456.9727982844
 21
514.229221304
  0
LINE
  5
244
100
AcDbEntity
  8
0
100
AcDbLine
 62
7
  6
CONTINUOUS
 10
452.9097952651
 20
511.8433272315
 11
450.7884837534
 21
510.6185947699
  0
LINE
  5
245
100
AcDbEntity
  8
0
100
AcDbLine
 62
7
  6
CONTINUOUS
 10
427.8058901708
 20
494.5781138367
 11
436.2911362174
 21
499.4770436832
  0
LINE
  5
246
100
AcDbEntity
  8
0
100
AcDbLine
 62
7
  6
CONTINUOUS
 10
451.9919762996
 20
508.5340961049
 11
454.1132878113
 21
509.7588285665
  0
LINE
  5
247
100
AcDbEntity
  8
0
100
AcDbLine
 62
7
  6
CONTINUOUS
 10
456.7640197578
 20
510.0267588183
 11
458.8853312694
 21
511.2514912799
  0
LINE
  5
248
100
AcDbEntity
  8
0
100
AcDbLine
 62
7
  6
CONTINUOUS
 10
449.4346430463
 20
505.7949778852
 11
447.3133315346
 21
504.5702454236
  0
LINE
  5
249
100
AcDbEntity
  8
0
100
AcDbLine
 62
7
  6
CONTINUOUS
 10
523.1501868838
 20
548.1902783264
 11
529.8676733374
 21
552.0685977881
  0
LINE
  5
24A
100
AcDbEntity
  8
0
100
AcDbLine
 62
7
  6
CONTINUOUS
 10
460.2995507197
 20
510.4350097709
 11
458.1782392081
 21
509.2102773093
  0
LINE
  5
24B
100
AcDbEntity
  8
0
100
AcDbLine
 62
7
  6
CONTINUOUS
 10
441.6664716057
 20
499.1163800459
 11
442.0337525253
 21
499.328428518
  0
LINE
  5
24C
100
AcDbEntity
  8
0
100
AcDbLine
 62
7
  6
CONTINUOUS
 10
455.3245843008
 20
503.3499368949
 11
446.5955147846
 21
498.7961654262
  0
LINE
  5
24D
100
AcDbEntity
  8
0
100
AcDbLine
 62
7
  6
CONTINUOUS
 10
458.1782392081
 20
507.2449763457
 11
460.2995507197
 21
508.4697088073
  0
LINE
  5
24E
100
AcDbEntity
  8
0
100
AcDbLine
 62
7
  6
CONTINUOUS
 10
137.5081632154
 20
321.426682707
 11
430.2105736621
 21
490.4174894318
  0
LINE
  5
24F
100
AcDbEntity
  8
0
100
AcDbLine
 62
7
  6
CONTINUOUS
 10
456.0569100302
 20
504.5781132316
 11
457.4764809341
 21
505.3976979828
  0
LINE
  5
250
100
AcDbEntity
  8
0
100
AcDbLine
 62
7
  6
CONTINUOUS
 10
533.1651406289
 20
546.5559065446
 11
526.4476541754
 21
542.6775870828
  0
LINE
  5
251
100
AcDbEntity
  8
0
100
AcDbLine
 62
7
  6
CONTINUOUS
 10
462.9502826662
 20
502.207458102
 11
466.275086724
 21
504.1270471755
  0
LINE
  5
252
100
AcDbEntity
  8
0
100
AcDbLine
 62
7
  6
CONTINUOUS
 10
522.9474901812
 20
536.1006950336
 11
526.4476541754
 21
538.1215035952
  0
LINE
  5
253
100
AcDbEntity
  8
0
100
AcDbLine
 62
7
  6
CONTINUOUS
 10
493.3905100421
 20
518.8318456135
 11
518.1744995364
 21
533.1408032067
  0
LINE
  5
254
100
AcDbEntity
  8
0
100
AcDbLine
 62
7
  6
CONTINUOUS
 10
144.5581250418
 20
317.3564774291
 11
132.9225192693
 21
310.6386974039
  0
LINE
  5
255
100
AcDbEntity
  8
0
100
AcDbLine
 62
7
  6
CONTINUOUS
 10
144.5686925717
 20
317.3381738211
 11
437.325866035
 21
486.3605977995
  0
LINE
  5
256
100
AcDbEntity
  8
0
100
AcDbLine
 62
7
  6
CONTINUOUS
 10
467.2750908874
 20
502.3949987717
 11
463.9502868296
 21
500.4754096982
  0
LINE
  5
257
100
AcDbEntity
  8
0
100
AcDbLine
 62
7
  6
CONTINUOUS
 10
144.5581250418
 20
309.16704852
 11
437.370059629
 21
478.2210886593
  0
LINE
  5
258
100
AcDbEntity
  8
0
100
AcDbLine
 62
7
  6
CONTINUOUS
 10
468.0482434619
 20
495.048653789
 11
465.9269319502
 21
493.8239213274
  0
LINE
  5
259
100
AcDbEntity
  8
0
100
AcDbLine
 62
7
  6
CONTINUOUS
 10
450.6085213982
 20
483.7703981932
 11
450.9142301898
 21
483.9468981928
  0
LINE
  5
25A
100
AcDbEntity
  8
0
100
AcDbLine
 62
7
  6
CONTINUOUS
 10
467.6289274312
 20
492.8412960083
 11
469.7502389429
 21
494.0660284699
  0
LINE
  5
25B
100
AcDbEntity
  8
0
100
AcDbLine
 62
7
  6
CONTINUOUS
 10
91.000677351
 20
318.1887761458
 11
93.5204022773
 21
319.1885125009
  0
LINE
  5
25C
100
AcDbEntity
  8
0
100
AcDbLine
 62
7
  6
CONTINUOUS
 10
461.0424236003
 20
493.4462896022
 11
452.7359818558
 21
488.1647681684
  0
LINE
  5
25D
100
AcDbEntity
  8
0
100
AcDbLine
 62
7
  6
CONTINUOUS
 10
469.7502389429
 20
492.4330236356
 11
467.6289274312
 21
491.208291174
  0
LINE
  5
25E
100
AcDbEntity
  8
0
100
AcDbLine
 62
7
  6
CONTINUOUS
 10
458.1782392081
 20
485.7517777793
 11
460.2995507197
 21
486.9765102409
  0
LINE
  5
25F
100
AcDbEntity
  8
0
100
AcDbLine
 62
7
  6
CONTINUOUS
 10
439.6863544047
 20
474.0004233347
 11
448.1716004512
 21
478.8993531811
  0
LINE
  5
260
100
AcDbEntity
  8
0
100
AcDbLine
 62
7
  6
CONTINUOUS
 10
466.0715983413
 20
489.0465421346
 11
463.9502868296
 21
487.821809673
  0
LINE
  5
261
100
AcDbEntity
  8
0
100
AcDbLine
 62
7
  6
CONTINUOUS
 10
465.1537793758
 20
485.737311008
 11
467.2750908874
 21
486.9620434696
  0
LINE
  5
262
100
AcDbEntity
  8
0
100
AcDbLine
 62
7
  6
CONTINUOUS
 10
464.6710972494
 20
485.4184838743
 11
471.3727338173
 21
489.287652455
  0
LINE
  5
263
100
AcDbEntity
  8
0
100
AcDbLine
 62
7
  6
CONTINUOUS
 10
473.1727257589
 20
486.1699563489
 11
474.2475235915
 21
486.7904874628
  0
LINE
  5
264
100
AcDbEntity
  8
0
100
AcDbLine
 62
7
  6
CONTINUOUS
 10
520.331174483
 20
509.8092496326
 11
519.6240706458
 21
509.4010054787
  0
LINE
  5
265
100
AcDbEntity
  8
0
100
AcDbLine
 62
7
  6
CONTINUOUS
 10
521.3918390708
 20
510.013390918
 11
520.6847352335
 21
509.6051467641
  0
LINE
  5
266
100
AcDbEntity
  8
0
100
AcDbLine
 62
7
  6
CONTINUOUS
 10
524.8213153498
 20
511.2994154183
 11
522.9474901812
 21
510.2175684106
  0
LINE
  5
267
100
AcDbEntity
  8
0
100
AcDbLine
 62
7
  6
CONTINUOUS
 10
521.3918390708
 20
509.1968885008
 11
520.6847352335
 21
508.788644347
  0
LINE
  5
268
100
AcDbEntity
  8
0
100
AcDbLine
 62
7
  6
CONTINUOUS
 10
522.0989487959
 20
508.7886477463
 11
521.3918449587
 21
508.3804035924
  0
LINE
  5
269
100
AcDbEntity
  8
0
100
AcDbLine
 62
7
  6
CONTINUOUS
 10
521.3918390708
 20
507.9721348751
 11
520.6847352335
 21
507.5638907213
  0
LINE
  5
26A
100
AcDbEntity
  8
0
100
AcDbLine
 62
7
  6
CONTINUOUS
 10
521.1638706312
 20
506.2075202413
 11
520.5786726019
 21
505.8696580183
  0
LINE
  5
26B
100
AcDbEntity
  8
0
100
AcDbLine
 62
7
  6
CONTINUOUS
 10
524.1359722802
 20
506.8933826966
 11
522.7217646058
 21
506.0768943889
  0
LINE
  5
26C
100
AcDbEntity
  8
0
100
AcDbLine
 62
7
  6
CONTINUOUS
 10
524.8213153498
 20
505.5838984984
 11
522.9474901812
 21
504.5020514907
  0
LINE
  5
26D
100
AcDbEntity
  8
0
100
AcDbLine
 62
7
  6
CONTINUOUS
 10
122.9559742145
 20
273.1297977614
 11
118.8538427048
 21
270.7614451672
  0
LINE
  5
26E
100
AcDbEntity
  8
0
100
AcDbLine
 62
7
  6
CONTINUOUS
 10
518.1744995364
 20
473.5361267562
 11
493.3905100421
 21
459.227169163
  0
LINE
  5
26F
100
AcDbEntity
  8
0
100
AcDbLine
 62
7
  6
CONTINUOUS
 10
144.5581250418
 20
256.1187961444
 11
132.9225192693
 21
249.4010161192
  0
LINE
  5
270
100
AcDbEntity
  8
0
100
AcDbLine
 62
7
  6
CONTINUOUS
 10
533.1651406289
 20
475.0466248524
 11
522.9474901812
 21
469.1474968289
  0
LINE
  5
271
100
AcDbEntity
  8
0
100
AcDbLine
 62
7
  6
CONTINUOUS
 10
118.8537707034
 20
270.7615711259
 11
116.3387130449
 21
269.7650335304
  0
LINE
  5
272
100
AcDbEntity
  8
0
100
AcDbLine
 62
7
  6
CONTINUOUS
 10
429.0435250537
 20
496.3770778244
 11
429.0435250537
 21
555.9817542748
  0
LINE
  5
273
100
AcDbEntity
  8
0
100
AcDbLine
 62
7
  6
CONTINUOUS
 10
430.1221849465
 20
490.3664584876
 11
430.1221849465
 21
490.4685195261
  0
LINE
  5
274
100
AcDbEntity
  8
0
100
AcDbLine
 62
7
  6
CONTINUOUS
 10
437.370059629
 20
486.2840517924
 11
437.370059629
 21
477.914902017
  0
LINE
  5
275
100
AcDbEntity
  8
0
100
AcDbLine
 62
7
  6
CONTINUOUS
 10
437.370059629
 20
477.914902017
 11
437.1048904276
 21
478.0679940634
  0
LINE
  5
276
100
AcDbEntity
  8
0
100
AcDbLine
 62
7
  6
CONTINUOUS
 10
430.1221849465
 20
490.4685195261
 11
437.370059629
 21
486.2840517924
  0
LINE
  5
277
100
AcDbEntity
  8
0
100
AcDbLine
 62
7
  6
CONTINUOUS
 10
493.3905100421
 20
459.227169163
 11
450.7439739075
 21
483.8486012691
  0
LINE
  5
278
100
AcDbEntity
  8
0
100
AcDbLine
 62
7
  6
CONTINUOUS
 10
429.9826732458
 20
495.8348726292
 11
429.0435250537
 21
496.3770778244
  0
LINE
  5
279
100
AcDbEntity
  8
0
100
AcDbLine
 62
7
  6
CONTINUOUS
 10
449.0545239033
 20
578.7618538809
 11
449.0545239033
 21
567.5350408836
  0
LINE
  5
27A
100
AcDbEntity
  8
0
100
AcDbLine
 62
7
  6
CONTINUOUS
 10
452.5546878975
 20
580.7826624426
 11
452.5546878975
 21
585.3387459302
  0
LINE
  5
27B
100
AcDbEntity
  8
0
100
AcDbLine
 62
7
  6
CONTINUOUS
 10
456.0569100302
 20
504.5781132316
 11
456.0569100302
 21
506.462522772
  0
LINE
  5
27C
100
AcDbEntity
  8
0
100
AcDbLine
 62
7
  6
CONTINUOUS
 10
456.7640197578
 20
510.0267588183
 11
456.7640197578
 21
508.0614578547
  0
LINE
  5
27D
100
AcDbEntity
  8
0
100
AcDbLine
 62
7
  6
CONTINUOUS
 10
456.7640197578
 20
488.5335602519
 11
456.7640197578
 21
486.5682592883
  0
LINE
  5
27E
100
AcDbEntity
  8
0
100
AcDbLine
 62
7
  6
CONTINUOUS
 10
447.3133315346
 20
502.9372405894
 11
449.0153270156
 21
501.9546152702
  0
LINE
  5
27F
100
AcDbEntity
  8
0
100
AcDbLine
 62
7
  6
CONTINUOUS
 10
465.9269319502
 20
492.1909164932
 11
467.6289274312
 21
491.208291174
  0
LINE
  5
280
100
AcDbEntity
  8
0
100
AcDbLine
 62
7
  6
CONTINUOUS
 10
467.6289274312
 20
492.8412960083
 11
465.9269319502
 21
493.8239213274
  0
LINE
  5
281
100
AcDbEntity
  8
0
100
AcDbLine
 62
7
  6
CONTINUOUS
 10
449.0153270156
 20
503.5876201045
 11
447.3133315346
 21
504.5702454236
  0
LINE
  5
282
100
AcDbEntity
  8
0
100
AcDbLine
 62
7
  6
CONTINUOUS
 10
469.7502389429
 20
494.0660284699
 11
468.0482434619
 21
495.048653789
  0
LINE
  5
283
100
AcDbEntity
  8
0
100
AcDbLine
 62
7
  6
CONTINUOUS
 10
449.4758106476
 20
505.7712102972
 11
449.4346430463
 21
505.7949778852
  0
LINE
  5
284
100
AcDbEntity
  8
0
100
AcDbLine
 62
7
  6
CONTINUOUS
 10
456.0569100302
 20
506.462522772
 11
458.8853489357
 21
504.8295597511
  0
LINE
  5
285
100
AcDbEntity
  8
0
100
AcDbLine
 62
7
  6
CONTINUOUS
 10
522.9474901812
 20
469.1474968289
 11
516.7602556477
 21
472.7196175402
  0
LINE
  5
286
100
AcDbEntity
  8
0
100
AcDbLine
 62
7
  6
CONTINUOUS
 10
457.4764809341
 20
505.3976979828
 11
457.4764809341
 21
505.6429516697
  0
LINE
  5
287
100
AcDbEntity
  8
0
100
AcDbLine
 62
7
  6
CONTINUOUS
 10
458.1782392081
 20
485.7517777793
 11
458.1782392081
 21
487.7170787429
  0
LINE
  5
288
100
AcDbEntity
  8
0
100
AcDbLine
 62
7
  6
CONTINUOUS
 10
458.1782392081
 20
507.2449763457
 11
458.1782392081
 21
509.2102773093
  0
LINE
  5
289
100
AcDbEntity
  8
0
100
AcDbLine
 62
7
  6
CONTINUOUS
 10
458.8853489357
 20
504.8295597511
 11
458.8853489357
 21
502.9451502106
  0
LINE
  5
28A
100
AcDbEntity
  8
0
100
AcDbLine
 62
7
  6
CONTINUOUS
 10
460.2995507197
 20
486.9765102409
 11
460.2995507197
 21
487.0241064946
  0
LINE
  5
28B
100
AcDbEntity
  8
0
100
AcDbLine
 62
7
  6
CONTINUOUS
 10
460.2995507197
 20
508.4697088073
 11
460.2995507197
 21
510.4350097709
  0
LINE
  5
28C
100
AcDbEntity
  8
0
100
AcDbLine
 62
7
  6
CONTINUOUS
 10
464.1537752124
 20
485.1599418277
 11
462.9502826662
 21
487.2444404927
  0
LINE
  5
28D
100
AcDbEntity
  8
0
100
AcDbLine
 62
7
  6
CONTINUOUS
 10
450.9919721362
 20
507.9567269247
 11
449.7884795901
 21
510.0412255896
  0
LINE
  5
28E
100
AcDbEntity
  8
0
100
AcDbLine
 62
7
  6
CONTINUOUS
 10
450.7884837534
 20
510.6185947699
 11
451.9919762996
 21
508.5340961049
  0
LINE
  5
28F
100
AcDbEntity
  8
0
100
AcDbLine
 62
7
  6
CONTINUOUS
 10
463.9502868296
 20
487.821809673
 11
465.1537793758
 21
485.737311008
  0
LINE
  5
290
100
AcDbEntity
  8
0
100
AcDbLine
 62
7
  6
CONTINUOUS
 10
488.2283723536
 20
563.6162230273
 11
488.2283723536
 21
564.4327254444
  0
LINE
  5
291
100
AcDbEntity
  8
0
100
AcDbLine
 62
7
  6
CONTINUOUS
 10
489.2890369413
 20
561.7791082698
 11
489.2890369413
 21
563.0038618955
  0
LINE
  5
292
100
AcDbEntity
  8
0
100
AcDbLine
 62
7
  6
CONTINUOUS
 10
489.2890369413
 20
563.8203643126
 11
489.2890369413
 21
565.0451179383
  0
LINE
  5
293
100
AcDbEntity
  8
0
100
AcDbLine
 62
7
  6
CONTINUOUS
 10
489.9961466665
 20
561.3708675153
 11
489.9961466665
 21
564.6368771838
  0
LINE
  5
294
100
AcDbEntity
  8
0
100
AcDbLine
 62
7
  6
CONTINUOUS
 10
491.0568112542
 20
562.7997624263
 11
491.0568112542
 21
561.9832600092
  0
LINE
  5
295
100
AcDbEntity
  8
0
100
AcDbLine
 62
7
  6
CONTINUOUS
 10
493.3905100421
 20
459.227169163
 11
493.3905100421
 21
518.8318456135
  0
LINE
  5
296
100
AcDbEntity
  8
0
100
AcDbLine
 62
7
  6
CONTINUOUS
 10
493.3905100421
 20
518.8318456135
 11
429.0435250537
 21
555.9817542748
  0
LINE
  5
297
100
AcDbEntity
  8
0
100
AcDbLine
 62
7
  6
CONTINUOUS
 10
520.5786726019
 20
505.8696580183
 11
522.9474901812
 21
504.5020514907
  0
LINE
  5
298
100
AcDbEntity
  8
0
100
AcDbLine
 62
7
  6
CONTINUOUS
 10
521.3918449587
 20
507.1556499668
 11
520.6847352335
 21
507.5638907213
  0
LINE
  5
299
100
AcDbEntity
  8
0
100
AcDbLine
 62
7
  6
CONTINUOUS
 10
524.8213153498
 20
505.5838984984
 11
523.3445781678
 21
506.4364738201
  0
LINE
  5
29A
100
AcDbEntity
  8
0
100
AcDbLine
 62
7
  6
CONTINUOUS
 10
522.4525095464
 20
507.7680424607
 11
521.3918449587
 21
508.3804035924
  0
LINE
  5
29B
100
AcDbEntity
  8
0
100
AcDbLine
 62
7
  6
CONTINUOUS
 10
520.6847352335
 20
508.788644347
 11
519.6240706458
 21
509.4010054787
  0
LINE
  5
29C
100
AcDbEntity
  8
0
100
AcDbLine
 62
7
  6
CONTINUOUS
 10
519.6240706458
 20
510.2175078959
 11
522.4525095464
 21
508.5845448778
  0
LINE
  5
29D
100
AcDbEntity
  8
0
100
AcDbLine
 62
7
  6
CONTINUOUS
 10
520.6847352335
 20
510.8299003898
 11
521.3918449587
 21
510.4216596353
  0
LINE
  5
29E
100
AcDbEntity
  8
0
100
AcDbLine
 62
7
  6
CONTINUOUS
 10
520.5786726019
 20
511.5851749382
 11
522.9474901812
 21
510.2175684106
  0
LINE
  5
29F
100
AcDbEntity
  8
0
100
AcDbLine
 62
7
  6
CONTINUOUS
 10
467.2750908874
 20
486.9620434696
 11
466.0715983413
 21
489.0465421346
  0
LINE
  5
2A0
100
AcDbEntity
  8
0
100
AcDbLine
 62
7
  6
CONTINUOUS
 10
454.1132878113
 20
509.7588285665
 11
452.9097952651
 21
511.8433272315
  0
LINE
  5
2A1
100
AcDbEntity
  8
0
100
AcDbLine
 62
7
  6
CONTINUOUS
 10
518.1744995364
 20
533.1408032067
 11
453.8275145481
 21
570.290711868
  0
LINE
  5
2A2
100
AcDbEntity
  8
0
100
AcDbLine
 62
7
  6
CONTINUOUS
 10
522.9474901812
 20
536.1006950336
 11
449.0545239033
 21
578.7618538809
  0
LINE
  5
2A3
100
AcDbEntity
  8
0
100
AcDbLine
 62
7
  6
CONTINUOUS
 10
518.1744995364
 20
473.5361267562
 11
518.1744995364
 21
533.1408032067
  0
LINE
  5
2A4
100
AcDbEntity
  8
0
100
AcDbLine
 62
7
  6
CONTINUOUS
 10
519.6240706458
 20
509.4010054787
 11
519.6240706458
 21
510.2175078959
  0
LINE
  5
2A5
100
AcDbEntity
  8
0
100
AcDbLine
 62
7
  6
CONTINUOUS
 10
520.6847352335
 20
507.5638907213
 11
520.6847352335
 21
508.788644347
  0
LINE
  5
2A6
100
AcDbEntity
  8
0
100
AcDbLine
 62
7
  6
CONTINUOUS
 10
520.6847352335
 20
509.6051467641
 11
520.6847352335
 21
510.8299003898
  0
LINE
  5
2A7
100
AcDbEntity
  8
0
100
AcDbLine
 62
7
  6
CONTINUOUS
 10
521.3918449587
 20
507.1556499668
 11
521.3918449587
 21
510.4216596353
  0
LINE
  5
2A8
100
AcDbEntity
  8
0
100
AcDbLine
 62
7
  6
CONTINUOUS
 10
522.4525095464
 20
508.5845448778
 11
522.4525095464
 21
507.7680424607
  0
LINE
  5
2A9
100
AcDbEntity
  8
0
100
AcDbLine
 62
7
  6
CONTINUOUS
 10
522.9474901812
 20
469.1474968289
 11
522.9474901812
 21
504.5020514907
  0
LINE
  5
2AA
100
AcDbEntity
  8
0
100
AcDbLine
 62
7
  6
CONTINUOUS
 10
522.9474901812
 20
510.2175684106
 11
522.9474901812
 21
536.1006950336
  0
LINE
  5
2AB
100
AcDbEntity
  8
0
100
AcDbLine
 62
7
  6
CONTINUOUS
 10
524.8213153498
 20
511.2994154183
 11
524.8213153498
 21
508.7172760576
  0
LINE
  5
2AC
100
AcDbEntity
  8
0
100
AcDbLine
 62
7
  6
CONTINUOUS
 10
524.8213153498
 20
508.1660378592
 11
524.8213153498
 21
505.5838984984
  0
LINE
  5
2AD
100
AcDbEntity
  8
0
100
AcDbLine
 62
7
  6
CONTINUOUS
 10
526.4476541754
 20
538.1215035952
 11
526.4476541754
 21
542.6775870828
  0
LINE
  5
2AE
100
AcDbEntity
  8
0
100
AcDbLine
 62
7
  6
CONTINUOUS
 10
533.1651406289
 20
546.5559065446
 11
533.1651406289
 21
475.0466248524
  0
LINE
  5
2AF
100
AcDbEntity
  8
0
100
AcDbLine
 62
7
  6
CONTINUOUS
 10
526.4476541754
 20
538.1215035952
 11
452.5546878975
 21
580.7826624426
  0
LINE
  5
2B0
100
AcDbEntity
  8
0
100
AcDbLine
 62
7
  6
CONTINUOUS
 10
489.9961466665
 20
561.3708675153
 11
489.2890369413
 21
561.7791082698
  0
LINE
  5
2B1
100
AcDbEntity
  8
0
100
AcDbLine
 62
7
  6
CONTINUOUS
 10
491.0568112542
 20
561.9832600092
 11
489.9961466665
 21
562.595621141
  0
LINE
  5
2B2
100
AcDbEntity
  8
0
100
AcDbLine
 62
7
  6
CONTINUOUS
 10
489.2890369413
 20
563.0038618955
 11
488.2283723536
 21
563.6162230273
  0
LINE
  5
2B3
100
AcDbEntity
  8
0
100
AcDbLine
 62
7
  6
CONTINUOUS
 10
488.2283723536
 20
564.4327254444
 11
491.0568112542
 21
562.7997624263
  0
LINE
  5
2B4
100
AcDbEntity
  8
0
100
AcDbLine
 62
7
  6
CONTINUOUS
 10
489.2890369413
 20
565.0451179383
 11
489.9961466665
 21
564.6368771838
  0
LINE
  5
2B5
100
AcDbEntity
  8
0
100
AcDbLine
 62
7
  6
CONTINUOUS
 10
523.1501868838
 20
548.1902783264
 11
505.1636514485
 21
558.5745744776
  0
LINE
  5
2B6
100
AcDbEntity
  8
0
100
AcDbLine
 62
7
  6
CONTINUOUS
 10
498.5875310046
 20
562.3712134946
 11
455.8521551891
 21
587.0439360541
  0
LINE
  5
2B7
100
AcDbEntity
  8
0
100
AcDbLine
 62
7
  6
CONTINUOUS
 10
529.8676733374
 20
552.0685977881
 11
511.881137902
 21
562.4528939394
  0
LINE
  5
2B8
100
AcDbEntity
  8
0
100
AcDbLine
 62
7
  6
CONTINUOUS
 10
505.3050174581
 20
566.2495329564
 11
462.5696416426
 21
590.9222555158
  0
ARC
  5
2B9
100
AcDbEntity
  8
0
100
AcDbCircle
 62
7
  6
CONTINUOUS
 10
370.9863509226
 20
302.1585939396
 40
270.9520955195
100
AcDbArc
 50
186.4914925691
 51
187.4404465176
  0
ARC
  5
2BA
100
AcDbEntity
  8
0
100
AcDbCircle
 62
7
  6
CONTINUOUS
 10
277.3813393733
 20
301.4678671786
 40
177.1113855158
100
AcDbArc
 50
171.2832148335
 51
173.8571560648
  0
ARC
  5
2BB
100
AcDbEntity
  8
0
100
AcDbCircle
 62
7
  6
CONTINUOUS
 10
58.1508008099
 20
267.502880964
 40
46.9706633773
100
AcDbArc
 50
33.3676986681
 51
34.2023317193
  0
ARC
  5
2BC
100
AcDbEntity
  8
0
100
AcDbCircle
 62
7
  6
CONTINUOUS
 10
443.097495563
 20
489.5906963638
 40
24.9111640791
100
AcDbArc
 50
27.6995154599
 51
32.3007599895
  0
ARC
  5
2BD
100
AcDbEntity
  8
0
100
AcDbCircle
 62
7
  6
CONTINUOUS
 10
464.5578232606
 20
498.399331051
 40
14.1674850307
100
AcDbArc
 50
236.6248188514
 51
239.9862172073
  0
ARC
  5
2BE
100
AcDbEntity
  8
0
100
AcDbCircle
 62
7
  6
CONTINUOUS
 10
450.3844357054
 20
497.3792055469
 40
14.1674850304
100
AcDbArc
 50
56.6248188514
 51
59.9862172074
  0
ARC
  5
2BF
100
AcDbEntity
  8
0
100
AcDbCircle
 62
7
  6
CONTINUOUS
 10
464.9475871724
 20
509.3292327396
 40
13.4930666575
100
AcDbArc
 50
171.7893088554
 51
172.7689648742
  0
ARC
  5
2C0
100
AcDbEntity
  8
0
100
AcDbCircle
 62
7
  6
CONTINUOUS
 10
463.859271817
 20
497.1752223211
 40
12.758103962
100
AcDbArc
 50
239.9528491146
 51
243.5582235156
  0
ARC
  5
2C1
100
AcDbEntity
  8
0
100
AcDbCircle
 62
7
  6
CONTINUOUS
 10
451.0829871489
 20
498.6033142766
 40
12.7581039618
100
AcDbArc
 50
59.9528491146
 51
63.5582235156
  0
ARC
  5
2C2
100
AcDbEntity
  8
0
100
AcDbCircle
 62
7
  6
CONTINUOUS
 10
100.5931860765
 20
293.5806182995
 40
11.8688787706
100
AcDbArc
 50
73.1071996527
 51
86.9540761709
  0
ARC
  5
2C3
100
AcDbEntity
  8
0
100
AcDbCircle
 62
7
  6
CONTINUOUS
 10
118.3793041144
 20
281.2045769161
 40
9.8479371619
100
AcDbArc
 50
285.0009163799
 51
289.3754928625
  0
ARC
  5
2C4
100
AcDbEntity
  8
0
100
AcDbCircle
 62
7
  6
CONTINUOUS
 10
99.8512365077
 20
295.9723360237
 40
9.4625997331
100
AcDbArc
 50
81.5960169781
 51
81.8024181592
  0
ARC
  5
2C5
100
AcDbEntity
  8
0
100
AcDbCircle
 62
7
  6
CONTINUOUS
 10
115.7157379702
 20
279.2120573608
 40
9.4479517745
100
AcDbArc
 50
290.4594354907
 51
299.9744634871
  0
ARC
  5
2C6
100
AcDbEntity
  8
0
100
AcDbCircle
 62
7
  6
CONTINUOUS
 10
99.871686664
 20
313.1153405998
 40
9.3898343027
100
AcDbArc
 50
122.3479744199
 51
124.3604465439
  0
ARC
  5
2C7
100
AcDbEntity
  8
0
100
AcDbCircle
 62
7
  6
CONTINUOUS
 10
459.3126547268
 20
506.3401887932
 40
8.5898505836
100
AcDbArc
 50
75.3414890397
 51
76.6079786659
  0
ARC
  5
2C8
100
AcDbEntity
  8
0
100
AcDbCircle
 62
7
  6
CONTINUOUS
 10
100.600624519
 20
295.8548295993
 40
5.8469831211
100
AcDbArc
 50
78.9404813301
 51
85.9300471234
  0
ARC
  5
2C9
100
AcDbEntity
  8
0
100
AcDbCircle
 62
7
  6
CONTINUOUS
 10
517.7683036904
 20
507.1101708944
 40
5.7170582031
100
AcDbArc
 50
31.0417266345
 51
37.8930644845
  0
ARC
  5
2CA
100
AcDbEntity
  8
0
100
AcDbCircle
 62
7
  6
CONTINUOUS
 10
452.6857725104
 20
506.1797144204
 40
4.8275847767
100
AcDbArc
 50
120.0112172712
 51
126.8809072004
  0
ARC
  5
2CB
100
AcDbEntity
  8
0
100
AcDbCircle
 62
7
  6
CONTINUOUS
 10
462.2564864554
 20
489.5988221772
 40
4.8275847767
100
AcDbArc
 50
300.0112172712
 51
306.8809072004
  0
ARC
  5
2CC
100
AcDbEntity
  8
0
100
AcDbCircle
 62
7
  6
CONTINUOUS
 10
462.2581512846
 20
489.5997676451
 40
4.8275711661
100
AcDbArc
 50
293.1204989495
 51
299.9884949403
  0
ARC
  5
2CD
100
AcDbEntity
  8
0
100
AcDbCircle
 62
7
  6
CONTINUOUS
 10
452.6841076812
 20
506.1787689525
 40
4.8275711661
100
AcDbArc
 50
113.1204989494
 51
119.9884949403
  0
ARC
  5
2CE
100
AcDbEntity
  8
0
100
AcDbCircle
 62
7
  6
CONTINUOUS
 10
461.349804779
 20
592.8113756739
 40
4.1515797714
100
AcDbArc
 50
239.9706648291
 51
243.6619616439
  0
ARC
  5
2CF
100
AcDbEntity
  8
0
100
AcDbCircle
 62
7
  6
CONTINUOUS
 10
521.4190611975
 20
508.4313058912
 40
3.4142513459
100
AcDbArc
 50
0.0574867901
 51
4.8045970659
  0
ARC
  5
2D0
100
AcDbEntity
  8
0
100
AcDbCircle
 62
7
  6
CONTINUOUS
 10
488.6065791221
 20
561.6969176406
 40
3.3694760029
100
AcDbArc
 50
0.0099239919
 51
1.8612078787
  0
ARC
  5
2D1
100
AcDbEntity
  8
0
100
AcDbCircle
 62
7
  6
CONTINUOUS
 10
490.3062184556
 20
564.5552026684
 40
3.2799314572
100
AcDbArc
 50
180.0002817963
 51
180.3109215337
  0
ARC
  5
2D2
100
AcDbEntity
  8
0
100
AcDbCircle
 62
7
  6
CONTINUOUS
 10
490.215440569
 20
564.5555586211
 40
3.1891535923
100
AcDbArc
 50
178.2428604245
 51
180.0066848018
  0
ARC
  5
2D3
100
AcDbEntity
  8
0
100
AcDbCircle
 62
7
  6
CONTINUOUS
 10
521.8956573451
 20
508.4312646041
 40
2.9376555256
100
AcDbArc
 50
354.8199867602
 51
0.0676185278
  0
ARC
  5
2D4
100
AcDbEntity
  8
0
100
AcDbCircle
 62
7
  6
CONTINUOUS
 10
490.4966808579
 20
561.2670947545
 40
1.4031224523
100
AcDbArc
 50
324.4826830527
 51
325.3566511118
  0
ARC
  5
2D5
100
AcDbEntity
  8
0
100
AcDbCircle
 62
7
  6
CONTINUOUS
 10
519.4657489855
 20
510.5255612528
 40
1.3967181753
100
AcDbArc
 50
94.8129963872
 51
95.9245561258
  0
ARC
  5
2D6
100
AcDbEntity
  8
0
100
AcDbCircle
 62
7
  6
CONTINUOUS
 10
520.0696725652
 20
510.7890948908
 40
1.3363821105
100
AcDbArc
 50
143.6487872528
 51
144.78687158
  0
ARC
  5
2D7
100
AcDbEntity
  8
0
100
AcDbCircle
 62
7
  6
CONTINUOUS
 10
490.6615378172
 20
561.11487049
 40
1.1778137378
100
AcDbArc
 50
300.0399142748
 51
309.0903877514
  0
ARC
  5
2D8
100
AcDbEntity
  8
0
100
AcDbCircle
 62
7
  6
CONTINUOUS
 10
488.3387275392
 20
565.1387501657
 40
1.1759673214
100
AcDbArc
 50
110.8830105979
 51
119.9750760967
  0
ARC
  5
2D9
100
AcDbEntity
  8
0
100
AcDbCircle
 62
7
  6
CONTINUOUS
 10
488.5222771779
 20
565.1491443694
 40
1.1257087217
100
AcDbArc
 50
120.017620002
 51
126.5160356371
  0
ARC
  5
2DA
100
AcDbEntity
  8
0
100
AcDbCircle
 62
7
  6
CONTINUOUS
 10
490.7636322519
 20
561.266628299
 40
1.1251614939
100
AcDbArc
 50
293.4871215178
 51
299.9910375828
  0
SPLINE
  5
2DB
100
AcDbEntity
  8
0
100
AcDbSpline
 62
7
  6
CONTINUOUS
 70
0
 71
3
 72
9
 73
5
 74
0
 42
0.0000001
 43
0.0000001
 44
0.0000000001
 40
0.0
 40
0.0
 40
0.0
 40
0.0
 40
0.4802966701
 40
1.0
 40
1.0
 40
1.0
 40
1.0
 10
462.9502826662
 20
487.2444404927
 30
0.0
 10
462.5518750931
 20
487.0854169865
 30
0.0
 10
461.6654331266
 20
486.8870484138
 30
0.0
 10
460.7635475097
 20
486.9406670569
 30
0.0
 10
460.3057978907
 20
487.0175891143
 30
0.0
  0
SPLINE
  5
2DC
100
AcDbEntity
  8
0
100
AcDbSpline
 62
7
  6
CONTINUOUS
 70
0
 71
3
 72
9
 73
5
 74
0
 42
0.0000001
 43
0.0000001
 44
0.0000000001
 40
0.0
 40
0.0
 40
0.0
 40
0.0
 40
0.23663394
 40
1.0
 40
1.0
 40
1.0
 40
1.0
 10
460.3057978907
 20
487.0175891143
 30
0.0
 10
460.1312515558
 20
487.0469205711
 30
0.0
 10
459.398799845
 20
487.2014300051
 30
0.0
 10
458.6928262316
 20
487.469677647
 30
0.0
 10
458.1782392081
 20
487.7170787429
 30
0.0
  0
SPLINE
  5
2DD
100
AcDbEntity
  8
0
100
AcDbSpline
 62
7
  6
CONTINUOUS
 70
0
 71
3
 72
9
 73
5
 74
0
 42
0.0000001
 43
0.0000001
 44
0.0000000001
 40
0.0
 40
0.0
 40
0.0
 40
0.0
 40
0.2430378884
 40
1.0
 40
1.0
 40
1.0
 40
1.0
 10
456.7640197578
 20
488.5335602519
 30
0.0
 10
456.634475027
 20
488.6208602396
 30
0.0
 10
456.1080910419
 20
488.9898671479
 30
0.0
 10
455.6080631638
 20
489.3960694535
 30
0.0
 10
455.2448498335
 20
489.7198007778
 30
0.0
  0
SPLINE
  5
2DE
100
AcDbEntity
  8
0
100
AcDbSpline
 62
7
  6
CONTINUOUS
 70
0
 71
3
 72
9
 73
5
 74
0
 42
0.0000001
 43
0.0000001
 44
0.0000000001
 40
0.0
 40
0.0
 40
0.0
 40
0.0
 40
0.2562752865
 40
1.0
 40
1.0
 40
1.0
 40
1.0
 10
449.2471381486
 20
500.2243759147
 30
0.0
 10
449.2185511868
 20
500.3707899392
 30
0.0
 10
449.1152176169
 20
500.9436562369
 30
0.0
 10
449.0453488941
 20
501.522732879
 30
0.0
 10
449.0153270156
 20
501.9546152702
 30
0.0
  0
SPLINE
  5
2DF
100
AcDbEntity
  8
0
100
AcDbSpline
 62
7
  6
CONTINUOUS
 70
0
 71
3
 72
9
 73
5
 74
0
 42
0.0000001
 43
0.0000001
 44
0.0000000001
 40
0.0
 40
0.0
 40
0.0
 40
0.0
 40
0.256526795
 40
1.0
 40
1.0
 40
1.0
 40
1.0
 10
447.3133315346
 20
502.9372405894
 30
0.0
 10
447.3052076046
 20
503.0766872973
 30
0.0
 10
447.2811297456
 20
503.6206779502
 30
0.0
 10
447.2880948218
 20
504.1661991446
 30
0.0
 10
447.3133315346
 20
504.5702454236
 30
0.0
  0
SPLINE
  5
2E0
100
AcDbEntity
  8
0
100
AcDbSpline
 62
7
  6
CONTINUOUS
 70
0
 71
3
 72
9
 73
5
 74
0
 42
0.0000001
 43
0.0000001
 44
0.0000000001
 40
0.0
 40
0.0
 40
0.0
 40
0.0
 40
0.2641194066
 40
1.0
 40
1.0
 40
1.0
 40
1.0
 10
449.0153270156
 20
503.5876201045
 30
0.0
 10
449.0302134461
 20
503.7845811876
 30
0.0
 10
449.1087410349
 20
504.5281454517
 30
0.0
 10
449.2809235218
 20
505.2642558093
 30
0.0
 10
449.473289879
 20
505.7798718868
 30
0.0
  0
SPLINE
  5
2E1
100
AcDbEntity
  8
0
100
AcDbSpline
 62
7
  6
CONTINUOUS
 70
0
 71
3
 72
9
 73
5
 74
0
 42
0.0000001
 43
0.0000001
 44
0.0000000001
 40
0.0
 40
0.0
 40
0.0
 40
0.0
 40
0.5197046272
 40
1.0
 40
1.0
 40
1.0
 40
1.0
 10
449.473289879
 20
505.7798718868
 30
0.0
 10
449.6355422455
 20
506.2147708472
 30
0.0
 10
450.0400391551
 20
507.0226649681
 30
0.0
 10
450.655049398
 20
507.6911938607
 30
0.0
 10
450.9919721362
 20
507.9567269247
 30
0.0
  0
SPLINE
  5
2E2
100
AcDbEntity
  8
0
100
AcDbSpline
 62
7
  6
CONTINUOUS
 70
0
 71
3
 72
10
 73
6
 74
0
 42
0.0000001
 43
0.0000001
 44
0.0000000001
 40
0.0
 40
0.0
 40
0.0
 40
0.0
 40
0.5256461054
 40
0.7665260658
 40
1.0
 40
1.0
 40
1.0
 40
1.0
 10
456.0569100302
 20
504.5781132316
 30
0.0
 10
455.6527724429
 20
504.6816668529
 30
0.0
 10
455.0314243595
 20
504.7517412503
 30
0.0
 10
454.2477687144
 20
504.5985811914
 30
0.0
 10
453.8991224981
 20
504.4468106441
 30
0.0
 10
453.7386498878
 20
504.3541511967
 30
0.0
  0
SPLINE
  5
2E3
100
AcDbEntity
  8
0
100
AcDbSpline
 62
7
  6
CONTINUOUS
 70
0
 71
3
 72
11
 73
7
 74
0
 42
0.0000001
 43
0.0000001
 44
0.0000000001
 40
0.0
 40
0.0
 40
0.0
 40
0.0
 40
0.230807062
 40
0.4856538954
 40
0.7480949672
 40
1.0
 40
1.0
 40
1.0
 40
1.0
 10
462.7497042344
 20
494.8417506892
 30
0.0
 10
462.7497042344
 20
495.5494476778
 30
0.0
 10
462.5306355881
 20
497.0401166258
 30
0.0
 10
461.7299353358
 20
499.2031757252
 30
0.0
 10
460.5142132767
 20
501.238815096
 30
0.0
 10
459.4599050872
 20
502.4289455023
 30
0.0
 10
458.8853489357
 20
502.9451502106
 30
0.0
  0
SPLINE
  5
2E4
100
AcDbEntity
  8
0
100
AcDbSpline
 62
7
  6
CONTINUOUS
 70
0
 71
3
 72
11
 73
7
 74
0
 42
0.0000001
 43
0.0000001
 44
0.0000000001
 40
0.0
 40
0.0
 40
0.0
 40
0.0
 40
0.2177718732
 40
0.4509546227
 40
0.7101902752
 40
1.0
 40
1.0
 40
1.0
 40
1.0
 10
461.203609078
 20
491.4243854009
 30
0.0
 10
461.4498374646
 20
491.5665616027
 30
0.0
 10
461.9107142268
 20
491.9538118948
 30
0.0
 10
462.4008992467
 20
492.7558226728
 30
0.0
 10
462.692574419
 20
493.7440408522
 30
0.0
 10
462.7497042344
 20
494.4633682169
 30
0.0
 10
462.7497042344
 20
494.8417506892
 30
0.0
  0
SPLINE
  5
2E5
100
AcDbEntity
  8
0
100
AcDbSpline
 62
7
  6
CONTINUOUS
 70
0
 71
3
 72
11
 73
7
 74
0
 42
0.0000001
 43
0.0000001
 44
0.0000000001
 40
0.0
 40
0.0
 40
0.0
 40
0.0
 40
0.2251590648
 40
0.4648727055
 40
0.7225812396
 40
1.0
 40
1.0
 40
1.0
 40
1.0
 10
461.88696573
 20
491.9609254358
 30
0.0
 10
461.6960603049
 20
491.9191456021
 30
0.0
 10
461.2917347054
 20
491.8753958271
 30
0.0
 10
460.663612166
 20
491.9262844061
 30
0.0
 10
460.0085443433
 20
492.0893157618
 30
0.0
 10
459.576587948
 20
492.2640987041
 30
0.0
 10
459.3590496636
 20
492.3673119838
 30
0.0
  0
SPLINE
  5
2E6
100
AcDbEntity
  8
0
100
AcDbSpline
 62
7
  6
CONTINUOUS
 70
0
 71
3
 72
9
 73
5
 74
0
 42
0.0000001
 43
0.0000001
 44
0.0000000001
 40
0.0
 40
0.0
 40
0.0
 40
0.0
 40
0.244472019
 40
1.0
 40
1.0
 40
1.0
 40
1.0
 10
460.7469438437
 20
491.9381810274
 30
0.0
 10
460.6683660255
 20
491.9868703334
 30
0.0
 10
460.3497389838
 20
492.1905164363
 30
0.0
 10
460.0422371312
 20
492.4114479012
 30
0.0
 10
459.8164010236
 20
492.5864089677
 30
0.0
  0
SPLINE
  5
2E7
100
AcDbEntity
  8
0
100
AcDbSpline
 62
7
  6
CONTINUOUS
 70
0
 71
3
 72
9
 73
5
 74
0
 42
0.0000001
 43
0.0000001
 44
0.0000000001
 40
0.0
 40
0.0
 40
0.0
 40
0.0
 40
0.2548591556
 40
1.0
 40
1.0
 40
1.0
 40
1.0
 10
454.0280500259
 20
502.7534162054
 30
0.0
 10
454.0181850904
 20
502.8353572956
 30
0.0
 10
453.9829343416
 20
503.1572741995
 30
0.0
 10
453.9616914195
 20
503.4807643146
 30
0.0
 10
453.9546663073
 20
503.7219660676
 30
0.0
  0
SPLINE
  5
2E8
100
AcDbEntity
  8
0
100
AcDbSpline
 62
7
  6
CONTINUOUS
 70
0
 71
3
 72
21
 73
17
 74
0
 42
0.0000001
 43
0.0000001
 44
0.0000000001
 40
0.0
 40
0.0
 40
0.0
 40
0.0
 40
0.042826341
 40
0.0874206789
 40
0.1352169315
 40
0.1871408447
 40
0.2436033925
 40
0.3045780175
 40
0.3696942322
 40
0.4383214479
 40
0.5825529737
 40
0.7295915719
 40
0.8015989581
 40
0.8712222574
 40
0.9375885919
 40
1.0
 40
1.0
 40
1.0
 40
1.0
 10
474.2475167433
 20
486.7904993463
 30
0.0
 10
474.6913016338
 20
487.0466974156
 30
0.0
 10
475.5325225747
 20
487.6905918977
 30
0.0
 10
476.5448800438
 20
488.9706971356
 30
0.0
 10
477.3013521959
 20
490.5362307048
 30
0.0
 10
477.7911674522
 20
492.3489515556
 30
0.0
 10
478.009249369
 20
494.370652502
 30
0.0
 10
477.9535162199
 20
496.5597323252
 30
0.0
 10
477.6263827534
 20
498.8711906109
 30
0.0
 10
476.8245816169
 20
502.1040411243
 30
0.0
 10
475.2013535514
 20
506.1185594473
 30
0.0
 10
472.9139854856
 20
509.8402715038
 30
0.0
 10
470.737595614
 20
512.5273770723
 30
0.0
 10
468.9983517004
 20
514.312999013
 30
0.0
 10
467.1790356594
 20
515.8440907322
 30
0.0
 10
465.8942878731
 20
516.7026336791
 30
0.0
 10
465.2475638834
 20
517.0760115017
 30
0.0
  0
SPLINE
  5
2E9
100
AcDbEntity
  8
0
100
AcDbSpline
 62
7
  6
CONTINUOUS
 70
0
 71
3
 72
11
 73
7
 74
0
 42
0.0000001
 43
0.0000001
 44
0.0000000001
 40
0.0
 40
0.0
 40
0.0
 40
0.0
 40
0.2258258734
 40
0.4626391591
 40
0.7190175894
 40
1.0
 40
1.0
 40
1.0
 40
1.0
 10
473.1727186777
 20
486.1699686308
 30
0.0
 10
472.6883259508
 20
485.8903273137
 30
0.0
 10
471.6088653428
 20
485.4570150897
 30
0.0
 10
469.8213454091
 20
485.2554132973
 30
0.0
 10
467.9035825826
 20
485.4866304682
 30
0.0
 10
466.630052817
 20
485.8996599415
 30
0.0
 10
465.9864000005
 20
486.1642823878
 30
0.0
  0
SPLINE
  5
2EA
100
AcDbEntity
  8
0
100
AcDbSpline
 62
7
  6
CONTINUOUS
 70
0
 71
3
 72
11
 73
7
 74
0
 42
0.0000001
 43
0.0000001
 44
0.0000000001
 40
0.0
 40
0.0
 40
0.0
 40
0.0
 40
0.2803537405
 40
0.536548629
 40
0.7736264458
 40
1.0
 40
1.0
 40
1.0
 40
1.0
 10
451.5928298489
 20
511.2562264228
 30
0.0
 10
451.6902794754
 20
511.9313924557
 30
0.0
 10
451.9762336138
 20
513.2131116905
 30
0.0
 10
452.7353985939
 20
514.9506320848
 30
0.0
 10
453.7941397998
 20
516.3670003025
 30
0.0
 10
454.6957823343
 20
517.0715137056
 30
0.0
 10
455.172813424
 20
517.3469051282
 30
0.0
  0
SPLINE
  5
2EB
100
AcDbEntity
  8
0
100
AcDbSpline
 62
7
  6
CONTINUOUS
 70
0
 71
3
 72
14
 73
10
 74
0
 42
0.0000001
 43
0.0000001
 44
0.0000000001
 40
0.0
 40
0.0
 40
0.0
 40
0.0
 40
0.2892767766
 40
0.4225343095
 40
0.5484956373
 40
0.6678922687
 40
0.7818663442
 40
0.8919518051
 40
1.0
 40
1.0
 40
1.0
 40
1.0
 10
465.2475638834
 20
517.0760115017
 30
0.0
 10
464.4574520609
 20
517.5321724554
 30
0.0
 10
463.2444407892
 20
518.1095063795
 30
0.0
 10
461.5808773141
 20
518.5945337916
 30
0.0
 10
460.4001007705
 20
518.7926299468
 30
0.0
 10
459.2639201296
 20
518.8321331523
 30
0.0
 10
458.1831455418
 20
518.7115778097
 30
0.0
 10
457.1692980793
 20
518.4312595717
 30
0.0
 10
456.5427313057
 20
518.137810279
 30
0.0
 10
456.2476110235
 20
517.9674366404
 30
0.0
  0
SPLINE
  5
2EC
100
AcDbEntity
  8
0
100
AcDbSpline
 62
7
  6
CONTINUOUS
 70
0
 71
3
 72
9
 73
5
 74
0
 42
0.0000001
 43
0.0000001
 44
0.0000000001
 40
0.0
 40
0.0
 40
0.0
 40
0.0
 40
0.5318045965
 40
1.0
 40
1.0
 40
1.0
 40
1.0
 10
453.6625714414
 20
502.5678202554
 30
0.0
 10
453.7153017166
 20
502.9749138707
 30
0.0
 10
453.8965437526
 20
503.7348911849
 30
0.0
 10
454.3027831292
 20
504.4122683021
 30
0.0
 10
454.5463924718
 20
504.6792157876
 30
0.0
  0
SPLINE
  5
2ED
100
AcDbEntity
  8
0
100
AcDbSpline
 62
7
  6
CONTINUOUS
 70
0
 71
3
 72
9
 73
5
 74
0
 42
0.0000001
 43
0.0000001
 44
0.0000000001
 40
0.0
 40
0.0
 40
0.0
 40
0.0
 40
0.2325042476
 40
1.0
 40
1.0
 40
1.0
 40
1.0
 10
463.6700988194
 20
485.9861588448
 30
0.0
 10
463.3975493812
 20
486.0059772818
 30
0.0
 10
462.2303596387
 20
486.1615052123
 30
0.0
 10
461.1073592705
 20
486.5750654395
 30
0.0
 10
460.2995507197
 20
486.9765102409
 30
0.0
  0
SPLINE
  5
2EE
100
AcDbEntity
  8
0
100
AcDbSpline
 62
7
  6
CONTINUOUS
 70
0
 71
3
 72
9
 73
5
 74
0
 42
0.0000001
 43
0.0000001
 44
0.0000000001
 40
0.0
 40
0.0
 40
0.0
 40
0.0
 40
0.2691440612
 40
1.0
 40
1.0
 40
1.0
 40
1.0
 10
449.4346430463
 20
505.7949778852
 30
0.0
 10
449.4543561237
 20
506.1105893384
 30
0.0
 10
449.5727399154
 20
507.2787088351
 30
0.0
 10
449.8879312319
 20
508.4363303807
 30
0.0
 10
450.2622070335
 20
509.2091797241
 30
0.0
  0
SPLINE
  5
2EF
100
AcDbEntity
  8
0
100
AcDbSpline
 62
7
  6
CONTINUOUS
 70
0
 71
3
 72
14
 73
10
 74
0
 42
0.0000001
 43
0.0000001
 44
0.0000000001
 40
0.0
 40
0.0
 40
0.0
 40
0.0
 40
0.1080477844
 40
0.2181329251
 40
0.3321068449
 40
0.4515035118
 40
0.5774649156
 40
0.7107226678
 40
1.0
 40
1.0
 40
1.0
 40
1.0
 10
455.172813424
 20
517.3469051282
 30
0.0
 10
455.4679325119
 20
517.5172782281
 30
0.0
 10
456.0944970448
 20
517.8107267036
 30
0.0
 10
457.1083413836
 20
518.0910455985
 30
0.0
 10
458.1891145605
 20
518.2116011514
 30
0.0
 10
459.3252949899
 20
518.1720988413
 30
0.0
 10
460.506072918
 20
517.9740046426
 30
0.0
 10
462.1696390467
 20
517.4889766714
 30
0.0
 10
463.3826527316
 20
516.9116422056
 30
0.0
 10
464.1727660508
 20
516.4554803878
 30
0.0
  0
SPLINE
  5
2F0
100
AcDbEntity
  8
0
100
AcDbSpline
 62
7
  6
CONTINUOUS
 70
0
 71
3
 72
9
 73
5
 74
0
 42
0.0000001
 43
0.0000001
 44
0.0000000001
 40
0.0
 40
0.0
 40
0.0
 40
0.0
 40
0.25925611
 40
1.0
 40
1.0
 40
1.0
 40
1.0
 10
458.0085017083
 20
491.5154990447
 30
0.0
 10
458.081731181
 20
491.4818781678
 30
0.0
 10
458.3667516645
 20
491.3579349054
 30
0.0
 10
458.6623254363
 20
491.257569476
 30
0.0
 10
458.8853489357
 20
491.2004233661
 30
0.0
  0
SPLINE
  5
2F1
100
AcDbEntity
  8
0
100
AcDbSpline
 62
7
  6
CONTINUOUS
 70
0
 71
3
 72
10
 73
6
 74
0
 42
0.0000001
 43
0.0000001
 44
0.0000000001
 40
0.0
 40
0.0
 40
0.0
 40
0.0
 40
0.5256461054
 40
0.7665260658
 40
1.0
 40
1.0
 40
1.0
 40
1.0
 10
458.8853489357
 20
491.2004233661
 30
0.0
 10
459.2894865229
 20
491.0968697447
 30
0.0
 10
459.9108346063
 20
491.0267953473
 30
0.0
 10
460.6944902515
 20
491.1799554062
 30
0.0
 10
461.0431364678
 20
491.3317259535
 30
0.0
 10
461.203609078
 20
491.4243854009
 30
0.0
  0
SPLINE
  5
2F2
100
AcDbEntity
  8
0
100
AcDbSpline
 62
7
  6
CONTINUOUS
 70
0
 71
3
 72
10
 73
6
 74
0
 42
0.0000001
 43
0.0000001
 44
0.0000000001
 40
0.0
 40
0.0
 40
0.0
 40
0.0
 40
0.5197843765
 40
0.7665926708
 40
1.0
 40
1.0
 40
1.0
 40
1.0
 10
463.9502868296
 20
500.4754096982
 30
0.0
 10
464.5036371764
 20
499.4003678147
 30
0.0
 10
465.1853814636
 20
497.7375820163
 30
0.0
 10
465.7409803603
 20
495.4758782089
 30
0.0
 10
465.8892808712
 20
494.3655542577
 30
0.0
 10
465.9269319502
 20
493.8239213274
 30
0.0
  0
SPLINE
  5
2F3
100
AcDbEntity
  8
0
100
AcDbSpline
 62
7
  6
CONTINUOUS
 70
0
 71
3
 72
9
 73
5
 74
0
 42
0.0000001
 43
0.0000001
 44
0.0000000001
 40
0.0
 40
0.0
 40
0.0
 40
0.0
 40
0.256526795
 40
1.0
 40
1.0
 40
1.0
 40
1.0
 10
467.6289274312
 20
492.8412960083
 30
0.0
 10
467.6370513612
 20
492.7018493003
 30
0.0
 10
467.6611292203
 20
492.1578586474
 30
0.0
 10
467.6541641441
 20
491.612337453
 30
0.0
 10
467.6289274312
 20
491.208291174
 30
0.0
  0
SPLINE
  5
2F4
100
AcDbEntity
  8
0
100
AcDbSpline
 62
7
  6
CONTINUOUS
 70
0
 71
3
 72
11
 73
7
 74
0
 42
0.0000001
 43
0.0000001
 44
0.0000000001
 40
0.0
 40
0.0
 40
0.0
 40
0.0
 40
0.2329729135
 40
0.4733760055
 40
0.7275346885
 40
1.0
 40
1.0
 40
1.0
 40
1.0
 10
471.3727238919
 20
489.2876696436
 30
0.0
 10
471.6826653608
 20
489.4666138586
 30
0.0
 10
472.273180141
 20
489.9030432253
 30
0.0
 10
473.0116710094
 20
490.7523024555
 30
0.0
 10
473.5979859759
 20
491.7820613072
 30
0.0
 10
473.8721297579
 20
492.5474913696
 30
0.0
 10
473.9845795803
 20
492.9506599526
 30
0.0
  0
SPLINE
  5
2F5
100
AcDbEntity
  8
0
100
AcDbSpline
 62
7
  6
CONTINUOUS
 70
0
 71
3
 72
15
 73
11
 74
0
 42
0.0000001
 43
0.0000001
 44
0.0000000001
 40
0.0
 40
0.0
 40
0.0
 40
0.0
 40
0.1031101523
 40
0.2192396074
 40
0.346306462
 40
0.4806855176
 40
0.6178831393
 40
0.7530979549
 40
0.8817425443
 40
1.0
 40
1.0
 40
1.0
 40
1.0
 10
473.9845795803
 20
492.9506599526
 30
0.0
 10
474.2071359895
 20
493.7485958699
 30
0.0
 10
474.4406127977
 20
495.5142406606
 30
0.0
 10
474.2385497764
 20
498.3025411184
 30
0.0
 10
473.5243145366
 20
501.2632514775
 30
0.0
 10
472.3337222325
 20
504.2470515898
 30
0.0
 10
470.7277066687
 20
507.1041220803
 30
0.0
 10
468.7873792874
 20
509.6891258262
 30
0.0
 10
466.6124876953
 20
511.8701464259
 30
0.0
 10
464.9955693347
 20
513.0410367355
 30
0.0
 10
464.1727660508
 20
513.5160716862
 30
0.0
  0
SPLINE
  5
2F6
100
AcDbEntity
  8
0
100
AcDbSpline
 62
7
  6
CONTINUOUS
 70
0
 71
3
 72
11
 73
7
 74
0
 42
0.0000001
 43
0.0000001
 44
0.0000000001
 40
0.0
 40
0.0
 40
0.0
 40
0.0
 40
0.2264550007
 40
0.4635732293
 40
0.7197363503
 40
1.0
 40
1.0
 40
1.0
 40
1.0
 10
453.7386498878
 20
504.3541511967
 30
0.0
 10
453.5412873596
 20
504.2401909217
 30
0.0
 10
453.1681825185
 20
503.9488922615
 30
0.0
 10
452.7297196177
 20
503.3634148873
 30
0.0
 10
452.4148498947
 20
502.6452665643
 30
0.0
 10
452.2958190931
 20
502.1154425569
 30
0.0
 10
452.2551253612
 20
501.8363402113
 30
0.0
  0
SPLINE
  5
2F7
100
AcDbEntity
  8
0
100
AcDbSpline
 62
7
  6
CONTINUOUS
 70
0
 71
3
 72
21
 73
17
 74
0
 42
0.0000001
 43
0.0000001
 44
0.0000000001
 40
0.0
 40
0.0
 40
0.0
 40
0.0
 40
0.0624112471
 40
0.1287773421
 40
0.1984004725
 40
0.2704078251
 40
0.4174467882
 40
0.5616787591
 40
0.6303062202
 40
0.6954226076
 40
0.7563972454
 40
0.8128596597
 40
0.8647833937
 40
0.912579504
 40
0.9571737457
 40
1.0
 40
1.0
 40
1.0
 40
1.0
 10
464.1727660508
 20
516.4554803878
 30
0.0
 10
464.8194883679
 20
516.0821035309
 30
0.0
 10
466.10423236
 20
515.2235635991
 30
0.0
 10
467.9235436712
 20
513.6924769207
 30
0.0
 10
469.6627852141
 20
511.9068601146
 30
0.0
 10
471.8391781452
 20
509.2197545383
 30
0.0
 10
474.1265530073
 20
505.4980356178
 30
0.0
 10
475.7497859746
 20
501.4835054323
 30
0.0
 10
476.5515880013
 20
498.2506444659
 30
0.0
 10
476.878720113
 20
495.9391807515
 30
0.0
 10
476.9344505721
 20
493.7501002265
 30
0.0
 10
476.7163662145
 20
491.7284031793
 30
0.0
 10
476.2265499315
 20
489.9156882919
 30
0.0
 10
475.4700781098
 20
488.3501602298
 30
0.0
 10
474.457722114
 20
487.0700588326
 30
0.0
 10
473.616502569
 20
486.4261663499
 30
0.0
 10
473.1727186777
 20
486.1699686308
 30
0.0
  0
SPLINE
  5
2F8
100
AcDbEntity
  8
0
100
AcDbSpline
 62
7
  6
CONTINUOUS
 70
0
 71
3
 72
9
 73
5
 74
0
 42
0.0000001
 43
0.0000001
 44
0.0000000001
 40
0.0
 40
0.0
 40
0.0
 40
0.0
 40
0.264039174
 40
1.0
 40
1.0
 40
1.0
 40
1.0
 10
464.1727660508
 20
513.5160716862
 30
0.0
 10
463.9501401485
 20
513.644601903
 30
0.0
 10
463.0936566185
 20
514.1071367581
 30
0.0
 10
462.1795907647
 20
514.4691719652
 30
0.0
 10
461.4863804961
 20
514.6504504816
 30
0.0
  0
SPLINE
  5
2F9
100
AcDbEntity
  8
0
100
AcDbSpline
 62
7
  6
CONTINUOUS
 70
0
 71
3
 72
11
 73
7
 74
0
 42
0.0000001
 43
0.0000001
 44
0.0000000001
 40
0.0
 40
0.0
 40
0.0
 40
0.0
 40
0.2714429666
 40
0.5253648976
 40
0.7662008894
 40
1.0
 40
1.0
 40
1.0
 40
1.0
 10
461.3021709654
 20
514.6964653675
 30
0.0
 10
460.909962031
 20
514.789819328
 30
0.0
 10
460.1361967448
 20
514.9167352854
 30
0.0
 10
458.9920225607
 20
514.9073974869
 30
0.0
 10
457.9248371758
 20
514.6891169612
 30
0.0
 10
457.2735398511
 20
514.4028310509
 30
0.0
 10
456.9728082098
 20
514.2292041154
 30
0.0
  0
SPLINE
  5
2FA
100
AcDbEntity
  8
0
100
AcDbSpline
 62
7
  6
CONTINUOUS
 70
0
 71
3
 72
11
 73
7
 74
0
 42
0.0000001
 43
0.0000001
 44
0.0000000001
 40
0.0
 40
0.0
 40
0.0
 40
0.0
 40
0.2819589284
 40
0.5399710844
 40
0.7772257548
 40
1.0
 40
1.0
 40
1.0
 40
1.0
 10
465.9269319502
 20
492.1909164932
 30
0.0
 10
465.8920394959
 20
491.7292574273
 30
0.0
 10
465.7636740518
 20
490.8476836762
 30
0.0
 10
465.363216929
 20
489.6280652322
 30
0.0
 10
464.7689260366
 20
488.5988671433
 30
0.0
 10
464.2375828571
 20
488.0482312996
 30
0.0
 10
463.9502868296
 20
487.821809673
 30
0.0
  0
SPLINE
  5
2FB
100
AcDbEntity
  8
0
100
AcDbSpline
 62
7
  6
CONTINUOUS
 70
0
 71
3
 72
11
 73
7
 74
0
 42
0.0000001
 43
0.0000001
 44
0.0000000001
 40
0.0
 40
0.0
 40
0.0
 40
0.0
 40
0.2227749779
 40
0.4600296332
 40
0.7180414248
 40
1.0
 40
1.0
 40
1.0
 40
1.0
 10
451.9919762996
 20
508.5340961049
 30
0.0
 10
452.3317061275
 20
508.6696985182
 30
0.0
 10
453.0742330063
 20
508.8545537236
 30
0.0
 10
454.2626810109
 20
508.8546494919
 30
0.0
 10
455.5191227677
 20
508.59166873
 30
0.0
 10
456.3467668768
 20
508.26206303
 30
0.0
 10
456.7640197578
 20
508.0614578547
 30
0.0
  0
SPLINE
  5
2FC
100
AcDbEntity
  8
0
100
AcDbSpline
 62
7
  6
CONTINUOUS
 70
0
 71
3
 72
10
 73
6
 74
0
 42
0.0000001
 43
0.0000001
 44
0.0000000001
 40
0.0
 40
0.0
 40
0.0
 40
0.0
 40
0.2334073292
 40
0.4802156235
 40
1.0
 40
1.0
 40
1.0
 40
1.0
 10
468.0482434619
 20
495.048653789
 30
0.0
 10
468.0105923829
 20
495.5902867194
 30
0.0
 10
467.862291872
 20
496.7006106705
 30
0.0
 10
467.3066929753
 20
498.9623144779
 30
0.0
 10
466.624948688
 20
500.6251002763
 30
0.0
 10
466.0715983413
 20
501.7001421598
 30
0.0
  0
SPLINE
  5
2FD
100
AcDbEntity
  8
0
100
AcDbSpline
 62
7
  6
CONTINUOUS
 70
0
 71
3
 72
10
 73
6
 74
0
 42
0.0000001
 43
0.0000001
 44
0.0000000001
 40
0.0
 40
0.0
 40
0.0
 40
0.0
 40
0.5206498733
 40
0.7673988741
 40
1.0
 40
1.0
 40
1.0
 40
1.0
 10
467.2750908874
 20
502.3949987717
 30
0.0
 10
467.980389714
 20
501.0515220431
 30
0.0
 10
468.8452917902
 20
498.968480385
 30
0.0
 10
469.5356043236
 20
496.1331118747
 30
0.0
 10
469.7108135223
 20
494.7427631427
 30
0.0
 10
469.7502389429
 20
494.0660284699
 30
0.0
  0
SPLINE
  5
2FE
100
AcDbEntity
  8
0
100
AcDbSpline
 62
7
  6
CONTINUOUS
 70
0
 71
3
 72
10
 73
6
 74
0
 42
0.0000001
 43
0.0000001
 44
0.0000000001
 40
0.0
 40
0.0
 40
0.0
 40
0.0
 40
0.2326004766
 40
0.4793492231
 40
1.0
 40
1.0
 40
1.0
 40
1.0
 10
460.2995507197
 20
510.4350097709
 30
0.0
 10
460.8659066443
 20
510.0625066953
 30
0.0
 10
461.9823789765
 20
509.2156105652
 30
0.0
 10
464.0927273279
 20
507.2001201627
 30
0.0
 10
465.464247112
 20
505.409584903
 30
0.0
 10
466.275086724
 20
504.1270471755
 30
0.0
  0
SPLINE
  5
2FF
100
AcDbEntity
  8
0
100
AcDbSpline
 62
7
  6
CONTINUOUS
 70
0
 71
3
 72
9
 73
5
 74
0
 42
0.0000001
 43
0.0000001
 44
0.0000000001
 40
0.0
 40
0.0
 40
0.0
 40
0.0
 40
0.4802953728
 40
1.0
 40
1.0
 40
1.0
 40
1.0
 10
466.0715983413
 20
489.0465421346
 30
0.0
 10
466.4085210795
 20
489.3120751986
 30
0.0
 10
467.0235313224
 20
489.9806040912
 30
0.0
 10
467.4280282319
 20
490.788498212
 30
0.0
 10
467.5902805985
 20
491.2233971725
 30
0.0
  0
SPLINE
  5
300
100
AcDbEntity
  8
0
100
AcDbSpline
 62
7
  6
CONTINUOUS
 70
0
 71
3
 72
11
 73
7
 74
0
 42
0.0000001
 43
0.0000001
 44
0.0000000001
 40
0.0
 40
0.0
 40
0.0
 40
0.0
 40
0.2833109566
 40
0.5415562578
 40
0.7781457707
 40
1.0
 40
1.0
 40
1.0
 40
1.0
 10
469.7502389429
 20
492.4330236356
 30
0.0
 10
469.7138357374
 20
491.8501989305
 30
0.0
 10
469.564626839
 20
490.7382279468
 30
0.0
 10
469.0687971525
 20
489.2021943152
 30
0.0
 10
468.3181616655
 20
487.9147735311
 30
0.0
 10
467.6408916822
 20
487.2364522049
 30
0.0
 10
467.2750908874
 20
486.9620434696
 30
0.0
  0
SPLINE
  5
301
100
AcDbEntity
  8
0
100
AcDbSpline
 62
7
  6
CONTINUOUS
 70
0
 71
3
 72
10
 73
6
 74
0
 42
0.0000001
 43
0.0000001
 44
0.0000000001
 40
0.0
 40
0.0
 40
0.0
 40
0.0
 40
0.5197852422
 40
0.7665932944
 40
1.0
 40
1.0
 40
1.0
 40
1.0
 10
465.0715941779
 20
503.4321905636
 30
0.0
 10
464.417252629
 20
504.4489209991
 30
0.0
 10
463.3181070028
 20
505.8707114786
 30
0.0
 10
461.6372107461
 20
507.4827085549
 30
0.0
 10
460.7497924943
 20
508.1662915931
 30
0.0
 10
460.2995507197
 20
508.4697088073
 30
0.0
  0
SPLINE
  5
302
100
AcDbEntity
  8
0
100
AcDbSpline
 62
7
  6
CONTINUOUS
 70
0
 71
3
 72
10
 73
6
 74
0
 42
0.0000001
 43
0.0000001
 44
0.0000000001
 40
0.0
 40
0.0
 40
0.0
 40
0.0
 40
0.2334067056
 40
0.4802147578
 40
1.0
 40
1.0
 40
1.0
 40
1.0
 10
458.1782392081
 20
507.2449763457
 30
0.0
 10
458.6284809826
 20
506.9415591314
 30
0.0
 10
459.5158992345
 20
506.2579760933
 30
0.0
 10
461.1967954912
 20
504.645979017
 30
0.0
 10
462.2959411173
 20
503.2241885375
 30
0.0
 10
462.9502826662
 20
502.207458102
 30
0.0
  0
SPLINE
  5
303
100
AcDbEntity
  8
0
100
AcDbSpline
 62
7
  6
CONTINUOUS
 70
0
 71
3
 72
11
 73
7
 74
0
 42
0.0000001
 43
0.0000001
 44
0.0000000001
 40
0.0
 40
0.0
 40
0.0
 40
0.0
 40
0.2218550061
 40
0.4584444964
 40
0.7166894083
 40
1.0
 40
1.0
 40
1.0
 40
1.0
 10
452.9097952651
 20
511.8433272315
 30
0.0
 10
453.3303341434
 20
512.0229250581
 30
0.0
 10
454.2564006941
 20
512.2703180644
 30
0.0
 10
455.7466461642
 20
512.2767070284
 30
0.0
 10
457.3247960834
 20
511.9381193738
 30
0.0
 10
458.3623908965
 20
511.5113693092
 30
0.0
 10
458.8853312694
 20
511.2514912799
 30
0.0
  0
SPLINE
  5
304
100
AcDbEntity
  8
0
100
AcDbSpline
 62
7
  6
CONTINUOUS
 70
0
 71
3
 72
9
 73
5
 74
0
 42
0.0000001
 43
0.0000001
 44
0.0000000001
 40
0.0
 40
0.0
 40
0.0
 40
0.0
 40
0.5197033299
 40
1.0
 40
1.0
 40
1.0
 40
1.0
 10
456.7577725868
 20
509.985679945
 30
0.0
 10
456.3000229677
 20
510.0626020023
 30
0.0
 10
455.3981373509
 20
510.1162206454
 30
0.0
 10
454.5116953844
 20
509.9178520728
 30
0.0
 10
454.1132878113
 20
509.7588285665
 30
0.0
  0
SPLINE
  5
305
100
AcDbEntity
  8
0
100
AcDbSpline
 62
7
  6
CONTINUOUS
 70
0
 71
3
 72
9
 73
5
 74
0
 42
0.0000001
 43
0.0000001
 44
0.0000000001
 40
0.0
 40
0.0
 40
0.0
 40
0.0
 40
0.2437923171
 40
1.0
 40
1.0
 40
1.0
 40
1.0
 10
433.7461222877
 20
474.5887973943
 30
0.0
 10
433.6473508639
 20
474.6458218123
 30
0.0
 10
433.2458050578
 20
474.8859339574
 30
0.0
 10
432.858594758
 20
475.1498114567
 30
0.0
 10
432.5742132704
 20
475.3602381656
 30
0.0
  0
SPLINE
  5
306
100
AcDbEntity
  8
0
100
AcDbSpline
 62
7
  6
CONTINUOUS
 70
0
 71
3
 72
14
 73
10
 74
0
 42
0.0000001
 43
0.0000001
 44
0.0000000001
 40
0.0
 40
0.0
 40
0.0
 40
0.0
 40
0.2964626659
 40
0.4319507527
 40
0.5587564507
 40
0.6774662807
 40
0.7892703172
 40
0.8959896861
 40
1.0
 40
1.0
 40
1.0
 40
1.0
 10
425.4295032769
 20
487.7208381727
 30
0.0
 10
425.3427395309
 20
488.4732044685
 30
0.0
 10
425.3057620456
 20
489.5857308035
 30
0.0
 10
425.497880202
 20
491.0029091903
 30
0.0
 10
425.7486378292
 20
491.9464653345
 30
0.0
 10
426.1077716179
 20
492.7894810315
 30
0.0
 10
426.5719562677
 20
493.5204133424
 30
0.0
 10
427.1357397453
 20
494.1277916945
 30
0.0
 10
427.5757925917
 20
494.4452386748
 30
0.0
 10
427.805896612
 20
494.5781026964
 30
0.0
  0
SPLINE
  5
307
100
AcDbEntity
  8
0
100
AcDbSpline
 62
7
  6
CONTINUOUS
 70
0
 71
3
 72
12
 73
8
 74
0
 42
0.0000001
 43
0.0000001
 44
0.0000000001
 40
0.0
 40
0.0
 40
0.0
 40
0.0
 40
0.2895878532
 40
0.5486297341
 40
0.7816343402
 40
0.8918362981
 40
1.0
 40
1.0
 40
1.0
 40
1.0
 10
442.2313683343
 20
498.8886696235
 30
0.0
 10
441.7098676486
 20
499.1897513734
 30
0.0
 10
440.6727199972
 20
499.6832015824
 30
0.0
 10
439.079722396
 20
500.0682932258
 30
0.0
 10
437.8077001202
 20
500.0345827611
 30
0.0
 10
436.8995473758
 20
499.7831016964
 30
0.0
 10
436.4859219376
 20
499.5894996888
 30
0.0
 10
436.2911427032
 20
499.477032479
 30
0.0
  0
SPLINE
  5
308
100
AcDbEntity
  8
0
100
AcDbSpline
 62
7
  6
CONTINUOUS
 70
0
 71
3
 72
12
 73
8
 74
0
 42
0.0000001
 43
0.0000001
 44
0.0000000001
 40
0.0
 40
0.0
 40
0.0
 40
0.0
 40
0.2895871494
 40
0.5486275066
 40
0.7816324684
 40
0.8918344685
 40
1.0
 40
1.0
 40
1.0
 40
1.0
 10
446.4739913576
 20
498.8886272954
 30
0.0
 10
446.0841781798
 20
499.1136809471
 30
0.0
 10
445.3089300485
 20
499.4825302606
 30
0.0
 10
444.1181880956
 20
499.7703708795
 30
0.0
 10
443.1673731969
 20
499.7451756001
 30
0.0
 10
442.4885367951
 20
499.5572020291
 30
0.0
 10
442.1793556481
 20
499.41248708
 30
0.0
 10
442.0337545396
 20
499.3284250293
 30
0.0
  0
SPLINE
  5
309
100
AcDbEntity
  8
0
100
AcDbSpline
 62
7
  6
CONTINUOUS
 70
0
 71
3
 72
17
 73
13
 74
0
 42
0.0000001
 43
0.0000001
 44
0.0000000001
 40
0.0
 40
0.0
 40
0.0
 40
0.0
 40
0.0428867776
 40
0.0877696386
 40
0.1359798579
 40
0.188348006
 40
0.3062558825
 40
0.4401316276
 40
0.5842427747
 40
0.7308641481
 40
0.8718296004
 40
1.0
 40
1.0
 40
1.0
 40
1.0
 10
461.0424149825
 20
493.446304174
 30
0.0
 10
461.1789345736
 20
493.5330978474
 30
0.0
 10
461.4363693672
 20
493.7477004079
 30
0.0
 10
461.7426415095
 20
494.1643744175
 30
0.0
 10
461.9688741257
 20
494.6681876687
 30
0.0
 10
462.1669656565
 20
495.4718733396
 30
0.0
 10
462.1773493545
 20
496.6339657439
 30
0.0
 10
461.8638251125
 20
498.1026978513
 30
0.0
 10
461.2515179132
 20
499.5913784001
 30
0.0
 10
460.3885710697
 20
500.9812889562
 30
0.0
 10
459.3448924345
 20
502.161630262
 30
0.0
 10
458.5315878842
 20
502.7856839829
 30
0.0
 10
458.1128855176
 20
503.0274164383
 30
0.0
  0
SPLINE
  5
30A
100
AcDbEntity
  8
0
100
AcDbSpline
 62
7
  6
CONTINUOUS
 70
0
 71
3
 72
18
 73
14
 74
0
 42
0.0000001
 43
0.0000001
 44
0.0000000001
 40
0.0
 40
0.0
 40
0.0
 40
0.0
 40
0.0428496644
 40
0.0874682543
 40
0.1352902757
 40
0.1872418357
 40
0.2437342319
 40
0.3047409357
 40
0.4383758257
 40
0.5826833226
 40
0.7297994566
 40
0.8713527991
 40
1.0
 40
1.0
 40
1.0
 40
1.0
 10
450.9142281755
 20
483.9469016815
 30
0.0
 10
451.1331741026
 20
484.0733089857
 30
0.0
 10
451.5482104245
 20
484.3909805409
 30
0.0
 10
452.0476657327
 20
485.0225531189
 30
0.0
 10
452.4208793969
 20
485.79493952
 30
0.0
 10
452.6625172179
 20
486.6892630213
 30
0.0
 10
452.7701572395
 20
487.6867338791
 30
0.0
 10
452.7320486173
 20
489.1714553058
 30
0.0
 10
452.3291244246
 20
491.1465842223
 30
0.0
 10
451.385046456
 20
493.4823175628
 30
0.0
 10
450.0405952245
 20
495.6692413165
 30
0.0
 10
448.4073537116
 20
497.5271842634
 30
0.0
 10
447.1313331205
 20
498.5091194372
 30
0.0
 10
446.4739913576
 20
498.8886272954
 30
0.0
  0
SPLINE
  5
30B
100
AcDbEntity
  8
0
100
AcDbSpline
 62
7
  6
CONTINUOUS
 70
0
 71
3
 72
16
 73
12
 74
0
 42
0.0000001
 43
0.0000001
 44
0.0000000001
 40
0.0
 40
0.0
 40
0.0
 40
0.0
 40
0.0450910706
 40
0.0910323137
 40
0.1881665722
 40
0.2961614105
 40
0.4168827646
 40
0.55001411
 40
0.6936613149
 40
0.8448634328
 40
1.0
 40
1.0
 40
1.0
 40
1.0
 10
448.1715939654
 20
478.8993643853
 30
0.0
 10
448.3663829192
 20
479.0118372071
 30
0.0
 10
448.7409141044
 20
479.2732103588
 30
0.0
 10
449.4127467482
 20
479.9340719269
 30
0.0
 10
450.0780556175
 20
481.0187668054
 30
0.0
 10
450.5409854576
 20
482.5914494527
 30
0.0
 10
450.6852569353
 20
484.4011225601
 30
0.0
 10
450.5105111695
 20
486.3838998343
 30
0.0
 10
450.0255364729
 20
488.469343474
 30
0.0
 10
449.2487903826
 20
490.5807111066
 30
0.0
 10
448.5582856212
 20
491.948262308
 30
0.0
 10
448.1713391502
 20
492.6184473546
 30
0.0
  0
SPLINE
  5
30C
100
AcDbEntity
  8
0
100
AcDbSpline
 62
7
  6
CONTINUOUS
 70
0
 71
3
 72
11
 73
7
 74
0
 42
0.0000001
 43
0.0000001
 44
0.0000000001
 40
0.0
 40
0.0
 40
0.0
 40
0.0
 40
0.2660485335
 40
0.5253477707
 40
0.7716830296
 40
1.0
 40
1.0
 40
1.0
 40
1.0
 10
448.1713391502
 20
492.6184473546
 30
0.0
 10
447.7844364299
 20
493.2885566257
 30
0.0
 10
446.9454021204
 20
494.5701054382
 30
0.0
 10
445.5052066446
 20
496.2982384558
 30
0.0
 10
443.942305378
 20
497.760465426
 30
0.0
 10
442.8064501065
 20
498.5566535188
 30
0.0
 10
442.2313683343
 20
498.8886696235
 30
0.0
  0
SPLINE
  5
30D
100
AcDbEntity
  8
0
100
AcDbSpline
 62
7
  6
CONTINUOUS
 70
0
 71
3
 72
12
 73
8
 74
0
 42
0.0000001
 43
0.0000001
 44
0.0000000001
 40
0.0
 40
0.0
 40
0.0
 40
0.0
 40
0.1081631376
 40
0.2183646639
 40
0.4513692536
 40
0.7104116189
 40
1.0
 40
1.0
 40
1.0
 40
1.0
 10
439.6863479634
 20
474.000434475
 30
0.0
 10
439.4915697495
 20
473.8879678749
 30
0.0
 10
439.0779460051
 20
473.6943672999
 30
0.0
 10
438.1697958021
 20
473.4428855064
 30
0.0
 10
436.8977735027
 20
473.409173907
 30
0.0
 10
435.3047734499
 20
473.7942639364
 30
0.0
 10
434.2676238888
 20
474.2877151159
 30
0.0
 10
433.7461222877
 20
474.5887973943
 30
0.0
  0
SPLINE
  5
30E
100
AcDbEntity
  8
0
100
AcDbSpline
 62
7
  6
CONTINUOUS
 70
0
 71
3
 72
11
 73
7
 74
0
 42
0.0000001
 43
0.0000001
 44
0.0000000001
 40
0.0
 40
0.0
 40
0.0
 40
0.0
 40
0.2889583925
 40
0.5483885539
 40
0.78223693
 40
1.0
 40
1.0
 40
1.0
 40
1.0
 10
458.1128855176
 20
503.0274164383
 30
0.0
 10
457.8692850546
 20
503.1680560495
 30
0.0
 10
457.384843705
 20
503.400043405
 30
0.0
 10
456.6403988032
 20
503.587488849
 30
0.0
 10
455.9396803403
 20
503.5853167505
 30
0.0
 10
455.5125298336
 20
503.4479778091
 30
0.0
 10
455.3245926014
 20
503.349922106
 30
0.0
  0
SPLINE
  5
30F
100
AcDbEntity
  8
0
100
AcDbSpline
 62
7
  6
CONTINUOUS
 70
0
 71
3
 72
12
 73
8
 74
0
 42
0.0000001
 43
0.0000001
 44
0.0000000001
 40
0.0
 40
0.0
 40
0.0
 40
0.0
 40
0.1081631376
 40
0.2183646639
 40
0.4513692536
 40
0.7104116189
 40
1.0
 40
1.0
 40
1.0
 40
1.0
 10
427.805896612
 20
494.5781026964
 30
0.0
 10
428.000674826
 20
494.6905692964
 30
0.0
 10
428.4142985704
 20
494.8841698715
 30
0.0
 10
429.3224487734
 20
495.135651665
 30
0.0
 10
430.5944710728
 20
495.1693632644
 30
0.0
 10
432.1874711255
 20
494.784273235
 30
0.0
 10
433.2246206867
 20
494.2908220554
 30
0.0
 10
433.7461222877
 20
493.9897397771
 30
0.0
  0
SPLINE
  5
310
100
AcDbEntity
  8
0
100
AcDbSpline
 62
7
  6
CONTINUOUS
 70
0
 71
3
 72
19
 73
15
 74
0
 42
0.0000001
 43
0.0000001
 44
0.0000000001
 40
0.0
 40
0.0
 40
0.0
 40
0.0
 40
0.1286229836
 40
0.2701525214
 40
0.4172432851
 40
0.5615257921
 40
0.6301769952
 40
0.6953159471
 40
0.7563118035
 40
0.8127939219
 40
0.8647357914
 40
0.9125486992
 40
0.9571586807
 40
1.0
 40
1.0
 40
1.0
 40
1.0
 10
433.7461222877
 20
493.9897397771
 30
0.0
 10
434.6255177225
 20
493.482032072
 30
0.0
 10
436.332576873
 20
492.1684300516
 30
0.0
 10
438.5176980718
 20
489.6825937981
 30
0.0
 10
440.3158524323
 20
486.75781099
 30
0.0
 10
441.387301212
 20
484.1077636596
 30
0.0
 10
441.9165009805
 20
481.9740282645
 30
0.0
 10
442.1324162372
 20
480.4483935628
 30
0.0
 10
442.1691977197
 20
479.0035431996
 30
0.0
 10
442.0252545347
 20
477.6691675666
 30
0.0
 10
441.701962383
 20
476.4727235202
 30
0.0
 10
441.2026681858
 20
475.4394328314
 30
0.0
 10
440.5344931922
 20
474.5945123089
 30
0.0
 10
439.9792450506
 20
474.1695557483
 30
0.0
 10
439.6863479634
 20
474.000434475
 30
0.0
  0
SPLINE
  5
311
100
AcDbEntity
  8
0
100
AcDbSpline
 62
7
  6
CONTINUOUS
 70
0
 71
3
 72
10
 73
6
 74
0
 42
0.0000001
 43
0.0000001
 44
0.0000000001
 40
0.0
 40
0.0
 40
0.0
 40
0.0
 40
0.5146365804
 40
0.7593450267
 40
1.0
 40
1.0
 40
1.0
 40
1.0
 10
101.3716506805
 20
322.0194335291
 30
0.0
 10
100.3233457356
 20
322.0917970733
 30
0.0
 10
98.7479085663
 20
322.007929085
 30
0.0
 10
96.781895039
 20
321.4337103302
 30
0.0
 10
95.8816639332
 20
321.0069153421
 30
0.0
 10
95.4561105105
 20
320.7612431868
 30
0.0
  0
SPLINE
  5
312
100
AcDbEntity
  8
0
100
AcDbSpline
 62
7
  6
CONTINUOUS
 70
0
 71
3
 72
9
 73
5
 74
0
 42
0.0000001
 43
0.0000001
 44
0.0000000001
 40
0.0
 40
0.0
 40
0.0
 40
0.0
 40
0.506825567
 40
1.0
 40
1.0
 40
1.0
 40
1.0
 10
94.4481078112
 20
301.0610367317
 30
0.0
 10
95.2065045239
 20
301.4463130507
 30
0.0
 10
96.6653071626
 20
302.2838551909
 30
0.0
 10
98.0180032326
 20
303.2851167176
 30
0.0
 10
98.6519017252
 20
303.8173959319
 30
0.0
  0
SPLINE
  5
313
100
AcDbEntity
  8
0
100
AcDbSpline
 62
7
  6
CONTINUOUS
 70
0
 71
3
 72
20
 73
16
 74
0
 42
0.0000001
 43
0.0000001
 44
0.0000000001
 40
0.0
 40
0.0
 40
0.0
 40
0.0
 40
0.0178029278
 40
0.0296489603
 40
0.0439376522
 40
0.0802745758
 40
0.1269801726
 40
0.1834360188
 40
0.2486100887
 40
0.3211502812
 40
0.3994434396
 40
0.5658653482
 40
0.7319948558
 40
0.8816053682
 40
1.0
 40
1.0
 40
1.0
 40
1.0
 10
93.6249379291
 20
276.5023068258
 30
0.0
 10
93.5989980415
 20
276.5417509815
 30
0.0
 10
93.524535402
 20
276.5845803886
 30
0.0
 10
93.411112646
 20
276.607845078
 30
0.0
 10
93.2448213349
 20
276.6174007622
 30
0.0
 10
92.9872413844
 20
276.5876929643
 30
0.0
 10
92.6269988347
 20
276.5015530738
 30
0.0
 10
92.2030450342
 20
276.3603721169
 30
0.0
 10
91.7258115537
 20
276.1663659417
 30
0.0
 10
91.2070547149
 20
275.9229462574
 30
0.0
 10
90.4615897699
 20
275.5325479187
 30
0.0
 10
89.5255600402
 20
274.9735011412
 30
0.0
 10
88.4617019756
 20
274.2635968194
 30
0.0
 10
87.5305265818
 20
273.5863235408
 30
0.0
 10
86.9708727962
 20
273.1477657243
 30
0.0
 10
86.7304124578
 20
272.945906973
 30
0.0
  0
SPLINE
  5
314
100
AcDbEntity
  8
0
100
AcDbSpline
 62
7
  6
CONTINUOUS
 70
0
 71
3
 72
20
 73
16
 74
0
 42
0.0000001
 43
0.0000001
 44
0.0000000001
 40
0.0
 40
0.0
 40
0.0
 40
0.0
 40
0.0178029278
 40
0.0296489603
 40
0.0439376522
 40
0.0802745758
 40
0.1269801727
 40
0.1834360188
 40
0.2486100887
 40
0.3211502812
 40
0.3994434396
 40
0.5658653482
 40
0.7319948558
 40
0.8816053682
 40
1.0
 40
1.0
 40
1.0
 40
1.0
 10
98.7622741997
 20
280.8149360578
 30
0.0
 10
98.7363343121
 20
280.8543802136
 30
0.0
 10
98.6618716726
 20
280.8972096207
 30
0.0
 10
98.5484489165
 20
280.92047431
 30
0.0
 10
98.3821576055
 20
280.9300299943
 30
0.0
 10
98.1245776549
 20
280.9003221964
 30
0.0
 10
97.7643351052
 20
280.8141823059
 30
0.0
 10
97.3403813048
 20
280.673001349
 30
0.0
 10
96.8631478243
 20
280.4789951738
 30
0.0
 10
96.3443909855
 20
280.2355754895
 30
0.0
 10
95.5989260404
 20
279.8451771508
 30
0.0
 10
94.6628963107
 20
279.2861303732
 30
0.0
 10
93.5990382461
 20
278.5762260515
 30
0.0
 10
92.6678628523
 20
277.8989527729
 30
0.0
 10
92.1082090668
 20
277.4603949564
 30
0.0
 10
91.8677487284
 20
277.258536205
 30
0.0
  0
SPLINE
  5
315
100
AcDbEntity
  8
0
100
AcDbSpline
 62
7
  6
CONTINUOUS
 70
0
 71
3
 72
20
 73
16
 74
0
 42
0.0000001
 43
0.0000001
 44
0.0000000001
 40
0.0
 40
0.0
 40
0.0
 40
0.0
 40
0.0178029278
 40
0.0296489603
 40
0.0439376522
 40
0.0802745758
 40
0.1269801727
 40
0.1834360188
 40
0.2486100887
 40
0.3211502812
 40
0.3994434396
 40
0.5658653482
 40
0.7319948558
 40
0.8816053682
 40
1.0
 40
1.0
 40
1.0
 40
1.0
 10
103.8996104702
 20
285.1275652899
 30
0.0
 10
103.8736705826
 20
285.1670094456
 30
0.0
 10
103.7992079431
 20
285.2098388527
 30
0.0
 10
103.6857851871
 20
285.2331035421
 30
0.0
 10
103.519493876
 20
285.2426592263
 30
0.0
 10
103.2619139255
 20
285.2129514284
 30
0.0
 10
102.9016713758
 20
285.1268115379
 30
0.0
 10
102.4777175754
 20
284.9856305811
 30
0.0
 10
102.0004840949
 20
284.7916244058
 30
0.0
 10
101.481727256
 20
284.5482047216
 30
0.0
 10
100.736262311
 20
284.1578063829
 30
0.0
 10
99.8002325813
 20
283.5987596053
 30
0.0
 10
98.7363745167
 20
282.8888552836
 30
0.0
 10
97.8051991229
 20
282.2115820049
 30
0.0
 10
97.2455453374
 20
281.7730241884
 30
0.0
 10
97.0050849989
 20
281.5711654371
 30
0.0
  0
SPLINE
  5
316
100
AcDbEntity
  8
0
100
AcDbSpline
 62
7
  6
CONTINUOUS
 70
0
 71
3
 72
9
 73
5
 74
0
 42
0.0000001
 43
0.0000001
 44
0.0000000001
 40
0.0
 40
0.0
 40
0.0
 40
0.0
 40
0.2529987363
 40
1.0
 40
1.0
 40
1.0
 40
1.0
 10
98.6256522596
 20
292.7848059222
 30
0.0
 10
98.7304666975
 20
292.6600829309
 30
0.0
 10
99.1574212208
 20
292.1779675402
 30
0.0
 10
99.6345838561
 20
291.7396871265
 30
0.0
 10
100.0158740105
 20
291.4464223684
 30
0.0
  0
SPLINE
  5
317
100
AcDbEntity
  8
0
100
AcDbSpline
 62
7
  6
CONTINUOUS
 70
0
 71
3
 72
11
 73
7
 74
0
 42
0.0000001
 43
0.0000001
 44
0.0000000001
 40
0.0
 40
0.0
 40
0.0
 40
0.0
 40
0.271750103
 40
0.5255146859
 40
0.7649970917
 40
1.0
 40
1.0
 40
1.0
 40
1.0
 10
100.0158740105
 20
291.4464223684
 30
0.0
 10
100.4556025923
 20
291.1082103935
 30
0.0
 10
101.3759226726
 20
290.5368221912
 30
0.0
 10
102.8834764843
 20
290.0594712895
 30
0.0
 10
104.3966009646
 20
290.0581428751
 30
0.0
 10
105.3285754569
 20
290.3990954669
 30
0.0
 10
105.7440389021
 20
290.638961967
 30
0.0
  0
SPLINE
  5
318
100
AcDbEntity
  8
0
100
AcDbSpline
 62
7
  6
CONTINUOUS
 70
0
 71
3
 72
9
 73
5
 74
0
 42
0.0000001
 43
0.0000001
 44
0.0000000001
 40
0.0
 40
0.0
 40
0.0
 40
0.0
 40
0.244535117
 40
1.0
 40
1.0
 40
1.0
 40
1.0
 10
78.0908202531
 20
266.1202978588
 30
0.0
 10
77.6091542185
 20
266.6130875981
 30
0.0
 10
75.6916993434
 20
268.6789702783
 30
0.0
 10
73.9797660576
 20
270.9336620687
 30
0.0
 10
72.8088603626
 20
272.7115972252
 30
0.0
  0
SPLINE
  5
319
100
AcDbEntity
  8
0
100
AcDbSpline
 62
7
  6
CONTINUOUS
 70
0
 71
3
 72
9
 73
5
 74
0
 42
0.0000001
 43
0.0000001
 44
0.0000000001
 40
0.0
 40
0.0
 40
0.0
 40
0.0
 40
0.2506830824
 40
1.0
 40
1.0
 40
1.0
 40
1.0
 10
72.8088603626
 20
272.7115972252
 30
0.0
 10
72.4147440281
 20
273.3100342212
 30
0.0
 10
70.8972714952
 20
275.7327712088
 30
0.0
 10
69.5969847802
 20
278.2920534607
 30
0.0
 10
68.7625048136
 20
280.2646700974
 30
0.0
  0
SPLINE
  5
31A
100
AcDbEntity
  8
0
100
AcDbSpline
 62
7
  6
CONTINUOUS
 70
0
 71
3
 72
14
 73
10
 74
0
 42
0.0000001
 43
0.0000001
 44
0.0000000001
 40
0.0
 40
0.0
 40
0.0
 40
0.0
 40
0.2724277618
 40
0.4151920943
 40
0.5547110307
 40
0.6836491418
 40
0.7991905643
 40
0.9037753339
 40
1.0
 40
1.0
 40
1.0
 40
1.0
 10
80.2532846636
 20
289.8712748769
 30
0.0
 10
81.4743038338
 20
291.7756651598
 30
0.0
 10
82.9654766336
 20
294.9338360637
 30
0.0
 10
84.181233216
 20
299.3823541693
 30
0.0
 10
84.7584563169
 20
302.7524581767
 30
0.0
 10
85.1180207991
 20
305.9204563679
 30
0.0
 10
85.4516337493
 20
308.8010329413
 30
0.0
 10
86.0039240723
 20
311.3754671684
 30
0.0
 10
86.5918126046
 20
312.9456060659
 30
0.0
 10
86.9401469361
 20
313.664720801
 30
0.0
  0
SPLINE
  5
31B
100
AcDbEntity
  8
0
100
AcDbSpline
 62
7
  6
CONTINUOUS
 70
0
 71
3
 72
14
 73
10
 74
0
 42
0.0000001
 43
0.0000001
 44
0.0000000001
 40
0.0
 40
0.0
 40
0.0
 40
0.0
 40
0.1150009002
 40
0.2289112904
 40
0.3443743435
 40
0.4637714528
 40
0.5888071774
 40
0.7202358545
 40
1.0
 40
1.0
 40
1.0
 40
1.0
 10
98.0396258305
 20
300.9921839388
 30
0.0
 10
97.8288596378
 20
300.8152950326
 30
0.0
 10
97.4440964331
 20
300.4187616001
 30
0.0
 10
97.0063882902
 20
299.7135422213
 30
0.0
 10
96.7222611305
 20
298.9226486994
 30
0.0
 10
96.5936928292
 20
298.0662411089
 30
0.0
 10
96.6171425694
 20
297.1630522821
 30
0.0
 10
96.8471209599
 20
295.8971547378
 30
0.0
 10
97.2219739453
 20
294.9729020746
 30
0.0
 10
97.5390996027
 20
294.3834088632
 30
0.0
  0
SPLINE
  5
31C
100
AcDbEntity
  8
0
100
AcDbSpline
 62
7
  6
CONTINUOUS
 70
0
 71
3
 72
10
 73
6
 74
0
 42
0.0000001
 43
0.0000001
 44
0.0000000001
 40
0.0
 40
0.0
 40
0.0
 40
0.0
 40
0.514538172
 40
0.7592402671
 40
1.0
 40
1.0
 40
1.0
 40
1.0
 10
86.9406332493
 20
313.6650071751
 30
0.0
 10
87.4010310184
 20
314.615469962
 30
0.0
 10
88.2623014827
 20
315.9473318481
 30
0.0
 10
89.7486487776
 20
317.3721346108
 30
0.0
 10
90.5726629915
 20
317.9417900871
 30
0.0
 10
91.0006150036
 20
318.1888831901
 30
0.0
  0
SPLINE
  5
31D
100
AcDbEntity
  8
0
100
AcDbSpline
 62
7
  6
CONTINUOUS
 70
0
 71
3
 72
19
 73
15
 74
0
 42
0.0000001
 43
0.0000001
 44
0.0000000001
 40
0.0
 40
0.0
 40
0.0
 40
0.0
 40
0.0443802324
 40
0.0910973738
 40
0.1967172003
 40
0.2588474356
 40
0.3271721078
 40
0.3995117971
 40
0.4730355732
 40
0.6162022841
 40
0.7510700523
 40
0.8156537431
 40
0.8785901448
 40
1.0
 40
1.0
 40
1.0
 40
1.0
 10
116.338144645
 20
269.7647130102
 30
0.0
 10
115.7967039962
 20
269.6352737478
 30
0.0
 10
114.6611524255
 20
269.464189958
 30
0.0
 10
112.1849736076
 20
269.4686573799
 30
0.0
 10
109.5333592726
 20
270.0062457421
 30
0.0
 10
106.6490396422
 20
270.6636089387
 30
0.0
 10
104.1563965367
 20
271.1772450219
 30
0.0
 10
101.4999876637
 20
271.5896697696
 30
0.0
 10
97.8859776914
 20
271.9086701897
 30
0.0
 10
93.4600348404
 20
271.8201099836
 30
0.0
 10
89.206078564
 20
271.0979578579
 30
0.0
 10
86.0427386141
 20
270.1782117837
 30
0.0
 10
83.1168551263
 20
269.081807338
 30
0.0
 10
81.0533913461
 20
268.0070998874
 30
0.0
 10
79.7688457087
 20
267.1889918692
 30
0.0
  0
SPLINE
  5
31E
100
AcDbEntity
  8
0
100
AcDbSpline
 62
7
  6
CONTINUOUS
 70
0
 71
3
 72
12
 73
8
 74
0
 42
0.0000001
 43
0.0000001
 44
0.0000000001
 40
0.0
 40
0.0
 40
0.0
 40
0.0
 40
0.413228864
 40
0.7187752305
 40
0.8292327736
 40
0.9115304153
 40
1.0
 40
1.0
 40
1.0
 40
1.0
 10
97.0050849989
 20
281.5711654371
 30
0.0
 10
96.9181521129
 20
281.498188064
 30
0.0
 10
96.7684027211
 20
281.3685905437
 30
0.0
 10
96.6037229978
 20
281.2134326861
 30
0.0
 10
96.5115181124
 20
281.1087641763
 30
0.0
 10
96.468589152
 20
281.050560342
 30
0.0
 10
96.4429015047
 20
280.9960344516
 30
0.0
 10
96.4562370912
 20
280.9757202113
 30
0.0
  0
SPLINE
  5
31F
100
AcDbEntity
  8
0
100
AcDbSpline
 62
7
  6
CONTINUOUS
 70
0
 71
3
 72
12
 73
8
 74
0
 42
0.0000001
 43
0.0000001
 44
0.0000000001
 40
0.0
 40
0.0
 40
0.0
 40
0.0
 40
0.413228864
 40
0.7187752305
 40
0.8292327736
 40
0.9115304153
 40
1.0
 40
1.0
 40
1.0
 40
1.0
 10
91.8677487284
 20
277.258536205
 30
0.0
 10
91.7808158423
 20
277.1855588319
 30
0.0
 10
91.6310664505
 20
277.0559613116
 30
0.0
 10
91.4663867272
 20
276.900803454
 30
0.0
 10
91.3741818418
 20
276.7961349443
 30
0.0
 10
91.3312528814
 20
276.7379311099
 30
0.0
 10
91.3055652341
 20
276.6834052195
 30
0.0
 10
91.3189008207
 20
276.6630909793
 30
0.0
  0
SPLINE
  5
320
100
AcDbEntity
  8
0
100
AcDbSpline
 62
7
  6
CONTINUOUS
 70
0
 71
3
 72
12
 73
8
 74
0
 42
0.0000001
 43
0.0000001
 44
0.0000000001
 40
0.0
 40
0.0
 40
0.0
 40
0.0
 40
0.413228864
 40
0.7187752305
 40
0.8292327736
 40
0.9115304153
 40
1.0
 40
1.0
 40
1.0
 40
1.0
 10
86.7304124578
 20
272.945906973
 30
0.0
 10
86.6434795717
 20
272.8729295999
 30
0.0
 10
86.49373018
 20
272.7433320795
 30
0.0
 10
86.3290504566
 20
272.5881742219
 30
0.0
 10
86.2368455713
 20
272.4835057122
 30
0.0
 10
86.1939166108
 20
272.4253018779
 30
0.0
 10
86.1682289635
 20
272.3707759875
 30
0.0
 10
86.1815645501
 20
272.3504617472
 30
0.0
  0
SPLINE
  5
321
100
AcDbEntity
  8
0
100
AcDbSpline
 62
7
  6
CONTINUOUS
 70
0
 71
3
 72
20
 73
16
 74
0
 42
0.0000001
 43
0.0000001
 44
0.0000000001
 40
0.0
 40
0.0
 40
0.0
 40
0.0
 40
0.0039885165
 40
0.0103117296
 40
0.032025074
 40
0.0662493243
 40
0.1124056104
 40
0.1694065176
 40
0.2358292122
 40
0.3099884181
 40
0.3900124493
 40
0.5596610729
 40
0.7283865831
 40
0.8800302364
 40
1.0
 40
1.0
 40
1.0
 40
1.0
 10
96.4562370912
 20
280.9757202113
 30
0.0
 10
96.4619456798
 20
280.9670242579
 30
0.0
 10
96.4890251451
 20
280.9546607768
 30
0.0
 10
96.572418232
 20
280.9573360482
 30
0.0
 10
96.7312562736
 20
280.9982523797
 30
0.0
 10
96.9820310611
 20
281.086023419
 30
0.0
 10
97.3154864409
 20
281.2180362419
 30
0.0
 10
97.7232005841
 20
281.3891918516
 30
0.0
 10
98.1958554426
 20
281.5945857728
 30
0.0
 10
98.7214153326
 20
281.828706687
 30
0.0
 10
99.4899370316
 20
282.1790020533
 30
0.0
 10
100.4765528162
 20
282.6452576248
 30
0.0
 10
101.6165050024
 20
283.2240881116
 30
0.0
 10
102.6137747762
 20
283.7937556986
 30
0.0
 10
103.2005815074
 20
284.1951060308
 30
0.0
 10
103.4402243536
 20
284.3962785236
 30
0.0
  0
SPLINE
  5
322
100
AcDbEntity
  8
0
100
AcDbSpline
 62
7
  6
CONTINUOUS
 70
0
 71
3
 72
11
 73
7
 74
0
 42
0.0000001
 43
0.0000001
 44
0.0000000001
 40
0.0
 40
0.0
 40
0.0
 40
0.0
 40
0.2302422268
 40
0.4756562851
 40
0.7343369221
 40
1.0
 40
1.0
 40
1.0
 40
1.0
 10
107.1644782044
 20
292.3504587646
 30
0.0
 10
107.3970684565
 20
292.8786024208
 30
0.0
 10
107.6767353527
 20
294.0652972278
 30
0.0
 10
107.5186024345
 20
295.924405839
 30
0.0
 10
106.830719188
 20
297.7503171903
 30
0.0
 10
106.0626047289
 20
298.8368226976
 30
0.0
 10
105.6136670957
 20
299.3285949561
 30
0.0
  0
SPLINE
  5
323
100
AcDbEntity
  8
0
100
AcDbSpline
 62
7
  6
CONTINUOUS
 70
0
 71
3
 72
9
 73
5
 74
0
 42
0.0000001
 43
0.0000001
 44
0.0000000001
 40
0.0
 40
0.0
 40
0.0
 40
0.0
 40
0.5166011291
 40
1.0
 40
1.0
 40
1.0
 40
1.0
 10
101.4944581509
 20
302.0890448177
 30
0.0
 10
100.9859707015
 20
302.1015782006
 30
0.0
 10
99.9940206195
 20
302.0098436541
 30
0.0
 10
99.0586831621
 20
301.6540381753
 30
0.0
 10
98.6464967373
 20
301.4160636526
 30
0.0
  0
SPLINE
  5
324
100
AcDbEntity
  8
0
100
AcDbSpline
 62
7
  6
CONTINUOUS
 70
0
 71
3
 72
11
 73
7
 74
0
 42
0.0000001
 43
0.0000001
 44
0.0000000001
 40
0.0
 40
0.0
 40
0.0
 40
0.0
 40
0.2552524718
 40
0.508073719
 40
0.7570497716
 40
1.0
 40
1.0
 40
1.0
 40
1.0
 10
109.9651777851
 20
300.6039612305
 30
0.0
 10
110.4394352285
 20
299.8838357879
 30
0.0
 10
111.2008329103
 20
298.3203529327
 30
0.0
 10
111.7065629077
 20
295.7871216693
 30
0.0
 10
111.5906451808
 20
293.2511312437
 30
0.0
 10
111.127135319
 20
291.636554834
 30
0.0
 10
110.8075111573
 20
290.8806446805
 30
0.0
  0
SPLINE
  5
325
100
AcDbEntity
  8
0
100
AcDbSpline
 62
7
  6
CONTINUOUS
 70
0
 71
3
 72
20
 73
16
 74
0
 42
0.0000001
 43
0.0000001
 44
0.0000000001
 40
0.0
 40
0.0
 40
0.0
 40
0.0
 40
0.0039885165
 40
0.0103117296
 40
0.032025074
 40
0.0662493243
 40
0.1124056104
 40
0.1694065176
 40
0.2358292122
 40
0.3099884181
 40
0.3900124493
 40
0.5596610729
 40
0.7283865831
 40
0.8800302364
 40
1.0
 40
1.0
 40
1.0
 40
1.0
 10
86.1815645501
 20
272.3504617472
 30
0.0
 10
86.1872731387
 20
272.3417657938
 30
0.0
 10
86.214352604
 20
272.3294023127
 30
0.0
 10
86.2977456908
 20
272.3320775841
 30
0.0
 10
86.4565837325
 20
272.3729939156
 30
0.0
 10
86.7073585199
 20
272.4607649549
 30
0.0
 10
87.0408138997
 20
272.5927777778
 30
0.0
 10
87.448528043
 20
272.7639333875
 30
0.0
 10
87.9211829014
 20
272.9693273087
 30
0.0
 10
88.4467427915
 20
273.2034482228
 30
0.0
 10
89.2152644904
 20
273.5537435891
 30
0.0
 10
90.2018802751
 20
274.0199991607
 30
0.0
 10
91.3418324612
 20
274.5988296475
 30
0.0
 10
92.3391022351
 20
275.1684972345
 30
0.0
 10
92.9259089662
 20
275.5698475667
 30
0.0
 10
93.1655518125
 20
275.7710200595
 30
0.0
  0
SPLINE
  5
326
100
AcDbEntity
  8
0
100
AcDbSpline
 62
7
  6
CONTINUOUS
 70
0
 71
3
 72
22
 73
18
 74
0
 42
0.0000001
 43
0.0000001
 44
0.0000000001
 40
0.0
 40
0.0
 40
0.0
 40
0.0
 40
0.0550397596
 40
0.113075988
 40
0.1737038073
 40
0.2357440915
 40
0.297648432
 40
0.3588842957
 40
0.4197505785
 40
0.4809800324
 40
0.5431020279
 40
0.6062348159
 40
0.670262984
 40
0.7350313605
 40
0.8004192973
 40
0.8663709267
 40
1.0
 40
1.0
 40
1.0
 40
1.0
 10
122.9201484165
 20
275.2900946411
 30
0.0
 10
123.1902416613
 20
275.8451670271
 30
0.0
 10
123.6660229122
 20
277.0253777315
 30
0.0
 10
124.1622945992
 20
278.9140963453
 30
0.0
 10
124.4321489452
 20
280.9282916394
 30
0.0
 10
124.4076583827
 20
283.0085713073
 30
0.0
 10
123.9551881
 20
285.0546343876
 30
0.0
 10
123.0081891448
 20
286.9171646742
 30
0.0
 10
121.5815831717
 20
288.4363020045
 30
0.0
 10
119.7964406946
 20
289.5193069441
 30
0.0
 10
117.7966481395
 20
290.1783629871
 30
0.0
 10
115.6853798546
 20
290.47426409
 30
0.0
 10
113.5264599142
 20
290.4600380429
 30
0.0
 10
111.3623504642
 20
290.1763637909
 30
0.0
 10
109.2213005114
 20
289.6556705534
 30
0.0
 10
106.4128660333
 20
288.6735105674
 30
0.0
 10
104.415048854
 20
287.6268497031
 30
0.0
 10
103.1527055999
 20
286.8189931799
 30
0.0
  0
SPLINE
  5
327
100
AcDbEntity
  8
0
100
AcDbSpline
 62
7
  6
CONTINUOUS
 70
0
 71
3
 72
20
 73
16
 74
0
 42
0.0000001
 43
0.0000001
 44
0.0000000001
 40
0.0
 40
0.0
 40
0.0
 40
0.0
 40
0.0039885165
 40
0.0103117296
 40
0.032025074
 40
0.0662493243
 40
0.1124056104
 40
0.1694065176
 40
0.2358292122
 40
0.3099884181
 40
0.3900124493
 40
0.5596610729
 40
0.7283865831
 40
0.8800302364
 40
1.0
 40
1.0
 40
1.0
 40
1.0
 10
91.3189008207
 20
276.6630909793
 30
0.0
 10
91.3246094092
 20
276.6543950258
 30
0.0
 10
91.3516888746
 20
276.6420315447
 30
0.0
 10
91.4350819614
 20
276.6447068161
 30
0.0
 10
91.593920003
 20
276.6856231477
 30
0.0
 10
91.8446947905
 20
276.773394187
 30
0.0
 10
92.1781501703
 20
276.9054070098
 30
0.0
 10
92.5858643135
 20
277.0765626195
 30
0.0
 10
93.058519172
 20
277.2819565408
 30
0.0
 10
93.584079062
 20
277.5160774549
 30
0.0
 10
94.352600761
 20
277.8663728212
 30
0.0
 10
95.3392165457
 20
278.3326283928
 30
0.0
 10
96.4791687318
 20
278.9114588796
 30
0.0
 10
97.4764385056
 20
279.4811264666
 30
0.0
 10
98.0632452368
 20
279.8824767988
 30
0.0
 10
98.302888083
 20
280.0836492916
 30
0.0
  0
SPLINE
  5
328
100
AcDbEntity
  8
0
100
AcDbSpline
 62
7
  6
CONTINUOUS
 70
0
 71
3
 72
9
 73
5
 74
0
 42
0.0000001
 43
0.0000001
 44
0.0000000001
 40
0.0
 40
0.0
 40
0.0
 40
0.0
 40
0.244821091
 40
1.0
 40
1.0
 40
1.0
 40
1.0
 10
92.1372604553
 20
299.8870286824
 30
0.0
 10
92.5765746455
 20
299.4362661847
 30
0.0
 10
94.3274772622
 20
297.5529705712
 30
0.0
 10
95.9068619772
 20
295.5116629232
 30
0.0
 10
96.9982495806
 20
293.9058910597
 30
0.0
  0
SPLINE
  5
329
100
AcDbEntity
  8
0
100
AcDbSpline
 62
7
  6
CONTINUOUS
 70
0
 71
3
 72
9
 73
5
 74
0
 42
0.0000001
 43
0.0000001
 44
0.0000000001
 40
0.0
 40
0.0
 40
0.0
 40
0.0
 40
0.2507071743
 40
1.0
 40
1.0
 40
1.0
 40
1.0
 10
97.3787294827
 20
293.3372152916
 30
0.0
 10
97.7756587954
 20
292.7345069926
 30
0.0
 10
99.3034192513
 20
290.2944604919
 30
0.0
 10
100.6109265554
 20
287.7159740727
 30
0.0
 10
101.448614619
 20
285.7284179961
 30
0.0
  0
SPLINE
  5
32A
100
AcDbEntity
  8
0
100
AcDbSpline
 62
7
  6
CONTINUOUS
 70
0
 71
3
 72
9
 73
5
 74
0
 42
0.0000001
 43
0.0000001
 44
0.0000000001
 40
0.0
 40
0.0
 40
0.0
 40
0.0
 40
0.4912177679
 40
1.0
 40
1.0
 40
1.0
 40
1.0
 10
106.3650315136
 20
291.0747051922
 30
0.0
 10
106.6310895191
 20
291.2979988291
 30
0.0
 10
107.1208042218
 20
291.8172628172
 30
0.0
 10
107.4885337877
 20
292.4276770189
 30
0.0
 10
107.6433259783
 20
292.7524361316
 30
0.0
  0
SPLINE
  5
32B
100
AcDbEntity
  8
0
100
AcDbSpline
 62
7
  6
CONTINUOUS
 70
0
 71
3
 72
9
 73
5
 74
0
 42
0.0000001
 43
0.0000001
 44
0.0000000001
 40
0.0
 40
0.0
 40
0.0
 40
0.0
 40
0.7493681608
 40
1.0
 40
1.0
 40
1.0
 40
1.0
 10
109.9651777851
 20
300.6039612305
 30
0.0
 10
109.5350803123
 20
301.2570329687
 30
0.0
 10
108.8549503137
 20
302.0650895055
 30
0.0
 10
108.0701876004
 20
302.7533616135
 30
0.0
 10
107.8673635787
 20
302.918481063
 30
0.0
  0
SPLINE
  5
32C
100
AcDbEntity
  8
0
100
AcDbSpline
 62
7
  6
CONTINUOUS
 70
0
 71
3
 72
13
 73
9
 74
0
 42
0.0000001
 43
0.0000001
 44
0.0000000001
 40
0.0
 40
0.0
 40
0.0
 40
0.0
 40
0.3742802976
 40
0.6583475076
 40
0.7675994565
 40
0.8574493762
 40
0.932342908
 40
1.0
 40
1.0
 40
1.0
 40
1.0
 10
103.4402243536
 20
284.3962785236
 30
0.0
 10
103.5277514671
 20
284.4697547316
 30
0.0
 10
103.6765881911
 20
284.6051030451
 30
0.0
 10
103.828959267
 20
284.7855523913
 30
0.0
 10
103.8996344247
 20
284.9157045087
 30
0.0
 10
103.9252083599
 20
284.9961089154
 30
0.0
 10
103.9272124807
 20
285.0683583714
 30
0.0
 10
103.9109612105
 20
285.1103053706
 30
0.0
 10
103.8996104702
 20
285.1275652899
 30
0.0
  0
SPLINE
  5
32D
100
AcDbEntity
  8
0
100
AcDbSpline
 62
7
  6
CONTINUOUS
 70
0
 71
3
 72
13
 73
9
 74
0
 42
0.0000001
 43
0.0000001
 44
0.0000000001
 40
0.0
 40
0.0
 40
0.0
 40
0.0
 40
0.3742802976
 40
0.6583475076
 40
0.7675994565
 40
0.8574493762
 40
0.932342908
 40
1.0
 40
1.0
 40
1.0
 40
1.0
 10
98.302888083
 20
280.0836492916
 30
0.0
 10
98.3904151965
 20
280.1571254996
 30
0.0
 10
98.5392519205
 20
280.2924738131
 30
0.0
 10
98.6916229964
 20
280.4729231592
 30
0.0
 10
98.7622981541
 20
280.6030752766
 30
0.0
 10
98.7878720893
 20
280.6834796833
 30
0.0
 10
98.7898762101
 20
280.7557291394
 30
0.0
 10
98.7736249399
 20
280.7976761385
 30
0.0
 10
98.7622741997
 20
280.8149360578
 30
0.0
  0
SPLINE
  5
32E
100
AcDbEntity
  8
0
100
AcDbSpline
 62
7
  6
CONTINUOUS
 70
0
 71
3
 72
13
 73
9
 74
0
 42
0.0000001
 43
0.0000001
 44
0.0000000001
 40
0.0
 40
0.0
 40
0.0
 40
0.0
 40
0.3742802976
 40
0.6583475076
 40
0.7675994565
 40
0.8574493762
 40
0.932342908
 40
1.0
 40
1.0
 40
1.0
 40
1.0
 10
93.1655518125
 20
275.7710200595
 30
0.0
 10
93.253078926
 20
275.8444962675
 30
0.0
 10
93.40191565
 20
275.979844581
 30
0.0
 10
93.5542867259
 20
276.1602939271
 30
0.0
 10
93.6249618836
 20
276.2904460446
 30
0.0
 10
93.6505358187
 20
276.3708504513
 30
0.0
 10
93.6525399395
 20
276.4430999073
 30
0.0
 10
93.6362886693
 20
276.4850469065
 30
0.0
 10
93.6249379291
 20
276.5023068258
 30
0.0
  0
SPLINE
  5
32F
100
AcDbEntity
  8
0
100
AcDbSpline
 62
7
  6
CONTINUOUS
 70
0
 71
3
 72
21
 73
17
 74
0
 42
0.0000001
 43
0.0000001
 44
0.0000000001
 40
0.0
 40
0.0
 40
0.0
 40
0.0
 40
0.1427103316
 40
0.2788594754
 40
0.3441205714
 40
0.4071508453
 40
0.4679449379
 40
0.5269643076
 40
0.5852431785
 40
0.6439977232
 40
0.7039578541
 40
0.7650640179
 40
0.8261536446
 40
0.8859582703
 40
0.9438996935
 40
1.0
 40
1.0
 40
1.0
 40
1.0
 10
98.6519017252
 20
303.8173959319
 30
0.0
 10
99.5616984633
 20
304.5813445746
 30
0.0
 10
101.2154089588
 20
306.2305860513
 30
0.0
 10
102.8103788293
 20
308.6446099674
 30
0.0
 10
103.6341182302
 20
310.6938582762
 30
0.0
 10
103.9848490676
 20
312.2366698171
 30
0.0
 10
104.0271152257
 20
313.7701264125
 30
0.0
 10
103.7133594857
 20
315.2358695266
 30
0.0
 10
103.0271340419
 20
316.551822685
 30
0.0
 10
102.0109248637
 20
317.6411214052
 30
0.0
 10
100.7490487625
 20
318.4690127933
 30
0.0
 10
99.3325090393
 20
319.0322831733
 30
0.0
 10
97.8501696541
 20
319.3681133162
 30
0.0
 10
96.3637072073
 20
319.5051756459
 30
0.0
 10
94.9136232639
 20
319.4549656571
 30
0.0
 10
93.973995945
 20
319.2973634165
 30
0.0
 10
93.519916563
 20
319.1882263654
 30
0.0
  0
SPLINE
  5
330
100
AcDbEntity
  8
0
100
AcDbSpline
 62
7
  6
CONTINUOUS
 70
0
 71
3
 72
10
 73
6
 74
0
 42
0.0000001
 43
0.0000001
 44
0.0000000001
 40
0.0
 40
0.0
 40
0.0
 40
0.0
 40
0.5151031463
 40
0.7596792207
 40
1.0
 40
1.0
 40
1.0
 40
1.0
 10
122.9207185445
 20
275.2904163025
 30
0.0
 10
122.4575228491
 20
274.3384963839
 30
0.0
 10
121.5937838736
 20
273.0050166131
 30
0.0
 10
120.1055779656
 20
271.5783129487
 30
0.0
 10
119.2815587815
 20
271.0084264587
 30
0.0
 10
118.8538323073
 20
270.761463333
 30
0.0
  0
SPLINE
  5
331
100
AcDbEntity
  8
0
100
AcDbSpline
 62
7
  6
CONTINUOUS
 70
0
 71
3
 72
9
 73
5
 74
0
 42
0.0000001
 43
0.0000001
 44
0.0000000001
 40
0.0
 40
0.0
 40
0.0
 40
0.0
 40
0.2454303026
 40
1.0
 40
1.0
 40
1.0
 40
1.0
 10
101.2342124848
 20
305.3333280201
 30
0.0
 10
101.4329580938
 20
305.3039658744
 30
0.0
 10
102.2388248961
 20
305.1586711566
 30
0.0
 10
103.0259763509
 20
304.9132748186
 30
0.0
 10
103.5981162079
 20
304.6805227245
 30
0.0
  0
SPLINE
  5
332
100
AcDbEntity
  8
0
100
AcDbSpline
 62
7
  6
CONTINUOUS
 70
0
 71
3
 72
11
 73
7
 74
0
 42
0.0000001
 43
0.0000001
 44
0.0000000001
 40
0.0
 40
0.0
 40
0.0
 40
0.0
 40
0.2633722951
 40
0.5218424062
 40
0.7684410389
 40
1.0
 40
1.0
 40
1.0
 40
1.0
 10
107.415748685
 20
302.1687996637
 30
0.0
 10
108.1935152841
 20
301.4180133948
 30
0.0
 10
109.5529028995
 20
299.728612619
 30
0.0
 10
110.8691147033
 20
296.8246386295
 30
0.0
 10
111.3491523397
 20
293.8001689926
 30
0.0
 10
111.0538750617
 20
291.8178298576
 30
0.0
 10
110.7495367631
 20
290.9174332735
 30
0.0
  0
SPLINE
  5
333
100
AcDbEntity
  8
0
100
AcDbSpline
 62
7
  6
CONTINUOUS
 70
0
 71
3
 72
15
 73
11
 74
0
 42
0.0000001
 43
0.0000001
 44
0.0000000001
 40
0.0
 40
0.0
 40
0.0
 40
0.0
 40
0.1180871652
 40
0.2465119355
 40
0.3815101926
 40
0.5185532906
 40
0.6528942633
 40
0.7800778073
 40
0.8964857811
 40
1.0
 40
1.0
 40
1.0
 40
1.0
 10
126.2477501126
 20
283.873449351
 30
0.0
 10
126.2477501126
 20
285.7146717655
 30
0.0
 10
125.8515440208
 20
289.562381007
 30
0.0
 10
124.3057782511
 20
295.3267760203
 30
0.0
 10
121.8578812079
 20
301.092094646
 30
0.0
 10
118.6307906036
 20
306.5658904366
 30
0.0
 10
114.7875867131
 20
311.4734598879
 30
0.0
 10
110.5183763555
 20
315.5689064782
 30
0.0
 10
106.0366483357
 20
318.6479538757
 30
0.0
 10
102.8454868306
 20
320.0008710115
 30
0.0
 10
101.2868910719
 20
320.4201271165
 30
0.0
  0
SPLINE
  5
334
100
AcDbEntity
  8
0
100
AcDbSpline
 62
7
  6
CONTINUOUS
 70
0
 71
3
 72
10
 73
6
 74
0
 42
0.0000001
 43
0.0000001
 44
0.0000000001
 40
0.0
 40
0.0
 40
0.0
 40
0.0
 40
0.5178340402
 40
0.761416688
 40
1.0
 40
1.0
 40
1.0
 40
1.0
 10
101.3777446093
 20
322.0836698939
 30
0.0
 10
100.1704194464
 20
322.2386030082
 30
0.0
 10
98.3434889837
 20
322.2363593746
 30
0.0
 10
96.0607202857
 20
321.6382996829
 30
0.0
 10
95.0251659459
 20
321.1596108793
 30
0.0
 10
94.5394793124
 20
320.8792123594
 30
0.0
  0
SPLINE
  5
335
100
AcDbEntity
  8
0
100
AcDbSpline
 62
7
  6
CONTINUOUS
 70
0
 71
3
 72
9
 73
5
 74
0
 42
0.0000001
 43
0.0000001
 44
0.0000000001
 40
0.0
 40
0.0
 40
0.0
 40
0.0
 40
0.4951318619
 40
1.0
 40
1.0
 40
1.0
 40
1.0
 10
120.4360666277
 20
271.0277864648
 30
0.0
 10
120.9061736195
 20
271.2992099335
 30
0.0
 10
121.8092762047
 20
271.9317861224
 30
0.0
 10
122.5904150458
 20
272.7091290118
 30
0.0
 10
122.9506183935
 20
273.1293998875
 30
0.0
  0
SPLINE
  5
336
100
AcDbEntity
  8
0
100
AcDbSpline
 62
7
  6
CONTINUOUS
 70
0
 71
3
 72
11
 73
7
 74
0
 42
0.0000001
 43
0.0000001
 44
0.0000000001
 40
0.0
 40
0.0
 40
0.0
 40
0.0
 40
0.2211137133
 40
0.4595206474
 40
0.7187479963
 40
1.0
 40
1.0
 40
1.0
 40
1.0
 10
122.9506183935
 20
273.1293998875
 30
0.0
 10
123.5001670202
 20
273.7705912702
 30
0.0
 10
124.482176143
 20
275.2457781275
 30
0.0
 10
125.5082440115
 20
277.8083322895
 30
0.0
 10
126.1228263817
 20
280.7316095299
 30
0.0
 10
126.2477501126
 20
282.7993008529
 30
0.0
 10
126.2477501126
 20
283.873449351
 30
0.0
  0
SPLINE
  5
337
100
AcDbEntity
  8
0
100
AcDbSpline
 62
7
  6
CONTINUOUS
 70
0
 71
3
 72
9
 73
5
 74
0
 42
0.0000001
 43
0.0000001
 44
0.0000000001
 40
0.0
 40
0.0
 40
0.0
 40
0.0
 40
0.2535038755
 40
1.0
 40
1.0
 40
1.0
 40
1.0
 10
92.8099287158
 20
319.31467459
 30
0.0
 10
92.9424674264
 20
319.462702737
 30
0.0
 10
93.4819060554
 20
320.0314874688
 30
0.0
 10
94.0890905426
 20
320.5364590858
 30
0.0
 10
94.5720898965
 20
320.8666799895
 30
0.0
  0
SPLINE
  5
338
100
AcDbEntity
  8
0
100
AcDbSpline
 62
7
  6
CONTINUOUS
 70
0
 71
3
 72
9
 73
5
 74
0
 42
0.0000001
 43
0.0000001
 44
0.0000000001
 40
0.0
 40
0.0
 40
0.0
 40
0.0
 40
0.4952854419
 40
1.0
 40
1.0
 40
1.0
 40
1.0
 10
94.5394793124
 20
320.8792123594
 30
0.0
 10
94.0771329449
 20
320.6122887338
 30
0.0
 10
93.1885304783
 20
319.9917136152
 30
0.0
 10
92.41739263
 20
319.2308700838
 30
0.0
 10
92.0611802713
 20
318.8196761832
 30
0.0
  0
SPLINE
  5
339
100
AcDbEntity
  8
0
100
AcDbSpline
 62
7
  6
CONTINUOUS
 70
0
 71
3
 72
9
 73
5
 74
0
 42
0.0000001
 43
0.0000001
 44
0.0000000001
 40
0.0
 40
0.0
 40
0.0
 40
0.0
 40
0.254483912
 40
1.0
 40
1.0
 40
1.0
 40
1.0
 10
116.7702777654
 20
269.8078495444
 30
0.0
 10
116.9652341463
 20
269.8331851302
 30
0.0
 10
117.7284562456
 20
269.9533015164
 30
0.0
 10
118.4786679185
 20
270.1586216418
 30
0.0
 10
119.0182141895
 20
270.3600833688
 30
0.0
  0
SPLINE
  5
33A
100
AcDbEntity
  8
0
100
AcDbSpline
 62
7
  6
CONTINUOUS
 70
0
 71
3
 72
9
 73
5
 74
0
 42
0.0000001
 43
0.0000001
 44
0.0000000001
 40
0.0
 40
0.0
 40
0.0
 40
0.0
 40
0.2793550215
 40
1.0
 40
1.0
 40
1.0
 40
1.0
 10
520.5786726019
 20
511.5851749382
 30
0.0
 10
520.4751089627
 20
511.6449660806
 30
0.0
 10
520.0947634996
 20
511.8383665427
 30
0.0
 10
519.6559589857
 20
511.9432465754
 30
0.0
 10
519.3485589178
 20
511.9173543946
 30
0.0
  0
SPLINE
  5
33B
100
AcDbEntity
  8
0
100
AcDbSpline
 62
7
  6
CONTINUOUS
 70
0
 71
3
 72
9
 73
5
 74
0
 42
0.0000001
 43
0.0000001
 44
0.0000000001
 40
0.0
 40
0.0
 40
0.0
 40
0.0
 40
0.2572189719
 40
1.0
 40
1.0
 40
1.0
 40
1.0
 10
519.3215813525
 20
511.914819096
 30
0.0
 10
519.2773015255
 20
511.9102227392
 30
0.0
 10
519.1061392472
 20
511.8841944859
 30
0.0
 10
518.9400487718
 20
511.8227254446
 30
0.0
 10
518.8286927546
 20
511.7584885665
 30
0.0
  0
SPLINE
  5
33C
100
AcDbEntity
  8
0
100
AcDbSpline
 62
7
  6
CONTINUOUS
 70
0
 71
3
 72
9
 73
5
 74
0
 42
0.0000001
 43
0.0000001
 44
0.0000000001
 40
0.0
 40
0.0
 40
0.0
 40
0.0
 40
0.4491702464
 40
1.0
 40
1.0
 40
1.0
 40
1.0
 10
491.8587957916
 20
516.667461165
 30
0.0
 10
491.9431424959
 20
516.7160733611
 30
0.0
 10
492.0887545043
 20
516.8984547428
 30
0.0
 10
492.1177125368
 20
517.1202610322
 30
0.0
 10
492.1177125368
 20
517.2396470828
 30
0.0
  0
SPLINE
  5
33D
100
AcDbEntity
  8
0
100
AcDbSpline
 62
7
  6
CONTINUOUS
 70
0
 71
3
 72
15
 73
11
 74
0
 42
0.0000001
 43
0.0000001
 44
0.0000000001
 40
0.0
 40
0.0
 40
0.0
 40
0.0
 40
0.0878901794
 40
0.189503157
 40
0.3085408572
 40
0.442830127
 40
0.5866453457
 40
0.7325078184
 40
0.8725620077
 40
1.0
 40
1.0
 40
1.0
 40
1.0
 10
491.2120574099
 20
560.2346867963
 30
0.0
 10
491.0353640575
 20
560.1578766051
 30
0.0
 10
490.6074244968
 20
560.0941651744
 30
0.0
 10
489.9421688213
 20
560.2708794972
 30
0.0
 10
489.2673796259
 20
560.6727563793
 30
0.0
 10
488.6258293165
 20
561.2690346143
 30
0.0
 10
488.063234636
 20
562.0141445838
 30
0.0
 10
487.6225753122
 20
562.8516197404
 30
0.0
 10
487.3376747147
 20
563.7161124098
 30
0.0
 10
487.2617787496
 20
564.3031644589
 30
0.0
 10
487.2617787496
 20
564.5825246885
 30
0.0
  0
SPLINE
  5
33E
100
AcDbEntity
  8
0
100
AcDbSpline
 62
7
  6
CONTINUOUS
 70
0
 71
3
 72
9
 73
5
 74
0
 42
0.0000001
 43
0.0000001
 44
0.0000000001
 40
0.0
 40
0.0
 40
0.0
 40
0.0
 40
0.2796617323
 40
1.0
 40
1.0
 40
1.0
 40
1.0
 10
518.6574770418
 20
510.36730714
 30
0.0
 10
518.6574770418
 20
510.483330426
 30
0.0
 10
518.6795946598
 20
510.8962267641
 30
0.0
 10
518.805504324
 20
511.3155215405
 30
0.0
 10
518.9778312799
 20
511.5596789243
 30
0.0
  0
SPLINE
  5
33F
100
AcDbEntity
  8
0
100
AcDbSpline
 62
7
  6
CONTINUOUS
 70
0
 71
3
 72
9
 73
5
 74
0
 42
0.0000001
 43
0.0000001
 44
0.0000000001
 40
0.0
 40
0.0
 40
0.0
 40
0.0
 40
0.2569622564
 40
1.0
 40
1.0
 40
1.0
 40
1.0
 10
518.9933520163
 20
511.5812130771
 30
0.0
 10
519.0182131671
 20
511.6149923168
 30
0.0
 10
519.1210286369
 20
511.7418270992
 30
0.0
 10
519.2497943585
 20
511.8479984618
 30
0.0
 10
519.3548213301
 20
511.9086460321
 30
0.0
  0
SPLINE
  5
340
100
AcDbEntity
  8
0
100
AcDbSpline
 62
7
  6
CONTINUOUS
 70
0
 71
3
 72
9
 73
5
 74
0
 42
0.0000001
 43
0.0000001
 44
0.0000000001
 40
0.0
 40
0.0
 40
0.0
 40
0.0
 40
0.7444235686
 40
1.0
 40
1.0
 40
1.0
 40
1.0
 10
491.4042030929
 20
560.2007077641
 30
0.0
 10
491.4705267768
 20
560.2545543511
 30
0.0
 10
491.5521186969
 20
560.3367991371
 30
0.0
 10
491.6216986755
 20
560.4280796906
 30
0.0
 10
491.6387383058
 20
560.4519521892
 30
0.0
  0
SPLINE
  5
341
100
AcDbEntity
  8
0
100
AcDbSpline
 62
7
  6
CONTINUOUS
 70
0
 71
3
 72
9
 73
5
 74
0
 42
0.0000001
 43
0.0000001
 44
0.0000000001
 40
0.0
 40
0.0
 40
0.0
 40
0.0
 40
0.2246950239
 40
1.0
 40
1.0
 40
1.0
 40
1.0
 10
491.6510388384
 20
560.4694668532
 30
0.0
 10
491.7056180307
 20
560.5484529459
 30
0.0
 10
491.9126377798
 20
560.9251235689
 30
0.0
 10
491.9760550745
 20
561.366225089
 30
0.0
 10
491.9760550745
 20
561.6975012552
 30
0.0
  0
SPLINE
  5
342
100
AcDbEntity
  8
0
100
AcDbSpline
 62
7
  6
CONTINUOUS
 70
0
 71
3
 72
11
 73
7
 74
0
 42
0.0000001
 43
0.0000001
 44
0.0000000001
 40
0.0
 40
0.0
 40
0.0
 40
0.0
 40
0.2177805809
 40
0.4509249258
 40
0.7102605785
 40
1.0
 40
1.0
 40
1.0
 40
1.0
 10
504.2005670324
 20
556.445893709
 30
0.0
 10
504.3539687897
 20
556.5344238262
 30
0.0
 10
504.640939315
 20
556.7757364072
 30
0.0
 10
504.9464584494
 20
557.27524321
 30
0.0
 10
505.1279822325
 20
557.8908669074
 30
0.0
 10
505.1636514485
 20
558.3389374767
 30
0.0
 10
505.1636514485
 20
558.5745744776
 30
0.0
  0
SPLINE
  5
343
100
AcDbEntity
  8
0
100
AcDbSpline
 62
7
  6
CONTINUOUS
 70
0
 71
3
 72
11
 73
7
 74
0
 42
0.0000001
 43
0.0000001
 44
0.0000000001
 40
0.0
 40
0.0
 40
0.0
 40
0.0
 40
0.2367541179
 40
0.4995197382
 40
0.7625411347
 40
1.0
 40
1.0
 40
1.0
 40
1.0
 10
508.6170215893
 20
560.5408039116
 30
0.0
 10
508.147604816
 20
560.8078737176
 30
0.0
 10
507.258127288
 20
561.5500971521
 30
0.0
 10
506.2196872988
 20
562.9617527735
 30
0.0
 10
505.5091303354
 20
564.5654594163
 30
0.0
 10
505.3050174581
 20
565.7078527422
 30
0.0
 10
505.3050174581
 20
566.2495329564
 30
0.0
  0
SPLINE
  5
344
100
AcDbEntity
  8
0
100
AcDbSpline
 62
7
  6
CONTINUOUS
 70
0
 71
3
 72
11
 73
7
 74
0
 42
0.0000001
 43
0.0000001
 44
0.0000000001
 40
0.0
 40
0.0
 40
0.0
 40
0.0
 40
0.2207676604
 40
0.4551907662
 40
0.7134678515
 40
1.0
 40
1.0
 40
1.0
 40
1.0
 10
454.8896631029
 20
585.1074923166
 30
0.0
 10
455.0330386004
 20
585.1903089057
 30
0.0
 10
455.3023097989
 20
585.4108324815
 30
0.0
 10
455.5997247151
 20
585.8636176902
 30
0.0
 10
455.7901159784
 20
586.4213484048
 30
0.0
 10
455.8419148382
 20
586.8292818786
 30
0.0
 10
455.8521551891
 20
587.0439360541
 30
0.0
  0
SPLINE
  5
345
100
AcDbEntity
  8
0
100
AcDbSpline
 62
7
  6
CONTINUOUS
 70
0
 71
3
 72
9
 73
5
 74
0
 42
0.0000001
 43
0.0000001
 44
0.0000000001
 40
0.0
 40
0.0
 40
0.0
 40
0.0
 40
0.2421174575
 40
1.0
 40
1.0
 40
1.0
 40
1.0
 10
491.974277506
 20
561.8063531428
 30
0.0
 10
491.9727719639
 20
561.8529292271
 30
0.0
 10
491.9626846434
 20
562.045165112
 30
0.0
 10
491.9378450791
 20
562.236538608
 30
0.0
 10
491.9120388276
 20
562.3801075851
 30
0.0
  0
SPLINE
  5
346
100
AcDbEntity
  8
0
100
AcDbSpline
 62
7
  6
CONTINUOUS
 70
0
 71
3
 72
9
 73
5
 74
0
 42
0.0000001
 43
0.0000001
 44
0.0000000001
 40
0.0
 40
0.0
 40
0.0
 40
0.0
 40
0.5000104759
 40
1.0
 40
1.0
 40
1.0
 40
1.0
 10
491.9120388276
 20
562.3801075851
 30
0.0
 10
491.8013820165
 20
562.9957291583
 30
0.0
 10
491.3327445873
 20
564.1833862904
 30
0.0
 10
490.5386142623
 20
565.1830654059
 30
0.0
 10
490.0609457783
 20
565.5868411901
 30
0.0
  0
SPLINE
  5
347
100
AcDbEntity
  8
0
100
AcDbSpline
 62
7
  6
CONTINUOUS
 70
0
 71
3
 72
9
 73
5
 74
0
 42
0.0000001
 43
0.0000001
 44
0.0000000001
 40
0.0
 40
0.0
 40
0.0
 40
0.0
 40
0.2901785824
 40
1.0
 40
1.0
 40
1.0
 40
1.0
 10
490.0609457783
 20
565.5868411901
 30
0.0
 10
489.9168558933
 20
565.7086411586
 30
0.0
 10
489.4000930523
 20
566.0943321337
 30
0.0
 10
488.737743743
 20
566.3533222992
 30
0.0
 10
488.2776691599
 20
566.3168151828
 30
0.0
  0
SPLINE
  5
348
100
AcDbEntity
  8
0
100
AcDbSpline
 62
7
  6
CONTINUOUS
 70
0
 71
3
 72
9
 73
5
 74
0
 42
0.0000001
 43
0.0000001
 44
0.0000000001
 40
0.0
 40
0.0
 40
0.0
 40
0.0
 40
0.2561489221
 40
1.0
 40
1.0
 40
1.0
 40
1.0
 10
488.2776691599
 20
566.3168151828
 30
0.0
 10
488.2463884999
 20
566.314333049
 30
0.0
 10
488.1246397178
 20
566.3006071015
 30
0.0
 10
488.0046687391
 20
566.2699776676
 30
0.0
 10
487.9195410843
 20
566.2374684449
 30
0.0
  0
SPLINE
  5
349
100
AcDbEntity
  8
0
100
AcDbSpline
 62
7
  6
CONTINUOUS
 70
0
 71
3
 72
11
 73
7
 74
0
 42
0.0000001
 43
0.0000001
 44
0.0000000001
 40
0.0
 40
0.0
 40
0.0
 40
0.0
 40
0.2357017026
 40
0.4967205131
 40
0.759513076
 40
1.0
 40
1.0
 40
1.0
 40
1.0
 10
533.1651406289
 20
546.5559065446
 30
0.0
 10
532.7132941403
 20
546.8167743348
 30
0.0
 10
531.8548656715
 20
547.5306526562
 30
0.0
 10
530.8390281558
 20
548.8850489791
 30
0.0
 10
530.1229408493
 20
550.4308880803
 30
0.0
 10
529.8917186838
 20
551.5368042222
 30
0.0
 10
529.8676733374
 20
552.0685977881
 30
0.0
  0
SPLINE
  5
34A
100
AcDbEntity
  8
0
100
AcDbSpline
 62
7
  6
CONTINUOUS
 70
0
 71
3
 72
15
 73
11
 74
0
 42
0.0000001
 43
0.0000001
 44
0.0000000001
 40
0.0
 40
0.0
 40
0.0
 40
0.0
 40
0.0869313433
 40
0.1864011611
 40
0.3037885282
 40
0.4375986154
 40
0.5820965189
 40
0.729420053
 40
0.8711665023
 40
1.0
 40
1.0
 40
1.0
 40
1.0
 10
522.7217588621
 20
506.0769043244
 30
0.0
 10
522.5535863259
 20
505.9797935007
 30
0.0
 10
522.1310383344
 20
505.871240797
 30
0.0
 10
521.4509350877
 20
506.0074411646
 30
0.0
 10
520.7561197829
 20
506.386970866
 30
0.0
 10
520.0898682927
 20
506.9769231117
 30
0.0
 10
519.5016464243
 20
507.7298910748
 30
0.0
 10
519.0385217359
 20
508.5858493565
 30
0.0
 10
518.7379876087
 20
509.4743580111
 30
0.0
 10
518.6574770418
 20
510.0795042508
 30
0.0
 10
518.6574770418
 20
510.36730714
 30
0.0
  0
SPLINE
  5
34B
100
AcDbEntity
  8
0
100
AcDbSpline
 62
7
  6
CONTINUOUS
 70
0
 71
3
 72
10
 73
6
 74
0
 42
0.0000001
 43
0.0000001
 44
0.0000000001
 40
0.0
 40
0.0
 40
0.0
 40
0.0
 40
0.5459686706
 40
0.7814365354
 40
1.0
 40
1.0
 40
1.0
 40
1.0
 10
487.2617787496
 20
564.5825246885
 30
0.0
 10
487.2617787496
 20
564.8803072453
 30
0.0
 10
487.3206638558
 20
565.317188872
 30
0.0
 10
487.5802846551
 20
565.8027693052
 30
0.0
 10
487.7566094512
 20
565.982944276
 30
0.0
 10
487.8524267442
 20
566.0538656097
 30
0.0
  0
SPLINE
  5
34C
100
AcDbEntity
  8
0
100
AcDbSpline
 62
7
  6
CONTINUOUS
 70
0
 71
3
 72
11
 73
7
 74
0
 42
0.0000001
 43
0.0000001
 44
0.0000000001
 40
0.0
 40
0.0
 40
0.0
 40
0.0
 40
0.3066668663
 40
0.5759528385
 40
0.8030463962
 40
1.0
 40
1.0
 40
1.0
 40
1.0
 10
432.775377812
 20
497.4747869857
 30
0.0
 10
432.6975706331
 20
497.5615050165
 30
0.0
 10
432.5363025225
 20
497.7120331617
 30
0.0
 10
432.2694485842
 20
497.866314069
 30
0.0
 10
432.0065118987
 20
497.9252548438
 30
0.0
 10
431.8421551658
 20
497.8848165845
 30
0.0
 10
431.777325837
 20
497.8474529902
 30
0.0
  0
SPLINE
  5
34D
100
AcDbEntity
  8
0
100
AcDbSpline
 62
7
  6
CONTINUOUS
 70
0
 71
3
 72
13
 73
9
 74
0
 42
0.0000001
 43
0.0000001
 44
0.0000000001
 40
0.0
 40
0.0
 40
0.0
 40
0.0
 40
0.269904124
 40
0.5613075641
 40
0.6954501131
 40
0.8131353839
 40
0.9128534389
 40
1.0
 40
1.0
 40
1.0
 40
1.0
 10
492.1177125368
 20
517.2396470828
 30
0.0
 10
492.1177125368
 20
517.4629435547
 30
0.0
 10
491.9949473242
 20
517.9258170995
 30
0.0
 10
491.6770503585
 20
518.4171463854
 30
0.0
 10
491.3386593398
 20
518.717350643
 30
0.0
 10
491.0806617105
 20
518.8582292023
 30
0.0
 10
490.8281408934
 20
518.9088684233
 30
0.0
 10
490.6713209464
 20
518.8684363923
 30
0.0
 10
490.6088549692
 20
518.8324348869
 30
0.0
  0
SPLINE
  5
34E
100
AcDbEntity
  8
0
100
AcDbSpline
 62
7
  6
CONTINUOUS
 70
0
 71
3
 72
9
 73
5
 74
0
 42
0.0000001
 43
0.0000001
 44
0.0000000001
 40
0.0
 40
0.0
 40
0.0
 40
0.0
 40
0.4491702464
 40
1.0
 40
1.0
 40
1.0
 40
1.0
 10
431.777325837
 20
497.8474529902
 30
0.0
 10
431.6929791326
 20
497.798840794
 30
0.0
 10
431.5473671242
 20
497.6164594124
 30
0.0
 10
431.5184090917
 20
497.394653123
 30
0.0
 10
431.5184090917
 20
497.2752670724
 30
0.0
  0
SPLINE
  5
34F
100
AcDbEntity
  8
0
100
AcDbSpline
 62
7
  6
CONTINUOUS
 70
0
 71
3
 72
9
 73
5
 74
0
 42
0.0000001
 43
0.0000001
 44
0.0000000001
 40
0.0
 40
0.0
 40
0.0
 40
0.0
 40
0.5254955588
 40
1.0
 40
1.0
 40
1.0
 40
1.0
 10
522.6666333544
 20
510.0582416196
 30
0.0
 10
522.8994502188
 20
509.6718308196
 30
0.0
 10
523.2602345173
 20
508.8842149258
 30
0.0
 10
523.4191031504
 20
508.0255968331
 30
0.0
 10
523.4191031504
 20
507.6182432165
 30
0.0
  0
SPLINE
  5
350
100
AcDbEntity
  8
0
100
AcDbSpline
 62
7
  6
CONTINUOUS
 70
0
 71
3
 72
11
 73
7
 74
0
 42
0.0000001
 43
0.0000001
 44
0.0000000001
 40
0.0
 40
0.0
 40
0.0
 40
0.0
 40
0.289722568
 40
0.5490823274
 40
0.7822146693
 40
1.0
 40
1.0
 40
1.0
 40
1.0
 10
452.5546878975
 20
585.3387459302
 30
0.0
 10
452.7596164513
 20
585.2204330511
 30
0.0
 10
453.1672423558
 20
585.0264891749
 30
0.0
 10
453.7938060605
 20
584.8752190913
 30
0.0
 10
454.3816644722
 20
584.8901192658
 30
0.0
 10
454.7356365693
 20
585.0185234734
 30
0.0
 10
454.8896631029
 20
585.1074923166
 30
0.0
  0
SPLINE
  5
351
100
AcDbEntity
  8
0
100
AcDbSpline
 62
7
  6
CONTINUOUS
 70
0
 71
3
 72
15
 73
11
 74
0
 42
0.0000001
 43
0.0000001
 44
0.0000000001
 40
0.0
 40
0.0
 40
0.0
 40
0.0
 40
0.1288335704
 40
0.2705719238
 40
0.41788751
 40
0.5623880775
 40
0.696203641
 40
0.8135935554
 40
0.9130650055
 40
1.0
 40
1.0
 40
1.0
 40
1.0
 10
498.5875310046
 20
562.3712134946
 30
0.0
 10
498.5875310046
 20
561.973738272
 30
0.0
 10
498.698719558
 20
561.1380155893
 30
0.0
 10
499.1137575703
 20
559.9109726357
 30
0.0
 10
499.7533166676
 20
558.728861204
 30
0.0
 10
500.5656436547
 20
557.6889260089
 30
0.0
 10
501.4857977574
 20
556.8741206184
 30
0.0
 10
502.4454127405
 20
556.3499719346
 30
0.0
 10
503.3847250686
 20
556.1618517666
 30
0.0
 10
503.9682661099
 20
556.3118298738
 30
0.0
 10
504.2005670324
 20
556.445893709
 30
0.0
  0
SPLINE
  5
352
100
AcDbEntity
  8
0
100
AcDbSpline
 62
7
  6
CONTINUOUS
 70
0
 71
3
 72
11
 73
7
 74
0
 42
0.0000001
 43
0.0000001
 44
0.0000000001
 40
0.0
 40
0.0
 40
0.0
 40
0.0
 40
0.2404868326
 40
0.5032793675
 40
0.7642982073
 40
1.0
 40
1.0
 40
1.0
 40
1.0
 10
523.1501868838
 20
548.1902783264
 30
0.0
 10
523.1742322211
 20
547.6584849624
 30
0.0
 10
523.4054542622
 20
546.5525690793
 30
0.0
 10
524.1215413556
 20
545.006730098
 30
0.0
 10
525.1373788763
 20
543.6523335281
 30
0.0
 10
525.995807514
 20
542.9384549727
 30
0.0
 10
526.4476541754
 20
542.6775870828
 30
0.0
  0
SPLINE
  5
353
100
AcDbEntity
  8
0
100
AcDbSpline
 62
7
  6
CONTINUOUS
 70
0
 71
3
 72
15
 73
11
 74
0
 42
0.0000001
 43
0.0000001
 44
0.0000000001
 40
0.0
 40
0.0
 40
0.0
 40
0.0
 40
0.1291417053
 40
0.2710301463
 40
0.4183533402
 40
0.5627538371
 40
0.6964247918
 40
0.8136844596
 40
0.9130815934
 40
1.0
 40
1.0
 40
1.0
 40
1.0
 10
487.0263352921
 20
564.537403865
 30
0.0
 10
487.0279570837
 20
564.238276865
 30
0.0
 10
487.1141482825
 20
563.6102135215
 30
0.0
 10
487.4288860264
 20
562.6889250649
 30
0.0
 10
487.9112415845
 20
561.8024829402
 30
0.0
 10
488.5224086018
 20
561.0234391063
 30
0.0
 10
489.2137333863
 20
560.4135944784
 30
0.0
 10
489.934173483
 20
560.0217252537
 30
0.0
 10
490.6390533675
 20
559.8817620393
 30
0.0
 10
491.076812216
 20
559.9945763134
 30
0.0
 10
491.2511551229
 20
560.095264373
 30
0.0
  0
SPLINE
  5
354
100
AcDbEntity
  8
0
100
AcDbSpline
 62
7
  6
CONTINUOUS
 70
0
 71
3
 72
9
 73
5
 74
0
 42
0.0000001
 43
0.0000001
 44
0.0000000001
 40
0.0
 40
0.0
 40
0.0
 40
0.0
 40
0.4805950673
 40
1.0
 40
1.0
 40
1.0
 40
1.0
 10
524.8213153498
 20
508.7172760576
 30
0.0
 10
524.7908589311
 20
509.0838733784
 30
0.0
 10
524.6156574446
 20
509.8381775536
 30
0.0
 10
524.2855377519
 20
510.5349902545
 30
0.0
 10
524.0803575022
 20
510.8755194021
 30
0.0
  0
SPLINE
  5
355
100
AcDbEntity
  8
0
100
AcDbSpline
 62
7
  6
CONTINUOUS
 70
0
 71
3
 72
10
 73
6
 74
0
 42
0.0000001
 43
0.0000001
 44
0.0000000001
 40
0.0
 40
0.0
 40
0.0
 40
0.0
 40
0.2240082867
 40
0.4602783944
 40
1.0
 40
1.0
 40
1.0
 40
1.0
 10
524.1359491914
 20
506.893422456
 30
0.0
 10
524.2326107856
 20
506.9492627447
 30
0.0
 10
524.4148050321
 20
507.095094989
 30
0.0
 10
524.7030805709
 20
507.5078456108
 30
0.0
 10
524.796702972
 20
507.8982032773
 30
0.0
 10
524.8213153498
 20
508.1660378592
 30
0.0
  0
SPLINE
  5
356
100
AcDbEntity
  8
0
100
AcDbSpline
 62
7
  6
CONTINUOUS
 70
0
 71
3
 72
9
 73
5
 74
0
 42
0.0000001
 43
0.0000001
 44
0.0000000001
 40
0.0
 40
0.0
 40
0.0
 40
0.0
 40
0.4701608173
 40
1.0
 40
1.0
 40
1.0
 40
1.0
 10
518.8286927546
 20
511.7584885665
 30
0.0
 10
518.6670587031
 20
511.6652482807
 30
0.0
 10
518.3714371164
 20
511.3767519771
 30
0.0
 10
518.223771781
 20
510.9981036105
 30
0.0
 10
518.1744995364
 20
510.7936728898
 30
0.0
  0
SPLINE
  5
357
100
AcDbEntity
  8
0
100
AcDbSpline
 62
7
  6
CONTINUOUS
 70
0
 71
3
 72
11
 73
7
 74
0
 42
0.0000001
 43
0.0000001
 44
0.0000000001
 40
0.0
 40
0.0
 40
0.0
 40
0.0
 40
0.2504560265
 40
0.5129689936
 40
0.7686012888
 40
1.0
 40
1.0
 40
1.0
 40
1.0
 10
518.1744995364
 20
509.4371971974
 30
0.0
 10
518.2427609404
 20
509.0751606887
 30
0.0
 10
518.4719614405
 20
508.3492549773
 30
0.0
 10
519.0150014659
 20
507.35047238
 30
0.0
 10
519.7167931184
 20
506.4919185181
 30
0.0
 10
520.2838908832
 20
506.0398464728
 30
0.0
 10
520.5786726019
 20
505.8696580183
 30
0.0
  0
SPLINE
  5
358
100
AcDbEntity
  8
0
100
AcDbSpline
 62
7
  6
CONTINUOUS
 70
0
 71
3
 72
9
 73
5
 74
0
 42
0.0000001
 43
0.0000001
 44
0.0000000001
 40
0.0
 40
0.0
 40
0.0
 40
0.0
 40
0.2570102125
 40
1.0
 40
1.0
 40
1.0
 40
1.0
 10
491.6886334677
 20
560.6210564929
 30
0.0
 10
491.6637215455
 20
560.5871085098
 30
0.0
 10
491.5606806204
 20
560.4596639526
 30
0.0
 10
491.4314768447
 20
560.3529942455
 30
0.0
 10
491.3260605699
 20
560.2921218729
 30
0.0
  0
SPLINE
  5
359
100
AcDbEntity
  8
0
100
AcDbSpline
 62
7
  6
CONTINUOUS
 70
0
 71
3
 72
11
 73
7
 74
0
 42
0.0000001
 43
0.0000001
 44
0.0000000001
 40
0.0
 40
0.0
 40
0.0
 40
0.0
 40
0.2897016594
 40
0.5490895814
 40
0.7822189142
 40
1.0
 40
1.0
 40
1.0
 40
1.0
 10
523.4191031504
 20
507.6182432165
 30
0.0
 10
523.4191031504
 20
507.4476459945
 30
0.0
 10
523.3932382841
 20
507.1232045693
 30
0.0
 10
523.2618502728
 20
506.6774357666
 30
0.0
 10
523.0406203796
 20
506.3157199057
 30
0.0
 10
522.8328177864
 20
506.1410350312
 30
0.0
 10
522.7217588621
 20
506.0769043244
 30
0.0
  0
SPLINE
  5
35A
100
AcDbEntity
  8
0
100
AcDbSpline
 62
7
  6
CONTINUOUS
 70
0
 71
3
 72
9
 73
5
 74
0
 42
0.0000001
 43
0.0000001
 44
0.0000000001
 40
0.0
 40
0.0
 40
0.0
 40
0.0
 40
0.2458683479
 40
1.0
 40
1.0
 40
1.0
 40
1.0
 10
487.9591230379
 20
566.1238635806
 30
0.0
 10
487.9949127583
 20
566.144530268
 30
0.0
 10
488.1450720621
 20
566.2205476067
 30
0.0
 10
488.3118816638
 20
566.262111721
 30
0.0
 10
488.4380151194
 20
566.2747237152
 30
0.0
  0
SPLINE
  5
35B
100
AcDbEntity
  8
0
100
AcDbSpline
 62
7
  6
CONTINUOUS
 70
0
 71
3
 72
9
 73
5
 74
0
 42
0.0000001
 43
0.0000001
 44
0.0000000001
 40
0.0
 40
0.0
 40
0.0
 40
0.0
 40
0.4491702464
 40
1.0
 40
1.0
 40
1.0
 40
1.0
 10
490.6088549692
 20
518.8324348869
 30
0.0
 10
490.5245082648
 20
518.7838226908
 30
0.0
 10
490.3788962565
 20
518.6014413091
 30
0.0
 10
490.349938224
 20
518.3796350197
 30
0.0
 10
490.349938224
 20
518.2602489691
 30
0.0
  0
SPLINE
  5
35C
100
AcDbEntity
  8
0
100
AcDbSpline
 62
7
  6
CONTINUOUS
 70
0
 71
3
 72
11
 73
7
 74
0
 42
0.0000001
 43
0.0000001
 44
0.0000000001
 40
0.0
 40
0.0
 40
0.0
 40
0.0
 40
0.2196886406
 40
0.4536171056
 40
0.7122038333
 40
1.0
 40
1.0
 40
1.0
 40
1.0
 10
487.75118695
 20
566.157423419
 30
0.0
 10
487.6409225843
 20
566.093742566
 30
0.0
 10
487.4341311465
 20
565.9227860179
 30
0.0
 10
487.2085732928
 20
565.5707588695
 30
0.0
 10
487.0676562478
 20
565.1369045131
 30
0.0
 10
487.0329211732
 20
564.8200762858
 30
0.0
 10
487.0277865879
 20
564.6533478417
 30
0.0
  0
SPLINE
  5
35D
100
AcDbEntity
  8
0
100
AcDbSpline
 62
7
  6
CONTINUOUS
 70
0
 71
3
 72
9
 73
5
 74
0
 42
0.0000001
 43
0.0000001
 44
0.0000000001
 40
0.0
 40
0.0
 40
0.0
 40
0.0
 40
0.2338386221
 40
1.0
 40
1.0
 40
1.0
 40
1.0
 10
431.5184090917
 20
497.2752670724
 30
0.0
 10
431.5184090917
 20
497.2373755905
 30
0.0
 10
431.5263774946
 20
497.0753591871
 30
0.0
 10
431.562250207
 20
496.91535144
 30
0.0
 10
431.6008190308
 20
496.7973447085
 30
0.0
  0
SPLINE
  5
35E
100
AcDbEntity
  8
0
100
AcDbSpline
 62
7
  6
CONTINUOUS
 70
0
 71
3
 72
13
 73
9
 74
0
 42
0.0000001
 43
0.0000001
 44
0.0000000001
 40
0.0
 40
0.0
 40
0.0
 40
0.0
 40
0.269904124
 40
0.5613075641
 40
0.6954501131
 40
0.8131353839
 40
0.9128534389
 40
1.0
 40
1.0
 40
1.0
 40
1.0
 10
490.349938224
 20
518.2602489691
 30
0.0
 10
490.349938224
 20
518.0369524972
 30
0.0
 10
490.4727034366
 20
517.5740789524
 30
0.0
 10
490.7906004022
 20
517.0827496665
 30
0.0
 10
491.128991421
 20
516.7825454089
 30
0.0
 10
491.3869890503
 20
516.6416668496
 30
0.0
 10
491.6395098674
 20
516.5910276286
 30
0.0
 10
491.7963298144
 20
516.6314596596
 30
0.0
 10
491.8587957916
 20
516.667461165
 30
0.0
  0
SPLINE
  5
35F
100
AcDbEntity
  8
0
100
AcDbSpline
 62
7
  6
CONTINUOUS
 70
0
 71
3
 72
9
 73
5
 74
0
 42
0.0000001
 43
0.0000001
 44
0.0000000001
 40
0.0
 40
0.0
 40
0.0
 40
0.0
 40
0.2443963143
 40
1.0
 40
1.0
 40
1.0
 40
1.0
 10
454.131526382
 20
504.0168653142
 30
0.0
 10
454.1338763317
 20
503.9251292733
 30
0.0
 10
454.1486545505
 20
503.5499138945
 30
0.0
 10
454.1834694262
 20
503.1755507728
 30
0.0
 10
454.2197396178
 20
502.8941640102
 30
0.0
  0
SPLINE
  5
360
100
AcDbEntity
  8
0
100
AcDbSpline
 62
7
  6
CONTINUOUS
 70
0
 71
3
 72
9
 73
5
 74
0
 42
0.0000001
 43
0.0000001
 44
0.0000000001
 40
0.0
 40
0.0
 40
0.0
 40
0.0
 40
0.2565535655
 40
1.0
 40
1.0
 40
1.0
 40
1.0
 10
460.0373912901
 20
492.6813622729
 30
0.0
 10
460.1296211743
 20
492.6087760015
 30
0.0
 10
460.4931655767
 20
492.3310602786
 30
0.0
 10
460.8731219628
 20
492.0745935328
 30
0.0
 10
461.1643936173
 20
491.8989929065
 30
0.0
  0
ELLIPSE
  5
361
100
AcDbEntity
  8
0
100
AcDbEllipse
 62
7
  6
CONTINUOUS
 10
215.0756659584
 20
358.0690265346
 30
0.0
 11
437.1444877748
 21
220.9121859362
 31
0.0
 40
0.0074832315
 41
1.8465846966
 42
1.8520887991
  0
ELLIPSE
  5
362
100
AcDbEntity
  8
0
100
AcDbEllipse
 62
7
  6
CONTINUOUS
 10
89.273656188
 20
285.4376358801
 30
0.0
 11
5.2392157446
 21
33.7094741655
 31
0.0
 40
0.330838708
 41
-1.0035233853
 42
-0.8854158956
  0
ELLIPSE
  5
363
100
AcDbEntity
  8
0
100
AcDbEllipse
 62
7
  6
CONTINUOUS
 10
89.273656188
 20
285.4376358801
 30
0.0
 11
33.1591730698
 21
-10.6980981824
 31
0.0
 40
0.4021724528
 41
1.0000991094
 42
1.118206599
  0
ELLIPSE
  5
364
100
AcDbEntity
  8
0
100
AcDbEllipse
 62
7
  6
CONTINUOUS
 10
250.182307993
 20
378.3377347758
 30
0.0
 11
517.2553212395
 21
330.2990767016
 31
0.0
 40
0.0033906275
 41
-1.9121271736
 42
-1.9086891929
  0
ELLIPSE
  5
365
100
AcDbEntity
  8
0
100
AcDbEllipse
 62
7
  6
CONTINUOUS
 10
250.182307993
 20
378.3377347758
 30
0.0
 11
517.2553212395
 21
330.2990767016
 31
0.0
 40
0.0033906275
 41
1.8568541327
 42
1.8602921134
  0
ELLIPSE
  5
366
100
AcDbEntity
  8
0
100
AcDbEllipse
 62
7
  6
CONTINUOUS
 10
84.3184574014
 20
282.5767676038
 30
0.0
 11
33.2346905621
 21
50.5605729789
 31
0.0
 40
0.0786214104
 41
-1.2938512406
 42
-1.283791709
  0
ELLIPSE
  5
367
100
AcDbEntity
  8
0
100
AcDbEllipse
 62
7
  6
CONTINUOUS
 10
85.4159072863
 20
283.2103768081
 30
0.0
 11
24.8756045326
 21
-16.3513380185
 31
0.0
 40
0.5224507923
 41
7.6585938272
 42
7.718975624
  0
ENDSEC
  0
SECTION
  2
OBJECTS
  0
DICTIONARY
  5
C
100
AcDbDictionary
280
0
281
1
  3
ACAD_GROUP
350
D
  3
ACAD_MLINESTYLE
350
17
  3
ACAD_LAYOUT
350
1A
  3
ACAD_PLOTSETTINGS
350
19
  3
ACAD_PLOTSTYLENAME
350
E
  0
DICTIONARY
  5
D
102
{ACAD_REACTORS
330
C
102
}
100
AcDbDictionary
280
0
281
1
  0
ACDBDICTIONARYWDFLT
  5
E
102
{ACAD_REACTORS
330
C
102
}
100
AcDbDictionary
281
1
  3
Normal
350
F
100
AcDbDictionaryWithDefault
340
F
  0
DICTIONARY
  5
17
102
{ACAD_REACTORS
330
C
102
}
100
AcDbDictionary
280
0
281
1
  3
Standard
350
18
  0
DICTIONARY
  5
19
102
{ACAD_REACTORS
330
C
102
}
100
AcDbDictionary
281
1
  0
DICTIONARY
  5
1A
102
{ACAD_REACTORS
330
C
102
}
100
AcDbDictionary
281
1
  3
Model
350
368
  3
Layout1
350
369
  0
ACDBPLACEHOLDER
  5
F
102
{ACAD_REACTORS
330
E
102
}
  0
MLINESTYLE
  5
18
102
{ACAD_REACTORS
330
17
102
}
100
AcDbMlineStyle
  2
STANDARD
 70
0
  3

 62
256
 51
90.0
 52
90.0
 71
2
 49
0.5
 62
256
  6
BYLAYER
 49
-0.5
 62
256
  6
BYLAYER
  0
LAYOUT
  5
368
102
{ACAD_REACTORS
330
1A
102
}
100
AcDbPlotSettings
  1

  2
none_device
  4

  6

 40
0.0
 41
0.0
 42
0.0
 43
0.0
 44
210.0
 45
297.0
 46
0.0
 47
0.0
 48
0.0
 49
0.0
140
0.0
141
0.0
142
1.0
143
1.0
 70
1024
 72
1
 73
0
 74
0
  7

 75
0
147
1.0
148
0.0
149
0.0
100
AcDbLayout
  1
Model
 70
0
 71
0
 10
0.0
 20
0.0
 11
210.0
 21
297.0
 12
0.0
 22
0.0
 32
0.0
 14
0.0
 24
0.0
 34
0.0
 15
0.0
 25
0.0
 35
0.0
146
0.0
 13
0.0
 23
0.0
 33
0.0
 16
1.0
 26
0.0
 36
0.0
 17
0.0
 27
1.0
 37
0.0
 76
0
330
210
345
0
346
0
  0
LAYOUT
  5
369
102
{ACAD_REACTORS
330
1A
102
}
100
AcDbPlotSettings
  1

  2
none_device
  4

  6

 40
0.0
 41
0.0
 42
0.0
 43
0.0
 44
210.0
 45
297.0
 46
0.0
 47
0.0
 48
0.0
 49
0.0
140
0.0
141
0.0
142
1.0
143
1.0
 70
0
 72
1
 73
0
 74
0
  7

 75
0
147
1.0
148
0.0
149
0.0
100
AcDbLayout
  1
Layout1
 70
0
 71
1
 10
0.0
 20
0.0
 11
210.0
 21
297.0
 12
0.0
 22
0.0
 32
0.0
 14
0.0
 24
0.0
 34
0.0
 15
0.0
 25
0.0
 35
0.0
146
0.0
 13
0.0
 23
0.0
 33
0.0
 16
1.0
 26
0.0
 36
0.0
 17
0.0
 27
1.0
 37
0.0
 76
0
330
211
345
0
346
0
  0
ENDSEC
  0
EOF
