  0
SECTION
  2
HEADER
  9
$ACADVER
  1
AC1009
  9
$INSBASE
 10
0.0
 20
0.0
 30
0.0
  9
$EXTMIN
 10
2290.928094
 20
561.960991
 30
0.0
  9
$EXTMAX
 10
2525.128094
 20
852.060991
 30
0.0
  9
$LIMMIN
 10
0.0
 20
0.0
  9
$LIMMAX
 10
210.0
 20
297.0
  9
$ORTHOMODE
 70
     1
  9
$REGENMODE
 70
     1
  9
$FILLMODE
 70
     1
  9
$QTEXTMODE
 70
     0
  9
$MIRRTEXT
 70
     1
  9
$DRAGMODE
 70
     2
  9
$LTSCALE
 40
5.0
  9
$OSMODE
 70
     0
  9
$ATTMODE
 70
     1
  9
$TEXTSIZE
 40
0.2
  9
$TRACEWID
 40
0.05
  9
$TEXTSTYLE
  7
STANDARD
  9
$CLAYER
  8
0
  9
$CELTYPE
  6
BYLAYER
  9
$CECOLOR
 62
   256
  9
$DIMSCALE
 40
1.0
  9
$DIMASZ
 40
5.0
  9
$DIMEXO
 40
0.0625
  9
$DIMDLI
 40
0.38
  9
$DIMRND
 40
0.01
  9
$DIMDLE
 40
0.0
  9
$DIMEXE
 40
0.18
  9
$DIMTP
 40
0.0
  9
$DIMTM
 40
0.0
  9
$DIMTXT
 40
4.0
  9
$DIMCEN
 40
0.09
  9
$DIMTSZ
 40
0.0
  9
$DIMTOL
 70
     0
  9
$DIMLIM
 70
     0
  9
$DIMTIH
 70
     0
  9
$DIMTOH
 70
     0
  9
$DIMSE1
 70
     0
  9
$DIMSE2
 70
     0
  9
$DIMTAD
 70
     1
  9
$DIMZIN
 70
    12
  9
$DIMBLK
  1

  9
$DIMASO
 70
     1
  9
$DIMSHO
 70
     1
  9
$DIMPOST
  1

  9
$DIMAPOST
  1

  9
$DIMALT
 70
     0
  9
$DIMALTD
 70
     2
  9
$DIMALTF
 40
25.4
  9
$DIMLFAC
 40
1.0
  9
$DIMTOFL
 70
     1
  9
$DIMTVP
 40
0.0
  9
$DIMTIX
 70
     0
  9
$DIMSOXD
 70
     0
  9
$DIMSAH
 70
     0
  9
$DIMBLK1
  1

  9
$DIMBLK2
  1

  9
$DIMSTYLE
  2
SC_STAND
  9
$DIMCLRD
 70
     0
  9
$DIMCLRE
 70
     0
  9
$DIMCLRT
 70
     0
  9
$DIMTFAC
 40
1.0
  9
$DIMGAP
 40
1.0
  9
$LUNITS
 70
     2
  9
$LUPREC
 70
     4
  9
$SKETCHINC
 40
0.1
  9
$FILLETRAD
 40
0.0
  9
$AUNITS
 70
     0
  9
$AUPREC
 70
     0
  9
$MENU
  1
.
  9
$ELEVATION
 40
0.0
  9
$PELEVATION
 40
0.0
  9
$THICKNESS
 40
0.0
  9
$LIMCHECK
 70
     0
  9
$BLIPMODE
 70
     0
  9
$CHAMFERA
 40
0.0
  9
$CHAMFERB
 40
0.0
  9
$SKPOLY
 70
     0
  9
$TDCREATE
 40
2452082.615375
  9
$TDUPDATE
 40
2452312.615378
  9
$TDINDWG
 40
0.313981
  9
$TDUSRTIMER
 40
0.313981
  9
$USRTIMER
 70
     1
  9
$ANGBASE
 50
0.0
  9
$ANGDIR
 70
     0
  9
$PDMODE
 70
     0
  9
$PDSIZE
 40
0.0
  9
$PLINEWID
 40
0.0
  9
$COORDS
 70
     1
  9
$SPLFRAME
 70
     0
  9
$SPLINETYPE
 70
     6
  9
$SPLINESEGS
 70
     8
  9
$ATTDIA
 70
     0
  9
$ATTREQ
 70
     1
  9
$HANDLING
 70
     1
  9
$HANDSEED
  5
1B5A3
  9
$SURFTAB1
 70
     6
  9
$SURFTAB2
 70
     6
  9
$SURFTYPE
 70
     6
  9
$SURFU
 70
     6
  9
$SURFV
 70
     6
  9
$UCSNAME
  2

  9
$UCSORG
 10
0.0
 20
0.0
 30
0.0
  9
$UCSXDIR
 10
1.0
 20
0.0
 30
0.0
  9
$UCSYDIR
 10
0.0
 20
1.0
 30
0.0
  9
$PUCSNAME
  2

  9
$PUCSORG
 10
0.0
 20
0.0
 30
0.0
  9
$PUCSXDIR
 10
1.0
 20
0.0
 30
0.0
  9
$PUCSYDIR
 10
0.0
 20
1.0
 30
0.0
  9
$USERI1
 70
     0
  9
$USERI2
 70
     0
  9
$USERI3
 70
     0
  9
$USERI4
 70
     0
  9
$USERI5
 70
     0
  9
$USERR1
 40
0.0
  9
$USERR2
 40
0.0
  9
$USERR3
 40
0.0
  9
$USERR4
 40
0.0
  9
$USERR5
 40
0.0
  9
$WORLDVIEW
 70
     1
  9
$SHADEDGE
 70
     3
  9
$SHADEDIF
 70
    70
  9
$TILEMODE
 70
     1
  9
$MAXACTVP
 70
    48
  9
$PLIMCHECK
 70
     0
  9
$PEXTMIN
 10
1.000000E+020
 20
1.000000E+020
 30
1.000000E+020
  9
$PEXTMAX
 10
-1.000000E+020
 20
-1.000000E+020
 30
-1.000000E+020
  9
$PLIMMIN
 10
0.0
 20
0.0
  9
$PLIMMAX
 10
12.0
 20
9.0
  9
$UNITMODE
 70
     0
  9
$VISRETAIN
 70
     1
  9
$PLINEGEN
 70
     0
  9
$PSLTSCALE
 70
     1
  0
ENDSEC
  0
SECTION
  2
TABLES
  0
TABLE
  2
VPORT
 70
     2
  0
VPORT
  2
*ACTIVE
 70
     0
 10
0.0
 20
0.0
 11
1.0
 21
1.0
 12
2408.098096
 22
707.003291
 13
0.0
 23
0.0
 14
1.0
 24
1.0
 15
0.0
 25
0.0
 16
0.0
 26
0.0
 36
1.0
 17
0.0
 27
0.0
 37
0.0
 40
294.582492
 41
1.838384
 42
50.0
 43
0.0
 44
0.0
 50
0.0
 51
0.0
 71
     0
 72
  1000
 73
     1
 74
     1
 75
     0
 76
     0
 77
     0
 78
     0
  0
ENDTAB
  0
TABLE
  2
LTYPE
 70
     1
  0
LTYPE
  2
CONTINUOUS
 70
     0
  3
Solid line
 72
    65
 73
     0
 40
0.0
  0
ENDTAB
  0
TABLE
  2
LAYER
 70
     2
  0
LAYER
  2
0
 70
     0
 62
     7
  6
CONTINUOUS
  0
LAYER
  2
ALPHA
 70
     0
 62
   254
  6
CONTINUOUS
  0
ENDTAB
  0
TABLE
  2
STYLE
 70
     1
  0
STYLE
  2
STANDARD
 70
     0
 40
0.0
 41
1.0
 50
0.0
 71
     0
 42
0.2
  3
txt
  4

  0
ENDTAB
  0
TABLE
  2
VIEW
 70
     0
  0
ENDTAB
  0
TABLE
  2
UCS
 70
     0
  0
ENDTAB
  0
TABLE
  2
APPID
 70
     3
  0
APPID
  2
ACAD
 70
     0
  0
APPID
  2
AVE_RENDER
 70
     0
  0
APPID
  2
AVE_MATERIAL
 70
     0
  0
ENDTAB
  0
TABLE
  2
DIMSTYLE
 70
     2
  0
DIMSTYLE
  2
STANDARD
 70
     0
  3

  4

  5

  6

  7

 40
1.0
 41
0.18
 42
0.0625
 43
0.38
 44
0.18
 45
0.0
 46
0.0
 47
0.0
 48
0.0
140
0.18
141
0.09
142
0.0
143
25.4
144
1.0
145
0.0
146
1.0
147
0.09
 71
     0
 72
     0
 73
     1
 74
     1
 75
     0
 76
     0
 77
     0
 78
     0
170
     0
171
     2
172
     0
173
     0
174
     0
175
     0
176
     0
177
     0
178
     0
  0
DIMSTYLE
  2
SC_STAND
 70
     0
  3

  4

  5

  6

  7

 40
1.0
 41
4.0
 42
0.0625
 43
0.38
 44
0.18
 45
0.01
 46
0.0
 47
0.0
 48
0.0
140
4.0
141
0.09
142
0.0
143
25.4
144
1.0
145
0.0
146
1.0
147
1.0
 71
     0
 72
     0
 73
     0
 74
     0
 75
     0
 76
     0
 77
     1
 78
    12
170
     0
171
     2
172
     1
173
     0
174
     0
175
     0
176
     0
177
     0
178
     0
  0
ENDTAB
  0
ENDSEC
  0
SECTION
  2
BLOCKS
  0
BLOCK
  8
0
  2
$MODEL_SPACE
 70
     0
 10
0.0
 20
0.0
 30
0.0
  3
$MODEL_SPACE
  1

  0
ENDBLK
  5
1AE19
  8
0
  0
BLOCK
 67
     1
  8
0
  2
$PAPER_SPACE
 70
     0
 10
0.0
 20
0.0
 30
0.0
  3
$PAPER_SPACE
  1

  0
ENDBLK
  5
1AE17
 67
     1
  8
0
  0
BLOCK
  8
0
  2
SCH_ISO
 70
     0
 10
0.0
 20
0.0
 30
0.0
  3
SCH_ISO
  1

  0
ENDBLK
  5
13A
  8
0
  0
ENDSEC
  0
SECTION
  2
ENTITIES
  0
INSERT
  5
13C
  8
ALPHA
 62
   255
  2
SCH_ISO
 10
0.0
 20
0.0
 30
0.0
  0
LINE
  5
18E11
  8
ALPHA
 10
2496.172558
 20
576.060991
 30
0.0
 11
2491.763663
 21
576.060991
 31
0.0
  0
LINE
  5
18E12
  8
ALPHA
 10
2497.172556
 20
577.043539
 30
0.0
 11
2492.745245
 21
577.043512
 31
0.0
  0
POLYLINE
  5
18E13
  8
ALPHA
 66
     1
 10
0.0
 20
0.0
 30
0.0
  0
VERTEX
  5
1AE1E
  8
ALPHA
 10
2493.456298
 20
603.592364
 30
0.0
  0
VERTEX
  5
1AE1F
  8
ALPHA
 10
2493.685007
 20
604.021414
 30
0.0
  0
VERTEX
  5
1AE20
  8
ALPHA
 10
2493.869787
 20
604.422592
 30
0.0
  0
VERTEX
  5
1AE21
  8
ALPHA
 10
2494.017797
 20
604.794342
 30
0.0
  0
VERTEX
  5
1AE22
  8
ALPHA
 10
2494.135639
 20
605.137096
 30
0.0
  0
VERTEX
  5
1AE23
  8
ALPHA
 10
2494.228737
 20
605.451464
 30
0.0
  0
VERTEX
  5
1AE24
  8
ALPHA
 10
2494.301719
 20
605.738695
 30
0.0
  0
VERTEX
  5
1AE25
  8
ALPHA
 10
2494.358582
 20
606.001033
 30
0.0
  0
VERTEX
  5
1AE26
  8
ALPHA
 10
2494.402619
 20
606.241192
 30
0.0
  0
VERTEX
  5
1AE27
  8
ALPHA
 10
2494.436446
 20
606.461911
 30
0.0
  0
VERTEX
  5
1AE28
  8
ALPHA
 10
2494.462098
 20
606.66568
 30
0.0
  0
SEQEND
  5
1AE29
  8
ALPHA
  0
LINE
  5
18E20
  8
ALPHA
 10
2491.166216
 20
601.160991
 30
0.0
 11
2497.593577
 21
601.160991
 31
0.0
  0
LINE
  5
18E21
  8
ALPHA
 10
2505.699281
 20
602.210095
 30
0.0
 11
2491.428094
 21
601.960991
 31
0.0
  0
LINE
  5
18E22
  8
ALPHA
 10
2505.699281
 20
603.709867
 30
0.0
 11
2491.428094
 21
603.460763
 31
0.0
  0
POLYLINE
  5
18E23
  8
ALPHA
 66
     1
 10
0.0
 20
0.0
 30
0.0
  0
VERTEX
  5
1AE2A
  8
ALPHA
 10
2494.436707
 20
795.15801
 30
0.0
  0
VERTEX
  5
1AE2B
  8
ALPHA
 10
2494.40354
 20
795.375279
 30
0.0
  0
VERTEX
  5
1AE2C
  8
ALPHA
 10
2494.359707
 20
795.615291
 30
0.0
  0
VERTEX
  5
1AE2D
  8
ALPHA
 10
2494.302821
 20
795.878579
 30
0.0
  0
VERTEX
  5
1AE2E
  8
ALPHA
 10
2494.229587
 20
796.167411
 30
0.0
  0
VERTEX
  5
1AE2F
  8
ALPHA
 10
2494.136048
 20
796.4836
 30
0.0
  0
VERTEX
  5
1AE30
  8
ALPHA
 10
2494.017679
 20
796.827962
 30
0.0
  0
VERTEX
  5
1AE31
  8
ALPHA
 10
2493.869228
 20
797.200696
 30
0.0
  0
VERTEX
  5
1AE32
  8
ALPHA
 10
2493.684692
 20
797.601155
 30
0.0
  0
SEQEND
  5
1AE33
  8
ALPHA
  0
POLYLINE
  5
18E2E
  8
ALPHA
 66
     1
 10
0.0
 20
0.0
 30
0.0
  0
VERTEX
  5
1AE34
  8
ALPHA
 10
2494.436707
 20
608.65801
 30
0.0
  0
VERTEX
  5
1AE35
  8
ALPHA
 10
2494.40354
 20
608.875279
 30
0.0
  0
VERTEX
  5
1AE36
  8
ALPHA
 10
2494.359707
 20
609.115291
 30
0.0
  0
VERTEX
  5
1AE37
  8
ALPHA
 10
2494.302821
 20
609.378579
 30
0.0
  0
VERTEX
  5
1AE38
  8
ALPHA
 10
2494.229587
 20
609.667411
 30
0.0
  0
VERTEX
  5
1AE39
  8
ALPHA
 10
2494.136048
 20
609.9836
 30
0.0
  0
VERTEX
  5
1AE3A
  8
ALPHA
 10
2494.017679
 20
610.327962
 30
0.0
  0
VERTEX
  5
1AE3B
  8
ALPHA
 10
2493.869228
 20
610.700696
 30
0.0
  0
VERTEX
  5
1AE3C
  8
ALPHA
 10
2493.684692
 20
611.101155
 30
0.0
  0
SEQEND
  5
1AE3D
  8
ALPHA
  0
POLYLINE
  5
18E39
  8
ALPHA
 66
     1
 10
0.0
 20
0.0
 30
0.0
  0
VERTEX
  5
1AE3E
  8
ALPHA
 10
2493.456298
 20
790.092364
 30
0.0
  0
VERTEX
  5
1AE3F
  8
ALPHA
 10
2493.685007
 20
790.521414
 30
0.0
  0
VERTEX
  5
1AE40
  8
ALPHA
 10
2493.869787
 20
790.922592
 30
0.0
  0
VERTEX
  5
1AE41
  8
ALPHA
 10
2494.017797
 20
791.294342
 30
0.0
  0
VERTEX
  5
1AE42
  8
ALPHA
 10
2494.135639
 20
791.637096
 30
0.0
  0
VERTEX
  5
1AE43
  8
ALPHA
 10
2494.228737
 20
791.951464
 30
0.0
  0
VERTEX
  5
1AE44
  8
ALPHA
 10
2494.301719
 20
792.238695
 30
0.0
  0
VERTEX
  5
1AE45
  8
ALPHA
 10
2494.358582
 20
792.501033
 30
0.0
  0
VERTEX
  5
1AE46
  8
ALPHA
 10
2494.402619
 20
792.741192
 30
0.0
  0
VERTEX
  5
1AE47
  8
ALPHA
 10
2494.436446
 20
792.961911
 30
0.0
  0
VERTEX
  5
1AE48
  8
ALPHA
 10
2494.462098
 20
793.16568
 30
0.0
  0
SEQEND
  5
1AE49
  8
ALPHA
  0
LINE
  5
18E46
  8
ALPHA
 10
2491.428094
 20
798.161219
 30
0.0
 11
2517.507017
 21
797.70601
 31
0.0
  0
LINE
  5
18E47
  8
ALPHA
 10
2491.428094
 20
799.660991
 30
0.0
 11
2523.654273
 21
799.098481
 31
0.0
  0
LINE
  5
18E48
  8
ALPHA
 10
2491.166216
 20
800.460991
 30
0.0
 11
2497.549279
 21
800.460991
 31
0.0
  0
LINE
  5
18E49
  8
ALPHA
 10
2492.745245
 20
824.578443
 30
0.0
 11
2497.128259
 21
824.578443
 31
0.0
  0
LINE
  5
18E4A
  8
ALPHA
 10
2496.128411
 20
825.560991
 30
0.0
 11
2491.763481
 21
825.560991
 31
0.0
  0
LINE
  5
18E4B
  8
ALPHA
 10
2491.428094
 20
799.660991
 30
0.0
 11
2491.428094
 21
601.960991
 31
0.0
  0
LINE
  5
18E4C
  8
ALPHA
 10
2489.928094
 20
817.060991
 30
0.0
 11
2489.928094
 21
584.560991
 31
0.0
  0
LINE
  5
18E4D
  8
ALPHA
 10
2487.428094
 20
584.560991
 30
0.0
 11
2487.428094
 21
817.060991
 31
0.0
  0
LINE
  5
18E4E
  8
ALPHA
 10
2293.928094
 20
562.060991
 30
0.0
 11
2293.928094
 21
852.060991
 31
0.0
  0
LINE
  5
18E4F
  8
ALPHA
 10
2290.928094
 20
562.060991
 30
0.0
 11
2290.928094
 21
852.060991
 31
0.0
  0
LINE
  5
18E50
  8
ALPHA
 10
2319.928094
 20
820.060991
 30
0.0
 11
2490.824097
 21
820.060991
 31
0.0
  0
LINE
  5
18E51
  8
ALPHA
 10
2362.128094
 20
823.260991
 30
0.0
 11
2362.783951
 21
823.260991
 31
0.0
  0
LINE
  5
18E53
  8
ALPHA
 10
2290.928094
 20
852.060991
 30
0.0
 11
2302.428094
 21
852.060991
 31
0.0
  0
LINE
  5
18E54
  8
ALPHA
 10
2362.128094
 20
821.910991
 30
0.0
 11
2318.916376
 21
821.910991
 31
0.0
  0
LINE
  5
18E55
  8
ALPHA
 10
2319.928094
 20
820.060991
 30
0.0
 11
2302.428094
 21
852.060991
 31
0.0
  0
LINE
  5
18E56
  8
ALPHA
 10
2362.128094
 20
823.260991
 30
0.0
 11
2362.128094
 21
820.060991
 31
0.0
  0
LINE
  5
18E57
  8
ALPHA
 10
2493.178265
 20
800.460991
 30
0.0
 11
2492.7573
 21
824.578443
 31
0.0
  0
LINE
  5
18E58
  8
ALPHA
 10
2492.745245
 20
824.578443
 30
0.0
 11
2493.166216
 21
800.460991
 31
0.0
  0
LINE
  5
18E59
  8
ALPHA
 10
2491.745397
 20
824.578443
 30
0.0
 11
2492.166369
 21
800.460991
 31
0.0
  0
LINE
  5
18E5A
  8
ALPHA
 10
2491.166216
 20
800.460991
 30
0.0
 11
2490.824097
 21
820.060991
 31
0.0
  0
LINE
  5
18E5B
  8
ALPHA
 10
2486.928094
 20
817.060991
 30
0.0
 11
2382.728094
 21
817.060991
 31
0.0
  0
LINE
  5
18E5C
  8
ALPHA
 10
2362.806947
 20
824.578443
 30
0.0
 11
2491.745397
 21
824.578443
 31
0.0
  0
LINE
  5
18E5D
  8
ALPHA
 10
2362.824097
 20
825.560991
 30
0.0
 11
2491.745397
 21
825.560991
 31
0.0
  0
POLYLINE
  5
18E60
  8
ALPHA
 66
     1
 10
0.0
 20
0.0
 30
0.0
  0
VERTEX
  5
1AE4A
  8
ALPHA
 10
2368.372487
 20
828.586866
 30
0.0
  0
VERTEX
  5
1AE4B
  8
ALPHA
 10
2368.370596
 20
828.589766
 30
0.0
  0
VERTEX
  5
1AE4C
  8
ALPHA
 10
2368.357182
 20
828.593524
 30
0.0
  0
VERTEX
  5
1AE4D
  8
ALPHA
 10
2368.332893
 20
828.595007
 30
0.0
  0
SEQEND
  5
1AE4E
  8
ALPHA
  0
LINE
  5
18E66
  8
ALPHA
 10
2373.228094
 20
827.060991
 30
0.0
 11
2373.228094
 21
825.560991
 31
0.0
  0
LINE
  5
18E67
  8
ALPHA
 10
2373.196721
 20
827.589194
 30
0.0
 11
2373.196721
 21
827.060991
 31
0.0
  0
POLYLINE
  5
18E68
  8
ALPHA
 66
     1
 10
0.0
 20
0.0
 30
0.0
  0
VERTEX
  5
1AE4F
  8
ALPHA
 10
2370.076062
 20
828.588441
 30
0.0
  0
VERTEX
  5
1AE50
  8
ALPHA
 10
2370.079871
 20
828.58394
 30
0.0
  0
VERTEX
  5
1AE51
  8
ALPHA
 10
2370.093514
 20
828.577561
 30
0.0
  0
SEQEND
  5
1AE52
  8
ALPHA
  0
LINE
  5
18E6D
  8
ALPHA
 10
2362.824097
 20
825.560991
 30
0.0
 11
2362.728094
 21
820.060991
 31
0.0
  0
LINE
  5
18E6E
  8
ALPHA
 10
2370.093514
 20
828.577561
 30
0.0
 11
2370.093514
 21
828.550078
 31
0.0
  0
LINE
  5
18E6F
  8
ALPHA
 10
2370.076062
 20
828.545953
 30
0.0
 11
2370.076062
 21
828.588349
 31
0.0
  0
LINE
  5
18E70
  8
ALPHA
 10
2369.541625
 20
828.572837
 30
0.0
 11
2369.541625
 21
828.563689
 31
0.0
  0
LINE
  5
18E71
  8
ALPHA
 10
2368.890102
 20
828.568507
 30
0.0
 11
2368.890102
 21
828.560632
 31
0.0
  0
LINE
  5
18E72
  8
ALPHA
 10
2368.404495
 20
828.543051
 30
0.0
 11
2368.404495
 21
828.582612
 31
0.0
  0
LINE
  5
18E73
  8
ALPHA
 10
2368.372487
 20
828.547545
 30
0.0
 11
2368.372487
 21
828.586566
 31
0.0
  0
LINE
  5
18E74
  8
ALPHA
 10
2368.356344
 20
828.574993
 30
0.0
 11
2368.356344
 21
828.551708
 31
0.0
  0
LINE
  5
18E75
  8
ALPHA
 10
2365.259467
 20
827.589194
 30
0.0
 11
2365.259467
 21
827.060991
 31
0.0
  0
LINE
  5
18E76
  8
ALPHA
 10
2365.228094
 20
827.060991
 30
0.0
 11
2365.228094
 21
825.560991
 31
0.0
  0
POLYLINE
  5
18E77
  8
ALPHA
 66
     1
 10
0.0
 20
0.0
 30
0.0
  0
VERTEX
  5
1AE53
  8
ALPHA
 10
2368.340594
 20
828.561925
 30
0.0
  0
VERTEX
  5
1AE54
  8
ALPHA
 10
2368.340936
 20
828.563721
 30
0.0
  0
VERTEX
  5
1AE55
  8
ALPHA
 10
2368.356344
 20
828.574993
 30
0.0
  0
SEQEND
  5
1AE56
  8
ALPHA
  0
POLYLINE
  5
18E7C
  8
ALPHA
 66
     1
 10
0.0
 20
0.0
 30
0.0
  0
VERTEX
  5
1AE57
  8
ALPHA
 10
2370.093514
 20
828.577561
 30
0.0
  0
VERTEX
  5
1AE58
  8
ALPHA
 10
2370.114061
 20
828.565806
 30
0.0
  0
VERTEX
  5
1AE59
  8
ALPHA
 10
2370.115594
 20
828.561922
 30
0.0
  0
SEQEND
  5
1AE5A
  8
ALPHA
  0
POLYLINE
  5
18E81
  8
ALPHA
 66
     1
 10
0.0
 20
0.0
 30
0.0
  0
VERTEX
  5
1AE5B
  8
ALPHA
 10
2373.196721
 20
827.589194
 30
0.0
  0
VERTEX
  5
1AE5C
  8
ALPHA
 10
2372.767671
 20
827.817903
 30
0.0
  0
VERTEX
  5
1AE5D
  8
ALPHA
 10
2372.366493
 20
828.002684
 30
0.0
  0
VERTEX
  5
1AE5E
  8
ALPHA
 10
2371.994744
 20
828.150694
 30
0.0
  0
VERTEX
  5
1AE5F
  8
ALPHA
 10
2371.651989
 20
828.268535
 30
0.0
  0
VERTEX
  5
1AE60
  8
ALPHA
 10
2371.337621
 20
828.361634
 30
0.0
  0
VERTEX
  5
1AE61
  8
ALPHA
 10
2371.05039
 20
828.434615
 30
0.0
  0
VERTEX
  5
1AE62
  8
ALPHA
 10
2370.788052
 20
828.491478
 30
0.0
  0
VERTEX
  5
1AE63
  8
ALPHA
 10
2370.547893
 20
828.535515
 30
0.0
  0
VERTEX
  5
1AE64
  8
ALPHA
 10
2370.327174
 20
828.569343
 30
0.0
  0
VERTEX
  5
1AE65
  8
ALPHA
 10
2370.123405
 20
828.594995
 30
0.0
  0
SEQEND
  5
1AE66
  8
ALPHA
  0
LINE
  5
18E8E
  8
ALPHA
 10
2368.37082
 20
828.58356
 30
0.0
 11
2368.372487
 21
828.586866
 31
0.0
  0
POLYLINE
  5
18E8F
  8
ALPHA
 66
     1
 10
0.0
 20
0.0
 30
0.0
  0
VERTEX
  5
1AE67
  8
ALPHA
 10
2368.388891
 20
828.591833
 30
0.0
  0
VERTEX
  5
1AE68
  8
ALPHA
 10
2368.402396
 20
828.586806
 30
0.0
  0
VERTEX
  5
1AE69
  8
ALPHA
 10
2368.404495
 20
828.582956
 30
0.0
  0
SEQEND
  5
1AE6A
  8
ALPHA
  0
POLYLINE
  5
18E94
  8
ALPHA
 66
     1
 10
0.0
 20
0.0
 30
0.0
  0
VERTEX
  5
1AE6B
  8
ALPHA
 10
2368.379668
 20
828.545693
 30
0.0
  0
VERTEX
  5
1AE6C
  8
ALPHA
 10
2368.348852
 20
828.553639
 30
0.0
  0
VERTEX
  5
1AE6D
  8
ALPHA
 10
2368.340594
 20
828.561925
 30
0.0
  0
SEQEND
  5
1AE6E
  8
ALPHA
  0
LINE
  5
18E99
  8
ALPHA
 10
2368.404495
 20
828.546203
 30
0.0
 11
2368.41887
 21
828.543069
 31
0.0
  0
POLYLINE
  5
18E9A
  8
ALPHA
 66
     1
 10
0.0
 20
0.0
 30
0.0
  0
VERTEX
  5
1AE6F
  8
ALPHA
 10
2369.541625
 20
828.572837
 30
0.0
  0
VERTEX
  5
1AE70
  8
ALPHA
 10
2369.61984
 20
828.561624
 30
0.0
  0
VERTEX
  5
1AE71
  8
ALPHA
 10
2369.710183
 20
828.551798
 30
0.0
  0
VERTEX
  5
1AE72
  8
ALPHA
 10
2369.804128
 20
828.544299
 30
0.0
  0
VERTEX
  5
1AE73
  8
ALPHA
 10
2369.894121
 20
828.539559
 30
0.0
  0
VERTEX
  5
1AE74
  8
ALPHA
 10
2369.962745
 20
828.537949
 30
0.0
  0
SEQEND
  5
1AE75
  8
ALPHA
  0
LINE
  5
18EA2
  8
ALPHA
 10
2369.541625
 20
828.572837
 30
0.0
 11
2369.465457
 21
828.583099
 31
0.0
  0
POLYLINE
  5
18EA3
  8
ALPHA
 66
     1
 10
0.0
 20
0.0
 30
0.0
  0
VERTEX
  5
1AE76
  8
ALPHA
 10
2370.082499
 20
828.546727
 30
0.0
  0
VERTEX
  5
1AE77
  8
ALPHA
 10
2370.034695
 20
828.540981
 30
0.0
  0
VERTEX
  5
1AE78
  8
ALPHA
 10
2369.96867
 20
828.537951
 30
0.0
  0
VERTEX
  5
1AE79
  8
ALPHA
 10
2369.886416
 20
828.537914
 30
0.0
  0
VERTEX
  5
1AE7A
  8
ALPHA
 10
2369.795632
 20
828.540952
 30
0.0
  0
VERTEX
  5
1AE7B
  8
ALPHA
 10
2369.703098
 20
828.546723
 30
0.0
  0
VERTEX
  5
1AE7C
  8
ALPHA
 10
2369.609678
 20
828.555234
 30
0.0
  0
VERTEX
  5
1AE7D
  8
ALPHA
 10
2369.5241
 20
828.565866
 30
0.0
  0
VERTEX
  5
1AE7E
  8
ALPHA
 10
2369.454341
 20
828.577561
 30
0.0
  0
SEQEND
  5
1AE7F
  8
ALPHA
  0
LINE
  5
18EAE
  8
ALPHA
 10
2368.332893
 20
828.595007
 30
0.0
 11
2368.131075
 21
828.569604
 31
0.0
  0
POLYLINE
  5
18EAF
  8
ALPHA
 66
     1
 10
0.0
 20
0.0
 30
0.0
  0
VERTEX
  5
1AE80
  8
ALPHA
 10
2368.131075
 20
828.569604
 30
0.0
  0
VERTEX
  5
1AE81
  8
ALPHA
 10
2367.913806
 20
828.536437
 30
0.0
  0
VERTEX
  5
1AE82
  8
ALPHA
 10
2367.673795
 20
828.492603
 30
0.0
  0
VERTEX
  5
1AE83
  8
ALPHA
 10
2367.410507
 20
828.435718
 30
0.0
  0
VERTEX
  5
1AE84
  8
ALPHA
 10
2367.121674
 20
828.362484
 30
0.0
  0
VERTEX
  5
1AE85
  8
ALPHA
 10
2366.805485
 20
828.268945
 30
0.0
  0
VERTEX
  5
1AE86
  8
ALPHA
 10
2366.461123
 20
828.150575
 30
0.0
  0
VERTEX
  5
1AE87
  8
ALPHA
 10
2366.088389
 20
828.002125
 30
0.0
  0
VERTEX
  5
1AE88
  8
ALPHA
 10
2365.68793
 20
827.817589
 30
0.0
  0
SEQEND
  5
1AE89
  8
ALPHA
  0
LINE
  5
18EBA
  8
ALPHA
 10
2368.965241
 20
828.580129
 30
0.0
 11
2368.890102
 21
828.568507
 31
0.0
  0
POLYLINE
  5
18EBB
  8
ALPHA
 66
     1
 10
0.0
 20
0.0
 30
0.0
  0
VERTEX
  5
1AE8A
  8
ALPHA
 10
2369.001848
 20
828.577561
 30
0.0
  0
VERTEX
  5
1AE8B
  8
ALPHA
 10
2369.050927
 20
828.58526
 30
0.0
  0
VERTEX
  5
1AE8C
  8
ALPHA
 10
2369.105726
 20
828.59065
 30
0.0
  0
VERTEX
  5
1AE8D
  8
ALPHA
 10
2369.16533
 20
828.593936
 30
0.0
  0
VERTEX
  5
1AE8E
  8
ALPHA
 10
2369.228098
 20
828.595055
 30
0.0
  0
VERTEX
  5
1AE8F
  8
ALPHA
 10
2369.290868
 20
828.593935
 30
0.0
  0
VERTEX
  5
1AE90
  8
ALPHA
 10
2369.350474
 20
828.59065
 30
0.0
  0
VERTEX
  5
1AE91
  8
ALPHA
 10
2369.405269
 20
828.585259
 30
0.0
  0
VERTEX
  5
1AE92
  8
ALPHA
 10
2369.454341
 20
828.577561
 30
0.0
  0
SEQEND
  5
1AE93
  8
ALPHA
  0
POLYLINE
  5
18EC6
  8
ALPHA
 66
     1
 10
0.0
 20
0.0
 30
0.0
  0
VERTEX
  5
1AE94
  8
ALPHA
 10
2370.115594
 20
828.561922
 30
0.0
  0
VERTEX
  5
1AE95
  8
ALPHA
 10
2370.110293
 20
828.555182
 30
0.0
  0
VERTEX
  5
1AE96
  8
ALPHA
 10
2370.082499
 20
828.546727
 30
0.0
  0
SEQEND
  5
1AE97
  8
ALPHA
  0
POLYLINE
  5
18ECB
  8
ALPHA
 66
     1
 10
0.0
 20
0.0
 30
0.0
  0
VERTEX
  5
1AE98
  8
ALPHA
 10
2369.465457
 20
828.583099
 30
0.0
  0
VERTEX
  5
1AE99
  8
ALPHA
 10
2369.38554
 20
828.590003
 30
0.0
  0
VERTEX
  5
1AE9A
  8
ALPHA
 10
2369.301179
 20
828.593991
 30
0.0
  0
VERTEX
  5
1AE9B
  8
ALPHA
 10
2369.262174
 20
828.594447
 30
0.0
  0
SEQEND
  5
1AE9C
  8
ALPHA
  0
POLYLINE
  5
18ED1
  8
ALPHA
 66
     1
 10
0.0
 20
0.0
 30
0.0
  0
VERTEX
  5
1AE9D
  8
ALPHA
 10
2368.332945
 20
828.595013
 30
0.0
  0
VERTEX
  5
1AE9E
  8
ALPHA
 10
2368.365121
 20
828.594457
 30
0.0
  0
VERTEX
  5
1AE9F
  8
ALPHA
 10
2368.388891
 20
828.591833
 30
0.0
  0
SEQEND
  5
1AEA0
  8
ALPHA
  0
LINE
  5
18ED6
  8
ALPHA
 10
2365.259467
 20
827.060991
 30
0.0
 11
2365.22811
 21
827.060991
 31
0.0
  0
LINE
  5
18ED7
  8
ALPHA
 10
2373.228078
 20
827.060991
 30
0.0
 11
2373.196721
 21
827.060991
 31
0.0
  0
LINE
  5
18ED8
  8
ALPHA
 10
2365.259467
 20
827.589194
 30
0.0
 11
2373.196721
 21
827.589194
 31
0.0
  0
POLYLINE
  5
18ED9
  8
ALPHA
 66
     1
 10
0.0
 20
0.0
 30
0.0
  0
VERTEX
  5
1AEA1
  8
ALPHA
 10
2370.123405
 20
828.594995
 30
0.0
  0
VERTEX
  5
1AEA2
  8
ALPHA
 10
2370.09888
 20
828.594647
 30
0.0
  0
VERTEX
  5
1AEA3
  8
ALPHA
 10
2370.082775
 20
828.592696
 30
0.0
  0
VERTEX
  5
1AEA4
  8
ALPHA
 10
2370.07617
 20
828.589091
 30
0.0
  0
VERTEX
  5
1AEA5
  8
ALPHA
 10
2370.076062
 20
828.588441
 30
0.0
  0
SEQEND
  5
1AEA6
  8
ALPHA
  0
POLYLINE
  5
18EE0
  8
ALPHA
 66
     1
 10
0.0
 20
0.0
 30
0.0
  0
VERTEX
  5
1AEA7
  8
ALPHA
 10
2368.550322
 20
828.537982
 30
0.0
  0
VERTEX
  5
1AEA8
  8
ALPHA
 10
2368.600871
 20
828.538982
 30
0.0
  0
VERTEX
  5
1AEA9
  8
ALPHA
 10
2368.676684
 20
828.543052
 30
0.0
  0
VERTEX
  5
1AEAA
  8
ALPHA
 10
2368.754425
 20
828.549666
 30
0.0
  0
VERTEX
  5
1AEAB
  8
ALPHA
 10
2368.828044
 20
828.558452
 30
0.0
  0
VERTEX
  5
1AEAC
  8
ALPHA
 10
2368.890102
 20
828.568507
 30
0.0
  0
SEQEND
  5
1AEAD
  8
ALPHA
  0
POLYLINE
  5
18EE8
  8
ALPHA
 66
     1
 10
0.0
 20
0.0
 30
0.0
  0
VERTEX
  5
1AEAE
  8
ALPHA
 10
2369.173209
 20
828.594076
 30
0.0
  0
VERTEX
  5
1AEAF
  8
ALPHA
 10
2369.126917
 20
828.593004
 30
0.0
  0
VERTEX
  5
1AEB0
  8
ALPHA
 10
2369.043951
 20
828.588066
 30
0.0
  0
SEQEND
  5
1AEB1
  8
ALPHA
  0
LINE
  5
18EED
  8
ALPHA
 10
2369.043951
 20
828.588066
 30
0.0
 11
2368.965241
 21
828.580129
 31
0.0
  0
POLYLINE
  5
18EEE
  8
ALPHA
 66
     1
 10
0.0
 20
0.0
 30
0.0
  0
VERTEX
  5
1AEB2
  8
ALPHA
 10
2369.001848
 20
828.577561
 30
0.0
  0
VERTEX
  5
1AEB3
  8
ALPHA
 10
2368.933448
 20
828.566063
 30
0.0
  0
VERTEX
  5
1AEB4
  8
ALPHA
 10
2368.850064
 20
828.555616
 30
0.0
  0
VERTEX
  5
1AEB5
  8
ALPHA
 10
2368.759365
 20
828.547207
 30
0.0
  0
VERTEX
  5
1AEB6
  8
ALPHA
 10
2368.668571
 20
828.541349
 30
0.0
  0
VERTEX
  5
1AEB7
  8
ALPHA
 10
2368.578658
 20
828.538085
 30
0.0
  0
VERTEX
  5
1AEB8
  8
ALPHA
 10
2368.496344
 20
828.537787
 30
0.0
  0
VERTEX
  5
1AEB9
  8
ALPHA
 10
2368.429195
 20
828.540421
 30
0.0
  0
VERTEX
  5
1AEBA
  8
ALPHA
 10
2368.379668
 20
828.545693
 30
0.0
  0
SEQEND
  5
1AEBB
  8
ALPHA
  0
LINE
  5
18EF9
  8
ALPHA
 10
2365.68793
 20
827.817589
 30
0.0
 11
2365.259467
 21
827.589194
 31
0.0
  0
LINE
  5
18EFA
  8
ALPHA
 10
2368.356344
 20
828.574993
 30
0.0
 11
2368.37082
 21
828.58356
 31
0.0
  0
LINE
  5
18EFB
  8
ALPHA
 10
2382.728094
 20
817.060991
 30
0.0
 11
2382.728094
 21
820.060991
 31
0.0
  0
LINE
  5
18EFC
  8
ALPHA
 10
2380.728094
 20
817.060991
 30
0.0
 11
2380.728094
 21
820.060991
 31
0.0
  0
LINE
  5
18EFD
  8
ALPHA
 10
2382.728094
 20
817.060991
 30
0.0
 11
2380.728094
 21
817.060991
 31
0.0
  0
LINE
  5
18F08
  8
ALPHA
 10
2486.928094
 20
820.060991
 30
0.0
 11
2486.928094
 21
817.060991
 31
0.0
  0
ARC
  5
18F09
  8
ALPHA
 10
2491.745397
 20
824.560991
 30
0.0
 40
1.0
 50
1.0
 51
90.0
  0
LINE
  5
18F0A
  8
ALPHA
 10
2491.745397
 20
825.560991
 30
0.0
 11
2491.745397
 21
824.578443
 31
0.0
  0
POLYLINE
  5
18F0B
  8
ALPHA
 66
     1
 10
0.0
 20
0.0
 30
0.0
  0
VERTEX
  5
1AEBC
  8
ALPHA
 10
2492.745245
 20
824.578443
 30
0.0
  0
VERTEX
  5
1AEBD
  8
ALPHA
 10
2492.669049
 20
824.583791
 30
0.0
  0
VERTEX
  5
1AEBE
  8
ALPHA
 10
2492.452289
 20
824.585669
 30
0.0
  0
VERTEX
  5
1AEBF
  8
ALPHA
 10
2492.127952
 20
824.583791
 30
0.0
  0
VERTEX
  5
1AEC0
  8
ALPHA
 10
2491.745397
 20
824.578443
 30
0.0
  0
SEQEND
  5
1AEC1
  8
ALPHA
  0
POLYLINE
  5
18F12
  8
ALPHA
 66
     1
 10
0.0
 20
0.0
 30
0.0
  0
VERTEX
  5
1AEC2
  8
ALPHA
 10
2491.763481
 20
825.560991
 30
0.0
  0
VERTEX
  5
1AEC3
  8
ALPHA
 10
2492.139846
 20
825.486532
 30
0.0
  0
VERTEX
  5
1AEC4
  8
ALPHA
 10
2492.460164
 20
825.274241
 30
0.0
  0
VERTEX
  5
1AEC5
  8
ALPHA
 10
2492.676733
 20
824.955735
 30
0.0
  0
VERTEX
  5
1AEC6
  8
ALPHA
 10
2492.7573
 20
824.578443
 30
0.0
  0
SEQEND
  5
1AEC7
  8
ALPHA
  0
LINE
  5
18F19
  8
ALPHA
 10
2486.928094
 20
817.060991
 30
0.0
 11
2489.928094
 21
817.060991
 31
0.0
  0
LINE
  5
18F1A
  8
ALPHA
 10
2493.456298
 20
798.029618
 30
0.0
 11
2493.456298
 21
790.092364
 31
0.0
  0
LINE
  5
18F1B
  8
ALPHA
 10
2492.928094
 20
798.029618
 30
0.0
 11
2492.928094
 21
798.060975
 31
0.0
  0
LINE
  5
18F1C
  8
ALPHA
 10
2489.928094
 20
797.660991
 30
0.0
 11
2491.428094
 21
797.660991
 31
0.0
  0
LINE
  5
18F1D
  8
ALPHA
 10
2493.456298
 20
798.029618
 30
0.0
 11
2492.928094
 21
798.029618
 31
0.0
  0
LINE
  5
18F1E
  8
ALPHA
 10
2492.928094
 20
798.060991
 30
0.0
 11
2491.428094
 21
798.060991
 31
0.0
  0
LINE
  5
18F1F
  8
ALPHA
 10
2489.928094
 20
799.660991
 30
0.0
 11
2491.428094
 21
799.660991
 31
0.0
  0
LINE
  5
18F20
  8
ALPHA
 10
2489.928094
 20
804.060991
 30
0.0
 11
2491.103378
 21
804.060991
 31
0.0
  0
LINE
  5
18F21
  8
ALPHA
 10
2493.684692
 20
797.601155
 30
0.0
 11
2493.456298
 21
798.029618
 31
0.0
  0
LINE
  5
18F22
  8
ALPHA
 10
2492.928094
 20
790.061007
 30
0.0
 11
2492.928094
 21
790.092364
 31
0.0
  0
LINE
  5
18F23
  8
ALPHA
 10
2492.928094
 20
790.060991
 30
0.0
 11
2491.428094
 21
790.060991
 31
0.0
  0
LINE
  5
18F24
  8
ALPHA
 10
2493.456298
 20
790.092364
 30
0.0
 11
2492.928094
 21
790.092364
 31
0.0
  0
LINE
  5
18F25
  8
ALPHA
 10
2337.928094
 20
581.560991
 30
0.0
 11
2490.824097
 21
581.560991
 31
0.0
  0
LINE
  5
18F26
  8
ALPHA
 10
2290.928094
 20
562.060991
 30
0.0
 11
2302.428094
 21
562.060991
 31
0.0
  0
LINE
  5
18F27
  8
ALPHA
 10
2292.428094
 20
561.960991
 30
0.0
 11
2293.528094
 21
561.960991
 31
0.0
  0
LINE
  5
18F28
  8
ALPHA
 10
2302.428094
 20
562.060991
 30
0.0
 11
2319.928094
 21
581.560991
 31
0.0
  0
LINE
  5
18F29
  8
ALPHA
 10
2331.850848
 20
575.960991
 30
0.0
 11
2326.005341
 21
575.960991
 31
0.0
  0
LINE
  5
18F2A
  8
ALPHA
 10
2332.153305
 20
576.254185
 30
0.0
 11
2325.702884
 21
576.254185
 31
0.0
  0
LINE
  5
18F2B
  8
ALPHA
 10
2332.228037
 20
578.460991
 30
0.0
 11
2325.628152
 21
578.460991
 31
0.0
  0
LINE
  5
18F2C
  8
ALPHA
 10
2332.428094
 20
579.260991
 30
0.0
 11
2325.428094
 21
579.260991
 31
0.0
  0
LINE
  5
18F2D
  8
ALPHA
 10
2359.278094
 20
580.060991
 30
0.0
 11
2318.58194
 21
580.060991
 31
0.0
  0
LINE
  5
18F2E
  8
ALPHA
 10
2337.928094
 20
581.560991
 30
0.0
 11
2319.928094
 21
581.560991
 31
0.0
  0
LINE
  5
18F2F
  8
ALPHA
 10
2321.928094
 20
584.560991
 30
0.0
 11
2335.928094
 21
584.560991
 31
0.0
  0
POLYLINE
  5
18F30
  8
ALPHA
 66
     1
 10
0.0
 20
0.0
 30
0.0
  0
VERTEX
  5
1AEC8
  8
ALPHA
 10
2326.005341
 20
575.960991
 30
0.0
  0
VERTEX
  5
1AEC9
  8
ALPHA
 10
2325.938594
 20
575.968374
 30
0.0
  0
VERTEX
  5
1AECA
  8
ALPHA
 10
2325.875358
 20
575.990063
 30
0.0
  0
VERTEX
  5
1AECB
  8
ALPHA
 10
2325.818403
 20
576.02507
 30
0.0
  0
VERTEX
  5
1AECC
  8
ALPHA
 10
2325.770873
 20
576.071356
 30
0.0
  0
VERTEX
  5
1AECD
  8
ALPHA
 10
2325.734655
 20
576.126961
 30
0.0
  0
VERTEX
  5
1AECE
  8
ALPHA
 10
2325.711688
 20
576.188804
 30
0.0
  0
VERTEX
  5
1AECF
  8
ALPHA
 10
2325.702884
 20
576.254185
 30
0.0
  0
SEQEND
  5
1AED0
  8
ALPHA
  0
LINE
  5
18F3A
  8
ALPHA
 10
2325.691295
 20
576.760991
 30
0.0
 11
2325.666676
 21
576.760991
 31
0.0
  0
LINE
  5
18F3B
  8
ALPHA
 10
2321.928094
 20
583.560991
 30
0.0
 11
2319.928094
 21
583.560991
 31
0.0
  0
LINE
  5
18F3C
  8
ALPHA
 10
2319.928094
 20
584.560991
 30
0.0
 11
2321.928094
 21
584.560991
 31
0.0
  0
LINE
  5
18F3D
  8
ALPHA
 10
2329.178094
 20
579.260991
 30
0.0
 11
2329.178094
 21
578.460991
 31
0.0
  0
LINE
  5
18F3E
  8
ALPHA
 10
2328.678094
 20
579.260991
 30
0.0
 11
2328.678094
 21
578.460991
 31
0.0
  0
LINE
  5
18F3F
  8
ALPHA
 10
2325.828094
 20
579.260991
 30
0.0
 11
2325.828094
 21
578.460991
 31
0.0
  0
LINE
  5
18F40
  8
ALPHA
 10
2325.428094
 20
580.060991
 30
0.0
 11
2325.428094
 21
579.260991
 31
0.0
  0
LINE
  5
18F41
  8
ALPHA
 10
2321.928094
 20
581.560991
 30
0.0
 11
2321.928094
 21
584.560991
 31
0.0
  0
LINE
  5
18F42
  8
ALPHA
 10
2319.928094
 20
581.560991
 30
0.0
 11
2319.928094
 21
584.560991
 31
0.0
  0
LINE
  5
18F43
  8
ALPHA
 10
2325.628094
 20
578.460991
 30
0.0
 11
2325.666673
 21
576.760991
 31
0.0
  0
LINE
  5
18F44
  8
ALPHA
 10
2325.691295
 20
576.760991
 30
0.0
 11
2325.702884
 21
576.254185
 31
0.0
  0
POLYLINE
  5
18F45
  8
ALPHA
 66
     1
 10
0.0
 20
0.0
 30
0.0
  0
VERTEX
  5
1AED1
  8
ALPHA
 10
2331.850848
 20
575.960991
 30
0.0
  0
VERTEX
  5
1AED2
  8
ALPHA
 10
2331.917595
 20
575.968374
 30
0.0
  0
VERTEX
  5
1AED3
  8
ALPHA
 10
2331.980831
 20
575.990063
 30
0.0
  0
VERTEX
  5
1AED4
  8
ALPHA
 10
2332.037786
 20
576.02507
 30
0.0
  0
VERTEX
  5
1AED5
  8
ALPHA
 10
2332.085316
 20
576.071356
 30
0.0
  0
VERTEX
  5
1AED6
  8
ALPHA
 10
2332.121533
 20
576.126961
 30
0.0
  0
VERTEX
  5
1AED7
  8
ALPHA
 10
2332.144501
 20
576.188804
 30
0.0
  0
VERTEX
  5
1AED8
  8
ALPHA
 10
2332.153305
 20
576.254185
 30
0.0
  0
SEQEND
  5
1AED9
  8
ALPHA
  0
LINE
  5
18F4F
  8
ALPHA
 10
2332.189512
 20
576.760991
 30
0.0
 11
2332.164894
 21
576.760991
 31
0.0
  0
LINE
  5
18F50
  8
ALPHA
 10
2337.928094
 20
583.560991
 30
0.0
 11
2335.928094
 21
583.560991
 31
0.0
  0
LINE
  5
18F51
  8
ALPHA
 10
2335.928094
 20
584.560991
 30
0.0
 11
2337.928094
 21
584.560991
 31
0.0
  0
LINE
  5
18F52
  8
ALPHA
 10
2332.164894
 20
576.760991
 30
0.0
 11
2332.153305
 21
576.254185
 31
0.0
  0
LINE
  5
18F53
  8
ALPHA
 10
2332.228094
 20
578.460991
 30
0.0
 11
2332.189516
 21
576.760991
 31
0.0
  0
LINE
  5
18F54
  8
ALPHA
 10
2337.928094
 20
584.560991
 30
0.0
 11
2337.928094
 21
581.560991
 31
0.0
  0
LINE
  5
18F55
  8
ALPHA
 10
2335.928094
 20
584.560991
 30
0.0
 11
2335.928094
 21
581.560991
 31
0.0
  0
LINE
  5
18F56
  8
ALPHA
 10
2332.428094
 20
580.060991
 30
0.0
 11
2332.428094
 21
579.260991
 31
0.0
  0
LINE
  5
18F57
  8
ALPHA
 10
2332.028094
 20
579.260991
 30
0.0
 11
2332.028094
 21
578.460991
 31
0.0
  0
ARC
  5
18F58
  8
ALPHA
 10
2359.278094
 20
582.560991
 30
0.0
 40
2.5
 50
270.0
 51
336.145663
  0
LINE
  5
18F59
  8
ALPHA
 10
2351.678094
 20
579.160991
 30
0.0
 11
2352.178094
 21
578.660991
 31
0.0
  0
LINE
  5
18F5A
  8
ALPHA
 10
2355.178027
 20
578.660991
 30
0.0
 11
2352.178162
 21
578.660991
 31
0.0
  0
LINE
  5
18F5B
  8
ALPHA
 10
2355.678094
 20
579.160991
 30
0.0
 11
2351.678094
 21
579.160991
 31
0.0
  0
LINE
  5
18F5C
  8
ALPHA
 10
2355.678094
 20
579.160991
 30
0.0
 11
2355.178094
 21
578.660991
 31
0.0
  0
LINE
  5
18F5D
  8
ALPHA
 10
2359.278094
 20
581.560991
 30
0.0
 11
2359.278094
 21
580.060991
 31
0.0
  0
LINE
  5
18F5E
  8
ALPHA
 10
2355.678094
 20
580.060991
 30
0.0
 11
2355.678094
 21
579.160991
 31
0.0
  0
LINE
  5
18F5F
  8
ALPHA
 10
2351.678094
 20
580.060991
 30
0.0
 11
2351.678094
 21
579.160991
 31
0.0
  0
LINE
  5
18F60
  8
ALPHA
 10
2362.824097
 20
576.060991
 30
0.0
 11
2491.745397
 21
576.060991
 31
0.0
  0
LINE
  5
18F61
  8
ALPHA
 10
2362.806947
 20
577.043539
 30
0.0
 11
2491.745397
 21
577.043539
 31
0.0
  0
LINE
  5
18F62
  8
ALPHA
 10
2371.928094
 20
584.560991
 30
0.0
 11
2486.928094
 21
584.560991
 31
0.0
  0
LINE
  5
18F63
  8
ALPHA
 10
2369.928094
 20
584.560991
 30
0.0
 11
2371.928094
 21
584.560991
 31
0.0
  0
LINE
  5
18F64
  8
ALPHA
 10
2371.928094
 20
581.560991
 30
0.0
 11
2371.928094
 21
584.560991
 31
0.0
  0
LINE
  5
18F65
  8
ALPHA
 10
2369.928094
 20
581.560991
 30
0.0
 11
2369.928094
 21
584.560991
 31
0.0
  0
LINE
  5
18F66
  8
ALPHA
 10
2362.728094
 20
581.560991
 30
0.0
 11
2362.824097
 21
576.060991
 31
0.0
  0
LINE
  5
18F67
  8
ALPHA
 10
2493.178387
 20
601.160991
 30
0.0
 11
2492.757422
 21
577.043539
 31
0.0
  0
LINE
  5
18F68
  8
ALPHA
 10
2492.745245
 20
577.043539
 30
0.0
 11
2493.166216
 21
601.160991
 31
0.0
  0
LINE
  5
18F69
  8
ALPHA
 10
2491.745397
 20
577.043539
 30
0.0
 11
2492.166369
 21
601.160991
 31
0.0
  0
LINE
  5
18F6A
  8
ALPHA
 10
2491.166216
 20
601.160991
 30
0.0
 11
2490.824097
 21
581.560991
 31
0.0
  0
LINE
  5
18F6B
  8
ALPHA
 10
2493.456298
 20
611.529618
 30
0.0
 11
2493.456298
 21
603.592364
 31
0.0
  0
LINE
  5
18F6C
  8
ALPHA
 10
2493.456298
 20
611.529618
 30
0.0
 11
2492.928094
 21
611.529618
 31
0.0
  0
LINE
  5
18F6D
  8
ALPHA
 10
2492.928094
 20
611.560991
 30
0.0
 11
2491.428094
 21
611.560991
 31
0.0
  0
LINE
  5
18F6E
  8
ALPHA
 10
2492.928094
 20
611.529618
 30
0.0
 11
2492.928094
 21
611.560975
 31
0.0
  0
LINE
  5
18F6F
  8
ALPHA
 10
2493.684692
 20
611.101155
 30
0.0
 11
2493.456298
 21
611.529618
 31
0.0
  0
LINE
  5
18F70
  8
ALPHA
 10
2489.928094
 20
597.560991
 30
0.0
 11
2491.103378
 21
597.560991
 31
0.0
  0
LINE
  5
18F71
  8
ALPHA
 10
2489.928094
 20
601.960991
 30
0.0
 11
2491.428094
 21
601.960991
 31
0.0
  0
LINE
  5
18F72
  8
ALPHA
 10
2492.928094
 20
603.560991
 30
0.0
 11
2491.428094
 21
603.560991
 31
0.0
  0
LINE
  5
18F73
  8
ALPHA
 10
2493.456298
 20
603.592364
 30
0.0
 11
2492.928094
 21
603.592364
 31
0.0
  0
LINE
  5
18F74
  8
ALPHA
 10
2489.928094
 20
603.960991
 30
0.0
 11
2491.428094
 21
603.960991
 31
0.0
  0
LINE
  5
18F75
  8
ALPHA
 10
2492.928094
 20
603.561007
 30
0.0
 11
2492.928094
 21
603.592364
 31
0.0
  0
ARC
  5
18F76
  8
ALPHA
 10
2491.745397
 20
577.060991
 30
0.0
 40
1.0
 50
270.0
 51
359.0
  0
POLYLINE
  5
18F77
  8
ALPHA
 66
     1
 10
0.0
 20
0.0
 30
0.0
  0
VERTEX
  5
1AEDA
  8
ALPHA
 10
2491.763663
 20
576.060991
 30
0.0
  0
VERTEX
  5
1AEDB
  8
ALPHA
 10
2492.140005
 20
576.13545
 30
0.0
  0
VERTEX
  5
1AEDC
  8
ALPHA
 10
2492.460303
 20
576.34774
 30
0.0
  0
VERTEX
  5
1AEDD
  8
ALPHA
 10
2492.676859
 20
576.666246
 30
0.0
  0
VERTEX
  5
1AEDE
  8
ALPHA
 10
2492.757422
 20
577.043539
 30
0.0
  0
SEQEND
  5
1AEDF
  8
ALPHA
  0
POLYLINE
  5
18F7E
  8
ALPHA
 66
     1
 10
0.0
 20
0.0
 30
0.0
  0
VERTEX
  5
1AEE0
  8
ALPHA
 10
2491.745397
 20
577.043539
 30
0.0
  0
VERTEX
  5
1AEE1
  8
ALPHA
 10
2492.127952
 20
577.038191
 30
0.0
  0
VERTEX
  5
1AEE2
  8
ALPHA
 10
2492.452289
 20
577.036313
 30
0.0
  0
VERTEX
  5
1AEE3
  8
ALPHA
 10
2492.669049
 20
577.038191
 30
0.0
  0
VERTEX
  5
1AEE4
  8
ALPHA
 10
2492.745245
 20
577.043539
 30
0.0
  0
SEQEND
  5
1AEE5
  8
ALPHA
  0
LINE
  5
18F85
  8
ALPHA
 10
2486.928094
 20
584.560991
 30
0.0
 11
2489.928094
 21
584.560991
 31
0.0
  0
LINE
  5
18F86
  8
ALPHA
 10
2491.745397
 20
577.043539
 30
0.0
 11
2491.745397
 21
576.060991
 31
0.0
  0
LINE
  5
18F87
  8
ALPHA
 10
2486.928094
 20
584.560991
 30
0.0
 11
2486.928094
 21
581.560991
 31
0.0
  0
LINE
  5
18F88
  8
ALPHA
 10
2525.128094
 20
797.598709
 30
0.0
 11
2525.128094
 21
659.733889
 31
0.0
  0
LINE
  5
18F89
  8
ALPHA
 10
2523.163867
 20
674.568436
 30
0.0
 11
2523.163867
 21
797.632892
 31
0.0
  0
LINE
  5
18F8A
  8
ALPHA
 10
2518.962342
 20
797.70601
 30
0.0
 11
2518.962342
 21
613.111014
 31
0.0
  0
LINE
  5
18F8B
  8
ALPHA
 10
2517.507017
 20
797.70601
 30
0.0
 11
2517.507017
 21
613.111014
 31
0.0
  0
POLYLINE
  5
18F8C
  8
ALPHA
 66
     1
 10
0.0
 20
0.0
 30
0.0
  0
VERTEX
  5
1AEE6
  8
ALPHA
 10
2496.194797
 20
805.978237
 30
0.0
  0
VERTEX
  5
1AEE7
  8
ALPHA
 10
2496.192929
 20
805.985167
 30
0.0
  0
VERTEX
  5
1AEE8
  8
ALPHA
 10
2496.177574
 20
806.052988
 30
0.0
  0
VERTEX
  5
1AEE9
  8
ALPHA
 10
2496.155605
 20
806.1729
 30
0.0
  0
VERTEX
  5
1AEEA
  8
ALPHA
 10
2496.130355
 20
806.337961
 30
0.0
  0
VERTEX
  5
1AEEB
  8
ALPHA
 10
2496.103337
 20
806.544721
 30
0.0
  0
VERTEX
  5
1AEEC
  8
ALPHA
 10
2496.075348
 20
806.791637
 30
0.0
  0
VERTEX
  5
1AEED
  8
ALPHA
 10
2496.046877
 20
807.077854
 30
0.0
  0
VERTEX
  5
1AEEE
  8
ALPHA
 10
2496.018351
 20
807.402382
 30
0.0
  0
VERTEX
  5
1AEEF
  8
ALPHA
 10
2495.990174
 20
807.764241
 30
0.0
  0
VERTEX
  5
1AEF0
  8
ALPHA
 10
2495.962706
 20
808.16188
 30
0.0
  0
VERTEX
  5
1AEF1
  8
ALPHA
 10
2495.936297
 20
808.593336
 30
0.0
  0
VERTEX
  5
1AEF2
  8
ALPHA
 10
2495.911351
 20
809.05628
 30
0.0
  0
VERTEX
  5
1AEF3
  8
ALPHA
 10
2495.888193
 20
809.548078
 30
0.0
  0
VERTEX
  5
1AEF4
  8
ALPHA
 10
2495.867134
 20
810.065665
 30
0.0
  0
VERTEX
  5
1AEF5
  8
ALPHA
 10
2495.848523
 20
810.605564
 30
0.0
  0
VERTEX
  5
1AEF6
  8
ALPHA
 10
2495.832631
 20
811.163946
 30
0.0
  0
VERTEX
  5
1AEF7
  8
ALPHA
 10
2495.819763
 20
811.736215
 30
0.0
  0
SEQEND
  5
1AEF8
  8
ALPHA
  0
POLYLINE
  5
18FA0
  8
ALPHA
 66
     1
 10
0.0
 20
0.0
 30
0.0
  0
VERTEX
  5
1AEF9
  8
ALPHA
 10
2496.173677
 20
805.988558
 30
0.0
  0
VERTEX
  5
1AEFA
  8
ALPHA
 10
2496.079316
 20
806.699757
 30
0.0
  0
VERTEX
  5
1AEFB
  8
ALPHA
 10
2495.990446
 20
807.71248
 30
0.0
  0
SEQEND
  5
1AEFC
  8
ALPHA
  0
POLYLINE
  5
18FA5
  8
ALPHA
 66
     1
 10
0.0
 20
0.0
 30
0.0
  0
VERTEX
  5
1AEFD
  8
ALPHA
 10
2496.530845
 20
811.928443
 30
0.0
  0
VERTEX
  5
1AEFE
  8
ALPHA
 10
2496.54865
 20
810.403281
 30
0.0
  0
VERTEX
  5
1AEFF
  8
ALPHA
 10
2496.547405
 20
808.968286
 30
0.0
  0
VERTEX
  5
1AF00
  8
ALPHA
 10
2496.526577
 20
807.711031
 30
0.0
  0
VERTEX
  5
1AF01
  8
ALPHA
 10
2496.486436
 20
806.69972
 30
0.0
  0
VERTEX
  5
1AF02
  8
ALPHA
 10
2496.428057
 20
805.98925
 30
0.0
  0
SEQEND
  5
1AF03
  8
ALPHA
  0
LINE
  5
18FAD
  8
ALPHA
 10
2497.549231
 20
800.460991
 30
0.0
 11
2497.128259
 21
824.578443
 31
0.0
  0
POLYLINE
  5
18FAE
  8
ALPHA
 66
     1
 10
0.0
 20
0.0
 30
0.0
  0
VERTEX
  5
1AF04
  8
ALPHA
 10
2495.819763
 20
811.736215
 30
0.0
  0
VERTEX
  5
1AF05
  8
ALPHA
 10
2495.812878
 20
812.131776
 30
0.0
  0
VERTEX
  5
1AF06
  8
ALPHA
 10
2495.805352
 20
812.753556
 30
0.0
  0
VERTEX
  5
1AF07
  8
ALPHA
 10
2495.801981
 20
813.360989
 30
0.0
  0
VERTEX
  5
1AF08
  8
ALPHA
 10
2495.802598
 20
813.947159
 30
0.0
  0
VERTEX
  5
1AF09
  8
ALPHA
 10
2495.807041
 20
814.506295
 30
0.0
  0
VERTEX
  5
1AF0A
  8
ALPHA
 10
2495.815009
 20
815.03319
 30
0.0
  0
VERTEX
  5
1AF0B
  8
ALPHA
 10
2495.826217
 20
815.523337
 30
0.0
  0
VERTEX
  5
1AF0C
  8
ALPHA
 10
2495.84029
 20
815.972982
 30
0.0
  0
VERTEX
  5
1AF0D
  8
ALPHA
 10
2495.856755
 20
816.378957
 30
0.0
  0
VERTEX
  5
1AF0E
  8
ALPHA
 10
2495.875192
 20
816.739033
 30
0.0
  0
VERTEX
  5
1AF0F
  8
ALPHA
 10
2495.895095
 20
817.051964
 30
0.0
  0
VERTEX
  5
1AF10
  8
ALPHA
 10
2495.91586
 20
817.316731
 30
0.0
  0
VERTEX
  5
1AF11
  8
ALPHA
 10
2495.936834
 20
817.532815
 30
0.0
  0
VERTEX
  5
1AF12
  8
ALPHA
 10
2495.957041
 20
817.699436
 30
0.0
  0
VERTEX
  5
1AF13
  8
ALPHA
 10
2495.974693
 20
817.813961
 30
0.0
  0
VERTEX
  5
1AF14
  8
ALPHA
 10
2495.979085
 20
817.837726
 30
0.0
  0
SEQEND
  5
1AF15
  8
ALPHA
  0
POLYLINE
  5
18FC1
  8
ALPHA
 66
     1
 10
0.0
 20
0.0
 30
0.0
  0
VERTEX
  5
1AF16
  8
ALPHA
 10
2495.89649
 20
817.153082
 30
0.0
  0
VERTEX
  5
1AF17
  8
ALPHA
 10
2495.965903
 20
817.863669
 30
0.0
  0
VERTEX
  5
1AF18
  8
ALPHA
 10
2496.046509
 20
818.231102
 30
0.0
  0
VERTEX
  5
1AF19
  8
ALPHA
 10
2496.133086
 20
818.231556
 30
0.0
  0
VERTEX
  5
1AF1A
  8
ALPHA
 10
2496.220314
 20
817.864883
 30
0.0
  0
VERTEX
  5
1AF1B
  8
ALPHA
 10
2496.303605
 20
817.154591
 30
0.0
  0
VERTEX
  5
1AF1C
  8
ALPHA
 10
2496.37916
 20
816.143119
 30
0.0
  0
VERTEX
  5
1AF1D
  8
ALPHA
 10
2496.443953
 20
814.88605
 30
0.0
  0
VERTEX
  5
1AF1E
  8
ALPHA
 10
2496.49535
 20
813.451864
 30
0.0
  0
VERTEX
  5
1AF1F
  8
ALPHA
 10
2496.530845
 20
811.928443
 30
0.0
  0
SEQEND
  5
1AF20
  8
ALPHA
  0
ARC
  5
18FCD
  8
ALPHA
 10
2496.128411
 20
824.560991
 30
0.0
 40
1.0
 50
1.0
 51
90.0
  0
LINE
  5
18FCE
  8
ALPHA
 10
2495.972955
 20
822.339714
 30
0.0
 11
2495.959179
 21
822.509927
 31
0.0
  0
LINE
  5
18FCF
  8
ALPHA
 10
2495.949019
 20
820.382268
 30
0.0
 11
2495.963006
 21
820.212055
 31
0.0
  0
LINE
  5
18FD0
  8
ALPHA
 10
2495.844604
 20
822.084395
 30
0.0
 11
2495.85681
 21
822.68014
 31
0.0
  0
LINE
  5
18FD1
  8
ALPHA
 10
2495.844904
 20
823.360991
 30
0.0
 11
2495.832698
 21
822.765246
 31
0.0
  0
LINE
  5
18FD2
  8
ALPHA
 10
2496.156876
 20
822.084395
 30
0.0
 11
2496.166228
 21
822.68014
 31
0.0
  0
LINE
  5
18FD3
  8
ALPHA
 10
2496.154327
 20
823.360991
 30
0.0
 11
2496.144975
 21
822.765246
 31
0.0
  0
LINE
  5
18FD4
  8
ALPHA
 10
2495.959179
 20
822.509927
 30
0.0
 11
2495.949019
 21
820.382268
 31
0.0
  0
LINE
  5
18FD5
  8
ALPHA
 10
2495.963006
 20
820.212055
 30
0.0
 11
2495.972955
 21
822.339714
 31
0.0
  0
LINE
  5
18FD6
  8
ALPHA
 10
2496.221463
 20
824.578443
 30
0.0
 11
2496.330125
 21
818.360991
 31
0.0
  0
LINE
  5
18FD7
  8
ALPHA
 10
2496.243813
 20
819.360991
 30
0.0
 11
2496.173898
 21
823.360991
 31
0.0
  0
LINE
  5
18FD8
  8
ALPHA
 10
2496.166228
 20
822.68014
 30
0.0
 11
2496.224244
 21
819.360991
 31
0.0
  0
LINE
  5
18FD9
  8
ALPHA
 10
2496.144975
 20
822.765246
 30
0.0
 11
2496.156876
 21
822.084395
 31
0.0
  0
LINE
  5
18FDA
  8
ALPHA
 10
2496.177825
 20
819.360991
 30
0.0
 11
2496.168899
 21
819.871629
 31
0.0
  0
LINE
  5
18FDB
  8
ALPHA
 10
2496.065859
 20
819.871629
 30
0.0
 11
2496.004856
 21
823.360991
 31
0.0
  0
LINE
  5
18FDC
  8
ALPHA
 10
2495.983661
 20
823.360991
 30
0.0
 11
2496.053594
 21
819.360991
 31
0.0
  0
LINE
  5
18FDD
  8
ALPHA
 10
2495.937277
 20
819.360991
 30
0.0
 11
2495.867333
 21
823.360991
 31
0.0
  0
LINE
  5
18FDE
  8
ALPHA
 10
2495.85681
 20
822.68014
 30
0.0
 11
2495.91485
 21
819.360991
 31
0.0
  0
LINE
  5
18FDF
  8
ALPHA
 10
2495.832698
 20
822.765246
 30
0.0
 11
2495.844604
 21
822.084395
 31
0.0
  0
LINE
  5
18FE0
  8
ALPHA
 10
2495.823541
 20
818.360991
 30
0.0
 11
2495.714803
 21
824.578443
 31
0.0
  0
LINE
  5
18FE1
  8
ALPHA
 10
2496.330102
 20
818.360991
 30
0.0
 11
2495.823517
 21
818.360991
 31
0.0
  0
LINE
  5
18FE2
  8
ALPHA
 10
2495.914826
 20
819.360991
 30
0.0
 11
2495.937253
 21
819.360991
 31
0.0
  0
LINE
  5
18FE3
  8
ALPHA
 10
2496.053569
 20
819.360991
 30
0.0
 11
2496.177801
 21
819.360991
 31
0.0
  0
LINE
  5
18FE4
  8
ALPHA
 10
2496.224219
 20
819.360991
 30
0.0
 11
2496.243788
 21
819.360991
 31
0.0
  0
LINE
  5
18FE5
  8
ALPHA
 10
2496.168877
 20
819.871629
 30
0.0
 11
2496.065836
 21
819.871629
 31
0.0
  0
LINE
  5
18FE6
  8
ALPHA
 10
2495.867305
 20
823.360991
 30
0.0
 11
2495.844876
 21
823.360991
 31
0.0
  0
LINE
  5
18FE7
  8
ALPHA
 10
2496.004827
 20
823.360991
 30
0.0
 11
2495.983633
 21
823.360991
 31
0.0
  0
LINE
  5
18FE8
  8
ALPHA
 10
2496.17387
 20
823.360991
 30
0.0
 11
2496.154299
 21
823.360991
 31
0.0
  0
LINE
  5
18FE9
  8
ALPHA
 10
2495.71509
 20
824.560991
 30
0.0
 11
2496.221751
 21
824.560991
 31
0.0
  0
LINE
  5
18FEA
  8
ALPHA
 10
2495.936297
 20
808.593336
 30
0.0
 11
2495.913114
 21
808.970675
 31
0.0
  0
LINE
  5
18FEB
  8
ALPHA
 10
2495.990446
 20
807.71248
 30
0.0
 11
2495.962706
 21
808.16188
 31
0.0
  0
POLYLINE
  5
18FEC
  8
ALPHA
 66
     1
 10
0.0
 20
0.0
 30
0.0
  0
VERTEX
  5
1AF21
  8
ALPHA
 10
2495.809761
 20
814.8854
 30
0.0
  0
VERTEX
  5
1AF22
  8
ALPHA
 10
2495.843094
 20
816.141915
 30
0.0
  0
VERTEX
  5
1AF23
  8
ALPHA
 10
2495.89649
 20
817.153082
 30
0.0
  0
SEQEND
  5
1AF24
  8
ALPHA
  0
LINE
  5
18FF1
  8
ALPHA
 10
2495.799588
 20
813.451805
 30
0.0
 11
2495.809761
 21
814.8854
 31
0.0
  0
LINE
  5
18FF2
  8
ALPHA
 10
2495.814131
 20
811.928443
 30
0.0
 11
2495.799588
 21
813.451805
 31
0.0
  0
LINE
  5
18FF3
  8
ALPHA
 10
2495.852809
 20
810.405388
 30
0.0
 11
2495.814131
 21
811.928443
 31
0.0
  0
LINE
  5
18FF4
  8
ALPHA
 10
2495.913114
 20
808.970675
 30
0.0
 11
2495.852809
 21
810.405388
 31
0.0
  0
POLYLINE
  5
18FF5
  8
ALPHA
 66
     1
 10
0.0
 20
0.0
 30
0.0
  0
VERTEX
  5
1AF25
  8
ALPHA
 10
2496.878094
 20
759.010991
 30
0.0
  0
VERTEX
  5
1AF26
  8
ALPHA
 10
2496.316437
 20
759.12419
 30
0.0
  0
VERTEX
  5
1AF27
  8
ALPHA
 10
2495.844639
 20
759.443904
 30
0.0
  0
VERTEX
  5
1AF28
  8
ALPHA
 10
2495.535611
 20
759.913059
 30
0.0
  0
VERTEX
  5
1AF29
  8
ALPHA
 10
2495.428094
 20
760.460991
 30
0.0
  0
VERTEX
  5
1AF2A
  8
ALPHA
 10
2495.535611
 20
761.008923
 30
0.0
  0
VERTEX
  5
1AF2B
  8
ALPHA
 10
2495.844639
 20
761.478078
 30
0.0
  0
VERTEX
  5
1AF2C
  8
ALPHA
 10
2496.316437
 20
761.797792
 30
0.0
  0
VERTEX
  5
1AF2D
  8
ALPHA
 10
2496.878094
 20
761.910991
 30
0.0
  0
SEQEND
  5
1AF2E
  8
ALPHA
  0
POLYLINE
  5
19000
  8
ALPHA
 66
     1
 10
0.0
 20
0.0
 30
0.0
  0
VERTEX
  5
1AF2F
  8
ALPHA
 10
2512.978094
 20
761.910991
 30
0.0
  0
VERTEX
  5
1AF30
  8
ALPHA
 10
2513.539751
 20
761.797792
 30
0.0
  0
VERTEX
  5
1AF31
  8
ALPHA
 10
2514.011549
 20
761.478078
 30
0.0
  0
VERTEX
  5
1AF32
  8
ALPHA
 10
2514.320578
 20
761.008923
 30
0.0
  0
VERTEX
  5
1AF33
  8
ALPHA
 10
2514.428094
 20
760.460991
 30
0.0
  0
VERTEX
  5
1AF34
  8
ALPHA
 10
2514.320578
 20
759.913059
 30
0.0
  0
VERTEX
  5
1AF35
  8
ALPHA
 10
2514.011549
 20
759.443904
 30
0.0
  0
VERTEX
  5
1AF36
  8
ALPHA
 10
2513.539751
 20
759.12419
 30
0.0
  0
VERTEX
  5
1AF37
  8
ALPHA
 10
2512.978094
 20
759.010991
 30
0.0
  0
SEQEND
  5
1AF38
  8
ALPHA
  0
POLYLINE
  5
1900B
  8
ALPHA
 66
     1
 10
0.0
 20
0.0
 30
0.0
  0
VERTEX
  5
1AF39
  8
ALPHA
 10
2496.878094
 20
758.906175
 30
0.0
  0
VERTEX
  5
1AF3A
  8
ALPHA
 10
2496.276094
 20
759.027409
 30
0.0
  0
VERTEX
  5
1AF3B
  8
ALPHA
 10
2495.770786
 20
759.36942
 30
0.0
  0
VERTEX
  5
1AF3C
  8
ALPHA
 10
2495.438611
 20
759.873109
 30
0.0
  0
VERTEX
  5
1AF3D
  8
ALPHA
 10
2495.323183
 20
760.460991
 30
0.0
  0
VERTEX
  5
1AF3E
  8
ALPHA
 10
2495.438611
 20
761.048873
 30
0.0
  0
VERTEX
  5
1AF3F
  8
ALPHA
 10
2495.770786
 20
761.552562
 30
0.0
  0
VERTEX
  5
1AF40
  8
ALPHA
 10
2496.276094
 20
761.894573
 30
0.0
  0
VERTEX
  5
1AF41
  8
ALPHA
 10
2496.878094
 20
762.015807
 30
0.0
  0
SEQEND
  5
1AF42
  8
ALPHA
  0
POLYLINE
  5
19016
  8
ALPHA
 66
     1
 10
0.0
 20
0.0
 30
0.0
  0
VERTEX
  5
1AF43
  8
ALPHA
 10
2512.978094
 20
762.015807
 30
0.0
  0
VERTEX
  5
1AF44
  8
ALPHA
 10
2513.580036
 20
761.894517
 30
0.0
  0
VERTEX
  5
1AF45
  8
ALPHA
 10
2514.085279
 20
761.552492
 30
0.0
  0
VERTEX
  5
1AF46
  8
ALPHA
 10
2514.417404
 20
761.048828
 30
0.0
  0
VERTEX
  5
1AF47
  8
ALPHA
 10
2514.532814
 20
760.460991
 30
0.0
  0
VERTEX
  5
1AF48
  8
ALPHA
 10
2514.417404
 20
759.873153
 30
0.0
  0
VERTEX
  5
1AF49
  8
ALPHA
 10
2514.085279
 20
759.36949
 30
0.0
  0
VERTEX
  5
1AF4A
  8
ALPHA
 10
2513.580036
 20
759.027465
 30
0.0
  0
VERTEX
  5
1AF4B
  8
ALPHA
 10
2512.978094
 20
758.906175
 30
0.0
  0
SEQEND
  5
1AF4C
  8
ALPHA
  0
POLYLINE
  5
19021
  8
ALPHA
 66
     1
 10
0.0
 20
0.0
 30
0.0
  0
VERTEX
  5
1AF4D
  8
ALPHA
 10
2496.878094
 20
781.510991
 30
0.0
  0
VERTEX
  5
1AF4E
  8
ALPHA
 10
2496.316437
 20
781.62419
 30
0.0
  0
VERTEX
  5
1AF4F
  8
ALPHA
 10
2495.844639
 20
781.943904
 30
0.0
  0
VERTEX
  5
1AF50
  8
ALPHA
 10
2495.535611
 20
782.413059
 30
0.0
  0
VERTEX
  5
1AF51
  8
ALPHA
 10
2495.428094
 20
782.960991
 30
0.0
  0
VERTEX
  5
1AF52
  8
ALPHA
 10
2495.535611
 20
783.508923
 30
0.0
  0
VERTEX
  5
1AF53
  8
ALPHA
 10
2495.844639
 20
783.978078
 30
0.0
  0
VERTEX
  5
1AF54
  8
ALPHA
 10
2496.316437
 20
784.297792
 30
0.0
  0
VERTEX
  5
1AF55
  8
ALPHA
 10
2496.878094
 20
784.410991
 30
0.0
  0
SEQEND
  5
1AF56
  8
ALPHA
  0
POLYLINE
  5
1902C
  8
ALPHA
 66
     1
 10
0.0
 20
0.0
 30
0.0
  0
VERTEX
  5
1AF57
  8
ALPHA
 10
2496.878094
 20
781.406175
 30
0.0
  0
VERTEX
  5
1AF58
  8
ALPHA
 10
2496.276094
 20
781.527409
 30
0.0
  0
VERTEX
  5
1AF59
  8
ALPHA
 10
2495.770786
 20
781.86942
 30
0.0
  0
VERTEX
  5
1AF5A
  8
ALPHA
 10
2495.438611
 20
782.373109
 30
0.0
  0
VERTEX
  5
1AF5B
  8
ALPHA
 10
2495.323183
 20
782.960991
 30
0.0
  0
VERTEX
  5
1AF5C
  8
ALPHA
 10
2495.438611
 20
783.548873
 30
0.0
  0
VERTEX
  5
1AF5D
  8
ALPHA
 10
2495.770786
 20
784.052562
 30
0.0
  0
VERTEX
  5
1AF5E
  8
ALPHA
 10
2496.276094
 20
784.394573
 30
0.0
  0
VERTEX
  5
1AF5F
  8
ALPHA
 10
2496.878094
 20
784.515807
 30
0.0
  0
SEQEND
  5
1AF60
  8
ALPHA
  0
POLYLINE
  5
19037
  8
ALPHA
 66
     1
 10
0.0
 20
0.0
 30
0.0
  0
VERTEX
  5
1AF61
  8
ALPHA
 10
2512.978094
 20
784.410991
 30
0.0
  0
VERTEX
  5
1AF62
  8
ALPHA
 10
2513.539751
 20
784.297792
 30
0.0
  0
VERTEX
  5
1AF63
  8
ALPHA
 10
2514.011549
 20
783.978078
 30
0.0
  0
VERTEX
  5
1AF64
  8
ALPHA
 10
2514.320578
 20
783.508923
 30
0.0
  0
VERTEX
  5
1AF65
  8
ALPHA
 10
2514.428094
 20
782.960991
 30
0.0
  0
VERTEX
  5
1AF66
  8
ALPHA
 10
2514.320578
 20
782.413059
 30
0.0
  0
VERTEX
  5
1AF67
  8
ALPHA
 10
2514.011549
 20
781.943904
 30
0.0
  0
VERTEX
  5
1AF68
  8
ALPHA
 10
2513.539751
 20
781.62419
 30
0.0
  0
VERTEX
  5
1AF69
  8
ALPHA
 10
2512.978094
 20
781.510991
 30
0.0
  0
SEQEND
  5
1AF6A
  8
ALPHA
  0
POLYLINE
  5
19042
  8
ALPHA
 66
     1
 10
0.0
 20
0.0
 30
0.0
  0
VERTEX
  5
1AF6B
  8
ALPHA
 10
2512.978094
 20
784.515807
 30
0.0
  0
VERTEX
  5
1AF6C
  8
ALPHA
 10
2513.580036
 20
784.394517
 30
0.0
  0
VERTEX
  5
1AF6D
  8
ALPHA
 10
2514.085279
 20
784.052492
 30
0.0
  0
VERTEX
  5
1AF6E
  8
ALPHA
 10
2514.417404
 20
783.548828
 30
0.0
  0
VERTEX
  5
1AF6F
  8
ALPHA
 10
2514.532814
 20
782.960991
 30
0.0
  0
VERTEX
  5
1AF70
  8
ALPHA
 10
2514.417404
 20
782.373153
 30
0.0
  0
VERTEX
  5
1AF71
  8
ALPHA
 10
2514.085279
 20
781.86949
 30
0.0
  0
VERTEX
  5
1AF72
  8
ALPHA
 10
2513.580036
 20
781.527465
 30
0.0
  0
VERTEX
  5
1AF73
  8
ALPHA
 10
2512.978094
 20
781.406175
 30
0.0
  0
SEQEND
  5
1AF74
  8
ALPHA
  0
LINE
  5
1904D
  8
ALPHA
 10
2507.578094
 20
781.510991
 30
0.0
 11
2504.678094
 21
784.410991
 31
0.0
  0
LINE
  5
1904E
  8
ALPHA
 10
2496.878094
 20
784.410991
 30
0.0
 11
2512.978094
 21
784.410991
 31
0.0
  0
LINE
  5
1904F
  8
ALPHA
 10
2496.878094
 20
784.515807
 30
0.0
 11
2512.978094
 21
784.515807
 31
0.0
  0
POLYLINE
  5
19050
  8
ALPHA
 66
     1
 10
0.0
 20
0.0
 30
0.0
  0
VERTEX
  5
1AF75
  8
ALPHA
 10
2494.444665
 20
794.287237
 30
0.0
  0
VERTEX
  5
1AF76
  8
ALPHA
 10
2494.433166
 20
794.355637
 30
0.0
  0
VERTEX
  5
1AF77
  8
ALPHA
 10
2494.422719
 20
794.439022
 30
0.0
  0
VERTEX
  5
1AF78
  8
ALPHA
 10
2494.414311
 20
794.529721
 30
0.0
  0
VERTEX
  5
1AF79
  8
ALPHA
 10
2494.408453
 20
794.620514
 30
0.0
  0
VERTEX
  5
1AF7A
  8
ALPHA
 10
2494.405188
 20
794.710428
 30
0.0
  0
VERTEX
  5
1AF7B
  8
ALPHA
 10
2494.40489
 20
794.792741
 30
0.0
  0
VERTEX
  5
1AF7C
  8
ALPHA
 10
2494.407525
 20
794.85989
 30
0.0
  0
VERTEX
  5
1AF7D
  8
ALPHA
 10
2494.412797
 20
794.909417
 30
0.0
  0
SEQEND
  5
1AF7E
  8
ALPHA
  0
POLYLINE
  5
1905B
  8
ALPHA
 66
     1
 10
0.0
 20
0.0
 30
0.0
  0
VERTEX
  5
1AF7F
  8
ALPHA
 10
2494.405086
 20
794.738763
 30
0.0
  0
VERTEX
  5
1AF80
  8
ALPHA
 10
2494.406085
 20
794.688215
 30
0.0
  0
VERTEX
  5
1AF81
  8
ALPHA
 10
2494.410155
 20
794.612401
 30
0.0
  0
VERTEX
  5
1AF82
  8
ALPHA
 10
2494.41677
 20
794.53466
 30
0.0
  0
VERTEX
  5
1AF83
  8
ALPHA
 10
2494.425555
 20
794.461042
 30
0.0
  0
VERTEX
  5
1AF84
  8
ALPHA
 10
2494.43561
 20
794.398984
 30
0.0
  0
SEQEND
  5
1AF85
  8
ALPHA
  0
LINE
  5
19063
  8
ALPHA
 10
2494.462111
 20
794.956192
 30
0.0
 11
2494.436707
 21
795.15801
 31
0.0
  0
POLYLINE
  5
19064
  8
ALPHA
 66
     1
 10
0.0
 20
0.0
 30
0.0
  0
VERTEX
  5
1AF86
  8
ALPHA
 10
2494.462117
 20
794.95614
 30
0.0
  0
VERTEX
  5
1AF87
  8
ALPHA
 10
2494.46156
 20
794.923964
 30
0.0
  0
VERTEX
  5
1AF88
  8
ALPHA
 10
2494.458936
 20
794.900194
 30
0.0
  0
SEQEND
  5
1AF89
  8
ALPHA
  0
LINE
  5
19069
  8
ALPHA
 10
2496.413971
 20
803.684395
 30
0.0
 11
2496.423936
 21
804.28014
 31
0.0
  0
LINE
  5
1906A
  8
ALPHA
 10
2496.412035
 20
804.960991
 30
0.0
 11
2496.402069
 21
804.365246
 31
0.0
  0
LINE
  5
1906B
  8
ALPHA
 10
2496.279673
 20
804.960991
 30
0.0
 11
2496.291545
 21
800.960991
 31
0.0
  0
LINE
  5
1906C
  8
ALPHA
 10
2496.307804
 20
802.322693
 30
0.0
 11
2496.299925
 21
804.620565
 31
0.0
  0
LINE
  5
1906D
  8
ALPHA
 10
2496.313481
 20
800.960991
 30
0.0
 11
2496.31014
 21
801.982267
 31
0.0
  0
LINE
  5
1906E
  8
ALPHA
 10
2496.482459
 20
805.260991
 30
0.0
 11
2496.562861
 21
800.660991
 31
0.0
  0
LINE
  5
1906F
  8
ALPHA
 10
2496.50214
 20
800.960991
 30
0.0
 11
2496.43222
 21
804.960991
 31
0.0
  0
LINE
  5
19070
  8
ALPHA
 10
2496.423936
 20
804.28014
 30
0.0
 11
2496.481957
 21
800.960991
 31
0.0
  0
LINE
  5
19071
  8
ALPHA
 10
2496.402069
 20
804.365246
 30
0.0
 11
2496.413971
 21
803.684395
 31
0.0
  0
LINE
  5
19072
  8
ALPHA
 10
2496.225286
 20
800.660991
 30
0.0
 11
2496.144846
 21
805.260991
 31
0.0
  0
LINE
  5
19073
  8
ALPHA
 10
2496.381422
 20
801.982267
 30
0.0
 11
2496.413273
 21
800.960991
 31
0.0
  0
LINE
  5
19074
  8
ALPHA
 10
2496.299925
 20
804.620565
 30
0.0
 11
2496.371958
 21
802.322693
 31
0.0
  0
LINE
  5
19075
  8
ALPHA
 10
2496.434106
 20
800.960991
 30
0.0
 11
2496.308188
 21
804.960991
 31
0.0
  0
POLYLINE
  5
19076
  8
ALPHA
 66
     1
 10
0.0
 20
0.0
 30
0.0
  0
VERTEX
  5
1AF8A
  8
ALPHA
 10
2496.428057
 20
805.98925
 30
0.0
  0
VERTEX
  5
1AF8B
  8
ALPHA
 10
2496.353726
 20
805.62189
 30
0.0
  0
VERTEX
  5
1AF8C
  8
ALPHA
 10
2496.267167
 20
805.621506
 30
0.0
  0
VERTEX
  5
1AF8D
  8
ALPHA
 10
2496.173677
 20
805.988558
 30
0.0
  0
SEQEND
  5
1AF8E
  8
ALPHA
  0
POLYLINE
  5
1907C
  8
ALPHA
 66
     1
 10
0.0
 20
0.0
 30
0.0
  0
VERTEX
  5
1AF8F
  8
ALPHA
 10
2494.412797
 20
794.909417
 30
0.0
  0
VERTEX
  5
1AF90
  8
ALPHA
 10
2494.420743
 20
794.940234
 30
0.0
  0
VERTEX
  5
1AF91
  8
ALPHA
 10
2494.429028
 20
794.948491
 30
0.0
  0
SEQEND
  5
1AF92
  8
ALPHA
  0
LINE
  5
19081
  8
ALPHA
 10
2494.413307
 20
794.88459
 30
0.0
 11
2494.410172
 21
794.870216
 31
0.0
  0
POLYLINE
  5
19082
  8
ALPHA
 66
     1
 10
0.0
 20
0.0
 30
0.0
  0
VERTEX
  5
1AF93
  8
ALPHA
 10
2494.458936
 20
794.900194
 30
0.0
  0
VERTEX
  5
1AF94
  8
ALPHA
 10
2494.453909
 20
794.886689
 30
0.0
  0
VERTEX
  5
1AF95
  8
ALPHA
 10
2494.45006
 20
794.884591
 30
0.0
  0
SEQEND
  5
1AF96
  8
ALPHA
  0
POLYLINE
  5
19087
  8
ALPHA
 66
     1
 10
0.0
 20
0.0
 30
0.0
  0
VERTEX
  5
1AF97
  8
ALPHA
 10
2494.453969
 20
794.916599
 30
0.0
  0
VERTEX
  5
1AF98
  8
ALPHA
 10
2494.45687
 20
794.918489
 30
0.0
  0
VERTEX
  5
1AF99
  8
ALPHA
 10
2494.460627
 20
794.931903
 30
0.0
  0
VERTEX
  5
1AF9A
  8
ALPHA
 10
2494.462111
 20
794.956192
 30
0.0
  0
SEQEND
  5
1AF9B
  8
ALPHA
  0
LINE
  5
1908D
  8
ALPHA
 10
2494.410154
 20
794.88459
 30
0.0
 11
2494.449715
 21
794.88459
 31
0.0
  0
LINE
  5
1908E
  8
ALPHA
 10
2494.414648
 20
794.916598
 30
0.0
 11
2494.453669
 21
794.916598
 31
0.0
  0
LINE
  5
1908F
  8
ALPHA
 10
2494.442097
 20
794.932742
 30
0.0
 11
2494.418811
 21
794.932742
 31
0.0
  0
POLYLINE
  5
19090
  8
ALPHA
 66
     1
 10
0.0
 20
0.0
 30
0.0
  0
VERTEX
  5
1AF9C
  8
ALPHA
 10
2494.429028
 20
794.948491
 30
0.0
  0
VERTEX
  5
1AF9D
  8
ALPHA
 10
2494.430824
 20
794.948149
 30
0.0
  0
VERTEX
  5
1AF9E
  8
ALPHA
 10
2494.442097
 20
794.932742
 30
0.0
  0
SEQEND
  5
1AF9F
  8
ALPHA
  0
LINE
  5
19095
  8
ALPHA
 10
2496.562843
 20
800.660991
 30
0.0
 11
2496.225267
 21
800.660991
 31
0.0
  0
LINE
  5
19096
  8
ALPHA
 10
2496.413242
 20
800.960991
 30
0.0
 11
2496.434075
 21
800.960991
 31
0.0
  0
LINE
  5
19097
  8
ALPHA
 10
2496.481926
 20
800.960991
 30
0.0
 11
2496.502109
 21
800.960991
 31
0.0
  0
LINE
  5
19098
  8
ALPHA
 10
2496.291514
 20
800.960991
 30
0.0
 11
2496.31345
 21
800.960991
 31
0.0
  0
LINE
  5
19099
  8
ALPHA
 10
2496.310113
 20
801.982267
 30
0.0
 11
2496.381396
 21
801.982267
 31
0.0
  0
LINE
  5
1909A
  8
ALPHA
 10
2496.371953
 20
802.322693
 30
0.0
 11
2496.307799
 21
802.322693
 31
0.0
  0
LINE
  5
1909B
  8
ALPHA
 10
2496.308153
 20
804.960991
 30
0.0
 11
2496.279638
 21
804.960991
 31
0.0
  0
LINE
  5
1909C
  8
ALPHA
 10
2496.432185
 20
804.960991
 30
0.0
 11
2496.412
 21
804.960991
 31
0.0
  0
LINE
  5
1909D
  8
ALPHA
 10
2496.144799
 20
805.260991
 30
0.0
 11
2496.482411
 21
805.260991
 31
0.0
  0
LINE
  5
1909E
  8
ALPHA
 10
2494.442097
 20
794.932742
 30
0.0
 11
2494.450663
 21
794.918266
 31
0.0
  0
LINE
  5
1909F
  8
ALPHA
 10
2494.450663
 20
794.918266
 30
0.0
 11
2494.453969
 21
794.916599
 31
0.0
  0
LINE
  5
190A0
  8
ALPHA
 10
2494.45517
 20
794.245134
 30
0.0
 11
2494.447232
 21
794.323845
 31
0.0
  0
POLYLINE
  5
190A1
  8
ALPHA
 66
     1
 10
0.0
 20
0.0
 30
0.0
  0
VERTEX
  5
1AFA0
  8
ALPHA
 10
2494.41383
 20
793.206586
 30
0.0
  0
VERTEX
  5
1AFA1
  8
ALPHA
 10
2494.408085
 20
793.25439
 30
0.0
  0
VERTEX
  5
1AFA2
  8
ALPHA
 10
2494.405055
 20
793.320415
 30
0.0
  0
VERTEX
  5
1AFA3
  8
ALPHA
 10
2494.405018
 20
793.402669
 30
0.0
  0
VERTEX
  5
1AFA4
  8
ALPHA
 10
2494.408056
 20
793.493453
 30
0.0
  0
VERTEX
  5
1AFA5
  8
ALPHA
 10
2494.413826
 20
793.585988
 30
0.0
  0
VERTEX
  5
1AFA6
  8
ALPHA
 10
2494.422337
 20
793.679408
 30
0.0
  0
VERTEX
  5
1AFA7
  8
ALPHA
 10
2494.43297
 20
793.764985
 30
0.0
  0
VERTEX
  5
1AFA8
  8
ALPHA
 10
2494.444665
 20
793.834745
 30
0.0
  0
SEQEND
  5
1AFA9
  8
ALPHA
  0
LINE
  5
190AC
  8
ALPHA
 10
2494.447232
 20
794.323845
 30
0.0
 11
2494.43561
 21
794.398984
 31
0.0
  0
POLYLINE
  5
190AD
  8
ALPHA
 66
     1
 10
0.0
 20
0.0
 30
0.0
  0
VERTEX
  5
1AFAA
  8
ALPHA
 10
2494.444665
 20
794.287237
 30
0.0
  0
VERTEX
  5
1AFAB
  8
ALPHA
 10
2494.452363
 20
794.238159
 30
0.0
  0
VERTEX
  5
1AFAC
  8
ALPHA
 10
2494.457754
 20
794.18336
 30
0.0
  0
VERTEX
  5
1AFAD
  8
ALPHA
 10
2494.461039
 20
794.123756
 30
0.0
  0
VERTEX
  5
1AFAE
  8
ALPHA
 10
2494.462159
 20
794.060987
 30
0.0
  0
VERTEX
  5
1AFAF
  8
ALPHA
 10
2494.461039
 20
793.998218
 30
0.0
  0
VERTEX
  5
1AFB0
  8
ALPHA
 10
2494.457753
 20
793.938611
 30
0.0
  0
VERTEX
  5
1AFB1
  8
ALPHA
 10
2494.452362
 20
793.883816
 30
0.0
  0
VERTEX
  5
1AFB2
  8
ALPHA
 10
2494.444665
 20
793.834745
 30
0.0
  0
SEQEND
  5
1AFB3
  8
ALPHA
  0
LINE
  5
190B8
  8
ALPHA
 10
2496.878094
 20
784.410991
 30
0.0
 11
2496.878094
 21
784.515807
 31
0.0
  0
POLYLINE
  5
190B9
  8
ALPHA
 66
     1
 10
0.0
 20
0.0
 30
0.0
  0
VERTEX
  5
1AFB4
  8
ALPHA
 10
2494.462098
 20
793.16568
 30
0.0
  0
VERTEX
  5
1AFB5
  8
ALPHA
 10
2494.461751
 20
793.190205
 30
0.0
  0
VERTEX
  5
1AFB6
  8
ALPHA
 10
2494.4598
 20
793.206311
 30
0.0
  0
VERTEX
  5
1AFB7
  8
ALPHA
 10
2494.456194
 20
793.212915
 30
0.0
  0
VERTEX
  5
1AFB8
  8
ALPHA
 10
2494.455545
 20
793.213024
 30
0.0
  0
SEQEND
  5
1AFB9
  8
ALPHA
  0
POLYLINE
  5
190C0
  8
ALPHA
 66
     1
 10
0.0
 20
0.0
 30
0.0
  0
VERTEX
  5
1AFBA
  8
ALPHA
 10
2494.46118
 20
794.115876
 30
0.0
  0
VERTEX
  5
1AFBB
  8
ALPHA
 10
2494.460107
 20
794.162168
 30
0.0
  0
VERTEX
  5
1AFBC
  8
ALPHA
 10
2494.45517
 20
794.245134
 30
0.0
  0
SEQEND
  5
1AFBD
  8
ALPHA
  0
POLYLINE
  5
190C5
  8
ALPHA
 66
     1
 10
0.0
 20
0.0
 30
0.0
  0
VERTEX
  5
1AFBE
  8
ALPHA
 10
2494.43994
 20
793.74746
 30
0.0
  0
VERTEX
  5
1AFBF
  8
ALPHA
 10
2494.428727
 20
793.669245
 30
0.0
  0
VERTEX
  5
1AFC0
  8
ALPHA
 10
2494.418901
 20
793.578902
 30
0.0
  0
VERTEX
  5
1AFC1
  8
ALPHA
 10
2494.411402
 20
793.484958
 30
0.0
  0
VERTEX
  5
1AFC2
  8
ALPHA
 10
2494.406663
 20
793.394964
 30
0.0
  0
VERTEX
  5
1AFC3
  8
ALPHA
 10
2494.405052
 20
793.32634
 30
0.0
  0
SEQEND
  5
1AFC4
  8
ALPHA
  0
LINE
  5
190CD
  8
ALPHA
 10
2494.43994
 20
793.74746
 30
0.0
 11
2494.450202
 21
793.823628
 31
0.0
  0
POLYLINE
  5
190CE
  8
ALPHA
 66
     1
 10
0.0
 20
0.0
 30
0.0
  0
VERTEX
  5
1AFC5
  8
ALPHA
 10
2494.450202
 20
793.823628
 30
0.0
  0
VERTEX
  5
1AFC6
  8
ALPHA
 10
2494.457106
 20
793.903545
 30
0.0
  0
VERTEX
  5
1AFC7
  8
ALPHA
 10
2494.461094
 20
793.987907
 30
0.0
  0
VERTEX
  5
1AFC8
  8
ALPHA
 10
2494.461551
 20
794.026911
 30
0.0
  0
SEQEND
  5
1AFC9
  8
ALPHA
  0
POLYLINE
  5
190D4
  8
ALPHA
 66
     1
 10
0.0
 20
0.0
 30
0.0
  0
VERTEX
  5
1AFCA
  8
ALPHA
 10
2494.444665
 20
793.195572
 30
0.0
  0
VERTEX
  5
1AFCB
  8
ALPHA
 10
2494.432909
 20
793.175025
 30
0.0
  0
VERTEX
  5
1AFCC
  8
ALPHA
 10
2494.429026
 20
793.173491
 30
0.0
  0
SEQEND
  5
1AFCD
  8
ALPHA
  0
POLYLINE
  5
190D9
  8
ALPHA
 66
     1
 10
0.0
 20
0.0
 30
0.0
  0
VERTEX
  5
1AFCE
  8
ALPHA
 10
2494.455545
 20
793.213024
 30
0.0
  0
VERTEX
  5
1AFCF
  8
ALPHA
 10
2494.451044
 20
793.209214
 30
0.0
  0
VERTEX
  5
1AFD0
  8
ALPHA
 10
2494.444665
 20
793.195572
 30
0.0
  0
SEQEND
  5
1AFD1
  8
ALPHA
  0
LINE
  5
190DE
  8
ALPHA
 10
2494.444665
 20
793.195572
 30
0.0
 11
2494.417181
 21
793.195572
 31
0.0
  0
LINE
  5
190DF
  8
ALPHA
 10
2494.413057
 20
793.213024
 30
0.0
 11
2494.455452
 21
793.213024
 31
0.0
  0
LINE
  5
190E0
  8
ALPHA
 10
2494.43994
 20
793.74746
 30
0.0
 11
2494.430792
 21
793.74746
 31
0.0
  0
LINE
  5
190E1
  8
ALPHA
 10
2494.43561
 20
794.398984
 30
0.0
 11
2494.427735
 21
794.398984
 31
0.0
  0
POLYLINE
  5
190E2
  8
ALPHA
 66
     1
 10
0.0
 20
0.0
 30
0.0
  0
VERTEX
  5
1AFD2
  8
ALPHA
 10
2494.429026
 20
793.173491
 30
0.0
  0
VERTEX
  5
1AFD3
  8
ALPHA
 10
2494.422286
 20
793.178793
 30
0.0
  0
VERTEX
  5
1AFD4
  8
ALPHA
 10
2494.41383
 20
793.206586
 30
0.0
  0
SEQEND
  5
1AFD5
  8
ALPHA
  0
POLYLINE
  5
190E7
  8
ALPHA
 66
     1
 10
0.0
 20
0.0
 30
0.0
  0
VERTEX
  5
1AFD6
  8
ALPHA
 10
2519.429388
 20
788.509777
 30
0.0
  0
VERTEX
  5
1AFD7
  8
ALPHA
 10
2519.261601
 20
789.404876
 30
0.0
  0
VERTEX
  5
1AFD8
  8
ALPHA
 10
2519.135972
 20
790.549538
 30
0.0
  0
VERTEX
  5
1AFD9
  8
ALPHA
 10
2519.061684
 20
791.863428
 30
0.0
  0
VERTEX
  5
1AFDA
  8
ALPHA
 10
2519.044612
 20
793.254761
 30
0.0
  0
VERTEX
  5
1AFDB
  8
ALPHA
 10
2519.086181
 20
794.625767
 30
0.0
  0
VERTEX
  5
1AFDC
  8
ALPHA
 10
2519.183066
 20
795.879889
 30
0.0
  0
VERTEX
  5
1AFDD
  8
ALPHA
 10
2519.327728
 20
796.928702
 30
0.0
  0
SEQEND
  5
1AFDE
  8
ALPHA
  0
POLYLINE
  5
190F1
  8
ALPHA
 66
     1
 10
0.0
 20
0.0
 30
0.0
  0
VERTEX
  5
1AFDF
  8
ALPHA
 10
2520.162256
 20
797.685129
 30
0.0
  0
VERTEX
  5
1AFE0
  8
ALPHA
 10
2520.264325
 20
797.270865
 30
0.0
  0
VERTEX
  5
1AFE1
  8
ALPHA
 10
2520.364133
 20
796.683193
 30
0.0
  0
VERTEX
  5
1AFE2
  8
ALPHA
 10
2520.454937
 20
795.897107
 30
0.0
  0
VERTEX
  5
1AFE3
  8
ALPHA
 10
2520.52772
 20
794.900221
 30
0.0
  0
VERTEX
  5
1AFE4
  8
ALPHA
 10
2520.570931
 20
793.72838
 30
0.0
  0
VERTEX
  5
1AFE5
  8
ALPHA
 10
2520.575526
 20
792.472423
 30
0.0
  0
VERTEX
  5
1AFE6
  8
ALPHA
 10
2520.538371
 20
791.229381
 30
0.0
  0
VERTEX
  5
1AFE7
  8
ALPHA
 10
2520.460526
 20
790.085528
 30
0.0
  0
VERTEX
  5
1AFE8
  8
ALPHA
 10
2520.34558
 20
789.112269
 30
0.0
  0
VERTEX
  5
1AFE9
  8
ALPHA
 10
2520.198468
 20
788.366187
 30
0.0
  0
VERTEX
  5
1AFEA
  8
ALPHA
 10
2520.025746
 20
787.894748
 30
0.0
  0
VERTEX
  5
1AFEB
  8
ALPHA
 10
2519.837312
 20
787.735323
 30
0.0
  0
SEQEND
  5
1AFEC
  8
ALPHA
  0
POLYLINE
  5
19100
  8
ALPHA
 66
     1
 10
0.0
 20
0.0
 30
0.0
  0
VERTEX
  5
1AFED
  8
ALPHA
 10
2519.282197
 20
796.478008
 30
0.0
  0
VERTEX
  5
1AFEE
  8
ALPHA
 10
2519.291485
 20
796.447487
 30
0.0
  0
VERTEX
  5
1AFEF
  8
ALPHA
 10
2519.391075
 20
795.972469
 30
0.0
  0
VERTEX
  5
1AFF0
  8
ALPHA
 10
2519.481673
 20
795.337012
 30
0.0
  0
VERTEX
  5
1AFF1
  8
ALPHA
 10
2519.554284
 20
794.531344
 30
0.0
  0
VERTEX
  5
1AFF2
  8
ALPHA
 10
2519.597435
 20
793.584433
 30
0.0
  0
VERTEX
  5
1AFF3
  8
ALPHA
 10
2519.602138
 20
792.569109
 30
0.0
  0
VERTEX
  5
1AFF4
  8
ALPHA
 10
2519.565225
 20
791.563691
 30
0.0
  0
VERTEX
  5
1AFF5
  8
ALPHA
 10
2519.487712
 20
790.638125
 30
0.0
  0
VERTEX
  5
1AFF6
  8
ALPHA
 10
2519.37316
 20
789.850403
 30
0.0
  0
VERTEX
  5
1AFF7
  8
ALPHA
 10
2519.278005
 20
789.458571
 30
0.0
  0
SEQEND
  5
1AFF8
  8
ALPHA
  0
POLYLINE
  5
1910D
  8
ALPHA
 66
     1
 10
0.0
 20
0.0
 30
0.0
  0
VERTEX
  5
1AFF9
  8
ALPHA
 10
2519.520419
 20
788.404922
 30
0.0
  0
VERTEX
  5
1AFFA
  8
ALPHA
 10
2519.523306
 20
788.39996
 30
0.0
  0
VERTEX
  5
1AFFB
  8
ALPHA
 10
2519.49682
 20
788.462705
 30
0.0
  0
VERTEX
  5
1AFFC
  8
ALPHA
 10
2519.437791
 20
788.649165
 30
0.0
  0
VERTEX
  5
1AFFD
  8
ALPHA
 10
2519.368114
 20
788.94035
 30
0.0
  0
VERTEX
  5
1AFFE
  8
ALPHA
 10
2519.297529
 20
789.322447
 30
0.0
  0
VERTEX
  5
1AFFF
  8
ALPHA
 10
2519.230545
 20
789.789479
 30
0.0
  0
VERTEX
  5
1B000
  8
ALPHA
 10
2519.170731
 20
790.334394
 30
0.0
  0
VERTEX
  5
1B001
  8
ALPHA
 10
2519.120871
 20
790.949797
 30
0.0
  0
VERTEX
  5
1B002
  8
ALPHA
 10
2519.083628
 20
791.626124
 30
0.0
  0
VERTEX
  5
1B003
  8
ALPHA
 10
2519.061239
 20
792.35159
 30
0.0
  0
VERTEX
  5
1B004
  8
ALPHA
 10
2519.055828
 20
793.111652
 30
0.0
  0
VERTEX
  5
1B005
  8
ALPHA
 10
2519.068964
 20
793.889875
 30
0.0
  0
VERTEX
  5
1B006
  8
ALPHA
 10
2519.101956
 20
794.666525
 30
0.0
  0
VERTEX
  5
1B007
  8
ALPHA
 10
2519.155296
 20
795.418058
 30
0.0
  0
VERTEX
  5
1B008
  8
ALPHA
 10
2519.22845
 20
796.115776
 30
0.0
  0
VERTEX
  5
1B009
  8
ALPHA
 10
2519.319116
 20
796.726821
 30
0.0
  0
VERTEX
  5
1B00A
  8
ALPHA
 10
2519.42095
 20
797.209555
 30
0.0
  0
VERTEX
  5
1B00B
  8
ALPHA
 10
2519.470704
 20
797.38379
 30
0.0
  0
SEQEND
  5
1B00C
  8
ALPHA
  0
ARC
  5
19122
  8
ALPHA
 10
2523.628094
 20
797.598709
 30
0.0
 40
1.5
 50
0.0
 51
89.0
  0
POLYLINE
  5
19123
  8
ALPHA
 66
     1
 10
0.0
 20
0.0
 30
0.0
  0
VERTEX
  5
1B00D
  8
ALPHA
 10
2519.509631
 20
797.696486
 30
0.0
  0
VERTEX
  5
1B00E
  8
ALPHA
 10
2519.498181
 20
798.123444
 30
0.0
  0
VERTEX
  5
1B00F
  8
ALPHA
 10
2519.401104
 20
798.457425
 30
0.0
  0
SEQEND
  5
1B010
  8
ALPHA
  0
POLYLINE
  5
19128
  8
ALPHA
 66
     1
 10
0.0
 20
0.0
 30
0.0
  0
VERTEX
  5
1B011
  8
ALPHA
 10
2517.507017
 20
799.205782
 30
0.0
  0
VERTEX
  5
1B012
  8
ALPHA
 10
2517.515039
 20
799.091487
 30
0.0
  0
VERTEX
  5
1B013
  8
ALPHA
 10
2517.517855
 20
798.766347
 30
0.0
  0
VERTEX
  5
1B014
  8
ALPHA
 10
2517.515039
 20
798.279842
 30
0.0
  0
VERTEX
  5
1B015
  8
ALPHA
 10
2517.507017
 20
797.70601
 30
0.0
  0
SEQEND
  5
1B016
  8
ALPHA
  0
POLYLINE
  5
1912F
  8
ALPHA
 66
     1
 10
0.0
 20
0.0
 30
0.0
  0
VERTEX
  5
1B017
  8
ALPHA
 10
2519.551349
 20
797.952984
 30
0.0
  0
VERTEX
  5
1B018
  8
ALPHA
 10
2519.544901
 20
798.04351
 30
0.0
  0
VERTEX
  5
1B019
  8
ALPHA
 10
2519.533274
 20
798.131506
 30
0.0
  0
VERTEX
  5
1B01A
  8
ALPHA
 10
2519.516788
 20
798.216538
 30
0.0
  0
VERTEX
  5
1B01B
  8
ALPHA
 10
2519.495752
 20
798.298423
 30
0.0
  0
VERTEX
  5
1B01C
  8
ALPHA
 10
2519.470539
 20
798.376818
 30
0.0
  0
SEQEND
  5
1B01D
  8
ALPHA
  0
LINE
  5
19137
  8
ALPHA
 10
2519.509631
 20
797.696486
 30
0.0
 11
2519.472396
 21
797.388911
 31
0.0
  0
POLYLINE
  5
19138
  8
ALPHA
 66
     1
 10
0.0
 20
0.0
 30
0.0
  0
VERTEX
  5
1B01E
  8
ALPHA
 10
2519.472396
 20
797.388911
 30
0.0
  0
VERTEX
  5
1B01F
  8
ALPHA
 10
2519.497437
 20
797.473962
 30
0.0
  0
VERTEX
  5
1B020
  8
ALPHA
 10
2519.520395
 20
797.571839
 30
0.0
  0
VERTEX
  5
1B021
  8
ALPHA
 10
2519.537153
 20
797.669444
 30
0.0
  0
VERTEX
  5
1B022
  8
ALPHA
 10
2519.547743
 20
797.765946
 30
0.0
  0
VERTEX
  5
1B023
  8
ALPHA
 10
2519.552369
 20
797.86047
 30
0.0
  0
VERTEX
  5
1B024
  8
ALPHA
 10
2519.551349
 20
797.952984
 30
0.0
  0
SEQEND
  5
1B025
  8
ALPHA
  0
LINE
  5
19141
  8
ALPHA
 10
2519.327728
 20
796.928702
 30
0.0
 11
2519.509617
 21
797.696486
 31
0.0
  0
POLYLINE
  5
19142
  8
ALPHA
 66
     1
 10
0.0
 20
0.0
 30
0.0
  0
VERTEX
  5
1B026
  8
ALPHA
 10
2520.162253
 20
797.685129
 30
0.0
  0
VERTEX
  5
1B027
  8
ALPHA
 10
2520.013687
 20
797.252773
 30
0.0
  0
VERTEX
  5
1B028
  8
ALPHA
 10
2519.660948
 20
796.925317
 30
0.0
  0
SEQEND
  5
1B029
  8
ALPHA
  0
LINE
  5
19147
  8
ALPHA
 10
2519.472396
 20
797.388911
 30
0.0
 11
2519.47072
 21
797.383784
 31
0.0
  0
LINE
  5
19148
  8
ALPHA
 10
2519.660948
 20
796.925317
 30
0.0
 11
2519.340462
 21
796.828011
 31
0.0
  0
LINE
  5
19149
  8
ALPHA
 10
2519.509617
 20
797.706008
 30
0.0
 11
2518.962342
 21
797.696486
 31
0.0
  0
LINE
  5
1914A
  8
ALPHA
 10
2520.162256
 20
797.685129
 30
0.0
 11
2523.163867
 21
797.632892
 31
0.0
  0
LINE
  5
1914B
  8
ALPHA
 10
2518.962342
 20
797.70601
 30
0.0
 11
2517.507017
 21
797.70601
 31
0.0
  0
POLYLINE
  5
1914C
  8
ALPHA
 66
     1
 10
0.0
 20
0.0
 30
0.0
  0
VERTEX
  5
1B02A
  8
ALPHA
 10
2517.507017
 20
799.205782
 30
0.0
  0
VERTEX
  5
1B02B
  8
ALPHA
 10
2518.060282
 20
799.086791
 30
0.0
  0
VERTEX
  5
1B02C
  8
ALPHA
 10
2518.535012
 20
798.76048
 30
0.0
  0
VERTEX
  5
1B02D
  8
ALPHA
 10
2518.851561
 20
798.275866
 30
0.0
  0
VERTEX
  5
1B02E
  8
ALPHA
 10
2518.962342
 20
797.70601
 30
0.0
  0
SEQEND
  5
1B02F
  8
ALPHA
  0
POLYLINE
  5
19153
  8
ALPHA
 66
     1
 10
0.0
 20
0.0
 30
0.0
  0
VERTEX
  5
1B030
  8
ALPHA
 10
2521.665292
 20
799.133199
 30
0.0
  0
VERTEX
  5
1B031
  8
ALPHA
 10
2522.245904
 20
799.009251
 30
0.0
  0
VERTEX
  5
1B032
  8
ALPHA
 10
2522.730529
 20
798.680441
 30
0.0
  0
VERTEX
  5
1B033
  8
ALPHA
 10
2523.052495
 20
798.195655
 30
0.0
  0
VERTEX
  5
1B034
  8
ALPHA
 10
2523.163867
 20
797.632892
 30
0.0
  0
SEQEND
  5
1B035
  8
ALPHA
  0
POLYLINE
  5
1915A
  8
ALPHA
 66
     1
 10
0.0
 20
0.0
 30
0.0
  0
VERTEX
  5
1B036
  8
ALPHA
 10
2518.657957
 20
799.157218
 30
0.0
  0
VERTEX
  5
1B037
  8
ALPHA
 10
2518.721886
 20
799.148806
 30
0.0
  0
VERTEX
  5
1B038
  8
ALPHA
 10
2518.860751
 20
799.11758
 30
0.0
  0
VERTEX
  5
1B039
  8
ALPHA
 10
2519.040629
 20
799.059932
 30
0.0
  0
VERTEX
  5
1B03A
  8
ALPHA
 10
2519.238542
 20
798.972482
 30
0.0
  0
VERTEX
  5
1B03B
  8
ALPHA
 10
2519.447248
 20
798.847871
 30
0.0
  0
VERTEX
  5
1B03C
  8
ALPHA
 10
2519.661653
 20
798.674332
 30
0.0
  0
SEQEND
  5
1B03D
  8
ALPHA
  0
POLYLINE
  5
19163
  8
ALPHA
 66
     1
 10
0.0
 20
0.0
 30
0.0
  0
VERTEX
  5
1B03E
  8
ALPHA
 10
2519.470539
 20
798.376818
 30
0.0
  0
VERTEX
  5
1B03F
  8
ALPHA
 10
2519.441547
 20
798.451462
 30
0.0
  0
VERTEX
  5
1B040
  8
ALPHA
 10
2519.40928
 20
798.521993
 30
0.0
  0
VERTEX
  5
1B041
  8
ALPHA
 10
2519.3743
 20
798.588107
 30
0.0
  0
VERTEX
  5
1B042
  8
ALPHA
 10
2519.337121
 20
798.649713
 30
0.0
  0
VERTEX
  5
1B043
  8
ALPHA
 10
2519.298424
 20
798.706538
 30
0.0
  0
VERTEX
  5
1B044
  8
ALPHA
 10
2519.259649
 20
798.757541
 30
0.0
  0
VERTEX
  5
1B045
  8
ALPHA
 10
2519.221572
 20
798.802887
 30
0.0
  0
VERTEX
  5
1B046
  8
ALPHA
 10
2519.184785
 20
798.842917
 30
0.0
  0
VERTEX
  5
1B047
  8
ALPHA
 10
2519.153364
 20
798.87456
 30
0.0
  0
VERTEX
  5
1B048
  8
ALPHA
 10
2519.142329
 20
798.885185
 30
0.0
  0
SEQEND
  5
1B049
  8
ALPHA
  0
POLYLINE
  5
19170
  8
ALPHA
 66
     1
 10
0.0
 20
0.0
 30
0.0
  0
VERTEX
  5
1B04A
  8
ALPHA
 10
2518.657957
 20
799.157218
 30
0.0
  0
VERTEX
  5
1B04B
  8
ALPHA
 10
2519.031849
 20
798.988675
 30
0.0
  0
VERTEX
  5
1B04C
  8
ALPHA
 10
2519.306366
 20
798.682112
 30
0.0
  0
VERTEX
  5
1B04D
  8
ALPHA
 10
2519.43467
 20
798.289832
 30
0.0
  0
SEQEND
  5
1B04E
  8
ALPHA
  0
POLYLINE
  5
19176
  8
ALPHA
 66
     1
 10
0.0
 20
0.0
 30
0.0
  0
VERTEX
  5
1B04F
  8
ALPHA
 10
2519.401104
 20
798.457425
 30
0.0
  0
VERTEX
  5
1B050
  8
ALPHA
 10
2519.262233
 20
798.705891
 30
0.0
  0
VERTEX
  5
1B051
  8
ALPHA
 10
2519.108003
 20
798.884835
 30
0.0
  0
VERTEX
  5
1B052
  8
ALPHA
 10
2518.954386
 20
799.009101
 30
0.0
  0
VERTEX
  5
1B053
  8
ALPHA
 10
2518.813457
 20
799.090702
 30
0.0
  0
VERTEX
  5
1B054
  8
ALPHA
 10
2518.700917
 20
799.13853
 30
0.0
  0
VERTEX
  5
1B055
  8
ALPHA
 10
2518.657961
 20
799.157237
 30
0.0
  0
SEQEND
  5
1B056
  8
ALPHA
  0
POLYLINE
  5
1917F
  8
ALPHA
 66
     1
 10
0.0
 20
0.0
 30
0.0
  0
VERTEX
  5
1B057
  8
ALPHA
 10
2519.661653
 20
798.674332
 30
0.0
  0
VERTEX
  5
1B058
  8
ALPHA
 10
2519.871628
 20
798.435172
 30
0.0
  0
VERTEX
  5
1B059
  8
ALPHA
 10
2520.054159
 20
798.110219
 30
0.0
  0
VERTEX
  5
1B05A
  8
ALPHA
 10
2520.162301
 20
797.68513
 30
0.0
  0
SEQEND
  5
1B05B
  8
ALPHA
  0
POLYLINE
  5
19185
  8
ALPHA
 66
     1
 10
0.0
 20
0.0
 30
0.0
  0
VERTEX
  5
1B05C
  8
ALPHA
 10
2519.181317
 20
798.846411
 30
0.0
  0
VERTEX
  5
1B05D
  8
ALPHA
 10
2519.170898
 20
798.857408
 30
0.0
  0
VERTEX
  5
1B05E
  8
ALPHA
 10
2519.14216
 20
798.885731
 30
0.0
  0
VERTEX
  5
1B05F
  8
ALPHA
 10
2519.131709
 20
798.89561
 30
0.0
  0
SEQEND
  5
1B060
  8
ALPHA
  0
LINE
  5
1918B
  8
ALPHA
 10
2512.978094
 20
784.410991
 30
0.0
 11
2512.978094
 21
784.515807
 31
0.0
  0
POLYLINE
  5
1918C
  8
ALPHA
 66
     1
 10
0.0
 20
0.0
 30
0.0
  0
VERTEX
  5
1B061
  8
ALPHA
 10
2519.837312
 20
787.735323
 30
0.0
  0
VERTEX
  5
1B062
  8
ALPHA
 10
2519.626852
 20
787.935227
 30
0.0
  0
VERTEX
  5
1B063
  8
ALPHA
 10
2519.429388
 20
788.509777
 30
0.0
  0
SEQEND
  5
1B064
  8
ALPHA
  0
LINE
  5
19191
  8
ALPHA
 10
2496.878094
 20
761.910991
 30
0.0
 11
2512.978094
 21
761.910991
 31
0.0
  0
LINE
  5
19192
  8
ALPHA
 10
2496.878094
 20
762.015807
 30
0.0
 11
2512.978094
 21
762.015807
 31
0.0
  0
LINE
  5
19193
  8
ALPHA
 10
2512.978094
 20
766.406175
 30
0.0
 11
2496.878094
 21
766.406175
 31
0.0
  0
LINE
  5
19194
  8
ALPHA
 10
2512.978094
 20
766.510991
 30
0.0
 11
2496.878094
 21
766.510991
 31
0.0
  0
LINE
  5
19195
  8
ALPHA
 10
2496.878094
 20
769.410991
 30
0.0
 11
2512.978094
 21
769.410991
 31
0.0
  0
LINE
  5
19196
  8
ALPHA
 10
2496.878094
 20
769.515807
 30
0.0
 11
2512.978094
 21
769.515807
 31
0.0
  0
LINE
  5
19197
  8
ALPHA
 10
2512.978094
 20
773.906175
 30
0.0
 11
2496.878094
 21
773.906175
 31
0.0
  0
LINE
  5
19198
  8
ALPHA
 10
2512.978094
 20
774.010991
 30
0.0
 11
2496.878094
 21
774.010991
 31
0.0
  0
LINE
  5
19199
  8
ALPHA
 10
2496.878094
 20
776.910991
 30
0.0
 11
2512.978094
 21
776.910991
 31
0.0
  0
LINE
  5
1919A
  8
ALPHA
 10
2496.878094
 20
777.015807
 30
0.0
 11
2512.978094
 21
777.015807
 31
0.0
  0
LINE
  5
1919B
  8
ALPHA
 10
2512.978094
 20
781.406175
 30
0.0
 11
2496.878094
 21
781.406175
 31
0.0
  0
LINE
  5
1919C
  8
ALPHA
 10
2512.978094
 20
781.510991
 30
0.0
 11
2496.878094
 21
781.510991
 31
0.0
  0
LINE
  5
1919D
  8
ALPHA
 10
2496.878094
 20
774.010991
 30
0.0
 11
2496.878094
 21
773.906175
 31
0.0
  0
LINE
  5
1919E
  8
ALPHA
 10
2496.878094
 20
781.510991
 30
0.0
 11
2496.878094
 21
781.406175
 31
0.0
  0
LINE
  5
1919F
  8
ALPHA
 10
2496.878094
 20
776.910991
 30
0.0
 11
2496.878094
 21
777.015807
 31
0.0
  0
POLYLINE
  5
191A0
  8
ALPHA
 66
     1
 10
0.0
 20
0.0
 30
0.0
  0
VERTEX
  5
1B065
  8
ALPHA
 10
2496.878094
 20
774.010991
 30
0.0
  0
VERTEX
  5
1B066
  8
ALPHA
 10
2496.316437
 20
774.12419
 30
0.0
  0
VERTEX
  5
1B067
  8
ALPHA
 10
2495.844639
 20
774.443904
 30
0.0
  0
VERTEX
  5
1B068
  8
ALPHA
 10
2495.535611
 20
774.913059
 30
0.0
  0
VERTEX
  5
1B069
  8
ALPHA
 10
2495.428094
 20
775.460991
 30
0.0
  0
VERTEX
  5
1B06A
  8
ALPHA
 10
2495.535611
 20
776.008923
 30
0.0
  0
VERTEX
  5
1B06B
  8
ALPHA
 10
2495.844639
 20
776.478078
 30
0.0
  0
VERTEX
  5
1B06C
  8
ALPHA
 10
2496.316437
 20
776.797792
 30
0.0
  0
VERTEX
  5
1B06D
  8
ALPHA
 10
2496.878094
 20
776.910991
 30
0.0
  0
SEQEND
  5
1B06E
  8
ALPHA
  0
POLYLINE
  5
191AB
  8
ALPHA
 66
     1
 10
0.0
 20
0.0
 30
0.0
  0
VERTEX
  5
1B06F
  8
ALPHA
 10
2496.878094
 20
773.906175
 30
0.0
  0
VERTEX
  5
1B070
  8
ALPHA
 10
2496.276094
 20
774.027409
 30
0.0
  0
VERTEX
  5
1B071
  8
ALPHA
 10
2495.770786
 20
774.36942
 30
0.0
  0
VERTEX
  5
1B072
  8
ALPHA
 10
2495.438611
 20
774.873109
 30
0.0
  0
VERTEX
  5
1B073
  8
ALPHA
 10
2495.323183
 20
775.460991
 30
0.0
  0
VERTEX
  5
1B074
  8
ALPHA
 10
2495.438611
 20
776.048873
 30
0.0
  0
VERTEX
  5
1B075
  8
ALPHA
 10
2495.770786
 20
776.552562
 30
0.0
  0
VERTEX
  5
1B076
  8
ALPHA
 10
2496.276094
 20
776.894573
 30
0.0
  0
VERTEX
  5
1B077
  8
ALPHA
 10
2496.878094
 20
777.015807
 30
0.0
  0
SEQEND
  5
1B078
  8
ALPHA
  0
LINE
  5
191B6
  8
ALPHA
 10
2496.878094
 20
766.510991
 30
0.0
 11
2496.878094
 21
766.406175
 31
0.0
  0
LINE
  5
191B7
  8
ALPHA
 10
2496.878094
 20
769.410991
 30
0.0
 11
2496.878094
 21
769.515807
 31
0.0
  0
LINE
  5
191B8
  8
ALPHA
 10
2496.878094
 20
761.910991
 30
0.0
 11
2496.878094
 21
762.015807
 31
0.0
  0
POLYLINE
  5
191B9
  8
ALPHA
 66
     1
 10
0.0
 20
0.0
 30
0.0
  0
VERTEX
  5
1B079
  8
ALPHA
 10
2496.878094
 20
766.510991
 30
0.0
  0
VERTEX
  5
1B07A
  8
ALPHA
 10
2496.316437
 20
766.62419
 30
0.0
  0
VERTEX
  5
1B07B
  8
ALPHA
 10
2495.844639
 20
766.943904
 30
0.0
  0
VERTEX
  5
1B07C
  8
ALPHA
 10
2495.535611
 20
767.413059
 30
0.0
  0
VERTEX
  5
1B07D
  8
ALPHA
 10
2495.428094
 20
767.960991
 30
0.0
  0
VERTEX
  5
1B07E
  8
ALPHA
 10
2495.535611
 20
768.508923
 30
0.0
  0
VERTEX
  5
1B07F
  8
ALPHA
 10
2495.844639
 20
768.978078
 30
0.0
  0
VERTEX
  5
1B080
  8
ALPHA
 10
2496.316437
 20
769.297792
 30
0.0
  0
VERTEX
  5
1B081
  8
ALPHA
 10
2496.878094
 20
769.410991
 30
0.0
  0
SEQEND
  5
1B082
  8
ALPHA
  0
POLYLINE
  5
191C4
  8
ALPHA
 66
     1
 10
0.0
 20
0.0
 30
0.0
  0
VERTEX
  5
1B083
  8
ALPHA
 10
2496.878094
 20
766.406175
 30
0.0
  0
VERTEX
  5
1B084
  8
ALPHA
 10
2496.276094
 20
766.527409
 30
0.0
  0
VERTEX
  5
1B085
  8
ALPHA
 10
2495.770786
 20
766.86942
 30
0.0
  0
VERTEX
  5
1B086
  8
ALPHA
 10
2495.438611
 20
767.373109
 30
0.0
  0
VERTEX
  5
1B087
  8
ALPHA
 10
2495.323183
 20
767.960991
 30
0.0
  0
VERTEX
  5
1B088
  8
ALPHA
 10
2495.438611
 20
768.548873
 30
0.0
  0
VERTEX
  5
1B089
  8
ALPHA
 10
2495.770786
 20
769.052562
 30
0.0
  0
VERTEX
  5
1B08A
  8
ALPHA
 10
2496.276094
 20
769.394573
 30
0.0
  0
VERTEX
  5
1B08B
  8
ALPHA
 10
2496.878094
 20
769.515807
 30
0.0
  0
SEQEND
  5
1B08C
  8
ALPHA
  0
LINE
  5
191CF
  8
ALPHA
 10
2512.978094
 20
774.010991
 30
0.0
 11
2512.978094
 21
773.906175
 31
0.0
  0
LINE
  5
191D0
  8
ALPHA
 10
2512.978094
 20
781.510991
 30
0.0
 11
2512.978094
 21
781.406175
 31
0.0
  0
LINE
  5
191D1
  8
ALPHA
 10
2512.978094
 20
776.910991
 30
0.0
 11
2512.978094
 21
777.015807
 31
0.0
  0
POLYLINE
  5
191D2
  8
ALPHA
 66
     1
 10
0.0
 20
0.0
 30
0.0
  0
VERTEX
  5
1B08D
  8
ALPHA
 10
2512.978094
 20
776.910991
 30
0.0
  0
VERTEX
  5
1B08E
  8
ALPHA
 10
2513.539751
 20
776.797792
 30
0.0
  0
VERTEX
  5
1B08F
  8
ALPHA
 10
2514.011549
 20
776.478078
 30
0.0
  0
VERTEX
  5
1B090
  8
ALPHA
 10
2514.320578
 20
776.008923
 30
0.0
  0
VERTEX
  5
1B091
  8
ALPHA
 10
2514.428094
 20
775.460991
 30
0.0
  0
VERTEX
  5
1B092
  8
ALPHA
 10
2514.320578
 20
774.913059
 30
0.0
  0
VERTEX
  5
1B093
  8
ALPHA
 10
2514.011549
 20
774.443904
 30
0.0
  0
VERTEX
  5
1B094
  8
ALPHA
 10
2513.539751
 20
774.12419
 30
0.0
  0
VERTEX
  5
1B095
  8
ALPHA
 10
2512.978094
 20
774.010991
 30
0.0
  0
SEQEND
  5
1B096
  8
ALPHA
  0
POLYLINE
  5
191DD
  8
ALPHA
 66
     1
 10
0.0
 20
0.0
 30
0.0
  0
VERTEX
  5
1B097
  8
ALPHA
 10
2512.978094
 20
777.015807
 30
0.0
  0
VERTEX
  5
1B098
  8
ALPHA
 10
2513.580036
 20
776.894517
 30
0.0
  0
VERTEX
  5
1B099
  8
ALPHA
 10
2514.085279
 20
776.552492
 30
0.0
  0
VERTEX
  5
1B09A
  8
ALPHA
 10
2514.417404
 20
776.048828
 30
0.0
  0
VERTEX
  5
1B09B
  8
ALPHA
 10
2514.532814
 20
775.460991
 30
0.0
  0
VERTEX
  5
1B09C
  8
ALPHA
 10
2514.417404
 20
774.873153
 30
0.0
  0
VERTEX
  5
1B09D
  8
ALPHA
 10
2514.085279
 20
774.36949
 30
0.0
  0
VERTEX
  5
1B09E
  8
ALPHA
 10
2513.580036
 20
774.027465
 30
0.0
  0
VERTEX
  5
1B09F
  8
ALPHA
 10
2512.978094
 20
773.906175
 30
0.0
  0
SEQEND
  5
1B0A0
  8
ALPHA
  0
LINE
  5
191E8
  8
ALPHA
 10
2514.263174
 20
774.825911
 30
0.0
 11
2512.178094
 21
776.910991
 31
0.0
  0
LINE
  5
191E9
  8
ALPHA
 10
2512.978094
 20
766.510991
 30
0.0
 11
2512.978094
 21
766.406175
 31
0.0
  0
LINE
  5
191EA
  8
ALPHA
 10
2512.978094
 20
769.410991
 30
0.0
 11
2512.978094
 21
769.515807
 31
0.0
  0
LINE
  5
191EB
  8
ALPHA
 10
2512.978094
 20
761.910991
 30
0.0
 11
2512.978094
 21
762.015807
 31
0.0
  0
POLYLINE
  5
191EC
  8
ALPHA
 66
     1
 10
0.0
 20
0.0
 30
0.0
  0
VERTEX
  5
1B0A1
  8
ALPHA
 10
2512.978094
 20
769.410991
 30
0.0
  0
VERTEX
  5
1B0A2
  8
ALPHA
 10
2513.539751
 20
769.297792
 30
0.0
  0
VERTEX
  5
1B0A3
  8
ALPHA
 10
2514.011549
 20
768.978078
 30
0.0
  0
VERTEX
  5
1B0A4
  8
ALPHA
 10
2514.320578
 20
768.508923
 30
0.0
  0
VERTEX
  5
1B0A5
  8
ALPHA
 10
2514.428094
 20
767.960991
 30
0.0
  0
VERTEX
  5
1B0A6
  8
ALPHA
 10
2514.320578
 20
767.413059
 30
0.0
  0
VERTEX
  5
1B0A7
  8
ALPHA
 10
2514.011549
 20
766.943904
 30
0.0
  0
VERTEX
  5
1B0A8
  8
ALPHA
 10
2513.539751
 20
766.62419
 30
0.0
  0
VERTEX
  5
1B0A9
  8
ALPHA
 10
2512.978094
 20
766.510991
 30
0.0
  0
SEQEND
  5
1B0AA
  8
ALPHA
  0
POLYLINE
  5
191F7
  8
ALPHA
 66
     1
 10
0.0
 20
0.0
 30
0.0
  0
VERTEX
  5
1B0AB
  8
ALPHA
 10
2512.978094
 20
769.515807
 30
0.0
  0
VERTEX
  5
1B0AC
  8
ALPHA
 10
2513.580036
 20
769.394517
 30
0.0
  0
VERTEX
  5
1B0AD
  8
ALPHA
 10
2514.085279
 20
769.052492
 30
0.0
  0
VERTEX
  5
1B0AE
  8
ALPHA
 10
2514.417404
 20
768.548828
 30
0.0
  0
VERTEX
  5
1B0AF
  8
ALPHA
 10
2514.532814
 20
767.960991
 30
0.0
  0
VERTEX
  5
1B0B0
  8
ALPHA
 10
2514.417404
 20
767.373153
 30
0.0
  0
VERTEX
  5
1B0B1
  8
ALPHA
 10
2514.085279
 20
766.86949
 30
0.0
  0
VERTEX
  5
1B0B2
  8
ALPHA
 10
2513.580036
 20
766.527465
 30
0.0
  0
VERTEX
  5
1B0B3
  8
ALPHA
 10
2512.978094
 20
766.406175
 30
0.0
  0
SEQEND
  5
1B0B4
  8
ALPHA
  0
LINE
  5
19202
  8
ALPHA
 10
2512.978094
 20
736.510991
 30
0.0
 11
2512.978094
 21
736.406175
 31
0.0
  0
LINE
  5
19203
  8
ALPHA
 10
2496.878094
 20
736.510991
 30
0.0
 11
2496.878094
 21
736.406175
 31
0.0
  0
POLYLINE
  5
19204
  8
ALPHA
 66
     1
 10
0.0
 20
0.0
 30
0.0
  0
VERTEX
  5
1B0B5
  8
ALPHA
 10
2496.878094
 20
736.406175
 30
0.0
  0
VERTEX
  5
1B0B6
  8
ALPHA
 10
2496.276094
 20
736.527409
 30
0.0
  0
VERTEX
  5
1B0B7
  8
ALPHA
 10
2495.770786
 20
736.86942
 30
0.0
  0
VERTEX
  5
1B0B8
  8
ALPHA
 10
2495.438611
 20
737.373109
 30
0.0
  0
VERTEX
  5
1B0B9
  8
ALPHA
 10
2495.323183
 20
737.960991
 30
0.0
  0
VERTEX
  5
1B0BA
  8
ALPHA
 10
2495.438611
 20
738.548873
 30
0.0
  0
VERTEX
  5
1B0BB
  8
ALPHA
 10
2495.770786
 20
739.052562
 30
0.0
  0
VERTEX
  5
1B0BC
  8
ALPHA
 10
2496.276094
 20
739.394573
 30
0.0
  0
VERTEX
  5
1B0BD
  8
ALPHA
 10
2496.878094
 20
739.515807
 30
0.0
  0
SEQEND
  5
1B0BE
  8
ALPHA
  0
POLYLINE
  5
1920F
  8
ALPHA
 66
     1
 10
0.0
 20
0.0
 30
0.0
  0
VERTEX
  5
1B0BF
  8
ALPHA
 10
2512.978094
 20
739.515807
 30
0.0
  0
VERTEX
  5
1B0C0
  8
ALPHA
 10
2513.580036
 20
739.394517
 30
0.0
  0
VERTEX
  5
1B0C1
  8
ALPHA
 10
2514.085279
 20
739.052492
 30
0.0
  0
VERTEX
  5
1B0C2
  8
ALPHA
 10
2514.417404
 20
738.548828
 30
0.0
  0
VERTEX
  5
1B0C3
  8
ALPHA
 10
2514.532814
 20
737.960991
 30
0.0
  0
VERTEX
  5
1B0C4
  8
ALPHA
 10
2514.417404
 20
737.373153
 30
0.0
  0
VERTEX
  5
1B0C5
  8
ALPHA
 10
2514.085279
 20
736.86949
 30
0.0
  0
VERTEX
  5
1B0C6
  8
ALPHA
 10
2513.580036
 20
736.527465
 30
0.0
  0
VERTEX
  5
1B0C7
  8
ALPHA
 10
2512.978094
 20
736.406175
 30
0.0
  0
SEQEND
  5
1B0C8
  8
ALPHA
  0
LINE
  5
1921A
  8
ALPHA
 10
2512.978094
 20
736.510991
 30
0.0
 11
2496.878094
 21
736.510991
 31
0.0
  0
LINE
  5
1921B
  8
ALPHA
 10
2496.878094
 20
739.410991
 30
0.0
 11
2512.978094
 21
739.410991
 31
0.0
  0
LINE
  5
1921C
  8
ALPHA
 10
2496.878094
 20
739.515807
 30
0.0
 11
2512.978094
 21
739.515807
 31
0.0
  0
LINE
  5
1921D
  8
ALPHA
 10
2512.978094
 20
743.906175
 30
0.0
 11
2496.878094
 21
743.906175
 31
0.0
  0
LINE
  5
1921E
  8
ALPHA
 10
2512.978094
 20
744.010991
 30
0.0
 11
2496.878094
 21
744.010991
 31
0.0
  0
LINE
  5
1921F
  8
ALPHA
 10
2496.878094
 20
746.910991
 30
0.0
 11
2512.978094
 21
746.910991
 31
0.0
  0
LINE
  5
19220
  8
ALPHA
 10
2496.878094
 20
747.015807
 30
0.0
 11
2512.978094
 21
747.015807
 31
0.0
  0
LINE
  5
19221
  8
ALPHA
 10
2512.978094
 20
751.406175
 30
0.0
 11
2496.878094
 21
751.406175
 31
0.0
  0
LINE
  5
19222
  8
ALPHA
 10
2512.978094
 20
751.510991
 30
0.0
 11
2496.878094
 21
751.510991
 31
0.0
  0
LINE
  5
19223
  8
ALPHA
 10
2496.878094
 20
754.410991
 30
0.0
 11
2512.978094
 21
754.410991
 31
0.0
  0
LINE
  5
19224
  8
ALPHA
 10
2496.878094
 20
754.515807
 30
0.0
 11
2512.978094
 21
754.515807
 31
0.0
  0
LINE
  5
19225
  8
ALPHA
 10
2512.978094
 20
758.906175
 30
0.0
 11
2496.878094
 21
758.906175
 31
0.0
  0
LINE
  5
19226
  8
ALPHA
 10
2512.978094
 20
759.010991
 30
0.0
 11
2496.878094
 21
759.010991
 31
0.0
  0
LINE
  5
19227
  8
ALPHA
 10
2496.878094
 20
751.510991
 30
0.0
 11
2496.878094
 21
751.406175
 31
0.0
  0
LINE
  5
19228
  8
ALPHA
 10
2496.878094
 20
759.010991
 30
0.0
 11
2496.878094
 21
758.906175
 31
0.0
  0
LINE
  5
19229
  8
ALPHA
 10
2496.878094
 20
754.410991
 30
0.0
 11
2496.878094
 21
754.515807
 31
0.0
  0
POLYLINE
  5
1922A
  8
ALPHA
 66
     1
 10
0.0
 20
0.0
 30
0.0
  0
VERTEX
  5
1B0C9
  8
ALPHA
 10
2496.878094
 20
751.510991
 30
0.0
  0
VERTEX
  5
1B0CA
  8
ALPHA
 10
2496.316437
 20
751.62419
 30
0.0
  0
VERTEX
  5
1B0CB
  8
ALPHA
 10
2495.844639
 20
751.943904
 30
0.0
  0
VERTEX
  5
1B0CC
  8
ALPHA
 10
2495.535611
 20
752.413059
 30
0.0
  0
VERTEX
  5
1B0CD
  8
ALPHA
 10
2495.428094
 20
752.960991
 30
0.0
  0
VERTEX
  5
1B0CE
  8
ALPHA
 10
2495.535611
 20
753.508923
 30
0.0
  0
VERTEX
  5
1B0CF
  8
ALPHA
 10
2495.844639
 20
753.978078
 30
0.0
  0
VERTEX
  5
1B0D0
  8
ALPHA
 10
2496.316437
 20
754.297792
 30
0.0
  0
VERTEX
  5
1B0D1
  8
ALPHA
 10
2496.878094
 20
754.410991
 30
0.0
  0
SEQEND
  5
1B0D2
  8
ALPHA
  0
POLYLINE
  5
19235
  8
ALPHA
 66
     1
 10
0.0
 20
0.0
 30
0.0
  0
VERTEX
  5
1B0D3
  8
ALPHA
 10
2496.878094
 20
751.406175
 30
0.0
  0
VERTEX
  5
1B0D4
  8
ALPHA
 10
2496.276094
 20
751.527409
 30
0.0
  0
VERTEX
  5
1B0D5
  8
ALPHA
 10
2495.770786
 20
751.86942
 30
0.0
  0
VERTEX
  5
1B0D6
  8
ALPHA
 10
2495.438611
 20
752.373109
 30
0.0
  0
VERTEX
  5
1B0D7
  8
ALPHA
 10
2495.323183
 20
752.960991
 30
0.0
  0
VERTEX
  5
1B0D8
  8
ALPHA
 10
2495.438611
 20
753.548873
 30
0.0
  0
VERTEX
  5
1B0D9
  8
ALPHA
 10
2495.770786
 20
754.052562
 30
0.0
  0
VERTEX
  5
1B0DA
  8
ALPHA
 10
2496.276094
 20
754.394573
 30
0.0
  0
VERTEX
  5
1B0DB
  8
ALPHA
 10
2496.878094
 20
754.515807
 30
0.0
  0
SEQEND
  5
1B0DC
  8
ALPHA
  0
LINE
  5
19240
  8
ALPHA
 10
2496.878094
 20
744.010991
 30
0.0
 11
2496.878094
 21
743.906175
 31
0.0
  0
LINE
  5
19241
  8
ALPHA
 10
2496.878094
 20
746.910991
 30
0.0
 11
2496.878094
 21
747.015807
 31
0.0
  0
LINE
  5
19242
  8
ALPHA
 10
2496.878094
 20
739.410991
 30
0.0
 11
2496.878094
 21
739.515807
 31
0.0
  0
POLYLINE
  5
19243
  8
ALPHA
 66
     1
 10
0.0
 20
0.0
 30
0.0
  0
VERTEX
  5
1B0DD
  8
ALPHA
 10
2496.878094
 20
736.510991
 30
0.0
  0
VERTEX
  5
1B0DE
  8
ALPHA
 10
2496.316437
 20
736.62419
 30
0.0
  0
VERTEX
  5
1B0DF
  8
ALPHA
 10
2495.844639
 20
736.943904
 30
0.0
  0
VERTEX
  5
1B0E0
  8
ALPHA
 10
2495.535611
 20
737.413059
 30
0.0
  0
VERTEX
  5
1B0E1
  8
ALPHA
 10
2495.428094
 20
737.960991
 30
0.0
  0
VERTEX
  5
1B0E2
  8
ALPHA
 10
2495.535611
 20
738.508923
 30
0.0
  0
VERTEX
  5
1B0E3
  8
ALPHA
 10
2495.844639
 20
738.978078
 30
0.0
  0
VERTEX
  5
1B0E4
  8
ALPHA
 10
2496.316437
 20
739.297792
 30
0.0
  0
VERTEX
  5
1B0E5
  8
ALPHA
 10
2496.878094
 20
739.410991
 30
0.0
  0
SEQEND
  5
1B0E6
  8
ALPHA
  0
POLYLINE
  5
1924E
  8
ALPHA
 66
     1
 10
0.0
 20
0.0
 30
0.0
  0
VERTEX
  5
1B0E7
  8
ALPHA
 10
2496.878094
 20
744.010991
 30
0.0
  0
VERTEX
  5
1B0E8
  8
ALPHA
 10
2496.316437
 20
744.12419
 30
0.0
  0
VERTEX
  5
1B0E9
  8
ALPHA
 10
2495.844639
 20
744.443904
 30
0.0
  0
VERTEX
  5
1B0EA
  8
ALPHA
 10
2495.535611
 20
744.913059
 30
0.0
  0
VERTEX
  5
1B0EB
  8
ALPHA
 10
2495.428094
 20
745.460991
 30
0.0
  0
VERTEX
  5
1B0EC
  8
ALPHA
 10
2495.535611
 20
746.008923
 30
0.0
  0
VERTEX
  5
1B0ED
  8
ALPHA
 10
2495.844639
 20
746.478078
 30
0.0
  0
VERTEX
  5
1B0EE
  8
ALPHA
 10
2496.316437
 20
746.797792
 30
0.0
  0
VERTEX
  5
1B0EF
  8
ALPHA
 10
2496.878094
 20
746.910991
 30
0.0
  0
SEQEND
  5
1B0F0
  8
ALPHA
  0
POLYLINE
  5
19259
  8
ALPHA
 66
     1
 10
0.0
 20
0.0
 30
0.0
  0
VERTEX
  5
1B0F1
  8
ALPHA
 10
2496.878094
 20
743.906175
 30
0.0
  0
VERTEX
  5
1B0F2
  8
ALPHA
 10
2496.276094
 20
744.027409
 30
0.0
  0
VERTEX
  5
1B0F3
  8
ALPHA
 10
2495.770786
 20
744.36942
 30
0.0
  0
VERTEX
  5
1B0F4
  8
ALPHA
 10
2495.438611
 20
744.873109
 30
0.0
  0
VERTEX
  5
1B0F5
  8
ALPHA
 10
2495.323183
 20
745.460991
 30
0.0
  0
VERTEX
  5
1B0F6
  8
ALPHA
 10
2495.438611
 20
746.048873
 30
0.0
  0
VERTEX
  5
1B0F7
  8
ALPHA
 10
2495.770786
 20
746.552562
 30
0.0
  0
VERTEX
  5
1B0F8
  8
ALPHA
 10
2496.276094
 20
746.894573
 30
0.0
  0
VERTEX
  5
1B0F9
  8
ALPHA
 10
2496.878094
 20
747.015807
 30
0.0
  0
SEQEND
  5
1B0FA
  8
ALPHA
  0
LINE
  5
19264
  8
ALPHA
 10
2512.978094
 20
751.510991
 30
0.0
 11
2512.978094
 21
751.406175
 31
0.0
  0
LINE
  5
19265
  8
ALPHA
 10
2512.978094
 20
759.010991
 30
0.0
 11
2512.978094
 21
758.906175
 31
0.0
  0
LINE
  5
19266
  8
ALPHA
 10
2512.978094
 20
754.410991
 30
0.0
 11
2512.978094
 21
754.515807
 31
0.0
  0
POLYLINE
  5
19267
  8
ALPHA
 66
     1
 10
0.0
 20
0.0
 30
0.0
  0
VERTEX
  5
1B0FB
  8
ALPHA
 10
2512.978094
 20
754.410991
 30
0.0
  0
VERTEX
  5
1B0FC
  8
ALPHA
 10
2513.539751
 20
754.297792
 30
0.0
  0
VERTEX
  5
1B0FD
  8
ALPHA
 10
2514.011549
 20
753.978078
 30
0.0
  0
VERTEX
  5
1B0FE
  8
ALPHA
 10
2514.320578
 20
753.508923
 30
0.0
  0
VERTEX
  5
1B0FF
  8
ALPHA
 10
2514.428094
 20
752.960991
 30
0.0
  0
VERTEX
  5
1B100
  8
ALPHA
 10
2514.320578
 20
752.413059
 30
0.0
  0
VERTEX
  5
1B101
  8
ALPHA
 10
2514.011549
 20
751.943904
 30
0.0
  0
VERTEX
  5
1B102
  8
ALPHA
 10
2513.539751
 20
751.62419
 30
0.0
  0
VERTEX
  5
1B103
  8
ALPHA
 10
2512.978094
 20
751.510991
 30
0.0
  0
SEQEND
  5
1B104
  8
ALPHA
  0
POLYLINE
  5
19272
  8
ALPHA
 66
     1
 10
0.0
 20
0.0
 30
0.0
  0
VERTEX
  5
1B105
  8
ALPHA
 10
2512.978094
 20
754.515807
 30
0.0
  0
VERTEX
  5
1B106
  8
ALPHA
 10
2513.580036
 20
754.394517
 30
0.0
  0
VERTEX
  5
1B107
  8
ALPHA
 10
2514.085279
 20
754.052492
 30
0.0
  0
VERTEX
  5
1B108
  8
ALPHA
 10
2514.417404
 20
753.548828
 30
0.0
  0
VERTEX
  5
1B109
  8
ALPHA
 10
2514.532814
 20
752.960991
 30
0.0
  0
VERTEX
  5
1B10A
  8
ALPHA
 10
2514.417404
 20
752.373153
 30
0.0
  0
VERTEX
  5
1B10B
  8
ALPHA
 10
2514.085279
 20
751.86949
 30
0.0
  0
VERTEX
  5
1B10C
  8
ALPHA
 10
2513.580036
 20
751.527465
 30
0.0
  0
VERTEX
  5
1B10D
  8
ALPHA
 10
2512.978094
 20
751.406175
 30
0.0
  0
SEQEND
  5
1B10E
  8
ALPHA
  0
LINE
  5
1927D
  8
ALPHA
 10
2512.978094
 20
744.010991
 30
0.0
 11
2512.978094
 21
743.906175
 31
0.0
  0
LINE
  5
1927E
  8
ALPHA
 10
2512.978094
 20
746.910991
 30
0.0
 11
2512.978094
 21
747.015807
 31
0.0
  0
LINE
  5
1927F
  8
ALPHA
 10
2512.978094
 20
739.410991
 30
0.0
 11
2512.978094
 21
739.515807
 31
0.0
  0
POLYLINE
  5
19280
  8
ALPHA
 66
     1
 10
0.0
 20
0.0
 30
0.0
  0
VERTEX
  5
1B10F
  8
ALPHA
 10
2512.978094
 20
739.410991
 30
0.0
  0
VERTEX
  5
1B110
  8
ALPHA
 10
2513.539751
 20
739.297792
 30
0.0
  0
VERTEX
  5
1B111
  8
ALPHA
 10
2514.011549
 20
738.978078
 30
0.0
  0
VERTEX
  5
1B112
  8
ALPHA
 10
2514.320578
 20
738.508923
 30
0.0
  0
VERTEX
  5
1B113
  8
ALPHA
 10
2514.428094
 20
737.960991
 30
0.0
  0
VERTEX
  5
1B114
  8
ALPHA
 10
2514.320578
 20
737.413059
 30
0.0
  0
VERTEX
  5
1B115
  8
ALPHA
 10
2514.011549
 20
736.943904
 30
0.0
  0
VERTEX
  5
1B116
  8
ALPHA
 10
2513.539751
 20
736.62419
 30
0.0
  0
VERTEX
  5
1B117
  8
ALPHA
 10
2512.978094
 20
736.510991
 30
0.0
  0
SEQEND
  5
1B118
  8
ALPHA
  0
POLYLINE
  5
1928B
  8
ALPHA
 66
     1
 10
0.0
 20
0.0
 30
0.0
  0
VERTEX
  5
1B119
  8
ALPHA
 10
2512.978094
 20
746.910991
 30
0.0
  0
VERTEX
  5
1B11A
  8
ALPHA
 10
2513.539751
 20
746.797792
 30
0.0
  0
VERTEX
  5
1B11B
  8
ALPHA
 10
2514.011549
 20
746.478078
 30
0.0
  0
VERTEX
  5
1B11C
  8
ALPHA
 10
2514.320578
 20
746.008923
 30
0.0
  0
VERTEX
  5
1B11D
  8
ALPHA
 10
2514.428094
 20
745.460991
 30
0.0
  0
VERTEX
  5
1B11E
  8
ALPHA
 10
2514.320578
 20
744.913059
 30
0.0
  0
VERTEX
  5
1B11F
  8
ALPHA
 10
2514.011549
 20
744.443904
 30
0.0
  0
VERTEX
  5
1B120
  8
ALPHA
 10
2513.539751
 20
744.12419
 30
0.0
  0
VERTEX
  5
1B121
  8
ALPHA
 10
2512.978094
 20
744.010991
 30
0.0
  0
SEQEND
  5
1B122
  8
ALPHA
  0
POLYLINE
  5
19296
  8
ALPHA
 66
     1
 10
0.0
 20
0.0
 30
0.0
  0
VERTEX
  5
1B123
  8
ALPHA
 10
2512.978094
 20
747.015807
 30
0.0
  0
VERTEX
  5
1B124
  8
ALPHA
 10
2513.580036
 20
746.894517
 30
0.0
  0
VERTEX
  5
1B125
  8
ALPHA
 10
2514.085279
 20
746.552492
 30
0.0
  0
VERTEX
  5
1B126
  8
ALPHA
 10
2514.417404
 20
746.048828
 30
0.0
  0
VERTEX
  5
1B127
  8
ALPHA
 10
2514.532814
 20
745.460991
 30
0.0
  0
VERTEX
  5
1B128
  8
ALPHA
 10
2514.417404
 20
744.873153
 30
0.0
  0
VERTEX
  5
1B129
  8
ALPHA
 10
2514.085279
 20
744.36949
 30
0.0
  0
VERTEX
  5
1B12A
  8
ALPHA
 10
2513.580036
 20
744.027465
 30
0.0
  0
VERTEX
  5
1B12B
  8
ALPHA
 10
2512.978094
 20
743.906175
 30
0.0
  0
SEQEND
  5
1B12C
  8
ALPHA
  0
LINE
  5
192A1
  8
ALPHA
 10
2512.978094
 20
713.906175
 30
0.0
 11
2496.878094
 21
713.906175
 31
0.0
  0
LINE
  5
192A2
  8
ALPHA
 10
2512.978094
 20
714.010991
 30
0.0
 11
2496.878094
 21
714.010991
 31
0.0
  0
LINE
  5
192A3
  8
ALPHA
 10
2496.878094
 20
716.910991
 30
0.0
 11
2512.978094
 21
716.910991
 31
0.0
  0
LINE
  5
192A4
  8
ALPHA
 10
2496.878094
 20
717.015807
 30
0.0
 11
2512.978094
 21
717.015807
 31
0.0
  0
LINE
  5
192A5
  8
ALPHA
 10
2496.878094
 20
721.448108
 30
0.0
 11
2512.978094
 21
721.448108
 31
0.0
  0
LINE
  5
192A6
  8
ALPHA
 10
2496.878094
 20
721.510991
 30
0.0
 11
2512.978094
 21
721.510991
 31
0.0
  0
LINE
  5
192A7
  8
ALPHA
 10
2512.978094
 20
724.410991
 30
0.0
 11
2496.878094
 21
724.410991
 31
0.0
  0
LINE
  5
192A8
  8
ALPHA
 10
2512.978094
 20
724.473874
 30
0.0
 11
2496.878094
 21
724.473874
 31
0.0
  0
LINE
  5
192A9
  8
ALPHA
 10
2512.978094
 20
728.906175
 30
0.0
 11
2496.878094
 21
728.906175
 31
0.0
  0
LINE
  5
192AA
  8
ALPHA
 10
2512.978094
 20
729.010991
 30
0.0
 11
2496.878094
 21
729.010991
 31
0.0
  0
LINE
  5
192AB
  8
ALPHA
 10
2496.878094
 20
731.910991
 30
0.0
 11
2512.978094
 21
731.910991
 31
0.0
  0
LINE
  5
192AC
  8
ALPHA
 10
2496.878094
 20
732.015807
 30
0.0
 11
2512.978094
 21
732.015807
 31
0.0
  0
LINE
  5
192AD
  8
ALPHA
 10
2512.978094
 20
736.406175
 30
0.0
 11
2496.878094
 21
736.406175
 31
0.0
  0
LINE
  5
192AE
  8
ALPHA
 10
2496.878094
 20
729.010991
 30
0.0
 11
2496.878094
 21
728.906175
 31
0.0
  0
LINE
  5
192AF
  8
ALPHA
 10
2496.878094
 20
731.910991
 30
0.0
 11
2496.878094
 21
732.015807
 31
0.0
  0
POLYLINE
  5
192B0
  8
ALPHA
 66
     1
 10
0.0
 20
0.0
 30
0.0
  0
VERTEX
  5
1B12D
  8
ALPHA
 10
2496.878094
 20
729.010991
 30
0.0
  0
VERTEX
  5
1B12E
  8
ALPHA
 10
2496.316437
 20
729.12419
 30
0.0
  0
VERTEX
  5
1B12F
  8
ALPHA
 10
2495.844639
 20
729.443904
 30
0.0
  0
VERTEX
  5
1B130
  8
ALPHA
 10
2495.535611
 20
729.913059
 30
0.0
  0
VERTEX
  5
1B131
  8
ALPHA
 10
2495.428094
 20
730.460991
 30
0.0
  0
VERTEX
  5
1B132
  8
ALPHA
 10
2495.535611
 20
731.008923
 30
0.0
  0
VERTEX
  5
1B133
  8
ALPHA
 10
2495.844639
 20
731.478078
 30
0.0
  0
VERTEX
  5
1B134
  8
ALPHA
 10
2496.316437
 20
731.797792
 30
0.0
  0
VERTEX
  5
1B135
  8
ALPHA
 10
2496.878094
 20
731.910991
 30
0.0
  0
SEQEND
  5
1B136
  8
ALPHA
  0
POLYLINE
  5
192BB
  8
ALPHA
 66
     1
 10
0.0
 20
0.0
 30
0.0
  0
VERTEX
  5
1B137
  8
ALPHA
 10
2496.878094
 20
728.906175
 30
0.0
  0
VERTEX
  5
1B138
  8
ALPHA
 10
2496.276094
 20
729.027409
 30
0.0
  0
VERTEX
  5
1B139
  8
ALPHA
 10
2495.770786
 20
729.36942
 30
0.0
  0
VERTEX
  5
1B13A
  8
ALPHA
 10
2495.438611
 20
729.873109
 30
0.0
  0
VERTEX
  5
1B13B
  8
ALPHA
 10
2495.323183
 20
730.460991
 30
0.0
  0
VERTEX
  5
1B13C
  8
ALPHA
 10
2495.438611
 20
731.048873
 30
0.0
  0
VERTEX
  5
1B13D
  8
ALPHA
 10
2495.770786
 20
731.552562
 30
0.0
  0
VERTEX
  5
1B13E
  8
ALPHA
 10
2496.276094
 20
731.894573
 30
0.0
  0
VERTEX
  5
1B13F
  8
ALPHA
 10
2496.878094
 20
732.015807
 30
0.0
  0
SEQEND
  5
1B140
  8
ALPHA
  0
LINE
  5
192C6
  8
ALPHA
 10
2509.028094
 20
716.910991
 30
0.0
 11
2509.028094
 21
716.810991
 31
0.0
  0
LINE
  5
192C7
  8
ALPHA
 10
2505.028094
 20
714.010991
 30
0.0
 11
2505.028094
 21
716.910991
 31
0.0
  0
LINE
  5
192C8
  8
ALPHA
 10
2504.228094
 20
714.010991
 30
0.0
 11
2504.228094
 21
716.810991
 31
0.0
  0
LINE
  5
192C9
  8
ALPHA
 10
2503.528094
 20
714.010991
 30
0.0
 11
2503.528094
 21
716.910991
 31
0.0
  0
LINE
  5
192CA
  8
ALPHA
 10
2501.928094
 20
716.910991
 30
0.0
 11
2501.928094
 21
714.010991
 31
0.0
  0
LINE
  5
192CB
  8
ALPHA
 10
2496.878094
 20
714.010991
 30
0.0
 11
2496.878094
 21
713.906175
 31
0.0
  0
LINE
  5
192CC
  8
ALPHA
 10
2496.878094
 20
724.473874
 30
0.0
 11
2496.878094
 21
724.410991
 31
0.0
  0
LINE
  5
192CD
  8
ALPHA
 10
2496.878094
 20
721.448108
 30
0.0
 11
2496.878094
 21
721.510991
 31
0.0
  0
LINE
  5
192CE
  8
ALPHA
 10
2496.878094
 20
716.910991
 30
0.0
 11
2496.878094
 21
717.015807
 31
0.0
  0
POLYLINE
  5
192CF
  8
ALPHA
 66
     1
 10
0.0
 20
0.0
 30
0.0
  0
VERTEX
  5
1B141
  8
ALPHA
 10
2496.878094
 20
724.410991
 30
0.0
  0
VERTEX
  5
1B142
  8
ALPHA
 10
2496.316428
 20
724.297788
 30
0.0
  0
VERTEX
  5
1B143
  8
ALPHA
 10
2495.844626
 20
723.978064
 30
0.0
  0
VERTEX
  5
1B144
  8
ALPHA
 10
2495.53561
 20
723.508921
 30
0.0
  0
VERTEX
  5
1B145
  8
ALPHA
 10
2495.428094
 20
722.960991
 30
0.0
  0
VERTEX
  5
1B146
  8
ALPHA
 10
2495.53561
 20
722.413061
 30
0.0
  0
VERTEX
  5
1B147
  8
ALPHA
 10
2495.844626
 20
721.943918
 30
0.0
  0
VERTEX
  5
1B148
  8
ALPHA
 10
2496.316428
 20
721.624194
 30
0.0
  0
VERTEX
  5
1B149
  8
ALPHA
 10
2496.878094
 20
721.510991
 30
0.0
  0
SEQEND
  5
1B14A
  8
ALPHA
  0
POLYLINE
  5
192DA
  8
ALPHA
 66
     1
 10
0.0
 20
0.0
 30
0.0
  0
VERTEX
  5
1B14B
  8
ALPHA
 10
2496.878094
 20
724.473874
 30
0.0
  0
VERTEX
  5
1B14C
  8
ALPHA
 10
2496.292224
 20
724.35585
 30
0.0
  0
VERTEX
  5
1B14D
  8
ALPHA
 10
2495.800323
 20
724.022755
 30
0.0
  0
VERTEX
  5
1B14E
  8
ALPHA
 10
2495.477417
 20
723.532892
 30
0.0
  0
VERTEX
  5
1B14F
  8
ALPHA
 10
2495.365154
 20
722.960991
 30
0.0
  0
VERTEX
  5
1B150
  8
ALPHA
 10
2495.477417
 20
722.38909
 30
0.0
  0
VERTEX
  5
1B151
  8
ALPHA
 10
2495.800323
 20
721.899227
 30
0.0
  0
VERTEX
  5
1B152
  8
ALPHA
 10
2496.292224
 20
721.566132
 30
0.0
  0
VERTEX
  5
1B153
  8
ALPHA
 10
2496.878094
 20
721.448108
 30
0.0
  0
SEQEND
  5
1B154
  8
ALPHA
  0
LINE
  5
192E5
  8
ALPHA
 10
2505.028094
 20
716.810991
 30
0.0
 11
2509.028094
 21
716.810991
 31
0.0
  0
LINE
  5
192E6
  8
ALPHA
 10
2504.228094
 20
716.810991
 30
0.0
 11
2503.528094
 21
716.810991
 31
0.0
  0
POLYLINE
  5
192E7
  8
ALPHA
 66
     1
 10
0.0
 20
0.0
 30
0.0
  0
VERTEX
  5
1B155
  8
ALPHA
 10
2496.878094
 20
714.010991
 30
0.0
  0
VERTEX
  5
1B156
  8
ALPHA
 10
2496.316437
 20
714.12419
 30
0.0
  0
VERTEX
  5
1B157
  8
ALPHA
 10
2495.844639
 20
714.443904
 30
0.0
  0
VERTEX
  5
1B158
  8
ALPHA
 10
2495.535611
 20
714.913059
 30
0.0
  0
VERTEX
  5
1B159
  8
ALPHA
 10
2495.428094
 20
715.460991
 30
0.0
  0
VERTEX
  5
1B15A
  8
ALPHA
 10
2495.535611
 20
716.008923
 30
0.0
  0
VERTEX
  5
1B15B
  8
ALPHA
 10
2495.844639
 20
716.478078
 30
0.0
  0
VERTEX
  5
1B15C
  8
ALPHA
 10
2496.316437
 20
716.797792
 30
0.0
  0
VERTEX
  5
1B15D
  8
ALPHA
 10
2496.878094
 20
716.910991
 30
0.0
  0
SEQEND
  5
1B15E
  8
ALPHA
  0
POLYLINE
  5
192F2
  8
ALPHA
 66
     1
 10
0.0
 20
0.0
 30
0.0
  0
VERTEX
  5
1B15F
  8
ALPHA
 10
2496.878094
 20
713.906175
 30
0.0
  0
VERTEX
  5
1B160
  8
ALPHA
 10
2496.276094
 20
714.027409
 30
0.0
  0
VERTEX
  5
1B161
  8
ALPHA
 10
2495.770786
 20
714.36942
 30
0.0
  0
VERTEX
  5
1B162
  8
ALPHA
 10
2495.438611
 20
714.873109
 30
0.0
  0
VERTEX
  5
1B163
  8
ALPHA
 10
2495.323183
 20
715.460991
 30
0.0
  0
VERTEX
  5
1B164
  8
ALPHA
 10
2495.438611
 20
716.048873
 30
0.0
  0
VERTEX
  5
1B165
  8
ALPHA
 10
2495.770786
 20
716.552562
 30
0.0
  0
VERTEX
  5
1B166
  8
ALPHA
 10
2496.276094
 20
716.894573
 30
0.0
  0
VERTEX
  5
1B167
  8
ALPHA
 10
2496.878094
 20
717.015807
 30
0.0
  0
SEQEND
  5
1B168
  8
ALPHA
  0
LINE
  5
192FD
  8
ALPHA
 10
2512.978094
 20
729.010991
 30
0.0
 11
2512.978094
 21
728.906175
 31
0.0
  0
LINE
  5
192FE
  8
ALPHA
 10
2512.978094
 20
731.910991
 30
0.0
 11
2512.978094
 21
732.015807
 31
0.0
  0
POLYLINE
  5
192FF
  8
ALPHA
 66
     1
 10
0.0
 20
0.0
 30
0.0
  0
VERTEX
  5
1B169
  8
ALPHA
 10
2512.978094
 20
731.910991
 30
0.0
  0
VERTEX
  5
1B16A
  8
ALPHA
 10
2513.539751
 20
731.797792
 30
0.0
  0
VERTEX
  5
1B16B
  8
ALPHA
 10
2514.011549
 20
731.478078
 30
0.0
  0
VERTEX
  5
1B16C
  8
ALPHA
 10
2514.320578
 20
731.008923
 30
0.0
  0
VERTEX
  5
1B16D
  8
ALPHA
 10
2514.428094
 20
730.460991
 30
0.0
  0
VERTEX
  5
1B16E
  8
ALPHA
 10
2514.320578
 20
729.913059
 30
0.0
  0
VERTEX
  5
1B16F
  8
ALPHA
 10
2514.011549
 20
729.443904
 30
0.0
  0
VERTEX
  5
1B170
  8
ALPHA
 10
2513.539751
 20
729.12419
 30
0.0
  0
VERTEX
  5
1B171
  8
ALPHA
 10
2512.978094
 20
729.010991
 30
0.0
  0
SEQEND
  5
1B172
  8
ALPHA
  0
POLYLINE
  5
1930A
  8
ALPHA
 66
     1
 10
0.0
 20
0.0
 30
0.0
  0
VERTEX
  5
1B173
  8
ALPHA
 10
2512.978094
 20
732.015807
 30
0.0
  0
VERTEX
  5
1B174
  8
ALPHA
 10
2513.580036
 20
731.894517
 30
0.0
  0
VERTEX
  5
1B175
  8
ALPHA
 10
2514.085279
 20
731.552492
 30
0.0
  0
VERTEX
  5
1B176
  8
ALPHA
 10
2514.417404
 20
731.048828
 30
0.0
  0
VERTEX
  5
1B177
  8
ALPHA
 10
2514.532814
 20
730.460991
 30
0.0
  0
VERTEX
  5
1B178
  8
ALPHA
 10
2514.417404
 20
729.873153
 30
0.0
  0
VERTEX
  5
1B179
  8
ALPHA
 10
2514.085279
 20
729.36949
 30
0.0
  0
VERTEX
  5
1B17A
  8
ALPHA
 10
2513.580036
 20
729.027465
 30
0.0
  0
VERTEX
  5
1B17B
  8
ALPHA
 10
2512.978094
 20
728.906175
 30
0.0
  0
SEQEND
  5
1B17C
  8
ALPHA
  0
LINE
  5
19315
  8
ALPHA
 10
2512.978094
 20
714.010991
 30
0.0
 11
2512.978094
 21
713.906175
 31
0.0
  0
LINE
  5
19316
  8
ALPHA
 10
2512.978094
 20
724.473874
 30
0.0
 11
2512.978094
 21
724.410991
 31
0.0
  0
LINE
  5
19317
  8
ALPHA
 10
2512.978094
 20
721.448108
 30
0.0
 11
2512.978094
 21
721.510991
 31
0.0
  0
LINE
  5
19318
  8
ALPHA
 10
2512.978094
 20
716.910991
 30
0.0
 11
2512.978094
 21
717.015807
 31
0.0
  0
POLYLINE
  5
19319
  8
ALPHA
 66
     1
 10
0.0
 20
0.0
 30
0.0
  0
VERTEX
  5
1B17D
  8
ALPHA
 10
2512.978094
 20
721.448108
 30
0.0
  0
VERTEX
  5
1B17E
  8
ALPHA
 10
2513.56393
 20
721.566165
 30
0.0
  0
VERTEX
  5
1B17F
  8
ALPHA
 10
2514.055791
 20
721.899269
 30
0.0
  0
VERTEX
  5
1B180
  8
ALPHA
 10
2514.378667
 20
722.389117
 30
0.0
  0
VERTEX
  5
1B181
  8
ALPHA
 10
2514.49092
 20
722.960991
 30
0.0
  0
VERTEX
  5
1B182
  8
ALPHA
 10
2514.378667
 20
723.532865
 30
0.0
  0
VERTEX
  5
1B183
  8
ALPHA
 10
2514.055791
 20
724.022713
 30
0.0
  0
VERTEX
  5
1B184
  8
ALPHA
 10
2513.56393
 20
724.355817
 30
0.0
  0
VERTEX
  5
1B185
  8
ALPHA
 10
2512.978094
 20
724.473874
 30
0.0
  0
SEQEND
  5
1B186
  8
ALPHA
  0
POLYLINE
  5
19324
  8
ALPHA
 66
     1
 10
0.0
 20
0.0
 30
0.0
  0
VERTEX
  5
1B187
  8
ALPHA
 10
2512.978094
 20
721.510991
 30
0.0
  0
VERTEX
  5
1B188
  8
ALPHA
 10
2513.53976
 20
721.624194
 30
0.0
  0
VERTEX
  5
1B189
  8
ALPHA
 10
2514.011563
 20
721.943918
 30
0.0
  0
VERTEX
  5
1B18A
  8
ALPHA
 10
2514.320579
 20
722.413061
 30
0.0
  0
VERTEX
  5
1B18B
  8
ALPHA
 10
2514.428094
 20
722.960991
 30
0.0
  0
VERTEX
  5
1B18C
  8
ALPHA
 10
2514.320579
 20
723.508921
 30
0.0
  0
VERTEX
  5
1B18D
  8
ALPHA
 10
2514.011563
 20
723.978064
 30
0.0
  0
VERTEX
  5
1B18E
  8
ALPHA
 10
2513.53976
 20
724.297788
 30
0.0
  0
VERTEX
  5
1B18F
  8
ALPHA
 10
2512.978094
 20
724.410991
 30
0.0
  0
SEQEND
  5
1B190
  8
ALPHA
  0
POLYLINE
  5
1932F
  8
ALPHA
 66
     1
 10
0.0
 20
0.0
 30
0.0
  0
VERTEX
  5
1B191
  8
ALPHA
 10
2512.978094
 20
716.910991
 30
0.0
  0
VERTEX
  5
1B192
  8
ALPHA
 10
2513.539751
 20
716.797792
 30
0.0
  0
VERTEX
  5
1B193
  8
ALPHA
 10
2514.011549
 20
716.478078
 30
0.0
  0
VERTEX
  5
1B194
  8
ALPHA
 10
2514.320578
 20
716.008923
 30
0.0
  0
VERTEX
  5
1B195
  8
ALPHA
 10
2514.428094
 20
715.460991
 30
0.0
  0
VERTEX
  5
1B196
  8
ALPHA
 10
2514.320578
 20
714.913059
 30
0.0
  0
VERTEX
  5
1B197
  8
ALPHA
 10
2514.011549
 20
714.443904
 30
0.0
  0
VERTEX
  5
1B198
  8
ALPHA
 10
2513.539751
 20
714.12419
 30
0.0
  0
VERTEX
  5
1B199
  8
ALPHA
 10
2512.978094
 20
714.010991
 30
0.0
  0
SEQEND
  5
1B19A
  8
ALPHA
  0
POLYLINE
  5
1933A
  8
ALPHA
 66
     1
 10
0.0
 20
0.0
 30
0.0
  0
VERTEX
  5
1B19B
  8
ALPHA
 10
2512.978094
 20
717.015807
 30
0.0
  0
VERTEX
  5
1B19C
  8
ALPHA
 10
2513.580036
 20
716.894517
 30
0.0
  0
VERTEX
  5
1B19D
  8
ALPHA
 10
2514.085279
 20
716.552492
 30
0.0
  0
VERTEX
  5
1B19E
  8
ALPHA
 10
2514.417404
 20
716.048828
 30
0.0
  0
VERTEX
  5
1B19F
  8
ALPHA
 10
2514.532814
 20
715.460991
 30
0.0
  0
VERTEX
  5
1B1A0
  8
ALPHA
 10
2514.417404
 20
714.873153
 30
0.0
  0
VERTEX
  5
1B1A1
  8
ALPHA
 10
2514.085279
 20
714.36949
 30
0.0
  0
VERTEX
  5
1B1A2
  8
ALPHA
 10
2513.580036
 20
714.027465
 30
0.0
  0
VERTEX
  5
1B1A3
  8
ALPHA
 10
2512.978094
 20
713.906175
 30
0.0
  0
SEQEND
  5
1B1A4
  8
ALPHA
  0
LINE
  5
19345
  8
ALPHA
 10
2525.128094
 20
659.68937
 30
0.0
 11
2525.128094
 21
613.214003
 31
0.0
  0
POLYLINE
  5
19346
  8
ALPHA
 66
     1
 10
0.0
 20
0.0
 30
0.0
  0
VERTEX
  5
1B1A5
  8
ALPHA
 10
2523.163867
 20
674.568436
 30
0.0
  0
VERTEX
  5
1B1A6
  8
ALPHA
 10
2523.217072
 20
671.479568
 30
0.0
  0
VERTEX
  5
1B1A7
  8
ALPHA
 10
2523.304742
 20
668.764779
 30
0.0
  0
VERTEX
  5
1B1A8
  8
ALPHA
 10
2523.431091
 20
666.224189
 30
0.0
  0
SEQEND
  5
1B1A9
  8
ALPHA
  0
LINE
  5
1934C
  8
ALPHA
 10
2496.878095
 20
691.510991
 30
0.0
 11
2512.978094
 21
691.510991
 31
0.0
  0
LINE
  5
1934D
  8
ALPHA
 10
2496.878094
 20
691.573874
 30
0.0
 11
2512.978094
 21
691.573874
 31
0.0
  0
LINE
  5
1934E
  8
ALPHA
 10
2512.978094
 20
694.348108
 30
0.0
 11
2496.878094
 21
694.348108
 31
0.0
  0
LINE
  5
1934F
  8
ALPHA
 10
2512.978094
 20
694.410991
 30
0.0
 11
2496.878094
 21
694.410991
 31
0.0
  0
LINE
  5
19350
  8
ALPHA
 10
2512.978094
 20
698.906175
 30
0.0
 11
2496.878094
 21
698.906175
 31
0.0
  0
LINE
  5
19351
  8
ALPHA
 10
2512.978094
 20
699.010991
 30
0.0
 11
2496.878094
 21
699.010991
 31
0.0
  0
LINE
  5
19352
  8
ALPHA
 10
2496.878094
 20
701.910991
 30
0.0
 11
2512.978094
 21
701.910991
 31
0.0
  0
LINE
  5
19353
  8
ALPHA
 10
2496.878094
 20
702.015807
 30
0.0
 11
2512.978094
 21
702.015807
 31
0.0
  0
LINE
  5
19354
  8
ALPHA
 10
2512.978094
 20
706.406175
 30
0.0
 11
2496.878094
 21
706.406175
 31
0.0
  0
LINE
  5
19355
  8
ALPHA
 10
2512.978094
 20
706.510991
 30
0.0
 11
2496.878094
 21
706.510991
 31
0.0
  0
LINE
  5
19356
  8
ALPHA
 10
2496.878094
 20
709.410991
 30
0.0
 11
2512.978094
 21
709.410991
 31
0.0
  0
LINE
  5
19357
  8
ALPHA
 10
2496.878094
 20
709.515807
 30
0.0
 11
2512.978094
 21
709.515807
 31
0.0
  0
LINE
  5
19358
  8
ALPHA
 10
2505.528094
 20
700.910991
 30
0.0
 11
2505.528094
 21
701.910991
 31
0.0
  0
LINE
  5
19359
  8
ALPHA
 10
2503.528094
 20
699.010991
 30
0.0
 11
2503.528094
 21
701.910991
 31
0.0
  0
LINE
  5
1935A
  8
ALPHA
 10
2501.928094
 20
701.910991
 30
0.0
 11
2501.928094
 21
699.010991
 31
0.0
  0
POLYLINE
  5
1935B
  8
ALPHA
 66
     1
 10
0.0
 20
0.0
 30
0.0
  0
VERTEX
  5
1B1AA
  8
ALPHA
 10
2496.878094
 20
699.010991
 30
0.0
  0
VERTEX
  5
1B1AB
  8
ALPHA
 10
2496.316437
 20
699.12419
 30
0.0
  0
VERTEX
  5
1B1AC
  8
ALPHA
 10
2495.844639
 20
699.443904
 30
0.0
  0
VERTEX
  5
1B1AD
  8
ALPHA
 10
2495.535611
 20
699.913059
 30
0.0
  0
VERTEX
  5
1B1AE
  8
ALPHA
 10
2495.428094
 20
700.460991
 30
0.0
  0
VERTEX
  5
1B1AF
  8
ALPHA
 10
2495.535611
 20
701.008923
 30
0.0
  0
VERTEX
  5
1B1B0
  8
ALPHA
 10
2495.844639
 20
701.478078
 30
0.0
  0
VERTEX
  5
1B1B1
  8
ALPHA
 10
2496.316437
 20
701.797792
 30
0.0
  0
VERTEX
  5
1B1B2
  8
ALPHA
 10
2496.878094
 20
701.910991
 30
0.0
  0
SEQEND
  5
1B1B3
  8
ALPHA
  0
POLYLINE
  5
19366
  8
ALPHA
 66
     1
 10
0.0
 20
0.0
 30
0.0
  0
VERTEX
  5
1B1B4
  8
ALPHA
 10
2496.878094
 20
698.906175
 30
0.0
  0
VERTEX
  5
1B1B5
  8
ALPHA
 10
2496.276094
 20
699.027409
 30
0.0
  0
VERTEX
  5
1B1B6
  8
ALPHA
 10
2495.770786
 20
699.36942
 30
0.0
  0
VERTEX
  5
1B1B7
  8
ALPHA
 10
2495.438611
 20
699.873109
 30
0.0
  0
VERTEX
  5
1B1B8
  8
ALPHA
 10
2495.323183
 20
700.460991
 30
0.0
  0
VERTEX
  5
1B1B9
  8
ALPHA
 10
2495.438611
 20
701.048873
 30
0.0
  0
VERTEX
  5
1B1BA
  8
ALPHA
 10
2495.770786
 20
701.552562
 30
0.0
  0
VERTEX
  5
1B1BB
  8
ALPHA
 10
2496.276094
 20
701.894573
 30
0.0
  0
VERTEX
  5
1B1BC
  8
ALPHA
 10
2496.878094
 20
702.015807
 30
0.0
  0
SEQEND
  5
1B1BD
  8
ALPHA
  0
LINE
  5
19371
  8
ALPHA
 10
2505.908094
 20
706.510991
 30
0.0
 11
2505.908094
 21
709.410991
 31
0.0
  0
LINE
  5
19372
  8
ALPHA
 10
2504.228094
 20
707.860991
 30
0.0
 11
2504.228094
 21
709.410991
 31
0.0
  0
LINE
  5
19373
  8
ALPHA
 10
2503.528094
 20
706.510991
 30
0.0
 11
2503.528094
 21
709.410991
 31
0.0
  0
LINE
  5
19374
  8
ALPHA
 10
2501.928094
 20
709.410991
 30
0.0
 11
2501.928094
 21
706.510991
 31
0.0
  0
LINE
  5
19375
  8
ALPHA
 10
2496.878094
 20
706.510991
 30
0.0
 11
2496.878094
 21
706.406175
 31
0.0
  0
LINE
  5
19376
  8
ALPHA
 10
2496.878094
 20
709.410991
 30
0.0
 11
2496.878094
 21
709.515807
 31
0.0
  0
LINE
  5
19377
  8
ALPHA
 10
2496.878094
 20
701.910991
 30
0.0
 11
2496.878094
 21
702.015807
 31
0.0
  0
LINE
  5
19378
  8
ALPHA
 10
2504.228094
 20
707.860991
 30
0.0
 11
2503.528094
 21
707.860991
 31
0.0
  0
POLYLINE
  5
19379
  8
ALPHA
 66
     1
 10
0.0
 20
0.0
 30
0.0
  0
VERTEX
  5
1B1BE
  8
ALPHA
 10
2496.878094
 20
706.510991
 30
0.0
  0
VERTEX
  5
1B1BF
  8
ALPHA
 10
2496.316437
 20
706.62419
 30
0.0
  0
VERTEX
  5
1B1C0
  8
ALPHA
 10
2495.844639
 20
706.943904
 30
0.0
  0
VERTEX
  5
1B1C1
  8
ALPHA
 10
2495.535611
 20
707.413059
 30
0.0
  0
VERTEX
  5
1B1C2
  8
ALPHA
 10
2495.428094
 20
707.960991
 30
0.0
  0
VERTEX
  5
1B1C3
  8
ALPHA
 10
2495.535611
 20
708.508923
 30
0.0
  0
VERTEX
  5
1B1C4
  8
ALPHA
 10
2495.844639
 20
708.978078
 30
0.0
  0
VERTEX
  5
1B1C5
  8
ALPHA
 10
2496.316437
 20
709.297792
 30
0.0
  0
VERTEX
  5
1B1C6
  8
ALPHA
 10
2496.878094
 20
709.410991
 30
0.0
  0
SEQEND
  5
1B1C7
  8
ALPHA
  0
POLYLINE
  5
19384
  8
ALPHA
 66
     1
 10
0.0
 20
0.0
 30
0.0
  0
VERTEX
  5
1B1C8
  8
ALPHA
 10
2496.878094
 20
706.406175
 30
0.0
  0
VERTEX
  5
1B1C9
  8
ALPHA
 10
2496.276094
 20
706.527409
 30
0.0
  0
VERTEX
  5
1B1CA
  8
ALPHA
 10
2495.770786
 20
706.86942
 30
0.0
  0
VERTEX
  5
1B1CB
  8
ALPHA
 10
2495.438611
 20
707.373109
 30
0.0
  0
VERTEX
  5
1B1CC
  8
ALPHA
 10
2495.323183
 20
707.960991
 30
0.0
  0
VERTEX
  5
1B1CD
  8
ALPHA
 10
2495.438611
 20
708.548873
 30
0.0
  0
VERTEX
  5
1B1CE
  8
ALPHA
 10
2495.770786
 20
709.052562
 30
0.0
  0
VERTEX
  5
1B1CF
  8
ALPHA
 10
2496.276094
 20
709.394573
 30
0.0
  0
VERTEX
  5
1B1D0
  8
ALPHA
 10
2496.878094
 20
709.515807
 30
0.0
  0
SEQEND
  5
1B1D1
  8
ALPHA
  0
LINE
  5
1938F
  8
ALPHA
 10
2507.928094
 20
699.010991
 30
0.0
 11
2507.928094
 21
700.910991
 31
0.0
  0
LINE
  5
19390
  8
ALPHA
 10
2505.728094
 20
699.010991
 30
0.0
 11
2505.728094
 21
699.610991
 31
0.0
  0
LINE
  5
19391
  8
ALPHA
 10
2504.528094
 20
700.910991
 30
0.0
 11
2504.528094
 21
701.310991
 31
0.0
  0
LINE
  5
19392
  8
ALPHA
 10
2496.878094
 20
694.410991
 30
0.0
 11
2496.878094
 21
694.348108
 31
0.0
  0
LINE
  5
19393
  8
ALPHA
 10
2496.878094
 20
699.010991
 30
0.0
 11
2496.878094
 21
698.906175
 31
0.0
  0
LINE
  5
19394
  8
ALPHA
 10
2496.878095
 20
691.510991
 30
0.0
 11
2496.878094
 21
691.573874
 31
0.0
  0
POLYLINE
  5
19395
  8
ALPHA
 66
     1
 10
0.0
 20
0.0
 30
0.0
  0
VERTEX
  5
1B1D2
  8
ALPHA
 10
2496.878094
 20
694.348108
 30
0.0
  0
VERTEX
  5
1B1D3
  8
ALPHA
 10
2496.34082
 20
694.239804
 30
0.0
  0
VERTEX
  5
1B1D4
  8
ALPHA
 10
2495.889518
 20
693.933971
 30
0.0
  0
VERTEX
  5
1B1D5
  8
ALPHA
 10
2495.593887
 20
693.485155
 30
0.0
  0
VERTEX
  5
1B1D6
  8
ALPHA
 10
2495.491035
 20
692.960991
 30
0.0
  0
VERTEX
  5
1B1D7
  8
ALPHA
 10
2495.593887
 20
692.436826
 30
0.0
  0
VERTEX
  5
1B1D8
  8
ALPHA
 10
2495.889518
 20
691.98801
 30
0.0
  0
VERTEX
  5
1B1D9
  8
ALPHA
 10
2496.34082
 20
691.682178
 30
0.0
  0
VERTEX
  5
1B1DA
  8
ALPHA
 10
2496.878094
 20
691.573874
 30
0.0
  0
SEQEND
  5
1B1DB
  8
ALPHA
  0
POLYLINE
  5
193A0
  8
ALPHA
 66
     1
 10
0.0
 20
0.0
 30
0.0
  0
VERTEX
  5
1B1DC
  8
ALPHA
 10
2496.878094
 20
694.410991
 30
0.0
  0
VERTEX
  5
1B1DD
  8
ALPHA
 10
2496.316437
 20
694.297792
 30
0.0
  0
VERTEX
  5
1B1DE
  8
ALPHA
 10
2495.844639
 20
693.978077
 30
0.0
  0
VERTEX
  5
1B1DF
  8
ALPHA
 10
2495.535611
 20
693.508923
 30
0.0
  0
VERTEX
  5
1B1E0
  8
ALPHA
 10
2495.428094
 20
692.960991
 30
0.0
  0
VERTEX
  5
1B1E1
  8
ALPHA
 10
2495.535611
 20
692.413058
 30
0.0
  0
VERTEX
  5
1B1E2
  8
ALPHA
 10
2495.84464
 20
691.943904
 30
0.0
  0
VERTEX
  5
1B1E3
  8
ALPHA
 10
2496.316438
 20
691.62419
 30
0.0
  0
VERTEX
  5
1B1E4
  8
ALPHA
 10
2496.878095
 20
691.510991
 30
0.0
  0
SEQEND
  5
1B1E5
  8
ALPHA
  0
LINE
  5
193AB
  8
ALPHA
 10
2503.528094
 20
699.610991
 30
0.0
 11
2505.728094
 21
699.610991
 31
0.0
  0
LINE
  5
193AC
  8
ALPHA
 10
2507.928094
 20
700.910991
 30
0.0
 11
2503.528094
 21
700.910991
 31
0.0
  0
LINE
  5
193AD
  8
ALPHA
 10
2504.528094
 20
701.310991
 30
0.0
 11
2503.528094
 21
701.310991
 31
0.0
  0
LINE
  5
193AE
  8
ALPHA
 10
2511.028094
 20
701.910991
 30
0.0
 11
2511.028094
 21
699.010991
 31
0.0
  0
LINE
  5
193AF
  8
ALPHA
 10
2510.528094
 20
701.910991
 30
0.0
 11
2510.528094
 21
699.010991
 31
0.0
  0
POLYLINE
  5
193B0
  8
ALPHA
 66
     1
 10
0.0
 20
0.0
 30
0.0
  0
VERTEX
  5
1B1E6
  8
ALPHA
 10
2512.978094
 20
701.910991
 30
0.0
  0
VERTEX
  5
1B1E7
  8
ALPHA
 10
2513.539751
 20
701.797792
 30
0.0
  0
VERTEX
  5
1B1E8
  8
ALPHA
 10
2514.011549
 20
701.478078
 30
0.0
  0
VERTEX
  5
1B1E9
  8
ALPHA
 10
2514.320578
 20
701.008923
 30
0.0
  0
VERTEX
  5
1B1EA
  8
ALPHA
 10
2514.428094
 20
700.460991
 30
0.0
  0
VERTEX
  5
1B1EB
  8
ALPHA
 10
2514.320578
 20
699.913059
 30
0.0
  0
VERTEX
  5
1B1EC
  8
ALPHA
 10
2514.011549
 20
699.443904
 30
0.0
  0
VERTEX
  5
1B1ED
  8
ALPHA
 10
2513.539751
 20
699.12419
 30
0.0
  0
VERTEX
  5
1B1EE
  8
ALPHA
 10
2512.978094
 20
699.010991
 30
0.0
  0
SEQEND
  5
1B1EF
  8
ALPHA
  0
POLYLINE
  5
193BB
  8
ALPHA
 66
     1
 10
0.0
 20
0.0
 30
0.0
  0
VERTEX
  5
1B1F0
  8
ALPHA
 10
2512.978094
 20
702.015807
 30
0.0
  0
VERTEX
  5
1B1F1
  8
ALPHA
 10
2513.580036
 20
701.894517
 30
0.0
  0
VERTEX
  5
1B1F2
  8
ALPHA
 10
2514.085279
 20
701.552492
 30
0.0
  0
VERTEX
  5
1B1F3
  8
ALPHA
 10
2514.417404
 20
701.048828
 30
0.0
  0
VERTEX
  5
1B1F4
  8
ALPHA
 10
2514.532814
 20
700.460991
 30
0.0
  0
VERTEX
  5
1B1F5
  8
ALPHA
 10
2514.417404
 20
699.873153
 30
0.0
  0
VERTEX
  5
1B1F6
  8
ALPHA
 10
2514.085279
 20
699.36949
 30
0.0
  0
VERTEX
  5
1B1F7
  8
ALPHA
 10
2513.580036
 20
699.027465
 30
0.0
  0
VERTEX
  5
1B1F8
  8
ALPHA
 10
2512.978094
 20
698.906175
 30
0.0
  0
SEQEND
  5
1B1F9
  8
ALPHA
  0
LINE
  5
193C6
  8
ALPHA
 10
2512.978094
 20
706.510991
 30
0.0
 11
2512.978094
 21
706.406175
 31
0.0
  0
LINE
  5
193C7
  8
ALPHA
 10
2512.978094
 20
709.410991
 30
0.0
 11
2512.978094
 21
709.515807
 31
0.0
  0
LINE
  5
193C8
  8
ALPHA
 10
2512.978094
 20
701.910991
 30
0.0
 11
2512.978094
 21
702.015807
 31
0.0
  0
LINE
  5
193C9
  8
ALPHA
 10
2511.028094
 20
709.210991
 30
0.0
 11
2511.028094
 21
706.510991
 31
0.0
  0
LINE
  5
193CA
  8
ALPHA
 10
2514.309394
 20
708.525901
 30
0.0
 11
2511.028094
 21
707.331606
 31
0.0
  0
LINE
  5
193CB
  8
ALPHA
 10
2511.57759
 20
709.410991
 30
0.0
 11
2511.028094
 21
709.210991
 31
0.0
  0
POLYLINE
  5
193CC
  8
ALPHA
 66
     1
 10
0.0
 20
0.0
 30
0.0
  0
VERTEX
  5
1B1FA
  8
ALPHA
 10
2512.978094
 20
709.410991
 30
0.0
  0
VERTEX
  5
1B1FB
  8
ALPHA
 10
2513.539751
 20
709.297792
 30
0.0
  0
VERTEX
  5
1B1FC
  8
ALPHA
 10
2514.011549
 20
708.978078
 30
0.0
  0
VERTEX
  5
1B1FD
  8
ALPHA
 10
2514.320578
 20
708.508923
 30
0.0
  0
VERTEX
  5
1B1FE
  8
ALPHA
 10
2514.428094
 20
707.960991
 30
0.0
  0
VERTEX
  5
1B1FF
  8
ALPHA
 10
2514.320578
 20
707.413059
 30
0.0
  0
VERTEX
  5
1B200
  8
ALPHA
 10
2514.011549
 20
706.943904
 30
0.0
  0
VERTEX
  5
1B201
  8
ALPHA
 10
2513.539751
 20
706.62419
 30
0.0
  0
VERTEX
  5
1B202
  8
ALPHA
 10
2512.978094
 20
706.510991
 30
0.0
  0
SEQEND
  5
1B203
  8
ALPHA
  0
POLYLINE
  5
193D7
  8
ALPHA
 66
     1
 10
0.0
 20
0.0
 30
0.0
  0
VERTEX
  5
1B204
  8
ALPHA
 10
2512.978094
 20
709.515807
 30
0.0
  0
VERTEX
  5
1B205
  8
ALPHA
 10
2513.580036
 20
709.394517
 30
0.0
  0
VERTEX
  5
1B206
  8
ALPHA
 10
2514.085279
 20
709.052492
 30
0.0
  0
VERTEX
  5
1B207
  8
ALPHA
 10
2514.417404
 20
708.548828
 30
0.0
  0
VERTEX
  5
1B208
  8
ALPHA
 10
2514.532814
 20
707.960991
 30
0.0
  0
VERTEX
  5
1B209
  8
ALPHA
 10
2514.417404
 20
707.373153
 30
0.0
  0
VERTEX
  5
1B20A
  8
ALPHA
 10
2514.085279
 20
706.86949
 30
0.0
  0
VERTEX
  5
1B20B
  8
ALPHA
 10
2513.580036
 20
706.527465
 30
0.0
  0
VERTEX
  5
1B20C
  8
ALPHA
 10
2512.978094
 20
706.406175
 30
0.0
  0
SEQEND
  5
1B20D
  8
ALPHA
  0
LINE
  5
193E2
  8
ALPHA
 10
2512.978094
 20
694.410991
 30
0.0
 11
2512.978094
 21
694.348108
 31
0.0
  0
LINE
  5
193E3
  8
ALPHA
 10
2512.978094
 20
699.010991
 30
0.0
 11
2512.978094
 21
698.906175
 31
0.0
  0
LINE
  5
193E4
  8
ALPHA
 10
2512.978094
 20
691.510991
 30
0.0
 11
2512.978094
 21
691.573874
 31
0.0
  0
POLYLINE
  5
193E5
  8
ALPHA
 66
     1
 10
0.0
 20
0.0
 30
0.0
  0
VERTEX
  5
1B20E
  8
ALPHA
 10
2512.978094
 20
691.510991
 30
0.0
  0
VERTEX
  5
1B20F
  8
ALPHA
 10
2513.539751
 20
691.62419
 30
0.0
  0
VERTEX
  5
1B210
  8
ALPHA
 10
2514.011549
 20
691.943904
 30
0.0
  0
VERTEX
  5
1B211
  8
ALPHA
 10
2514.320578
 20
692.413059
 30
0.0
  0
VERTEX
  5
1B212
  8
ALPHA
 10
2514.428094
 20
692.960991
 30
0.0
  0
VERTEX
  5
1B213
  8
ALPHA
 10
2514.320578
 20
693.508923
 30
0.0
  0
VERTEX
  5
1B214
  8
ALPHA
 10
2514.011549
 20
693.978078
 30
0.0
  0
VERTEX
  5
1B215
  8
ALPHA
 10
2513.539751
 20
694.297792
 30
0.0
  0
VERTEX
  5
1B216
  8
ALPHA
 10
2512.978094
 20
694.410991
 30
0.0
  0
SEQEND
  5
1B217
  8
ALPHA
  0
POLYLINE
  5
193F0
  8
ALPHA
 66
     1
 10
0.0
 20
0.0
 30
0.0
  0
VERTEX
  5
1B218
  8
ALPHA
 10
2512.978094
 20
691.573874
 30
0.0
  0
VERTEX
  5
1B219
  8
ALPHA
 10
2513.515404
 20
691.682144
 30
0.0
  0
VERTEX
  5
1B21A
  8
ALPHA
 10
2513.966745
 20
691.987969
 30
0.0
  0
VERTEX
  5
1B21B
  8
ALPHA
 10
2514.262406
 20
692.4368
 30
0.0
  0
VERTEX
  5
1B21C
  8
ALPHA
 10
2514.365269
 20
692.960991
 30
0.0
  0
VERTEX
  5
1B21D
  8
ALPHA
 10
2514.262406
 20
693.485182
 30
0.0
  0
VERTEX
  5
1B21E
  8
ALPHA
 10
2513.966745
 20
693.934013
 30
0.0
  0
VERTEX
  5
1B21F
  8
ALPHA
 10
2513.515404
 20
694.239838
 30
0.0
  0
VERTEX
  5
1B220
  8
ALPHA
 10
2512.978094
 20
694.348108
 30
0.0
  0
SEQEND
  5
1B221
  8
ALPHA
  0
LINE
  5
193FB
  8
ALPHA
 10
2512.978094
 20
668.906175
 30
0.0
 11
2496.878094
 21
668.906175
 31
0.0
  0
LINE
  5
193FC
  8
ALPHA
 10
2512.978094
 20
669.010991
 30
0.0
 11
2496.878094
 21
669.010991
 31
0.0
  0
LINE
  5
193FD
  8
ALPHA
 10
2503.528094
 20
670.510991
 30
0.0
 11
2513.228094
 21
670.510991
 31
0.0
  0
LINE
  5
193FE
  8
ALPHA
 10
2496.878094
 20
671.910991
 30
0.0
 11
2512.978094
 21
671.910991
 31
0.0
  0
LINE
  5
193FF
  8
ALPHA
 10
2496.878094
 20
672.015807
 30
0.0
 11
2512.978094
 21
672.015807
 31
0.0
  0
LINE
  5
19400
  8
ALPHA
 10
2496.878094
 20
676.510991
 30
0.0
 11
2512.978094
 21
676.510991
 31
0.0
  0
LINE
  5
19401
  8
ALPHA
 10
2496.878094
 20
676.573874
 30
0.0
 11
2512.978094
 21
676.573874
 31
0.0
  0
POLYLINE
  5
19402
  8
ALPHA
 66
     1
 10
0.0
 20
0.0
 30
0.0
  0
VERTEX
  5
1B222
  8
ALPHA
 10
2514.385029
 20
670.24152
 30
0.0
  0
VERTEX
  5
1B223
  8
ALPHA
 10
2509.860699
 20
670.183123
 30
0.0
  0
VERTEX
  5
1B224
  8
ALPHA
 10
2504.5307
 20
670.112986
 30
0.0
  0
SEQEND
  5
1B225
  8
ALPHA
  0
LINE
  5
19407
  8
ALPHA
 10
2512.978094
 20
679.348108
 30
0.0
 11
2496.878094
 21
679.348108
 31
0.0
  0
LINE
  5
19408
  8
ALPHA
 10
2512.978094
 20
679.410991
 30
0.0
 11
2496.878094
 21
679.410991
 31
0.0
  0
LINE
  5
19409
  8
ALPHA
 10
2496.878094
 20
684.010991
 30
0.0
 11
2512.978094
 21
684.010991
 31
0.0
  0
LINE
  5
1940A
  8
ALPHA
 10
2496.878094
 20
684.073874
 30
0.0
 11
2512.978094
 21
684.073874
 31
0.0
  0
LINE
  5
1940B
  8
ALPHA
 10
2512.978094
 20
686.848108
 30
0.0
 11
2496.878094
 21
686.848108
 31
0.0
  0
LINE
  5
1940C
  8
ALPHA
 10
2512.978094
 20
686.910991
 30
0.0
 11
2496.878094
 21
686.910991
 31
0.0
  0
POLYLINE
  5
1940D
  8
ALPHA
 66
     1
 10
0.0
 20
0.0
 30
0.0
  0
VERTEX
  5
1B226
  8
ALPHA
 10
2496.878094
 20
679.348108
 30
0.0
  0
VERTEX
  5
1B227
  8
ALPHA
 10
2496.34082
 20
679.239804
 30
0.0
  0
VERTEX
  5
1B228
  8
ALPHA
 10
2495.889518
 20
678.933971
 30
0.0
  0
VERTEX
  5
1B229
  8
ALPHA
 10
2495.593887
 20
678.485155
 30
0.0
  0
VERTEX
  5
1B22A
  8
ALPHA
 10
2495.491035
 20
677.960991
 30
0.0
  0
VERTEX
  5
1B22B
  8
ALPHA
 10
2495.593887
 20
677.436827
 30
0.0
  0
VERTEX
  5
1B22C
  8
ALPHA
 10
2495.889518
 20
676.988011
 30
0.0
  0
VERTEX
  5
1B22D
  8
ALPHA
 10
2496.34082
 20
676.682178
 30
0.0
  0
VERTEX
  5
1B22E
  8
ALPHA
 10
2496.878094
 20
676.573874
 30
0.0
  0
SEQEND
  5
1B22F
  8
ALPHA
  0
POLYLINE
  5
19418
  8
ALPHA
 66
     1
 10
0.0
 20
0.0
 30
0.0
  0
VERTEX
  5
1B230
  8
ALPHA
 10
2496.878094
 20
679.410991
 30
0.0
  0
VERTEX
  5
1B231
  8
ALPHA
 10
2496.316437
 20
679.297792
 30
0.0
  0
VERTEX
  5
1B232
  8
ALPHA
 10
2495.844639
 20
678.978078
 30
0.0
  0
VERTEX
  5
1B233
  8
ALPHA
 10
2495.535611
 20
678.508923
 30
0.0
  0
VERTEX
  5
1B234
  8
ALPHA
 10
2495.428094
 20
677.960991
 30
0.0
  0
VERTEX
  5
1B235
  8
ALPHA
 10
2495.535611
 20
677.413059
 30
0.0
  0
VERTEX
  5
1B236
  8
ALPHA
 10
2495.844639
 20
676.943904
 30
0.0
  0
VERTEX
  5
1B237
  8
ALPHA
 10
2496.316437
 20
676.62419
 30
0.0
  0
VERTEX
  5
1B238
  8
ALPHA
 10
2496.878094
 20
676.510991
 30
0.0
  0
SEQEND
  5
1B239
  8
ALPHA
  0
LINE
  5
19423
  8
ALPHA
 10
2496.878094
 20
679.410991
 30
0.0
 11
2496.878094
 21
679.348108
 31
0.0
  0
LINE
  5
19424
  8
ALPHA
 10
2496.878094
 20
686.910991
 30
0.0
 11
2496.878094
 21
686.848108
 31
0.0
  0
LINE
  5
19425
  8
ALPHA
 10
2496.878094
 20
684.010991
 30
0.0
 11
2496.878094
 21
684.073874
 31
0.0
  0
POLYLINE
  5
19426
  8
ALPHA
 66
     1
 10
0.0
 20
0.0
 30
0.0
  0
VERTEX
  5
1B23A
  8
ALPHA
 10
2496.878094
 20
686.848108
 30
0.0
  0
VERTEX
  5
1B23B
  8
ALPHA
 10
2496.34082
 20
686.739804
 30
0.0
  0
VERTEX
  5
1B23C
  8
ALPHA
 10
2495.889518
 20
686.433971
 30
0.0
  0
VERTEX
  5
1B23D
  8
ALPHA
 10
2495.593887
 20
685.985155
 30
0.0
  0
VERTEX
  5
1B23E
  8
ALPHA
 10
2495.491035
 20
685.460991
 30
0.0
  0
VERTEX
  5
1B23F
  8
ALPHA
 10
2495.593887
 20
684.936827
 30
0.0
  0
VERTEX
  5
1B240
  8
ALPHA
 10
2495.889518
 20
684.488011
 30
0.0
  0
VERTEX
  5
1B241
  8
ALPHA
 10
2496.34082
 20
684.182178
 30
0.0
  0
VERTEX
  5
1B242
  8
ALPHA
 10
2496.878094
 20
684.073874
 30
0.0
  0
SEQEND
  5
1B243
  8
ALPHA
  0
POLYLINE
  5
19431
  8
ALPHA
 66
     1
 10
0.0
 20
0.0
 30
0.0
  0
VERTEX
  5
1B244
  8
ALPHA
 10
2496.878094
 20
686.910991
 30
0.0
  0
VERTEX
  5
1B245
  8
ALPHA
 10
2496.316437
 20
686.797792
 30
0.0
  0
VERTEX
  5
1B246
  8
ALPHA
 10
2495.844639
 20
686.478078
 30
0.0
  0
VERTEX
  5
1B247
  8
ALPHA
 10
2495.535611
 20
686.008923
 30
0.0
  0
VERTEX
  5
1B248
  8
ALPHA
 10
2495.428094
 20
685.460991
 30
0.0
  0
VERTEX
  5
1B249
  8
ALPHA
 10
2495.535611
 20
684.913059
 30
0.0
  0
VERTEX
  5
1B24A
  8
ALPHA
 10
2495.844639
 20
684.443904
 30
0.0
  0
VERTEX
  5
1B24B
  8
ALPHA
 10
2496.316437
 20
684.12419
 30
0.0
  0
VERTEX
  5
1B24C
  8
ALPHA
 10
2496.878094
 20
684.010991
 30
0.0
  0
SEQEND
  5
1B24D
  8
ALPHA
  0
POLYLINE
  5
1943C
  8
ALPHA
 66
     1
 10
0.0
 20
0.0
 30
0.0
  0
VERTEX
  5
1B24E
  8
ALPHA
 10
2503.722616
 20
670.310991
 30
0.0
  0
VERTEX
  5
1B24F
  8
ALPHA
 10
2503.774423
 20
670.354391
 30
0.0
  0
VERTEX
  5
1B250
  8
ALPHA
 10
2503.919133
 20
670.465372
 30
0.0
  0
SEQEND
  5
1B251
  8
ALPHA
  0
POLYLINE
  5
19441
  8
ALPHA
 66
     1
 10
0.0
 20
0.0
 30
0.0
  0
VERTEX
  5
1B252
  8
ALPHA
 10
2499.628094
 20
669.444738
 30
0.0
  0
VERTEX
  5
1B253
  8
ALPHA
 10
2499.647302
 20
669.617304
 30
0.0
  0
VERTEX
  5
1B254
  8
ALPHA
 10
2499.703751
 20
669.78022
 30
0.0
  0
VERTEX
  5
1B255
  8
ALPHA
 10
2499.793429
 20
669.924343
 30
0.0
  0
VERTEX
  5
1B256
  8
ALPHA
 10
2499.913087
 20
670.045077
 30
0.0
  0
VERTEX
  5
1B257
  8
ALPHA
 10
2500.054357
 20
670.134582
 30
0.0
  0
VERTEX
  5
1B258
  8
ALPHA
 10
2500.212696
 20
670.190435
 30
0.0
  0
VERTEX
  5
1B259
  8
ALPHA
 10
2500.378094
 20
670.209179
 30
0.0
  0
SEQEND
  5
1B25A
  8
ALPHA
  0
LINE
  5
1944B
  8
ALPHA
 10
2505.278094
 20
671.260991
 30
0.0
 11
2505.278094
 21
671.910991
 31
0.0
  0
LINE
  5
1944C
  8
ALPHA
 10
2504.528094
 20
669.010991
 30
0.0
 11
2504.528094
 21
670.310991
 31
0.0
  0
LINE
  5
1944D
  8
ALPHA
 10
2504.228094
 20
670.760991
 30
0.0
 11
2504.228094
 21
671.260991
 31
0.0
  0
LINE
  5
1944E
  8
ALPHA
 10
2504.228094
 20
669.010991
 30
0.0
 11
2504.228094
 21
669.860991
 31
0.0
  0
LINE
  5
1944F
  8
ALPHA
 10
2503.528094
 20
669.010991
 30
0.0
 11
2503.528094
 21
671.910991
 31
0.0
  0
LINE
  5
19450
  8
ALPHA
 10
2501.928094
 20
671.910991
 30
0.0
 11
2501.928094
 21
669.010991
 31
0.0
  0
LINE
  5
19451
  8
ALPHA
 10
2503.599502
 20
670.310991
 30
0.0
 11
2503.885131
 21
670.510991
 31
0.0
  0
LINE
  5
19452
  8
ALPHA
 10
2500.778094
 20
670.209179
 30
0.0
 11
2500.778094
 21
670.260991
 31
0.0
  0
LINE
  5
19453
  8
ALPHA
 10
2500.378094
 20
669.010991
 30
0.0
 11
2500.378094
 21
670.209179
 31
0.0
  0
LINE
  5
19454
  8
ALPHA
 10
2499.628094
 20
669.010991
 30
0.0
 11
2499.628094
 21
669.444738
 31
0.0
  0
LINE
  5
19455
  8
ALPHA
 10
2496.878094
 20
669.010991
 30
0.0
 11
2496.878094
 21
668.906175
 31
0.0
  0
LINE
  5
19456
  8
ALPHA
 10
2496.878094
 20
676.510991
 30
0.0
 11
2496.878094
 21
676.573874
 31
0.0
  0
LINE
  5
19457
  8
ALPHA
 10
2496.878094
 20
671.910991
 30
0.0
 11
2496.878094
 21
672.015807
 31
0.0
  0
LINE
  5
19458
  8
ALPHA
 10
2503.528094
 20
669.860991
 30
0.0
 11
2504.228094
 21
669.860991
 31
0.0
  0
LINE
  5
19459
  8
ALPHA
 10
2504.528094
 20
669.910991
 30
0.0
 11
2503.528094
 21
669.910991
 31
0.0
  0
LINE
  5
1945A
  8
ALPHA
 10
2500.778094
 20
670.209179
 30
0.0
 11
2500.378094
 21
670.209179
 31
0.0
  0
LINE
  5
1945B
  8
ALPHA
 10
2501.928094
 20
670.260991
 30
0.0
 11
2500.778094
 21
670.260991
 31
0.0
  0
LINE
  5
1945C
  8
ALPHA
 10
2504.528094
 20
670.310991
 30
0.0
 11
2503.528094
 21
670.310991
 31
0.0
  0
LINE
  5
1945D
  8
ALPHA
 10
2503.528094
 20
670.760991
 30
0.0
 11
2504.228094
 21
670.760991
 31
0.0
  0
LINE
  5
1945E
  8
ALPHA
 10
2505.278094
 20
671.260991
 30
0.0
 11
2503.528094
 21
671.260991
 31
0.0
  0
POLYLINE
  5
1945F
  8
ALPHA
 66
     1
 10
0.0
 20
0.0
 30
0.0
  0
VERTEX
  5
1B25B
  8
ALPHA
 10
2496.878094
 20
669.010991
 30
0.0
  0
VERTEX
  5
1B25C
  8
ALPHA
 10
2496.316437
 20
669.12419
 30
0.0
  0
VERTEX
  5
1B25D
  8
ALPHA
 10
2495.844639
 20
669.443904
 30
0.0
  0
VERTEX
  5
1B25E
  8
ALPHA
 10
2495.535611
 20
669.913059
 30
0.0
  0
VERTEX
  5
1B25F
  8
ALPHA
 10
2495.428094
 20
670.460991
 30
0.0
  0
VERTEX
  5
1B260
  8
ALPHA
 10
2495.535611
 20
671.008923
 30
0.0
  0
VERTEX
  5
1B261
  8
ALPHA
 10
2495.844639
 20
671.478078
 30
0.0
  0
VERTEX
  5
1B262
  8
ALPHA
 10
2496.316437
 20
671.797792
 30
0.0
  0
VERTEX
  5
1B263
  8
ALPHA
 10
2496.878094
 20
671.910991
 30
0.0
  0
SEQEND
  5
1B264
  8
ALPHA
  0
POLYLINE
  5
1946A
  8
ALPHA
 66
     1
 10
0.0
 20
0.0
 30
0.0
  0
VERTEX
  5
1B265
  8
ALPHA
 10
2496.878094
 20
668.906175
 30
0.0
  0
VERTEX
  5
1B266
  8
ALPHA
 10
2496.276094
 20
669.027409
 30
0.0
  0
VERTEX
  5
1B267
  8
ALPHA
 10
2495.770786
 20
669.36942
 30
0.0
  0
VERTEX
  5
1B268
  8
ALPHA
 10
2495.438611
 20
669.873109
 30
0.0
  0
VERTEX
  5
1B269
  8
ALPHA
 10
2495.323183
 20
670.460991
 30
0.0
  0
VERTEX
  5
1B26A
  8
ALPHA
 10
2495.438611
 20
671.048873
 30
0.0
  0
VERTEX
  5
1B26B
  8
ALPHA
 10
2495.770786
 20
671.552562
 30
0.0
  0
VERTEX
  5
1B26C
  8
ALPHA
 10
2496.276094
 20
671.894573
 30
0.0
  0
VERTEX
  5
1B26D
  8
ALPHA
 10
2496.878094
 20
672.015807
 30
0.0
  0
SEQEND
  5
1B26E
  8
ALPHA
  0
POLYLINE
  5
19475
  8
ALPHA
 66
     1
 10
0.0
 20
0.0
 30
0.0
  0
VERTEX
  5
1B26F
  8
ALPHA
 10
2512.978094
 20
676.510991
 30
0.0
  0
VERTEX
  5
1B270
  8
ALPHA
 10
2513.539751
 20
676.62419
 30
0.0
  0
VERTEX
  5
1B271
  8
ALPHA
 10
2514.011549
 20
676.943904
 30
0.0
  0
VERTEX
  5
1B272
  8
ALPHA
 10
2514.320578
 20
677.413059
 30
0.0
  0
VERTEX
  5
1B273
  8
ALPHA
 10
2514.428094
 20
677.960991
 30
0.0
  0
VERTEX
  5
1B274
  8
ALPHA
 10
2514.320578
 20
678.508923
 30
0.0
  0
VERTEX
  5
1B275
  8
ALPHA
 10
2514.011549
 20
678.978078
 30
0.0
  0
VERTEX
  5
1B276
  8
ALPHA
 10
2513.539751
 20
679.297792
 30
0.0
  0
VERTEX
  5
1B277
  8
ALPHA
 10
2512.978094
 20
679.410991
 30
0.0
  0
SEQEND
  5
1B278
  8
ALPHA
  0
POLYLINE
  5
19480
  8
ALPHA
 66
     1
 10
0.0
 20
0.0
 30
0.0
  0
VERTEX
  5
1B279
  8
ALPHA
 10
2512.978094
 20
676.573874
 30
0.0
  0
VERTEX
  5
1B27A
  8
ALPHA
 10
2513.515404
 20
676.682144
 30
0.0
  0
VERTEX
  5
1B27B
  8
ALPHA
 10
2513.966745
 20
676.987969
 30
0.0
  0
VERTEX
  5
1B27C
  8
ALPHA
 10
2514.262406
 20
677.4368
 30
0.0
  0
VERTEX
  5
1B27D
  8
ALPHA
 10
2514.365269
 20
677.960991
 30
0.0
  0
VERTEX
  5
1B27E
  8
ALPHA
 10
2514.262406
 20
678.485182
 30
0.0
  0
VERTEX
  5
1B27F
  8
ALPHA
 10
2513.966745
 20
678.934013
 30
0.0
  0
VERTEX
  5
1B280
  8
ALPHA
 10
2513.515404
 20
679.239838
 30
0.0
  0
VERTEX
  5
1B281
  8
ALPHA
 10
2512.978094
 20
679.348108
 30
0.0
  0
SEQEND
  5
1B282
  8
ALPHA
  0
LINE
  5
1948B
  8
ALPHA
 10
2512.978094
 20
679.410991
 30
0.0
 11
2512.978094
 21
679.348108
 31
0.0
  0
LINE
  5
1948C
  8
ALPHA
 10
2512.978094
 20
686.910991
 30
0.0
 11
2512.978094
 21
686.848108
 31
0.0
  0
LINE
  5
1948D
  8
ALPHA
 10
2512.978094
 20
684.010991
 30
0.0
 11
2512.978094
 21
684.073874
 31
0.0
  0
POLYLINE
  5
1948E
  8
ALPHA
 66
     1
 10
0.0
 20
0.0
 30
0.0
  0
VERTEX
  5
1B283
  8
ALPHA
 10
2512.978094
 20
684.010991
 30
0.0
  0
VERTEX
  5
1B284
  8
ALPHA
 10
2513.539751
 20
684.12419
 30
0.0
  0
VERTEX
  5
1B285
  8
ALPHA
 10
2514.011549
 20
684.443904
 30
0.0
  0
VERTEX
  5
1B286
  8
ALPHA
 10
2514.320578
 20
684.913059
 30
0.0
  0
VERTEX
  5
1B287
  8
ALPHA
 10
2514.428094
 20
685.460991
 30
0.0
  0
VERTEX
  5
1B288
  8
ALPHA
 10
2514.320578
 20
686.008923
 30
0.0
  0
VERTEX
  5
1B289
  8
ALPHA
 10
2514.011549
 20
686.478078
 30
0.0
  0
VERTEX
  5
1B28A
  8
ALPHA
 10
2513.539751
 20
686.797792
 30
0.0
  0
VERTEX
  5
1B28B
  8
ALPHA
 10
2512.978094
 20
686.910991
 30
0.0
  0
SEQEND
  5
1B28C
  8
ALPHA
  0
POLYLINE
  5
19499
  8
ALPHA
 66
     1
 10
0.0
 20
0.0
 30
0.0
  0
VERTEX
  5
1B28D
  8
ALPHA
 10
2512.978094
 20
684.073874
 30
0.0
  0
VERTEX
  5
1B28E
  8
ALPHA
 10
2513.515404
 20
684.182144
 30
0.0
  0
VERTEX
  5
1B28F
  8
ALPHA
 10
2513.966745
 20
684.487969
 30
0.0
  0
VERTEX
  5
1B290
  8
ALPHA
 10
2514.262406
 20
684.9368
 30
0.0
  0
VERTEX
  5
1B291
  8
ALPHA
 10
2514.365269
 20
685.460991
 30
0.0
  0
VERTEX
  5
1B292
  8
ALPHA
 10
2514.262406
 20
685.985182
 30
0.0
  0
VERTEX
  5
1B293
  8
ALPHA
 10
2513.966745
 20
686.434013
 30
0.0
  0
VERTEX
  5
1B294
  8
ALPHA
 10
2513.515404
 20
686.739838
 30
0.0
  0
VERTEX
  5
1B295
  8
ALPHA
 10
2512.978094
 20
686.848108
 30
0.0
  0
SEQEND
  5
1B296
  8
ALPHA
  0
LINE
  5
194A4
  8
ALPHA
 10
2513.228094
 20
670.510991
 30
0.0
 11
2513.228094
 21
671.860605
 31
0.0
  0
LINE
  5
194A5
  8
ALPHA
 10
2512.978094
 20
669.010991
 30
0.0
 11
2512.978094
 21
668.906175
 31
0.0
  0
LINE
  5
194A6
  8
ALPHA
 10
2512.978094
 20
676.510991
 30
0.0
 11
2512.978094
 21
676.573874
 31
0.0
  0
LINE
  5
194A7
  8
ALPHA
 10
2512.978094
 20
671.910991
 30
0.0
 11
2512.978094
 21
672.015807
 31
0.0
  0
LINE
  5
194A8
  8
ALPHA
 10
2525.128094
 20
674.586249
 30
0.0
 11
2523.163867
 21
674.568436
 31
0.0
  0
LINE
  5
194A9
  8
ALPHA
 10
2514.378632
 20
670.713066
 30
0.0
 11
2513.225765
 21
670.698761
 31
0.0
  0
POLYLINE
  5
194AA
  8
ALPHA
 66
     1
 10
0.0
 20
0.0
 30
0.0
  0
VERTEX
  5
1B297
  8
ALPHA
 10
2512.978094
 20
671.910991
 30
0.0
  0
VERTEX
  5
1B298
  8
ALPHA
 10
2513.539751
 20
671.797792
 30
0.0
  0
VERTEX
  5
1B299
  8
ALPHA
 10
2514.011549
 20
671.478078
 30
0.0
  0
VERTEX
  5
1B29A
  8
ALPHA
 10
2514.320578
 20
671.008923
 30
0.0
  0
VERTEX
  5
1B29B
  8
ALPHA
 10
2514.428094
 20
670.460991
 30
0.0
  0
VERTEX
  5
1B29C
  8
ALPHA
 10
2514.320578
 20
669.913059
 30
0.0
  0
VERTEX
  5
1B29D
  8
ALPHA
 10
2514.011549
 20
669.443904
 30
0.0
  0
VERTEX
  5
1B29E
  8
ALPHA
 10
2513.539751
 20
669.12419
 30
0.0
  0
VERTEX
  5
1B29F
  8
ALPHA
 10
2512.978094
 20
669.010991
 30
0.0
  0
SEQEND
  5
1B2A0
  8
ALPHA
  0
POLYLINE
  5
194B5
  8
ALPHA
 66
     1
 10
0.0
 20
0.0
 30
0.0
  0
VERTEX
  5
1B2A1
  8
ALPHA
 10
2512.978094
 20
672.015807
 30
0.0
  0
VERTEX
  5
1B2A2
  8
ALPHA
 10
2513.580036
 20
671.894517
 30
0.0
  0
VERTEX
  5
1B2A3
  8
ALPHA
 10
2514.085279
 20
671.552492
 30
0.0
  0
VERTEX
  5
1B2A4
  8
ALPHA
 10
2514.417404
 20
671.048828
 30
0.0
  0
VERTEX
  5
1B2A5
  8
ALPHA
 10
2514.532814
 20
670.460991
 30
0.0
  0
VERTEX
  5
1B2A6
  8
ALPHA
 10
2514.417404
 20
669.873153
 30
0.0
  0
VERTEX
  5
1B2A7
  8
ALPHA
 10
2514.085279
 20
669.36949
 30
0.0
  0
VERTEX
  5
1B2A8
  8
ALPHA
 10
2513.580036
 20
669.027465
 30
0.0
  0
VERTEX
  5
1B2A9
  8
ALPHA
 10
2512.978094
 20
668.906175
 30
0.0
  0
SEQEND
  5
1B2AA
  8
ALPHA
  0
LINE
  5
194C0
  8
ALPHA
 10
2512.978094
 20
646.406175
 30
0.0
 11
2496.878094
 21
646.406175
 31
0.0
  0
LINE
  5
194C1
  8
ALPHA
 10
2512.978094
 20
646.510991
 30
0.0
 11
2496.878094
 21
646.510991
 31
0.0
  0
LINE
  5
194C2
  8
ALPHA
 10
2496.878094
 20
649.410991
 30
0.0
 11
2512.978094
 21
649.410991
 31
0.0
  0
LINE
  5
194C3
  8
ALPHA
 10
2496.878094
 20
649.515807
 30
0.0
 11
2512.978094
 21
649.515807
 31
0.0
  0
LINE
  5
194C4
  8
ALPHA
 10
2512.978094
 20
653.906175
 30
0.0
 11
2496.878094
 21
653.906175
 31
0.0
  0
LINE
  5
194C5
  8
ALPHA
 10
2512.978094
 20
654.010991
 30
0.0
 11
2496.878094
 21
654.010991
 31
0.0
  0
LINE
  5
194C6
  8
ALPHA
 10
2512.328094
 20
654.910991
 30
0.0
 11
2503.528094
 21
654.910991
 31
0.0
  0
LINE
  5
194C7
  8
ALPHA
 10
2507.528094
 20
655.278491
 30
0.0
 11
2514.392284
 21
655.278491
 31
0.0
  0
LINE
  5
194C8
  8
ALPHA
 10
2496.878094
 20
656.910991
 30
0.0
 11
2512.978094
 21
656.910991
 31
0.0
  0
LINE
  5
194C9
  8
ALPHA
 10
2496.878094
 20
657.015807
 30
0.0
 11
2512.978094
 21
657.015807
 31
0.0
  0
LINE
  5
194CA
  8
ALPHA
 10
2512.978094
 20
661.406175
 30
0.0
 11
2496.878094
 21
661.406175
 31
0.0
  0
LINE
  5
194CB
  8
ALPHA
 10
2512.978094
 20
661.510991
 30
0.0
 11
2496.878094
 21
661.510991
 31
0.0
  0
LINE
  5
194CC
  8
ALPHA
 10
2496.878094
 20
664.410991
 30
0.0
 11
2512.978094
 21
664.410991
 31
0.0
  0
LINE
  5
194CD
  8
ALPHA
 10
2496.878094
 20
664.515807
 30
0.0
 11
2512.978094
 21
664.515807
 31
0.0
  0
POLYLINE
  5
194CE
  8
ALPHA
 66
     1
 10
0.0
 20
0.0
 30
0.0
  0
VERTEX
  5
1B2AB
  8
ALPHA
 10
2511.504868
 20
661.510991
 30
0.0
  0
VERTEX
  5
1B2AC
  8
ALPHA
 10
2508.394922
 20
662.649681
 30
0.0
  0
VERTEX
  5
1B2AD
  8
ALPHA
 10
2506.152096
 20
663.472616
 30
0.0
  0
VERTEX
  5
1B2AE
  8
ALPHA
 10
2505.278094
 20
663.794554
 30
0.0
  0
SEQEND
  5
1B2AF
  8
ALPHA
  0
POLYLINE
  5
194D4
  8
ALPHA
 66
     1
 10
0.0
 20
0.0
 30
0.0
  0
VERTEX
  5
1B2B0
  8
ALPHA
 10
2507.201719
 20
664.410991
 30
0.0
  0
VERTEX
  5
1B2B1
  8
ALPHA
 10
2508.409493
 20
664.004355
 30
0.0
  0
VERTEX
  5
1B2B2
  8
ALPHA
 10
2510.834521
 20
663.189565
 30
0.0
  0
VERTEX
  5
1B2B3
  8
ALPHA
 10
2514.108408
 20
662.090952
 30
0.0
  0
SEQEND
  5
1B2B4
  8
ALPHA
  0
LINE
  5
194DA
  8
ALPHA
 10
2507.528094
 20
654.910991
 30
0.0
 11
2507.528094
 21
656.910991
 31
0.0
  0
LINE
  5
194DB
  8
ALPHA
 10
2504.528094
 20
654.910991
 30
0.0
 11
2504.528094
 21
656.110991
 31
0.0
  0
LINE
  5
194DC
  8
ALPHA
 10
2503.528094
 20
654.010991
 30
0.0
 11
2503.528094
 21
656.910991
 31
0.0
  0
LINE
  5
194DD
  8
ALPHA
 10
2501.928094
 20
656.910991
 30
0.0
 11
2501.928094
 21
654.010991
 31
0.0
  0
POLYLINE
  5
194DE
  8
ALPHA
 66
     1
 10
0.0
 20
0.0
 30
0.0
  0
VERTEX
  5
1B2B5
  8
ALPHA
 10
2496.878094
 20
654.010991
 30
0.0
  0
VERTEX
  5
1B2B6
  8
ALPHA
 10
2496.316437
 20
654.12419
 30
0.0
  0
VERTEX
  5
1B2B7
  8
ALPHA
 10
2495.844639
 20
654.443904
 30
0.0
  0
VERTEX
  5
1B2B8
  8
ALPHA
 10
2495.535611
 20
654.913059
 30
0.0
  0
VERTEX
  5
1B2B9
  8
ALPHA
 10
2495.428094
 20
655.460991
 30
0.0
  0
VERTEX
  5
1B2BA
  8
ALPHA
 10
2495.535611
 20
656.008923
 30
0.0
  0
VERTEX
  5
1B2BB
  8
ALPHA
 10
2495.844639
 20
656.478078
 30
0.0
  0
VERTEX
  5
1B2BC
  8
ALPHA
 10
2496.316437
 20
656.797792
 30
0.0
  0
VERTEX
  5
1B2BD
  8
ALPHA
 10
2496.878094
 20
656.910991
 30
0.0
  0
SEQEND
  5
1B2BE
  8
ALPHA
  0
POLYLINE
  5
194E9
  8
ALPHA
 66
     1
 10
0.0
 20
0.0
 30
0.0
  0
VERTEX
  5
1B2BF
  8
ALPHA
 10
2496.878094
 20
653.906175
 30
0.0
  0
VERTEX
  5
1B2C0
  8
ALPHA
 10
2496.276094
 20
654.027409
 30
0.0
  0
VERTEX
  5
1B2C1
  8
ALPHA
 10
2495.770786
 20
654.36942
 30
0.0
  0
VERTEX
  5
1B2C2
  8
ALPHA
 10
2495.438611
 20
654.873109
 30
0.0
  0
VERTEX
  5
1B2C3
  8
ALPHA
 10
2495.323183
 20
655.460991
 30
0.0
  0
VERTEX
  5
1B2C4
  8
ALPHA
 10
2495.438611
 20
656.048873
 30
0.0
  0
VERTEX
  5
1B2C5
  8
ALPHA
 10
2495.770786
 20
656.552562
 30
0.0
  0
VERTEX
  5
1B2C6
  8
ALPHA
 10
2496.276094
 20
656.894573
 30
0.0
  0
VERTEX
  5
1B2C7
  8
ALPHA
 10
2496.878094
 20
657.015807
 30
0.0
  0
SEQEND
  5
1B2C8
  8
ALPHA
  0
LINE
  5
194F4
  8
ALPHA
 10
2505.278094
 20
661.510991
 30
0.0
 11
2505.278094
 21
663.960991
 31
0.0
  0
LINE
  5
194F5
  8
ALPHA
 10
2505.028094
 20
663.960991
 30
0.0
 11
2505.028094
 21
664.410991
 31
0.0
  0
LINE
  5
194F6
  8
ALPHA
 10
2504.528094
 20
663.960991
 30
0.0
 11
2504.528094
 21
664.410991
 31
0.0
  0
LINE
  5
194F7
  8
ALPHA
 10
2504.328094
 20
656.460991
 30
0.0
 11
2504.328094
 21
656.910991
 31
0.0
  0
LINE
  5
194F8
  8
ALPHA
 10
2504.228094
 20
656.110991
 30
0.0
 11
2504.228094
 21
656.910991
 31
0.0
  0
LINE
  5
194F9
  8
ALPHA
 10
2504.078094
 20
661.510991
 30
0.0
 11
2504.078094
 21
663.960991
 31
0.0
  0
LINE
  5
194FA
  8
ALPHA
 10
2503.528094
 20
661.510991
 30
0.0
 11
2503.528094
 21
664.410991
 31
0.0
  0
LINE
  5
194FB
  8
ALPHA
 10
2501.928094
 20
664.410991
 30
0.0
 11
2501.928094
 21
661.510991
 31
0.0
  0
LINE
  5
194FC
  8
ALPHA
 10
2500.778094
 20
663.260991
 30
0.0
 11
2500.778094
 21
663.312803
 31
0.0
  0
LINE
  5
194FD
  8
ALPHA
 10
2500.378094
 20
663.312803
 30
0.0
 11
2500.378094
 21
664.410991
 31
0.0
  0
LINE
  5
194FE
  8
ALPHA
 10
2499.628094
 20
664.077244
 30
0.0
 11
2499.628094
 21
664.410991
 31
0.0
  0
LINE
  5
194FF
  8
ALPHA
 10
2496.878094
 20
661.510991
 30
0.0
 11
2496.878094
 21
661.406175
 31
0.0
  0
LINE
  5
19500
  8
ALPHA
 10
2496.878094
 20
664.410991
 30
0.0
 11
2496.878094
 21
664.515807
 31
0.0
  0
LINE
  5
19501
  8
ALPHA
 10
2496.878094
 20
656.910991
 30
0.0
 11
2496.878094
 21
657.015807
 31
0.0
  0
LINE
  5
19502
  8
ALPHA
 10
2505.278094
 20
663.230445
 30
0.0
 11
2506.888731
 21
663.202331
 31
0.0
  0
LINE
  5
19503
  8
ALPHA
 10
2504.528094
 20
655.310991
 30
0.0
 11
2503.528094
 21
655.310991
 31
0.0
  0
LINE
  5
19504
  8
ALPHA
 10
2504.528094
 20
656.110991
 30
0.0
 11
2503.528094
 21
656.110991
 31
0.0
  0
LINE
  5
19505
  8
ALPHA
 10
2504.228094
 20
656.460991
 30
0.0
 11
2504.328094
 21
656.460991
 31
0.0
  0
LINE
  5
19506
  8
ALPHA
 10
2507.528094
 20
656.590991
 30
0.0
 11
2504.328094
 21
656.590991
 31
0.0
  0
LINE
  5
19507
  8
ALPHA
 10
2509.35959
 20
662.296391
 30
0.0
 11
2505.278094
 21
662.296391
 31
0.0
  0
LINE
  5
19508
  8
ALPHA
 10
2501.928094
 20
663.260991
 30
0.0
 11
2500.778094
 21
663.260991
 31
0.0
  0
LINE
  5
19509
  8
ALPHA
 10
2500.778094
 20
663.312803
 30
0.0
 11
2500.378094
 21
663.312803
 31
0.0
  0
LINE
  5
1950A
  8
ALPHA
 10
2503.528094
 20
663.960991
 30
0.0
 11
2505.278094
 21
663.960991
 31
0.0
  0
POLYLINE
  5
1950B
  8
ALPHA
 66
     1
 10
0.0
 20
0.0
 30
0.0
  0
VERTEX
  5
1B2C9
  8
ALPHA
 10
2496.878094
 20
661.510991
 30
0.0
  0
VERTEX
  5
1B2CA
  8
ALPHA
 10
2496.316437
 20
661.62419
 30
0.0
  0
VERTEX
  5
1B2CB
  8
ALPHA
 10
2495.844639
 20
661.943904
 30
0.0
  0
VERTEX
  5
1B2CC
  8
ALPHA
 10
2495.535611
 20
662.413059
 30
0.0
  0
VERTEX
  5
1B2CD
  8
ALPHA
 10
2495.428094
 20
662.960991
 30
0.0
  0
VERTEX
  5
1B2CE
  8
ALPHA
 10
2495.535611
 20
663.508923
 30
0.0
  0
VERTEX
  5
1B2CF
  8
ALPHA
 10
2495.844639
 20
663.978078
 30
0.0
  0
VERTEX
  5
1B2D0
  8
ALPHA
 10
2496.316437
 20
664.297792
 30
0.0
  0
VERTEX
  5
1B2D1
  8
ALPHA
 10
2496.878094
 20
664.410991
 30
0.0
  0
SEQEND
  5
1B2D2
  8
ALPHA
  0
POLYLINE
  5
19516
  8
ALPHA
 66
     1
 10
0.0
 20
0.0
 30
0.0
  0
VERTEX
  5
1B2D3
  8
ALPHA
 10
2496.878094
 20
661.406175
 30
0.0
  0
VERTEX
  5
1B2D4
  8
ALPHA
 10
2496.276094
 20
661.527409
 30
0.0
  0
VERTEX
  5
1B2D5
  8
ALPHA
 10
2495.770786
 20
661.86942
 30
0.0
  0
VERTEX
  5
1B2D6
  8
ALPHA
 10
2495.438611
 20
662.373109
 30
0.0
  0
VERTEX
  5
1B2D7
  8
ALPHA
 10
2495.323183
 20
662.960991
 30
0.0
  0
VERTEX
  5
1B2D8
  8
ALPHA
 10
2495.438611
 20
663.548873
 30
0.0
  0
VERTEX
  5
1B2D9
  8
ALPHA
 10
2495.770786
 20
664.052562
 30
0.0
  0
VERTEX
  5
1B2DA
  8
ALPHA
 10
2496.276094
 20
664.394573
 30
0.0
  0
VERTEX
  5
1B2DB
  8
ALPHA
 10
2496.878094
 20
664.515807
 30
0.0
  0
SEQEND
  5
1B2DC
  8
ALPHA
  0
POLYLINE
  5
19521
  8
ALPHA
 66
     1
 10
0.0
 20
0.0
 30
0.0
  0
VERTEX
  5
1B2DD
  8
ALPHA
 10
2500.378094
 20
663.312803
 30
0.0
  0
VERTEX
  5
1B2DE
  8
ALPHA
 10
2500.212696
 20
663.331547
 30
0.0
  0
VERTEX
  5
1B2DF
  8
ALPHA
 10
2500.054357
 20
663.3874
 30
0.0
  0
VERTEX
  5
1B2E0
  8
ALPHA
 10
2499.913087
 20
663.476905
 30
0.0
  0
VERTEX
  5
1B2E1
  8
ALPHA
 10
2499.793429
 20
663.597639
 30
0.0
  0
VERTEX
  5
1B2E2
  8
ALPHA
 10
2499.703751
 20
663.741762
 30
0.0
  0
VERTEX
  5
1B2E3
  8
ALPHA
 10
2499.647302
 20
663.904678
 30
0.0
  0
VERTEX
  5
1B2E4
  8
ALPHA
 10
2499.628094
 20
664.077244
 30
0.0
  0
SEQEND
  5
1B2E5
  8
ALPHA
  0
LINE
  5
1952B
  8
ALPHA
 10
2503.528094
 20
646.510991
 30
0.0
 11
2503.528094
 21
649.410991
 31
0.0
  0
LINE
  5
1952C
  8
ALPHA
 10
2501.928094
 20
649.410991
 30
0.0
 11
2501.928094
 21
646.510991
 31
0.0
  0
LINE
  5
1952D
  8
ALPHA
 10
2498.928094
 20
654.010991
 30
0.0
 11
2498.928094
 21
654.910991
 31
0.0
  0
LINE
  5
1952E
  8
ALPHA
 10
2498.928094
 20
646.510991
 30
0.0
 11
2498.928094
 21
649.410991
 31
0.0
  0
LINE
  5
1952F
  8
ALPHA
 10
2496.878094
 20
646.510991
 30
0.0
 11
2496.878094
 21
646.406175
 31
0.0
  0
LINE
  5
19530
  8
ALPHA
 10
2496.878094
 20
654.010991
 30
0.0
 11
2496.878094
 21
653.906175
 31
0.0
  0
LINE
  5
19531
  8
ALPHA
 10
2496.878094
 20
649.410991
 30
0.0
 11
2496.878094
 21
649.515807
 31
0.0
  0
POLYLINE
  5
19532
  8
ALPHA
 66
     1
 10
0.0
 20
0.0
 30
0.0
  0
VERTEX
  5
1B2E6
  8
ALPHA
 10
2496.878094
 20
646.510991
 30
0.0
  0
VERTEX
  5
1B2E7
  8
ALPHA
 10
2496.316437
 20
646.62419
 30
0.0
  0
VERTEX
  5
1B2E8
  8
ALPHA
 10
2495.844639
 20
646.943904
 30
0.0
  0
VERTEX
  5
1B2E9
  8
ALPHA
 10
2495.535611
 20
647.413059
 30
0.0
  0
VERTEX
  5
1B2EA
  8
ALPHA
 10
2495.428094
 20
647.960991
 30
0.0
  0
VERTEX
  5
1B2EB
  8
ALPHA
 10
2495.535611
 20
648.508923
 30
0.0
  0
VERTEX
  5
1B2EC
  8
ALPHA
 10
2495.844639
 20
648.978078
 30
0.0
  0
VERTEX
  5
1B2ED
  8
ALPHA
 10
2496.316437
 20
649.297792
 30
0.0
  0
VERTEX
  5
1B2EE
  8
ALPHA
 10
2496.878094
 20
649.410991
 30
0.0
  0
SEQEND
  5
1B2EF
  8
ALPHA
  0
POLYLINE
  5
1953D
  8
ALPHA
 66
     1
 10
0.0
 20
0.0
 30
0.0
  0
VERTEX
  5
1B2F0
  8
ALPHA
 10
2496.878094
 20
646.406175
 30
0.0
  0
VERTEX
  5
1B2F1
  8
ALPHA
 10
2496.276094
 20
646.527409
 30
0.0
  0
VERTEX
  5
1B2F2
  8
ALPHA
 10
2495.770786
 20
646.86942
 30
0.0
  0
VERTEX
  5
1B2F3
  8
ALPHA
 10
2495.438611
 20
647.373109
 30
0.0
  0
VERTEX
  5
1B2F4
  8
ALPHA
 10
2495.323183
 20
647.960991
 30
0.0
  0
VERTEX
  5
1B2F5
  8
ALPHA
 10
2495.438611
 20
648.548873
 30
0.0
  0
VERTEX
  5
1B2F6
  8
ALPHA
 10
2495.770786
 20
649.052562
 30
0.0
  0
VERTEX
  5
1B2F7
  8
ALPHA
 10
2496.276094
 20
649.394573
 30
0.0
  0
VERTEX
  5
1B2F8
  8
ALPHA
 10
2496.878094
 20
649.515807
 30
0.0
  0
SEQEND
  5
1B2F9
  8
ALPHA
  0
LINE
  5
19548
  8
ALPHA
 10
2501.928094
 20
654.910991
 30
0.0
 11
2498.928094
 21
654.910991
 31
0.0
  0
POLYLINE
  5
19549
  8
ALPHA
 66
     1
 10
0.0
 20
0.0
 30
0.0
  0
VERTEX
  5
1B2FA
  8
ALPHA
 10
2512.978094
 20
656.910991
 30
0.0
  0
VERTEX
  5
1B2FB
  8
ALPHA
 10
2513.539751
 20
656.797792
 30
0.0
  0
VERTEX
  5
1B2FC
  8
ALPHA
 10
2514.011549
 20
656.478078
 30
0.0
  0
VERTEX
  5
1B2FD
  8
ALPHA
 10
2514.320578
 20
656.008923
 30
0.0
  0
VERTEX
  5
1B2FE
  8
ALPHA
 10
2514.428094
 20
655.460991
 30
0.0
  0
VERTEX
  5
1B2FF
  8
ALPHA
 10
2514.320578
 20
654.913059
 30
0.0
  0
VERTEX
  5
1B300
  8
ALPHA
 10
2514.011549
 20
654.443904
 30
0.0
  0
VERTEX
  5
1B301
  8
ALPHA
 10
2513.539751
 20
654.12419
 30
0.0
  0
VERTEX
  5
1B302
  8
ALPHA
 10
2512.978094
 20
654.010991
 30
0.0
  0
SEQEND
  5
1B303
  8
ALPHA
  0
POLYLINE
  5
19554
  8
ALPHA
 66
     1
 10
0.0
 20
0.0
 30
0.0
  0
VERTEX
  5
1B304
  8
ALPHA
 10
2512.978094
 20
657.015807
 30
0.0
  0
VERTEX
  5
1B305
  8
ALPHA
 10
2513.580036
 20
656.894517
 30
0.0
  0
VERTEX
  5
1B306
  8
ALPHA
 10
2514.085279
 20
656.552492
 30
0.0
  0
VERTEX
  5
1B307
  8
ALPHA
 10
2514.417404
 20
656.048828
 30
0.0
  0
VERTEX
  5
1B308
  8
ALPHA
 10
2514.532814
 20
655.460991
 30
0.0
  0
VERTEX
  5
1B309
  8
ALPHA
 10
2514.417404
 20
654.873153
 30
0.0
  0
VERTEX
  5
1B30A
  8
ALPHA
 10
2514.085279
 20
654.36949
 30
0.0
  0
VERTEX
  5
1B30B
  8
ALPHA
 10
2513.580036
 20
654.027465
 30
0.0
  0
VERTEX
  5
1B30C
  8
ALPHA
 10
2512.978094
 20
653.906175
 30
0.0
  0
SEQEND
  5
1B30D
  8
ALPHA
  0
POLYLINE
  5
1955F
  8
ALPHA
 66
     1
 10
0.0
 20
0.0
 30
0.0
  0
VERTEX
  5
1B30E
  8
ALPHA
 10
2523.431091
 20
666.224189
 30
0.0
  0
VERTEX
  5
1B30F
  8
ALPHA
 10
2523.627659
 20
663.448119
 30
0.0
  0
VERTEX
  5
1B310
  8
ALPHA
 10
2523.875268
 20
661.091769
 30
0.0
  0
VERTEX
  5
1B311
  8
ALPHA
 10
2524.150161
 20
659.237397
 30
0.0
  0
VERTEX
  5
1B312
  8
ALPHA
 10
2524.432457
 20
657.950546
 30
0.0
  0
VERTEX
  5
1B313
  8
ALPHA
 10
2524.696428
 20
657.293543
 30
0.0
  0
VERTEX
  5
1B314
  8
ALPHA
 10
2524.831859
 20
657.202071
 30
0.0
  0
SEQEND
  5
1B315
  8
ALPHA
  0
LINE
  5
19568
  8
ALPHA
 10
2512.978094
 20
661.510991
 30
0.0
 11
2512.978094
 21
661.406175
 31
0.0
  0
LINE
  5
19569
  8
ALPHA
 10
2512.978094
 20
664.410991
 30
0.0
 11
2512.978094
 21
664.515807
 31
0.0
  0
LINE
  5
1956A
  8
ALPHA
 10
2512.978094
 20
656.910991
 30
0.0
 11
2512.978094
 21
657.015807
 31
0.0
  0
LINE
  5
1956B
  8
ALPHA
 10
2524.831859
 20
657.20196
 30
0.0
 11
2525.128094
 21
657.243593
 31
0.0
  0
LINE
  5
1956C
  8
ALPHA
 10
2525.128094
 20
666.360991
 30
0.0
 11
2523.431091
 21
666.224189
 31
0.0
  0
POLYLINE
  5
1956D
  8
ALPHA
 66
     1
 10
0.0
 20
0.0
 30
0.0
  0
VERTEX
  5
1B316
  8
ALPHA
 10
2512.978094
 20
664.410991
 30
0.0
  0
VERTEX
  5
1B317
  8
ALPHA
 10
2513.539751
 20
664.297792
 30
0.0
  0
VERTEX
  5
1B318
  8
ALPHA
 10
2514.011549
 20
663.978078
 30
0.0
  0
VERTEX
  5
1B319
  8
ALPHA
 10
2514.320578
 20
663.508923
 30
0.0
  0
VERTEX
  5
1B31A
  8
ALPHA
 10
2514.428094
 20
662.960991
 30
0.0
  0
VERTEX
  5
1B31B
  8
ALPHA
 10
2514.320578
 20
662.413059
 30
0.0
  0
VERTEX
  5
1B31C
  8
ALPHA
 10
2514.011549
 20
661.943904
 30
0.0
  0
VERTEX
  5
1B31D
  8
ALPHA
 10
2513.539751
 20
661.62419
 30
0.0
  0
VERTEX
  5
1B31E
  8
ALPHA
 10
2512.978094
 20
661.510991
 30
0.0
  0
SEQEND
  5
1B31F
  8
ALPHA
  0
POLYLINE
  5
19578
  8
ALPHA
 66
     1
 10
0.0
 20
0.0
 30
0.0
  0
VERTEX
  5
1B320
  8
ALPHA
 10
2512.978094
 20
664.515807
 30
0.0
  0
VERTEX
  5
1B321
  8
ALPHA
 10
2513.580036
 20
664.394517
 30
0.0
  0
VERTEX
  5
1B322
  8
ALPHA
 10
2514.085279
 20
664.052492
 30
0.0
  0
VERTEX
  5
1B323
  8
ALPHA
 10
2514.417404
 20
663.548828
 30
0.0
  0
VERTEX
  5
1B324
  8
ALPHA
 10
2514.532814
 20
662.960991
 30
0.0
  0
VERTEX
  5
1B325
  8
ALPHA
 10
2514.417404
 20
662.373153
 30
0.0
  0
VERTEX
  5
1B326
  8
ALPHA
 10
2514.085279
 20
661.86949
 30
0.0
  0
VERTEX
  5
1B327
  8
ALPHA
 10
2513.580036
 20
661.527465
 30
0.0
  0
VERTEX
  5
1B328
  8
ALPHA
 10
2512.978094
 20
661.406175
 30
0.0
  0
SEQEND
  5
1B329
  8
ALPHA
  0
LINE
  5
19583
  8
ALPHA
 10
2512.978094
 20
646.510991
 30
0.0
 11
2512.978094
 21
646.406175
 31
0.0
  0
LINE
  5
19584
  8
ALPHA
 10
2512.978094
 20
654.010991
 30
0.0
 11
2512.978094
 21
653.906175
 31
0.0
  0
LINE
  5
19585
  8
ALPHA
 10
2512.978094
 20
649.410991
 30
0.0
 11
2512.978094
 21
649.515807
 31
0.0
  0
LINE
  5
19586
  8
ALPHA
 10
2512.328094
 20
654.010991
 30
0.0
 11
2512.328094
 21
654.910991
 31
0.0
  0
LINE
  5
19587
  8
ALPHA
 10
2512.328094
 20
646.510991
 30
0.0
 11
2512.328094
 21
649.410991
 31
0.0
  0
POLYLINE
  5
19588
  8
ALPHA
 66
     1
 10
0.0
 20
0.0
 30
0.0
  0
VERTEX
  5
1B32A
  8
ALPHA
 10
2512.978094
 20
649.410991
 30
0.0
  0
VERTEX
  5
1B32B
  8
ALPHA
 10
2513.539751
 20
649.297792
 30
0.0
  0
VERTEX
  5
1B32C
  8
ALPHA
 10
2514.011549
 20
648.978078
 30
0.0
  0
VERTEX
  5
1B32D
  8
ALPHA
 10
2514.320578
 20
648.508923
 30
0.0
  0
VERTEX
  5
1B32E
  8
ALPHA
 10
2514.428094
 20
647.960991
 30
0.0
  0
VERTEX
  5
1B32F
  8
ALPHA
 10
2514.320578
 20
647.413059
 30
0.0
  0
VERTEX
  5
1B330
  8
ALPHA
 10
2514.011549
 20
646.943904
 30
0.0
  0
VERTEX
  5
1B331
  8
ALPHA
 10
2513.539751
 20
646.62419
 30
0.0
  0
VERTEX
  5
1B332
  8
ALPHA
 10
2512.978094
 20
646.510991
 30
0.0
  0
SEQEND
  5
1B333
  8
ALPHA
  0
POLYLINE
  5
19593
  8
ALPHA
 66
     1
 10
0.0
 20
0.0
 30
0.0
  0
VERTEX
  5
1B334
  8
ALPHA
 10
2512.978094
 20
649.515807
 30
0.0
  0
VERTEX
  5
1B335
  8
ALPHA
 10
2513.580036
 20
649.394517
 30
0.0
  0
VERTEX
  5
1B336
  8
ALPHA
 10
2514.085279
 20
649.052492
 30
0.0
  0
VERTEX
  5
1B337
  8
ALPHA
 10
2514.417404
 20
648.548828
 30
0.0
  0
VERTEX
  5
1B338
  8
ALPHA
 10
2514.532814
 20
647.960991
 30
0.0
  0
VERTEX
  5
1B339
  8
ALPHA
 10
2514.417404
 20
647.373153
 30
0.0
  0
VERTEX
  5
1B33A
  8
ALPHA
 10
2514.085279
 20
646.86949
 30
0.0
  0
VERTEX
  5
1B33B
  8
ALPHA
 10
2513.580036
 20
646.527465
 30
0.0
  0
VERTEX
  5
1B33C
  8
ALPHA
 10
2512.978094
 20
646.406175
 30
0.0
  0
SEQEND
  5
1B33D
  8
ALPHA
  0
LINE
  5
1959E
  8
ALPHA
 10
2496.878094
 20
623.948108
 30
0.0
 11
2512.978094
 21
623.948108
 31
0.0
  0
LINE
  5
1959F
  8
ALPHA
 10
2496.878095
 20
624.010991
 30
0.0
 11
2512.978094
 21
624.010991
 31
0.0
  0
LINE
  5
195A0
  8
ALPHA
 10
2512.978094
 20
626.910991
 30
0.0
 11
2496.878094
 21
626.910991
 31
0.0
  0
LINE
  5
195A1
  8
ALPHA
 10
2512.978094
 20
626.973874
 30
0.0
 11
2496.878094
 21
626.973874
 31
0.0
  0
LINE
  5
195A2
  8
ALPHA
 10
2496.878094
 20
631.448108
 30
0.0
 11
2512.978094
 21
631.448108
 31
0.0
  0
LINE
  5
195A3
  8
ALPHA
 10
2496.878094
 20
631.510991
 30
0.0
 11
2512.978094
 21
631.510991
 31
0.0
  0
LINE
  5
195A4
  8
ALPHA
 10
2512.978094
 20
634.410991
 30
0.0
 11
2496.878094
 21
634.410991
 31
0.0
  0
LINE
  5
195A5
  8
ALPHA
 10
2512.978094
 20
634.473874
 30
0.0
 11
2496.878094
 21
634.473874
 31
0.0
  0
LINE
  5
195A6
  8
ALPHA
 10
2496.878094
 20
638.948108
 30
0.0
 11
2512.978094
 21
638.948108
 31
0.0
  0
LINE
  5
195A7
  8
ALPHA
 10
2496.878094
 20
639.010991
 30
0.0
 11
2512.978094
 21
639.010991
 31
0.0
  0
LINE
  5
195A8
  8
ALPHA
 10
2512.978094
 20
641.910991
 30
0.0
 11
2496.878094
 21
641.910991
 31
0.0
  0
LINE
  5
195A9
  8
ALPHA
 10
2512.978094
 20
641.973874
 30
0.0
 11
2496.878094
 21
641.973874
 31
0.0
  0
POLYLINE
  5
195AA
  8
ALPHA
 66
     1
 10
0.0
 20
0.0
 30
0.0
  0
VERTEX
  5
1B33E
  8
ALPHA
 10
2496.878094
 20
634.410991
 30
0.0
  0
VERTEX
  5
1B33F
  8
ALPHA
 10
2496.316428
 20
634.297788
 30
0.0
  0
VERTEX
  5
1B340
  8
ALPHA
 10
2495.844626
 20
633.978064
 30
0.0
  0
VERTEX
  5
1B341
  8
ALPHA
 10
2495.53561
 20
633.508921
 30
0.0
  0
VERTEX
  5
1B342
  8
ALPHA
 10
2495.428094
 20
632.960991
 30
0.0
  0
VERTEX
  5
1B343
  8
ALPHA
 10
2495.53561
 20
632.413061
 30
0.0
  0
VERTEX
  5
1B344
  8
ALPHA
 10
2495.844626
 20
631.943918
 30
0.0
  0
VERTEX
  5
1B345
  8
ALPHA
 10
2496.316428
 20
631.624194
 30
0.0
  0
VERTEX
  5
1B346
  8
ALPHA
 10
2496.878094
 20
631.510991
 30
0.0
  0
SEQEND
  5
1B347
  8
ALPHA
  0
POLYLINE
  5
195B5
  8
ALPHA
 66
     1
 10
0.0
 20
0.0
 30
0.0
  0
VERTEX
  5
1B348
  8
ALPHA
 10
2496.878094
 20
634.473874
 30
0.0
  0
VERTEX
  5
1B349
  8
ALPHA
 10
2496.292224
 20
634.35585
 30
0.0
  0
VERTEX
  5
1B34A
  8
ALPHA
 10
2495.800323
 20
634.022755
 30
0.0
  0
VERTEX
  5
1B34B
  8
ALPHA
 10
2495.477417
 20
633.532892
 30
0.0
  0
VERTEX
  5
1B34C
  8
ALPHA
 10
2495.365154
 20
632.960991
 30
0.0
  0
VERTEX
  5
1B34D
  8
ALPHA
 10
2495.477417
 20
632.38909
 30
0.0
  0
VERTEX
  5
1B34E
  8
ALPHA
 10
2495.800323
 20
631.899227
 30
0.0
  0
VERTEX
  5
1B34F
  8
ALPHA
 10
2496.292224
 20
631.566132
 30
0.0
  0
VERTEX
  5
1B350
  8
ALPHA
 10
2496.878094
 20
631.448108
 30
0.0
  0
SEQEND
  5
1B351
  8
ALPHA
  0
POLYLINE
  5
195C0
  8
ALPHA
 66
     1
 10
0.0
 20
0.0
 30
0.0
  0
VERTEX
  5
1B352
  8
ALPHA
 10
2496.878094
 20
641.910991
 30
0.0
  0
VERTEX
  5
1B353
  8
ALPHA
 10
2496.316428
 20
641.797788
 30
0.0
  0
VERTEX
  5
1B354
  8
ALPHA
 10
2495.844626
 20
641.478064
 30
0.0
  0
VERTEX
  5
1B355
  8
ALPHA
 10
2495.53561
 20
641.008921
 30
0.0
  0
VERTEX
  5
1B356
  8
ALPHA
 10
2495.428094
 20
640.460991
 30
0.0
  0
VERTEX
  5
1B357
  8
ALPHA
 10
2495.53561
 20
639.913061
 30
0.0
  0
VERTEX
  5
1B358
  8
ALPHA
 10
2495.844626
 20
639.443918
 30
0.0
  0
VERTEX
  5
1B359
  8
ALPHA
 10
2496.316428
 20
639.124194
 30
0.0
  0
VERTEX
  5
1B35A
  8
ALPHA
 10
2496.878094
 20
639.010991
 30
0.0
  0
SEQEND
  5
1B35B
  8
ALPHA
  0
POLYLINE
  5
195CB
  8
ALPHA
 66
     1
 10
0.0
 20
0.0
 30
0.0
  0
VERTEX
  5
1B35C
  8
ALPHA
 10
2496.878094
 20
641.973874
 30
0.0
  0
VERTEX
  5
1B35D
  8
ALPHA
 10
2496.292224
 20
641.85585
 30
0.0
  0
VERTEX
  5
1B35E
  8
ALPHA
 10
2495.800323
 20
641.522755
 30
0.0
  0
VERTEX
  5
1B35F
  8
ALPHA
 10
2495.477417
 20
641.032892
 30
0.0
  0
VERTEX
  5
1B360
  8
ALPHA
 10
2495.365154
 20
640.460991
 30
0.0
  0
VERTEX
  5
1B361
  8
ALPHA
 10
2495.477417
 20
639.88909
 30
0.0
  0
VERTEX
  5
1B362
  8
ALPHA
 10
2495.800323
 20
639.399227
 30
0.0
  0
VERTEX
  5
1B363
  8
ALPHA
 10
2496.292224
 20
639.066132
 30
0.0
  0
VERTEX
  5
1B364
  8
ALPHA
 10
2496.878094
 20
638.948108
 30
0.0
  0
SEQEND
  5
1B365
  8
ALPHA
  0
LINE
  5
195D6
  8
ALPHA
 10
2496.878094
 20
634.473874
 30
0.0
 11
2496.878094
 21
634.410991
 31
0.0
  0
LINE
  5
195D7
  8
ALPHA
 10
2496.878094
 20
638.948108
 30
0.0
 11
2496.878094
 21
639.010991
 31
0.0
  0
LINE
  5
195D8
  8
ALPHA
 10
2496.878094
 20
641.973874
 30
0.0
 11
2496.878094
 21
641.910991
 31
0.0
  0
POLYLINE
  5
195D9
  8
ALPHA
 66
     1
 10
0.0
 20
0.0
 30
0.0
  0
VERTEX
  5
1B366
  8
ALPHA
 10
2496.878094
 20
626.910991
 30
0.0
  0
VERTEX
  5
1B367
  8
ALPHA
 10
2496.316428
 20
626.797788
 30
0.0
  0
VERTEX
  5
1B368
  8
ALPHA
 10
2495.844626
 20
626.478064
 30
0.0
  0
VERTEX
  5
1B369
  8
ALPHA
 10
2495.53561
 20
626.008921
 30
0.0
  0
VERTEX
  5
1B36A
  8
ALPHA
 10
2495.428094
 20
625.460991
 30
0.0
  0
VERTEX
  5
1B36B
  8
ALPHA
 10
2495.53561
 20
624.913061
 30
0.0
  0
VERTEX
  5
1B36C
  8
ALPHA
 10
2495.844626
 20
624.443918
 30
0.0
  0
VERTEX
  5
1B36D
  8
ALPHA
 10
2496.316429
 20
624.124194
 30
0.0
  0
VERTEX
  5
1B36E
  8
ALPHA
 10
2496.878095
 20
624.010991
 30
0.0
  0
SEQEND
  5
1B36F
  8
ALPHA
  0
POLYLINE
  5
195E4
  8
ALPHA
 66
     1
 10
0.0
 20
0.0
 30
0.0
  0
VERTEX
  5
1B370
  8
ALPHA
 10
2496.878094
 20
626.973874
 30
0.0
  0
VERTEX
  5
1B371
  8
ALPHA
 10
2496.292224
 20
626.85585
 30
0.0
  0
VERTEX
  5
1B372
  8
ALPHA
 10
2495.800323
 20
626.522755
 30
0.0
  0
VERTEX
  5
1B373
  8
ALPHA
 10
2495.477417
 20
626.032891
 30
0.0
  0
VERTEX
  5
1B374
  8
ALPHA
 10
2495.365154
 20
625.460991
 30
0.0
  0
VERTEX
  5
1B375
  8
ALPHA
 10
2495.477417
 20
624.88909
 30
0.0
  0
VERTEX
  5
1B376
  8
ALPHA
 10
2495.800324
 20
624.399227
 30
0.0
  0
VERTEX
  5
1B377
  8
ALPHA
 10
2496.292224
 20
624.066132
 30
0.0
  0
VERTEX
  5
1B378
  8
ALPHA
 10
2496.878094
 20
623.948108
 30
0.0
  0
SEQEND
  5
1B379
  8
ALPHA
  0
LINE
  5
195EF
  8
ALPHA
 10
2496.878094
 20
626.973874
 30
0.0
 11
2496.878094
 21
626.910991
 31
0.0
  0
POLYLINE
  5
195F0
  8
ALPHA
 66
     1
 10
0.0
 20
0.0
 30
0.0
  0
VERTEX
  5
1B37A
  8
ALPHA
 10
2519.594257
 20
632.960991
 30
0.0
  0
VERTEX
  5
1B37B
  8
ALPHA
 10
2519.569939
 20
631.877625
 30
0.0
  0
VERTEX
  5
1B37C
  8
ALPHA
 10
2519.498751
 20
630.874305
 30
0.0
  0
VERTEX
  5
1B37D
  8
ALPHA
 10
2519.385234
 20
630.018293
 30
0.0
  0
VERTEX
  5
1B37E
  8
ALPHA
 10
2519.280593
 20
629.560078
 30
0.0
  0
SEQEND
  5
1B37F
  8
ALPHA
  0
POLYLINE
  5
195F7
  8
ALPHA
 66
     1
 10
0.0
 20
0.0
 30
0.0
  0
VERTEX
  5
1B380
  8
ALPHA
 10
2520.567683
 20
632.960991
 30
0.0
  0
VERTEX
  5
1B381
  8
ALPHA
 10
2520.543596
 20
631.624747
 30
0.0
  0
VERTEX
  5
1B382
  8
ALPHA
 10
2520.472513
 20
630.379006
 30
0.0
  0
VERTEX
  5
1B383
  8
ALPHA
 10
2520.358957
 20
629.315243
 30
0.0
  0
VERTEX
  5
1B384
  8
ALPHA
 10
2520.209271
 20
628.500756
 30
0.0
  0
VERTEX
  5
1B385
  8
ALPHA
 10
2520.031963
 20
627.988954
 30
0.0
  0
VERTEX
  5
1B386
  8
ALPHA
 10
2519.837342
 20
627.815621
 30
0.0
  0
VERTEX
  5
1B387
  8
ALPHA
 10
2519.638804
 20
627.996302
 30
0.0
  0
VERTEX
  5
1B388
  8
ALPHA
 10
2519.450737
 20
628.519176
 30
0.0
  0
SEQEND
  5
1B389
  8
ALPHA
  0
POLYLINE
  5
19602
  8
ALPHA
 66
     1
 10
0.0
 20
0.0
 30
0.0
  0
VERTEX
  5
1B38A
  8
ALPHA
 10
2512.978094
 20
631.448108
 30
0.0
  0
VERTEX
  5
1B38B
  8
ALPHA
 10
2513.56393
 20
631.566165
 30
0.0
  0
VERTEX
  5
1B38C
  8
ALPHA
 10
2514.055791
 20
631.899269
 30
0.0
  0
VERTEX
  5
1B38D
  8
ALPHA
 10
2514.378667
 20
632.389117
 30
0.0
  0
VERTEX
  5
1B38E
  8
ALPHA
 10
2514.49092
 20
632.960991
 30
0.0
  0
VERTEX
  5
1B38F
  8
ALPHA
 10
2514.378667
 20
633.532865
 30
0.0
  0
VERTEX
  5
1B390
  8
ALPHA
 10
2514.055791
 20
634.022713
 30
0.0
  0
VERTEX
  5
1B391
  8
ALPHA
 10
2513.56393
 20
634.355817
 30
0.0
  0
VERTEX
  5
1B392
  8
ALPHA
 10
2512.978094
 20
634.473874
 30
0.0
  0
SEQEND
  5
1B393
  8
ALPHA
  0
POLYLINE
  5
1960D
  8
ALPHA
 66
     1
 10
0.0
 20
0.0
 30
0.0
  0
VERTEX
  5
1B394
  8
ALPHA
 10
2512.978094
 20
631.510991
 30
0.0
  0
VERTEX
  5
1B395
  8
ALPHA
 10
2513.53976
 20
631.624194
 30
0.0
  0
VERTEX
  5
1B396
  8
ALPHA
 10
2514.011563
 20
631.943918
 30
0.0
  0
VERTEX
  5
1B397
  8
ALPHA
 10
2514.320579
 20
632.413061
 30
0.0
  0
VERTEX
  5
1B398
  8
ALPHA
 10
2514.428094
 20
632.960991
 30
0.0
  0
VERTEX
  5
1B399
  8
ALPHA
 10
2514.320578
 20
633.508921
 30
0.0
  0
VERTEX
  5
1B39A
  8
ALPHA
 10
2514.011562
 20
633.978064
 30
0.0
  0
VERTEX
  5
1B39B
  8
ALPHA
 10
2513.53976
 20
634.297788
 30
0.0
  0
VERTEX
  5
1B39C
  8
ALPHA
 10
2512.978094
 20
634.410991
 30
0.0
  0
SEQEND
  5
1B39D
  8
ALPHA
  0
POLYLINE
  5
19618
  8
ALPHA
 66
     1
 10
0.0
 20
0.0
 30
0.0
  0
VERTEX
  5
1B39E
  8
ALPHA
 10
2519.450737
 20
628.519176
 30
0.0
  0
VERTEX
  5
1B39F
  8
ALPHA
 10
2519.287728
 20
629.344336
 30
0.0
  0
VERTEX
  5
1B3A0
  8
ALPHA
 10
2519.162042
 20
630.410928
 30
0.0
  0
VERTEX
  5
1B3A1
  8
ALPHA
 10
2519.082897
 20
631.644438
 30
0.0
  0
VERTEX
  5
1B3A2
  8
ALPHA
 10
2519.055932
 20
632.960991
 30
0.0
  0
SEQEND
  5
1B3A3
  8
ALPHA
  0
POLYLINE
  5
1961F
  8
ALPHA
 66
     1
 10
0.0
 20
0.0
 30
0.0
  0
VERTEX
  5
1B3A4
  8
ALPHA
 10
2519.524766
 20
628.48037
 30
0.0
  0
VERTEX
  5
1B3A5
  8
ALPHA
 10
2519.525631
 20
628.479027
 30
0.0
  0
VERTEX
  5
1B3A6
  8
ALPHA
 10
2519.483517
 20
628.587501
 30
0.0
  0
VERTEX
  5
1B3A7
  8
ALPHA
 10
2519.41239
 20
628.840697
 30
0.0
  0
VERTEX
  5
1B3A8
  8
ALPHA
 10
2519.333504
 20
629.220223
 30
0.0
  0
VERTEX
  5
1B3A9
  8
ALPHA
 10
2519.256452
 20
629.715143
 30
0.0
  0
VERTEX
  5
1B3AA
  8
ALPHA
 10
2519.18729
 20
630.314837
 30
0.0
  0
VERTEX
  5
1B3AB
  8
ALPHA
 10
2519.130767
 20
631.005552
 30
0.0
  0
VERTEX
  5
1B3AC
  8
ALPHA
 10
2519.090765
 20
631.769624
 30
0.0
  0
VERTEX
  5
1B3AD
  8
ALPHA
 10
2519.070282
 20
632.5853
 30
0.0
  0
VERTEX
  5
1B3AE
  8
ALPHA
 10
2519.068066
 20
632.960991
 30
0.0
  0
SEQEND
  5
1B3AF
  8
ALPHA
  0
POLYLINE
  5
1962C
  8
ALPHA
 66
     1
 10
0.0
 20
0.0
 30
0.0
  0
VERTEX
  5
1B3B0
  8
ALPHA
 10
2519.455251
 20
637.419983
 30
0.0
  0
VERTEX
  5
1B3B1
  8
ALPHA
 10
2519.642734
 20
637.932742
 30
0.0
  0
VERTEX
  5
1B3B2
  8
ALPHA
 10
2519.841082
 20
638.106362
 30
0.0
  0
VERTEX
  5
1B3B3
  8
ALPHA
 10
2520.035764
 20
637.925942
 30
0.0
  0
VERTEX
  5
1B3B4
  8
ALPHA
 10
2520.213483
 20
637.404007
 30
0.0
  0
VERTEX
  5
1B3B5
  8
ALPHA
 10
2520.36264
 20
636.580262
 30
0.0
  0
VERTEX
  5
1B3B6
  8
ALPHA
 10
2520.474801
 20
635.514242
 30
0.0
  0
VERTEX
  5
1B3B7
  8
ALPHA
 10
2520.54423
 20
634.279774
 30
0.0
  0
VERTEX
  5
1B3B8
  8
ALPHA
 10
2520.567683
 20
632.960991
 30
0.0
  0
SEQEND
  5
1B3B9
  8
ALPHA
  0
POLYLINE
  5
19637
  8
ALPHA
 66
     1
 10
0.0
 20
0.0
 30
0.0
  0
VERTEX
  5
1B3BA
  8
ALPHA
 10
2519.055932
 20
632.960991
 30
0.0
  0
VERTEX
  5
1B3BB
  8
ALPHA
 10
2519.083591
 20
634.294189
 30
0.0
  0
VERTEX
  5
1B3BC
  8
ALPHA
 10
2519.164593
 20
635.539349
 30
0.0
  0
VERTEX
  5
1B3BD
  8
ALPHA
 10
2519.291799
 20
636.604089
 30
0.0
  0
VERTEX
  5
1B3BE
  8
ALPHA
 10
2519.455251
 20
637.419983
 30
0.0
  0
SEQEND
  5
1B3BF
  8
ALPHA
  0
POLYLINE
  5
1963E
  8
ALPHA
 66
     1
 10
0.0
 20
0.0
 30
0.0
  0
VERTEX
  5
1B3C0
  8
ALPHA
 10
2519.068041
 20
632.960991
 30
0.0
  0
VERTEX
  5
1B3C1
  8
ALPHA
 10
2519.069341
 20
633.248513
 30
0.0
  0
VERTEX
  5
1B3C2
  8
ALPHA
 10
2519.085948
 20
634.019829
 30
0.0
  0
VERTEX
  5
1B3C3
  8
ALPHA
 10
2519.119935
 20
634.745618
 30
0.0
  0
VERTEX
  5
1B3C4
  8
ALPHA
 10
2519.168841
 20
635.409074
 30
0.0
  0
VERTEX
  5
1B3C5
  8
ALPHA
 10
2519.229648
 20
635.996391
 30
0.0
  0
VERTEX
  5
1B3C6
  8
ALPHA
 10
2519.29879
 20
636.49646
 30
0.0
  0
VERTEX
  5
1B3C7
  8
ALPHA
 10
2519.371904
 20
636.900385
 30
0.0
  0
VERTEX
  5
1B3C8
  8
ALPHA
 10
2519.443237
 20
637.201026
 30
0.0
  0
VERTEX
  5
1B3C9
  8
ALPHA
 10
2519.502607
 20
637.388245
 30
0.0
  0
VERTEX
  5
1B3CA
  8
ALPHA
 10
2519.516202
 20
637.42222
 30
0.0
  0
SEQEND
  5
1B3CB
  8
ALPHA
  0
POLYLINE
  5
1964B
  8
ALPHA
 66
     1
 10
0.0
 20
0.0
 30
0.0
  0
VERTEX
  5
1B3CC
  8
ALPHA
 10
2512.978094
 20
638.948108
 30
0.0
  0
VERTEX
  5
1B3CD
  8
ALPHA
 10
2513.56393
 20
639.066165
 30
0.0
  0
VERTEX
  5
1B3CE
  8
ALPHA
 10
2514.055791
 20
639.399269
 30
0.0
  0
VERTEX
  5
1B3CF
  8
ALPHA
 10
2514.378667
 20
639.889117
 30
0.0
  0
VERTEX
  5
1B3D0
  8
ALPHA
 10
2514.49092
 20
640.460991
 30
0.0
  0
VERTEX
  5
1B3D1
  8
ALPHA
 10
2514.378667
 20
641.032865
 30
0.0
  0
VERTEX
  5
1B3D2
  8
ALPHA
 10
2514.055791
 20
641.522713
 30
0.0
  0
VERTEX
  5
1B3D3
  8
ALPHA
 10
2513.56393
 20
641.855817
 30
0.0
  0
VERTEX
  5
1B3D4
  8
ALPHA
 10
2512.978094
 20
641.973874
 30
0.0
  0
SEQEND
  5
1B3D5
  8
ALPHA
  0
POLYLINE
  5
19656
  8
ALPHA
 66
     1
 10
0.0
 20
0.0
 30
0.0
  0
VERTEX
  5
1B3D6
  8
ALPHA
 10
2512.978094
 20
639.010991
 30
0.0
  0
VERTEX
  5
1B3D7
  8
ALPHA
 10
2513.53976
 20
639.124194
 30
0.0
  0
VERTEX
  5
1B3D8
  8
ALPHA
 10
2514.011563
 20
639.443918
 30
0.0
  0
VERTEX
  5
1B3D9
  8
ALPHA
 10
2514.320579
 20
639.913061
 30
0.0
  0
VERTEX
  5
1B3DA
  8
ALPHA
 10
2514.428094
 20
640.460991
 30
0.0
  0
VERTEX
  5
1B3DB
  8
ALPHA
 10
2514.320579
 20
641.008921
 30
0.0
  0
VERTEX
  5
1B3DC
  8
ALPHA
 10
2514.011563
 20
641.478064
 30
0.0
  0
VERTEX
  5
1B3DD
  8
ALPHA
 10
2513.53976
 20
641.797788
 30
0.0
  0
VERTEX
  5
1B3DE
  8
ALPHA
 10
2512.978094
 20
641.910991
 30
0.0
  0
SEQEND
  5
1B3DF
  8
ALPHA
  0
LINE
  5
19661
  8
ALPHA
 10
2512.978094
 20
634.473874
 30
0.0
 11
2512.978094
 21
634.410991
 31
0.0
  0
LINE
  5
19662
  8
ALPHA
 10
2512.978094
 20
641.973874
 30
0.0
 11
2512.978094
 21
641.910991
 31
0.0
  0
POLYLINE
  5
19663
  8
ALPHA
 66
     1
 10
0.0
 20
0.0
 30
0.0
  0
VERTEX
  5
1B3E0
  8
ALPHA
 10
2519.280558
 20
636.364598
 30
0.0
  0
VERTEX
  5
1B3E1
  8
ALPHA
 10
2519.389809
 20
635.877138
 30
0.0
  0
VERTEX
  5
1B3E2
  8
ALPHA
 10
2519.501635
 20
635.018428
 30
0.0
  0
VERTEX
  5
1B3E3
  8
ALPHA
 10
2519.570867
 20
634.02378
 30
0.0
  0
VERTEX
  5
1B3E4
  8
ALPHA
 10
2519.594257
 20
632.960991
 30
0.0
  0
SEQEND
  5
1B3E5
  8
ALPHA
  0
POLYLINE
  5
1966A
  8
ALPHA
 66
     1
 10
0.0
 20
0.0
 30
0.0
  0
VERTEX
  5
1B3E6
  8
ALPHA
 10
2512.978094
 20
623.948108
 30
0.0
  0
VERTEX
  5
1B3E7
  8
ALPHA
 10
2513.56393
 20
624.066165
 30
0.0
  0
VERTEX
  5
1B3E8
  8
ALPHA
 10
2514.055791
 20
624.399269
 30
0.0
  0
VERTEX
  5
1B3E9
  8
ALPHA
 10
2514.378667
 20
624.889117
 30
0.0
  0
VERTEX
  5
1B3EA
  8
ALPHA
 10
2514.49092
 20
625.460991
 30
0.0
  0
VERTEX
  5
1B3EB
  8
ALPHA
 10
2514.378667
 20
626.032865
 30
0.0
  0
VERTEX
  5
1B3EC
  8
ALPHA
 10
2514.055791
 20
626.522713
 30
0.0
  0
VERTEX
  5
1B3ED
  8
ALPHA
 10
2513.56393
 20
626.855817
 30
0.0
  0
VERTEX
  5
1B3EE
  8
ALPHA
 10
2512.978094
 20
626.973874
 30
0.0
  0
SEQEND
  5
1B3EF
  8
ALPHA
  0
POLYLINE
  5
19675
  8
ALPHA
 66
     1
 10
0.0
 20
0.0
 30
0.0
  0
VERTEX
  5
1B3F0
  8
ALPHA
 10
2512.978094
 20
624.010991
 30
0.0
  0
VERTEX
  5
1B3F1
  8
ALPHA
 10
2513.53976
 20
624.124194
 30
0.0
  0
VERTEX
  5
1B3F2
  8
ALPHA
 10
2514.011563
 20
624.443918
 30
0.0
  0
VERTEX
  5
1B3F3
  8
ALPHA
 10
2514.320579
 20
624.913061
 30
0.0
  0
VERTEX
  5
1B3F4
  8
ALPHA
 10
2514.428094
 20
625.460991
 30
0.0
  0
VERTEX
  5
1B3F5
  8
ALPHA
 10
2514.320579
 20
626.008921
 30
0.0
  0
VERTEX
  5
1B3F6
  8
ALPHA
 10
2514.011563
 20
626.478064
 30
0.0
  0
VERTEX
  5
1B3F7
  8
ALPHA
 10
2513.53976
 20
626.797788
 30
0.0
  0
VERTEX
  5
1B3F8
  8
ALPHA
 10
2512.978094
 20
626.910991
 30
0.0
  0
SEQEND
  5
1B3F9
  8
ALPHA
  0
LINE
  5
19680
  8
ALPHA
 10
2512.978094
 20
626.973874
 30
0.0
 11
2512.978094
 21
626.910991
 31
0.0
  0
LINE
  5
19681
  8
ALPHA
 10
2497.593528
 20
601.160991
 30
0.0
 11
2497.172556
 21
577.043539
 31
0.0
  0
LINE
  5
19682
  8
ALPHA
 10
2514.473581
 20
611.386482
 30
0.0
 11
2506.79615
 21
602.715501
 31
0.0
  0
LINE
  5
19683
  8
ALPHA
 10
2513.376712
 20
612.380848
 30
0.0
 11
2505.699281
 21
603.709867
 31
0.0
  0
LINE
  5
19684
  8
ALPHA
 10
2509.448407
 20
605.710991
 30
0.0
 11
2511.328094
 21
605.710991
 31
0.0
  0
LINE
  5
19685
  8
ALPHA
 10
2512.978094
 20
616.406175
 30
0.0
 11
2496.878094
 21
616.406175
 31
0.0
  0
LINE
  5
19686
  8
ALPHA
 10
2512.978094
 20
616.510991
 30
0.0
 11
2496.878094
 21
616.510991
 31
0.0
  0
LINE
  5
19687
  8
ALPHA
 10
2503.528094
 20
617.710991
 30
0.0
 11
2511.328094
 21
617.710991
 31
0.0
  0
LINE
  5
19688
  8
ALPHA
 10
2496.878094
 20
619.410991
 30
0.0
 11
2512.978094
 21
619.410991
 31
0.0
  0
LINE
  5
19689
  8
ALPHA
 10
2496.878094
 20
619.515807
 30
0.0
 11
2512.978094
 21
619.515807
 31
0.0
  0
LINE
  5
1968A
  8
ALPHA
 10
2505.028094
 20
618.818491
 30
0.0
 11
2505.028094
 21
619.410991
 31
0.0
  0
LINE
  5
1968B
  8
ALPHA
 10
2504.228094
 20
619.060991
 30
0.0
 11
2504.228094
 21
619.410991
 31
0.0
  0
LINE
  5
1968C
  8
ALPHA
 10
2504.228094
 20
618.260991
 30
0.0
 11
2504.228094
 21
618.818491
 31
0.0
  0
LINE
  5
1968D
  8
ALPHA
 10
2503.528094
 20
616.510991
 30
0.0
 11
2503.528094
 21
619.410991
 31
0.0
  0
LINE
  5
1968E
  8
ALPHA
 10
2501.928094
 20
619.410991
 30
0.0
 11
2501.928094
 21
616.510991
 31
0.0
  0
LINE
  5
1968F
  8
ALPHA
 10
2504.228094
 20
618.260991
 30
0.0
 11
2503.528094
 21
618.260991
 31
0.0
  0
LINE
  5
19690
  8
ALPHA
 10
2505.028094
 20
618.818491
 30
0.0
 11
2503.528094
 21
618.818491
 31
0.0
  0
LINE
  5
19691
  8
ALPHA
 10
2504.228094
 20
619.060991
 30
0.0
 11
2503.528094
 21
619.060991
 31
0.0
  0
LINE
  5
19692
  8
ALPHA
 10
2504.228094
 20
619.260991
 30
0.0
 11
2503.528094
 21
619.260991
 31
0.0
  0
LINE
  5
19693
  8
ALPHA
 10
2496.878094
 20
616.510991
 30
0.0
 11
2496.878094
 21
616.406175
 31
0.0
  0
LINE
  5
19694
  8
ALPHA
 10
2496.878094
 20
619.410991
 30
0.0
 11
2496.878094
 21
619.515807
 31
0.0
  0
POLYLINE
  5
19695
  8
ALPHA
 66
     1
 10
0.0
 20
0.0
 30
0.0
  0
VERTEX
  5
1B3FA
  8
ALPHA
 10
2496.878094
 20
616.510991
 30
0.0
  0
VERTEX
  5
1B3FB
  8
ALPHA
 10
2496.316437
 20
616.62419
 30
0.0
  0
VERTEX
  5
1B3FC
  8
ALPHA
 10
2495.844639
 20
616.943904
 30
0.0
  0
VERTEX
  5
1B3FD
  8
ALPHA
 10
2495.535611
 20
617.413059
 30
0.0
  0
VERTEX
  5
1B3FE
  8
ALPHA
 10
2495.428094
 20
617.960991
 30
0.0
  0
VERTEX
  5
1B3FF
  8
ALPHA
 10
2495.535611
 20
618.508923
 30
0.0
  0
VERTEX
  5
1B400
  8
ALPHA
 10
2495.844639
 20
618.978078
 30
0.0
  0
VERTEX
  5
1B401
  8
ALPHA
 10
2496.316437
 20
619.297792
 30
0.0
  0
VERTEX
  5
1B402
  8
ALPHA
 10
2496.878094
 20
619.410991
 30
0.0
  0
SEQEND
  5
1B403
  8
ALPHA
  0
POLYLINE
  5
196A0
  8
ALPHA
 66
     1
 10
0.0
 20
0.0
 30
0.0
  0
VERTEX
  5
1B404
  8
ALPHA
 10
2496.878094
 20
616.406175
 30
0.0
  0
VERTEX
  5
1B405
  8
ALPHA
 10
2496.276094
 20
616.527409
 30
0.0
  0
VERTEX
  5
1B406
  8
ALPHA
 10
2495.770786
 20
616.86942
 30
0.0
  0
VERTEX
  5
1B407
  8
ALPHA
 10
2495.438611
 20
617.373109
 30
0.0
  0
VERTEX
  5
1B408
  8
ALPHA
 10
2495.323183
 20
617.960991
 30
0.0
  0
VERTEX
  5
1B409
  8
ALPHA
 10
2495.438611
 20
618.548873
 30
0.0
  0
VERTEX
  5
1B40A
  8
ALPHA
 10
2495.770786
 20
619.052562
 30
0.0
  0
VERTEX
  5
1B40B
  8
ALPHA
 10
2496.276094
 20
619.394573
 30
0.0
  0
VERTEX
  5
1B40C
  8
ALPHA
 10
2496.878094
 20
619.515807
 30
0.0
  0
SEQEND
  5
1B40D
  8
ALPHA
  0
ARC
  5
196AB
  8
ALPHA
 10
2505.673102
 20
603.709867
 30
0.0
 40
1.5
 50
271.0
 51
318.477787
  0
POLYLINE
  5
196AC
  8
ALPHA
 66
     1
 10
0.0
 20
0.0
 30
0.0
  0
VERTEX
  5
1B40E
  8
ALPHA
 10
2494.453969
 20
608.416599
 30
0.0
  0
VERTEX
  5
1B40F
  8
ALPHA
 10
2494.45687
 20
608.418489
 30
0.0
  0
VERTEX
  5
1B410
  8
ALPHA
 10
2494.460627
 20
608.431903
 30
0.0
  0
VERTEX
  5
1B411
  8
ALPHA
 10
2494.462111
 20
608.456192
 30
0.0
  0
SEQEND
  5
1B412
  8
ALPHA
  0
POLYLINE
  5
196B2
  8
ALPHA
 66
     1
 10
0.0
 20
0.0
 30
0.0
  0
VERTEX
  5
1B413
  8
ALPHA
 10
2494.455545
 20
606.713024
 30
0.0
  0
VERTEX
  5
1B414
  8
ALPHA
 10
2494.451044
 20
606.709214
 30
0.0
  0
VERTEX
  5
1B415
  8
ALPHA
 10
2494.444665
 20
606.695572
 30
0.0
  0
SEQEND
  5
1B416
  8
ALPHA
  0
POLYLINE
  5
196B7
  8
ALPHA
 66
     1
 10
0.0
 20
0.0
 30
0.0
  0
VERTEX
  5
1B417
  8
ALPHA
 10
2494.444665
 20
606.695572
 30
0.0
  0
VERTEX
  5
1B418
  8
ALPHA
 10
2494.432909
 20
606.675025
 30
0.0
  0
VERTEX
  5
1B419
  8
ALPHA
 10
2494.429026
 20
606.673491
 30
0.0
  0
SEQEND
  5
1B41A
  8
ALPHA
  0
POLYLINE
  5
196BC
  8
ALPHA
 66
     1
 10
0.0
 20
0.0
 30
0.0
  0
VERTEX
  5
1B41B
  8
ALPHA
 10
2494.458936
 20
608.400194
 30
0.0
  0
VERTEX
  5
1B41C
  8
ALPHA
 10
2494.453909
 20
608.386689
 30
0.0
  0
VERTEX
  5
1B41D
  8
ALPHA
 10
2494.45006
 20
608.384591
 30
0.0
  0
SEQEND
  5
1B41E
  8
ALPHA
  0
POLYLINE
  5
196C1
  8
ALPHA
 66
     1
 10
0.0
 20
0.0
 30
0.0
  0
VERTEX
  5
1B41F
  8
ALPHA
 10
2494.412797
 20
608.409417
 30
0.0
  0
VERTEX
  5
1B420
  8
ALPHA
 10
2494.420743
 20
608.440234
 30
0.0
  0
VERTEX
  5
1B421
  8
ALPHA
 10
2494.429028
 20
608.448491
 30
0.0
  0
SEQEND
  5
1B422
  8
ALPHA
  0
LINE
  5
196C6
  8
ALPHA
 10
2494.444665
 20
606.695572
 30
0.0
 11
2494.417181
 21
606.695572
 31
0.0
  0
LINE
  5
196C7
  8
ALPHA
 10
2494.413057
 20
606.713024
 30
0.0
 11
2494.455452
 21
606.713024
 31
0.0
  0
LINE
  5
196C8
  8
ALPHA
 10
2494.43994
 20
607.24746
 30
0.0
 11
2494.430792
 21
607.24746
 31
0.0
  0
LINE
  5
196C9
  8
ALPHA
 10
2494.43561
 20
607.898984
 30
0.0
 11
2494.427735
 21
607.898984
 31
0.0
  0
LINE
  5
196CA
  8
ALPHA
 10
2494.410154
 20
608.38459
 30
0.0
 11
2494.449715
 21
608.38459
 31
0.0
  0
LINE
  5
196CB
  8
ALPHA
 10
2494.414648
 20
608.416598
 30
0.0
 11
2494.453669
 21
608.416598
 31
0.0
  0
LINE
  5
196CC
  8
ALPHA
 10
2494.442097
 20
608.432742
 30
0.0
 11
2494.418811
 21
608.432742
 31
0.0
  0
LINE
  5
196CD
  8
ALPHA
 10
2494.413307
 20
608.38459
 30
0.0
 11
2494.410172
 21
608.370216
 31
0.0
  0
POLYLINE
  5
196CE
  8
ALPHA
 66
     1
 10
0.0
 20
0.0
 30
0.0
  0
VERTEX
  5
1B423
  8
ALPHA
 10
2494.43994
 20
607.24746
 30
0.0
  0
VERTEX
  5
1B424
  8
ALPHA
 10
2494.428727
 20
607.169245
 30
0.0
  0
VERTEX
  5
1B425
  8
ALPHA
 10
2494.418901
 20
607.078902
 30
0.0
  0
VERTEX
  5
1B426
  8
ALPHA
 10
2494.411402
 20
606.984958
 30
0.0
  0
VERTEX
  5
1B427
  8
ALPHA
 10
2494.406663
 20
606.894964
 30
0.0
  0
VERTEX
  5
1B428
  8
ALPHA
 10
2494.405052
 20
606.82634
 30
0.0
  0
SEQEND
  5
1B429
  8
ALPHA
  0
LINE
  5
196D6
  8
ALPHA
 10
2494.43994
 20
607.24746
 30
0.0
 11
2494.450202
 21
607.323628
 31
0.0
  0
POLYLINE
  5
196D7
  8
ALPHA
 66
     1
 10
0.0
 20
0.0
 30
0.0
  0
VERTEX
  5
1B42A
  8
ALPHA
 10
2494.450202
 20
607.323628
 30
0.0
  0
VERTEX
  5
1B42B
  8
ALPHA
 10
2494.457106
 20
607.403545
 30
0.0
  0
VERTEX
  5
1B42C
  8
ALPHA
 10
2494.461094
 20
607.487907
 30
0.0
  0
VERTEX
  5
1B42D
  8
ALPHA
 10
2494.461551
 20
607.526911
 30
0.0
  0
SEQEND
  5
1B42E
  8
ALPHA
  0
POLYLINE
  5
196DD
  8
ALPHA
 66
     1
 10
0.0
 20
0.0
 30
0.0
  0
VERTEX
  5
1B42F
  8
ALPHA
 10
2505.699281
 20
602.210095
 30
0.0
  0
VERTEX
  5
1B430
  8
ALPHA
 10
2505.707302
 20
602.32439
 30
0.0
  0
VERTEX
  5
1B431
  8
ALPHA
 10
2505.710119
 20
602.64953
 30
0.0
  0
VERTEX
  5
1B432
  8
ALPHA
 10
2505.707302
 20
603.136035
 30
0.0
  0
VERTEX
  5
1B433
  8
ALPHA
 10
2505.699281
 20
603.709867
 30
0.0
  0
SEQEND
  5
1B434
  8
ALPHA
  0
POLYLINE
  5
196E4
  8
ALPHA
 66
     1
 10
0.0
 20
0.0
 30
0.0
  0
VERTEX
  5
1B435
  8
ALPHA
 10
2494.429028
 20
608.448491
 30
0.0
  0
VERTEX
  5
1B436
  8
ALPHA
 10
2494.430824
 20
608.448149
 30
0.0
  0
VERTEX
  5
1B437
  8
ALPHA
 10
2494.442097
 20
608.432742
 30
0.0
  0
SEQEND
  5
1B438
  8
ALPHA
  0
POLYLINE
  5
196E9
  8
ALPHA
 66
     1
 10
0.0
 20
0.0
 30
0.0
  0
VERTEX
  5
1B439
  8
ALPHA
 10
2494.462117
 20
608.45614
 30
0.0
  0
VERTEX
  5
1B43A
  8
ALPHA
 10
2494.46156
 20
608.423964
 30
0.0
  0
VERTEX
  5
1B43B
  8
ALPHA
 10
2494.458936
 20
608.400194
 30
0.0
  0
SEQEND
  5
1B43C
  8
ALPHA
  0
POLYLINE
  5
196EE
  8
ALPHA
 66
     1
 10
0.0
 20
0.0
 30
0.0
  0
VERTEX
  5
1B43D
  8
ALPHA
 10
2494.462098
 20
606.66568
 30
0.0
  0
VERTEX
  5
1B43E
  8
ALPHA
 10
2494.461751
 20
606.690205
 30
0.0
  0
VERTEX
  5
1B43F
  8
ALPHA
 10
2494.4598
 20
606.706311
 30
0.0
  0
VERTEX
  5
1B440
  8
ALPHA
 10
2494.456194
 20
606.712915
 30
0.0
  0
VERTEX
  5
1B441
  8
ALPHA
 10
2494.455545
 20
606.713024
 30
0.0
  0
SEQEND
  5
1B442
  8
ALPHA
  0
POLYLINE
  5
196F5
  8
ALPHA
 66
     1
 10
0.0
 20
0.0
 30
0.0
  0
VERTEX
  5
1B443
  8
ALPHA
 10
2494.405086
 20
608.238763
 30
0.0
  0
VERTEX
  5
1B444
  8
ALPHA
 10
2494.406085
 20
608.188215
 30
0.0
  0
VERTEX
  5
1B445
  8
ALPHA
 10
2494.410155
 20
608.112401
 30
0.0
  0
VERTEX
  5
1B446
  8
ALPHA
 10
2494.41677
 20
608.03466
 30
0.0
  0
VERTEX
  5
1B447
  8
ALPHA
 10
2494.425555
 20
607.961042
 30
0.0
  0
VERTEX
  5
1B448
  8
ALPHA
 10
2494.43561
 20
607.898984
 30
0.0
  0
SEQEND
  5
1B449
  8
ALPHA
  0
POLYLINE
  5
196FD
  8
ALPHA
 66
     1
 10
0.0
 20
0.0
 30
0.0
  0
VERTEX
  5
1B44A
  8
ALPHA
 10
2494.46118
 20
607.615876
 30
0.0
  0
VERTEX
  5
1B44B
  8
ALPHA
 10
2494.460107
 20
607.662168
 30
0.0
  0
VERTEX
  5
1B44C
  8
ALPHA
 10
2494.45517
 20
607.745134
 30
0.0
  0
SEQEND
  5
1B44D
  8
ALPHA
  0
LINE
  5
19702
  8
ALPHA
 10
2494.45517
 20
607.745134
 30
0.0
 11
2494.447232
 21
607.823845
 31
0.0
  0
POLYLINE
  5
19703
  8
ALPHA
 66
     1
 10
0.0
 20
0.0
 30
0.0
  0
VERTEX
  5
1B44E
  8
ALPHA
 10
2494.41383
 20
606.706586
 30
0.0
  0
VERTEX
  5
1B44F
  8
ALPHA
 10
2494.408085
 20
606.75439
 30
0.0
  0
VERTEX
  5
1B450
  8
ALPHA
 10
2494.405055
 20
606.820415
 30
0.0
  0
VERTEX
  5
1B451
  8
ALPHA
 10
2494.405018
 20
606.902669
 30
0.0
  0
VERTEX
  5
1B452
  8
ALPHA
 10
2494.408056
 20
606.993453
 30
0.0
  0
VERTEX
  5
1B453
  8
ALPHA
 10
2494.413826
 20
607.085988
 30
0.0
  0
VERTEX
  5
1B454
  8
ALPHA
 10
2494.422337
 20
607.179408
 30
0.0
  0
VERTEX
  5
1B455
  8
ALPHA
 10
2494.43297
 20
607.264985
 30
0.0
  0
VERTEX
  5
1B456
  8
ALPHA
 10
2494.444665
 20
607.334745
 30
0.0
  0
SEQEND
  5
1B457
  8
ALPHA
  0
LINE
  5
1970E
  8
ALPHA
 10
2494.462111
 20
608.456192
 30
0.0
 11
2494.436707
 21
608.65801
 31
0.0
  0
LINE
  5
1970F
  8
ALPHA
 10
2494.447232
 20
607.823845
 30
0.0
 11
2494.43561
 21
607.898984
 31
0.0
  0
POLYLINE
  5
19710
  8
ALPHA
 66
     1
 10
0.0
 20
0.0
 30
0.0
  0
VERTEX
  5
1B458
  8
ALPHA
 10
2494.444665
 20
607.787237
 30
0.0
  0
VERTEX
  5
1B459
  8
ALPHA
 10
2494.452363
 20
607.738159
 30
0.0
  0
VERTEX
  5
1B45A
  8
ALPHA
 10
2494.457754
 20
607.68336
 30
0.0
  0
VERTEX
  5
1B45B
  8
ALPHA
 10
2494.461039
 20
607.623756
 30
0.0
  0
VERTEX
  5
1B45C
  8
ALPHA
 10
2494.462159
 20
607.560987
 30
0.0
  0
VERTEX
  5
1B45D
  8
ALPHA
 10
2494.461039
 20
607.498218
 30
0.0
  0
VERTEX
  5
1B45E
  8
ALPHA
 10
2494.457753
 20
607.438611
 30
0.0
  0
VERTEX
  5
1B45F
  8
ALPHA
 10
2494.452362
 20
607.383816
 30
0.0
  0
VERTEX
  5
1B460
  8
ALPHA
 10
2494.444665
 20
607.334745
 30
0.0
  0
SEQEND
  5
1B461
  8
ALPHA
  0
POLYLINE
  5
1971B
  8
ALPHA
 66
     1
 10
0.0
 20
0.0
 30
0.0
  0
VERTEX
  5
1B462
  8
ALPHA
 10
2494.444665
 20
607.787237
 30
0.0
  0
VERTEX
  5
1B463
  8
ALPHA
 10
2494.433166
 20
607.855637
 30
0.0
  0
VERTEX
  5
1B464
  8
ALPHA
 10
2494.422719
 20
607.939022
 30
0.0
  0
VERTEX
  5
1B465
  8
ALPHA
 10
2494.414311
 20
608.029721
 30
0.0
  0
VERTEX
  5
1B466
  8
ALPHA
 10
2494.408453
 20
608.120514
 30
0.0
  0
VERTEX
  5
1B467
  8
ALPHA
 10
2494.405188
 20
608.210428
 30
0.0
  0
VERTEX
  5
1B468
  8
ALPHA
 10
2494.40489
 20
608.292741
 30
0.0
  0
VERTEX
  5
1B469
  8
ALPHA
 10
2494.407525
 20
608.35989
 30
0.0
  0
VERTEX
  5
1B46A
  8
ALPHA
 10
2494.412797
 20
608.409417
 30
0.0
  0
SEQEND
  5
1B46B
  8
ALPHA
  0
LINE
  5
19726
  8
ALPHA
 10
2494.450663
 20
608.418266
 30
0.0
 11
2494.453969
 21
608.416599
 31
0.0
  0
POLYLINE
  5
19727
  8
ALPHA
 66
     1
 10
0.0
 20
0.0
 30
0.0
  0
VERTEX
  5
1B46C
  8
ALPHA
 10
2494.429026
 20
606.673491
 30
0.0
  0
VERTEX
  5
1B46D
  8
ALPHA
 10
2494.422286
 20
606.678793
 30
0.0
  0
VERTEX
  5
1B46E
  8
ALPHA
 10
2494.41383
 20
606.706586
 30
0.0
  0
SEQEND
  5
1B46F
  8
ALPHA
  0
POLYLINE
  5
1972C
  8
ALPHA
 66
     1
 10
0.0
 20
0.0
 30
0.0
  0
VERTEX
  5
1B470
  8
ALPHA
 10
2506.79615
 20
602.715501
 30
0.0
  0
VERTEX
  5
1B471
  8
ALPHA
 10
2506.716156
 20
602.795145
 30
0.0
  0
VERTEX
  5
1B472
  8
ALPHA
 10
2506.479122
 20
603.012517
 30
0.0
  0
VERTEX
  5
1B473
  8
ALPHA
 10
2506.120928
 20
603.334706
 30
0.0
  0
VERTEX
  5
1B474
  8
ALPHA
 10
2505.699281
 20
603.709867
 30
0.0
  0
SEQEND
  5
1B475
  8
ALPHA
  0
LINE
  5
19733
  8
ALPHA
 10
2494.442097
 20
608.432742
 30
0.0
 11
2494.450663
 21
608.418266
 31
0.0
  0
ARC
  5
19734
  8
ALPHA
 10
2514.870392
 20
611.03514
 30
0.0
 40
0.53
 50
91.0
 51
138.477787
  0
ARC
  5
19735
  8
ALPHA
 10
2523.628056
 20
613.218314
 30
0.0
 40
1.5
 50
271.0
 51
360.0
  0
POLYLINE
  5
19736
  8
ALPHA
 66
     1
 10
0.0
 20
0.0
 30
0.0
  0
VERTEX
  5
1B476
  8
ALPHA
 10
2514.861142
 20
613.06483
 30
0.0
  0
VERTEX
  5
1B477
  8
ALPHA
 10
2514.308287
 20
612.977963
 30
0.0
  0
VERTEX
  5
1B478
  8
ALPHA
 10
2513.801996
 20
612.744661
 30
0.0
  0
VERTEX
  5
1B479
  8
ALPHA
 10
2513.376712
 20
612.380848
 30
0.0
  0
SEQEND
  5
1B47A
  8
ALPHA
  0
POLYLINE
  5
1973C
  8
ALPHA
 66
     1
 10
0.0
 20
0.0
 30
0.0
  0
VERTEX
  5
1B47B
  8
ALPHA
 10
2518.962342
 20
613.111014
 30
0.0
  0
VERTEX
  5
1B47C
  8
ALPHA
 10
2518.851562
 20
612.541159
 30
0.0
  0
VERTEX
  5
1B47D
  8
ALPHA
 10
2518.535013
 20
612.056544
 30
0.0
  0
VERTEX
  5
1B47E
  8
ALPHA
 10
2518.060283
 20
611.730234
 30
0.0
  0
VERTEX
  5
1B47F
  8
ALPHA
 10
2517.507017
 20
611.611243
 30
0.0
  0
SEQEND
  5
1B480
  8
ALPHA
  0
POLYLINE
  5
19743
  8
ALPHA
 66
     1
 10
0.0
 20
0.0
 30
0.0
  0
VERTEX
  5
1B481
  8
ALPHA
 10
2517.949292
 20
611.618963
 30
0.0
  0
VERTEX
  5
1B482
  8
ALPHA
 10
2517.873557
 20
611.194438
 30
0.0
  0
VERTEX
  5
1B483
  8
ALPHA
 10
2517.727414
 20
610.680925
 30
0.0
  0
VERTEX
  5
1B484
  8
ALPHA
 10
2517.568778
 20
610.22859
 30
0.0
  0
VERTEX
  5
1B485
  8
ALPHA
 10
2517.381027
 20
609.849556
 30
0.0
  0
VERTEX
  5
1B486
  8
ALPHA
 10
2517.151119
 20
609.555151
 30
0.0
  0
VERTEX
  5
1B487
  8
ALPHA
 10
2516.878094
 20
609.330991
 30
0.0
  0
SEQEND
  5
1B488
  8
ALPHA
  0
POLYLINE
  5
1974C
  8
ALPHA
 66
     1
 10
0.0
 20
0.0
 30
0.0
  0
VERTEX
  5
1B489
  8
ALPHA
 10
2517.507017
 20
611.611243
 30
0.0
  0
VERTEX
  5
1B48A
  8
ALPHA
 10
2517.515039
 20
611.725537
 30
0.0
  0
VERTEX
  5
1B48B
  8
ALPHA
 10
2517.517855
 20
612.050677
 30
0.0
  0
VERTEX
  5
1B48C
  8
ALPHA
 10
2517.515039
 20
612.537182
 30
0.0
  0
VERTEX
  5
1B48D
  8
ALPHA
 10
2517.507017
 20
613.111014
 30
0.0
  0
SEQEND
  5
1B48E
  8
ALPHA
  0
POLYLINE
  5
19753
  8
ALPHA
 66
     1
 10
0.0
 20
0.0
 30
0.0
  0
VERTEX
  5
1B48F
  8
ALPHA
 10
2514.861142
 20
611.565059
 30
0.0
  0
VERTEX
  5
1B490
  8
ALPHA
 10
2514.869163
 20
611.679353
 30
0.0
  0
VERTEX
  5
1B491
  8
ALPHA
 10
2514.87198
 20
612.004493
 30
0.0
  0
VERTEX
  5
1B492
  8
ALPHA
 10
2514.869163
 20
612.490998
 30
0.0
  0
VERTEX
  5
1B493
  8
ALPHA
 10
2514.861142
 20
613.06483
 30
0.0
  0
SEQEND
  5
1B494
  8
ALPHA
  0
LINE
  5
1975A
  8
ALPHA
 10
2516.878094
 20
609.330991
 30
0.0
 11
2516.878094
 21
611.600265
 31
0.0
  0
LINE
  5
1975B
  8
ALPHA
 10
2512.653615
 20
609.330991
 30
0.0
 11
2516.878094
 21
609.330991
 31
0.0
  0
LINE
  5
1975C
  8
ALPHA
 10
2518.962342
 20
613.111014
 30
0.0
 11
2517.507017
 21
613.111014
 31
0.0
  0
LINE
  5
1975D
  8
ALPHA
 10
2518.962342
 20
613.11102
 30
0.0
 11
2525.128094
 21
613.218308
 31
0.0
  0
LINE
  5
1975E
  8
ALPHA
 10
2523.654437
 20
611.718546
 30
0.0
 11
2514.861142
 21
611.565059
 31
0.0
  0
LINE
  5
1975F
  8
ALPHA
 10
2517.507017
 20
613.111014
 30
0.0
 11
2514.861142
 21
613.06483
 31
0.0
  0
LINE
  5
19760
  8
ALPHA
 10
2512.978094
 20
616.510991
 30
0.0
 11
2512.978094
 21
616.406175
 31
0.0
  0
LINE
  5
19761
  8
ALPHA
 10
2512.978094
 20
619.410991
 30
0.0
 11
2512.978094
 21
619.515807
 31
0.0
  0
LINE
  5
19762
  8
ALPHA
 10
2511.328094
 20
617.710991
 30
0.0
 11
2511.328094
 21
616.510991
 31
0.0
  0
POLYLINE
  5
19763
  8
ALPHA
 66
     1
 10
0.0
 20
0.0
 30
0.0
  0
VERTEX
  5
1B495
  8
ALPHA
 10
2512.978094
 20
619.410991
 30
0.0
  0
VERTEX
  5
1B496
  8
ALPHA
 10
2513.539751
 20
619.297792
 30
0.0
  0
VERTEX
  5
1B497
  8
ALPHA
 10
2514.011549
 20
618.978078
 30
0.0
  0
VERTEX
  5
1B498
  8
ALPHA
 10
2514.320578
 20
618.508923
 30
0.0
  0
VERTEX
  5
1B499
  8
ALPHA
 10
2514.428094
 20
617.960991
 30
0.0
  0
VERTEX
  5
1B49A
  8
ALPHA
 10
2514.320578
 20
617.413059
 30
0.0
  0
VERTEX
  5
1B49B
  8
ALPHA
 10
2514.011549
 20
616.943904
 30
0.0
  0
VERTEX
  5
1B49C
  8
ALPHA
 10
2513.539751
 20
616.62419
 30
0.0
  0
VERTEX
  5
1B49D
  8
ALPHA
 10
2512.978094
 20
616.510991
 30
0.0
  0
SEQEND
  5
1B49E
  8
ALPHA
  0
POLYLINE
  5
1976E
  8
ALPHA
 66
     1
 10
0.0
 20
0.0
 30
0.0
  0
VERTEX
  5
1B49F
  8
ALPHA
 10
2512.978094
 20
619.515807
 30
0.0
  0
VERTEX
  5
1B4A0
  8
ALPHA
 10
2513.580036
 20
619.394517
 30
0.0
  0
VERTEX
  5
1B4A1
  8
ALPHA
 10
2514.085279
 20
619.052492
 30
0.0
  0
VERTEX
  5
1B4A2
  8
ALPHA
 10
2514.417404
 20
618.548828
 30
0.0
  0
VERTEX
  5
1B4A3
  8
ALPHA
 10
2514.532814
 20
617.960991
 30
0.0
  0
VERTEX
  5
1B4A4
  8
ALPHA
 10
2514.417404
 20
617.373153
 30
0.0
  0
VERTEX
  5
1B4A5
  8
ALPHA
 10
2514.085279
 20
616.86949
 30
0.0
  0
VERTEX
  5
1B4A6
  8
ALPHA
 10
2513.580036
 20
616.527465
 30
0.0
  0
VERTEX
  5
1B4A7
  8
ALPHA
 10
2512.978094
 20
616.406175
 30
0.0
  0
SEQEND
  5
1B4A8
  8
ALPHA
  0
POLYLINE
  5
19779
  8
ALPHA
 66
     1
 10
0.0
 20
0.0
 30
0.0
  0
VERTEX
  5
1B4A9
  8
ALPHA
 10
2514.473581
 20
611.386482
 30
0.0
  0
VERTEX
  5
1B4AA
  8
ALPHA
 10
2514.393861
 20
611.465869
 30
0.0
  0
VERTEX
  5
1B4AB
  8
ALPHA
 10
2514.157901
 20
611.682274
 30
0.0
  0
VERTEX
  5
1B4AC
  8
ALPHA
 10
2513.801038
 20
612.003291
 30
0.0
  0
VERTEX
  5
1B4AD
  8
ALPHA
 10
2513.376712
 20
612.380848
 30
0.0
  0
SEQEND
  5
1B4AE
  8
ALPHA
  0
LINE
  5
19780
  8
ALPHA
 10
2511.328094
 20
605.710991
 30
0.0
 11
2512.128094
 21
606.510991
 31
0.0
  0
LINE
  5
19781
  8
ALPHA
 10
2512.128094
 20
607.710991
 30
0.0
 11
2511.328094
 21
607.710991
 31
0.0
  0
LINE
  5
19782
  8
ALPHA
 10
2512.128094
 20
606.510991
 30
0.0
 11
2512.128094
 21
607.710991
 31
0.0
  0
LINE
  5
19783
  8
ALPHA
 10
2511.328094
 20
607.833932
 30
0.0
 11
2511.328094
 21
607.710991
 31
0.0
  0
POLYLINE
  5
19784
  8
ALPHA
 66
     1
 10
0.0
 20
0.0
 30
0.0
  0
VERTEX
  5
1B4AF
  8
ALPHA
 10
2495.150289
 20
589.693539
 30
0.0
  0
VERTEX
  5
1B4B0
  8
ALPHA
 10
2495.108928
 20
588.172166
 30
0.0
  0
VERTEX
  5
1B4B1
  8
ALPHA
 10
2495.040366
 20
586.740728
 30
0.0
  0
VERTEX
  5
1B4B2
  8
ALPHA
 10
2494.948415
 20
585.488976
 30
0.0
  0
VERTEX
  5
1B4B3
  8
ALPHA
 10
2494.837351
 20
584.483804
 30
0.0
  0
VERTEX
  5
1B4B4
  8
ALPHA
 10
2494.712197
 20
583.779455
 30
0.0
  0
VERTEX
  5
1B4B5
  8
ALPHA
 10
2494.578922
 20
583.416645
 30
0.0
  0
VERTEX
  5
1B4B6
  8
ALPHA
 10
2494.445054
 20
583.418959
 30
0.0
  0
VERTEX
  5
1B4B7
  8
ALPHA
 10
2494.318534
 20
583.785861
 30
0.0
  0
SEQEND
  5
1B4B8
  8
ALPHA
  0
POLYLINE
  5
1978F
  8
ALPHA
 66
     1
 10
0.0
 20
0.0
 30
0.0
  0
VERTEX
  5
1B4B9
  8
ALPHA
 10
2496.575178
 20
589.693539
 30
0.0
  0
VERTEX
  5
1B4BA
  8
ALPHA
 10
2496.539636
 20
588.168436
 30
0.0
  0
VERTEX
  5
1B4BB
  8
ALPHA
 10
2496.488171
 20
586.73308
 30
0.0
  0
VERTEX
  5
1B4BC
  8
ALPHA
 10
2496.423302
 20
585.475495
 30
0.0
  0
VERTEX
  5
1B4BD
  8
ALPHA
 10
2496.34769
 20
584.464307
 30
0.0
  0
VERTEX
  5
1B4BE
  8
ALPHA
 10
2496.264358
 20
583.754757
 30
0.0
  0
SEQEND
  5
1B4BF
  8
ALPHA
  0
POLYLINE
  5
19797
  8
ALPHA
 66
     1
 10
0.0
 20
0.0
 30
0.0
  0
VERTEX
  5
1B4C0
  8
ALPHA
 10
2497.376911
 20
589.693539
 30
0.0
  0
VERTEX
  5
1B4C1
  8
ALPHA
 10
2497.348911
 20
588.163131
 30
0.0
  0
VERTEX
  5
1B4C2
  8
ALPHA
 10
2497.319728
 20
586.723378
 30
0.0
  0
VERTEX
  5
1B4C3
  8
ALPHA
 10
2497.290406
 20
585.462434
 30
0.0
  0
VERTEX
  5
1B4C4
  8
ALPHA
 10
2497.261511
 20
584.448898
 30
0.0
  0
VERTEX
  5
1B4C5
  8
ALPHA
 10
2497.233491
 20
583.737762
 30
0.0
  0
SEQEND
  5
1B4C6
  8
ALPHA
  0
LINE
  5
1979F
  8
ALPHA
 10
2497.142285
 20
585.466425
 30
0.0
 11
2497.14445
 21
586.726759
 31
0.0
  0
POLYLINE
  5
197A0
  8
ALPHA
 66
     1
 10
0.0
 20
0.0
 30
0.0
  0
VERTEX
  5
1B4C7
  8
ALPHA
 10
2496.009948
 20
583.759213
 30
0.0
  0
VERTEX
  5
1B4C8
  8
ALPHA
 10
2495.940577
 20
584.470706
 30
0.0
  0
VERTEX
  5
1B4C9
  8
ALPHA
 10
2495.887238
 20
585.482394
 30
0.0
  0
SEQEND
  5
1B4CA
  8
ALPHA
  0
POLYLINE
  5
197A5
  8
ALPHA
 66
     1
 10
0.0
 20
0.0
 30
0.0
  0
VERTEX
  5
1B4CB
  8
ALPHA
 10
2497.176451
 20
583.506927
 30
0.0
  0
VERTEX
  5
1B4CC
  8
ALPHA
 10
2497.176631
 20
583.505356
 30
0.0
  0
VERTEX
  5
1B4CD
  8
ALPHA
 10
2497.175488
 20
583.518418
 30
0.0
  0
VERTEX
  5
1B4CE
  8
ALPHA
 10
2497.172876
 20
583.556524
 30
0.0
  0
VERTEX
  5
1B4CF
  8
ALPHA
 10
2497.169713
 20
583.615561
 30
0.0
  0
VERTEX
  5
1B4D0
  8
ALPHA
 10
2497.166364
 20
583.693838
 30
0.0
  0
VERTEX
  5
1B4D1
  8
ALPHA
 10
2497.163006
 20
583.79049
 30
0.0
  0
VERTEX
  5
1B4D2
  8
ALPHA
 10
2497.159725
 20
583.905221
 30
0.0
  0
VERTEX
  5
1B4D3
  8
ALPHA
 10
2497.156586
 20
584.037785
 30
0.0
  0
VERTEX
  5
1B4D4
  8
ALPHA
 10
2497.153654
 20
584.188215
 30
0.0
  0
VERTEX
  5
1B4D5
  8
ALPHA
 10
2497.150983
 20
584.35664
 30
0.0
  0
VERTEX
  5
1B4D6
  8
ALPHA
 10
2497.148607
 20
584.54317
 30
0.0
  0
VERTEX
  5
1B4D7
  8
ALPHA
 10
2497.146546
 20
584.747852
 30
0.0
  0
VERTEX
  5
1B4D8
  8
ALPHA
 10
2497.14484
 20
584.970491
 30
0.0
  0
VERTEX
  5
1B4D9
  8
ALPHA
 10
2497.143546
 20
585.210904
 30
0.0
  0
VERTEX
  5
1B4DA
  8
ALPHA
 10
2497.142708
 20
585.468861
 30
0.0
  0
VERTEX
  5
1B4DB
  8
ALPHA
 10
2497.142351
 20
585.744056
 30
0.0
  0
VERTEX
  5
1B4DC
  8
ALPHA
 10
2497.142492
 20
586.03603
 30
0.0
  0
VERTEX
  5
1B4DD
  8
ALPHA
 10
2497.143184
 20
586.344101
 30
0.0
  0
VERTEX
  5
1B4DE
  8
ALPHA
 10
2497.144479
 20
586.667425
 30
0.0
  0
VERTEX
  5
1B4DF
  8
ALPHA
 10
2497.146403
 20
587.00515
 30
0.0
  0
VERTEX
  5
1B4E0
  8
ALPHA
 10
2497.148959
 20
587.356332
 30
0.0
  0
VERTEX
  5
1B4E1
  8
ALPHA
 10
2497.152172
 20
587.719887
 30
0.0
  0
VERTEX
  5
1B4E2
  8
ALPHA
 10
2497.156077
 20
588.094646
 30
0.0
  0
VERTEX
  5
1B4E3
  8
ALPHA
 10
2497.160687
 20
588.47935
 30
0.0
  0
VERTEX
  5
1B4E4
  8
ALPHA
 10
2497.165988
 20
588.872642
 30
0.0
  0
VERTEX
  5
1B4E5
  8
ALPHA
 10
2497.171993
 20
589.272931
 30
0.0
  0
SEQEND
  5
1B4E6
  8
ALPHA
  0
POLYLINE
  5
197C2
  8
ALPHA
 66
     1
 10
0.0
 20
0.0
 30
0.0
  0
VERTEX
  5
1B4E7
  8
ALPHA
 10
2494.318534
 20
583.785861
 30
0.0
  0
VERTEX
  5
1B4E8
  8
ALPHA
 10
2494.207456
 20
584.49293
 30
0.0
  0
VERTEX
  5
1B4E9
  8
ALPHA
 10
2494.118805
 20
585.498622
 30
0.0
  0
VERTEX
  5
1B4EA
  8
ALPHA
 10
2494.058572
 20
586.748471
 30
0.0
  0
VERTEX
  5
1B4EB
  8
ALPHA
 10
2494.031438
 20
588.176167
 30
0.0
  0
VERTEX
  5
1B4EC
  8
ALPHA
 10
2494.040174
 20
589.693539
 30
0.0
  0
SEQEND
  5
1B4ED
  8
ALPHA
  0
POLYLINE
  5
197CA
  8
ALPHA
 66
     1
 10
0.0
 20
0.0
 30
0.0
  0
VERTEX
  5
1B4EE
  8
ALPHA
 10
2496.030524
 20
583.749821
 30
0.0
  0
VERTEX
  5
1B4EF
  8
ALPHA
 10
2496.029003
 20
583.756303
 30
0.0
  0
VERTEX
  5
1B4F0
  8
ALPHA
 10
2496.01617
 20
583.823416
 30
0.0
  0
VERTEX
  5
1B4F1
  8
ALPHA
 10
2495.998408
 20
583.943397
 30
0.0
  0
VERTEX
  5
1B4F2
  8
ALPHA
 10
2495.978912
 20
584.108891
 30
0.0
  0
VERTEX
  5
1B4F3
  8
ALPHA
 10
2495.9591
 20
584.31632
 30
0.0
  0
VERTEX
  5
1B4F4
  8
ALPHA
 10
2495.939725
 20
584.56408
 30
0.0
  0
VERTEX
  5
1B4F5
  8
ALPHA
 10
2495.921249
 20
584.851268
 30
0.0
  0
VERTEX
  5
1B4F6
  8
ALPHA
 10
2495.90407
 20
585.176832
 30
0.0
  0
VERTEX
  5
1B4F7
  8
ALPHA
 10
2495.888563
 20
585.539723
 30
0.0
  0
VERTEX
  5
1B4F8
  8
ALPHA
 10
2495.875031
 20
585.938215
 30
0.0
  0
VERTEX
  5
1B4F9
  8
ALPHA
 10
2495.863757
 20
586.370231
 30
0.0
  0
VERTEX
  5
1B4FA
  8
ALPHA
 10
2495.855059
 20
586.833352
 30
0.0
  0
VERTEX
  5
1B4FB
  8
ALPHA
 10
2495.849162
 20
587.324865
 30
0.0
  0
VERTEX
  5
1B4FC
  8
ALPHA
 10
2495.84626
 20
587.841634
 30
0.0
  0
VERTEX
  5
1B4FD
  8
ALPHA
 10
2495.846575
 20
588.380131
 30
0.0
  0
VERTEX
  5
1B4FE
  8
ALPHA
 10
2495.850233
 20
588.936492
 30
0.0
  0
VERTEX
  5
1B4FF
  8
ALPHA
 10
2495.857366
 20
589.506114
 30
0.0
  0
SEQEND
  5
1B500
  8
ALPHA
  0
POLYLINE
  5
197DE
  8
ALPHA
 66
     1
 10
0.0
 20
0.0
 30
0.0
  0
VERTEX
  5
1B501
  8
ALPHA
 10
2494.33029
 20
583.900011
 30
0.0
  0
VERTEX
  5
1B502
  8
ALPHA
 10
2494.33018
 20
583.90041
 30
0.0
  0
VERTEX
  5
1B503
  8
ALPHA
 10
2494.31073
 20
583.969685
 30
0.0
  0
VERTEX
  5
1B504
  8
ALPHA
 10
2494.277083
 20
584.129045
 30
0.0
  0
VERTEX
  5
1B505
  8
ALPHA
 10
2494.238612
 20
584.366586
 30
0.0
  0
VERTEX
  5
1B506
  8
ALPHA
 10
2494.199318
 20
584.677032
 30
0.0
  0
VERTEX
  5
1B507
  8
ALPHA
 10
2494.161347
 20
585.057796
 30
0.0
  0
VERTEX
  5
1B508
  8
ALPHA
 10
2494.126299
 20
585.506219
 30
0.0
  0
VERTEX
  5
1B509
  8
ALPHA
 10
2494.09546
 20
586.019007
 30
0.0
  0
VERTEX
  5
1B50A
  8
ALPHA
 10
2494.069961
 20
586.591303
 30
0.0
  0
VERTEX
  5
1B50B
  8
ALPHA
 10
2494.050857
 20
587.216845
 30
0.0
  0
VERTEX
  5
1B50C
  8
ALPHA
 10
2494.038951
 20
587.88815
 30
0.0
  0
VERTEX
  5
1B50D
  8
ALPHA
 10
2494.034985
 20
588.59638
 30
0.0
  0
VERTEX
  5
1B50E
  8
ALPHA
 10
2494.039444
 20
589.331432
 30
0.0
  0
VERTEX
  5
1B50F
  8
ALPHA
 10
2494.044769
 20
589.693488
 30
0.0
  0
SEQEND
  5
1B510
  8
ALPHA
  0
POLYLINE
  5
197EF
  8
ALPHA
 66
     1
 10
0.0
 20
0.0
 30
0.0
  0
VERTEX
  5
1B511
  8
ALPHA
 10
2496.21825
 20
595.635769
 30
0.0
  0
VERTEX
  5
1B512
  8
ALPHA
 10
2496.311749
 20
596.001813
 30
0.0
  0
VERTEX
  5
1B513
  8
ALPHA
 10
2496.398288
 20
596.000286
 30
0.0
  0
VERTEX
  5
1B514
  8
ALPHA
 10
2496.472578
 20
595.631833
 30
0.0
  0
SEQEND
  5
1B515
  8
ALPHA
  0
POLYLINE
  5
197F5
  8
ALPHA
 66
     1
 10
0.0
 20
0.0
 30
0.0
  0
VERTEX
  5
1B516
  8
ALPHA
 10
2494.390984
 20
594.905441
 30
0.0
  0
VERTEX
  5
1B517
  8
ALPHA
 10
2494.527192
 20
595.610937
 30
0.0
  0
VERTEX
  5
1B518
  8
ALPHA
 10
2494.66671
 20
595.974234
 30
0.0
  0
VERTEX
  5
1B519
  8
ALPHA
 10
2494.800525
 20
595.972019
 30
0.0
  0
VERTEX
  5
1B51A
  8
ALPHA
 10
2494.920737
 20
595.605287
 30
0.0
  0
VERTEX
  5
1B51B
  8
ALPHA
 10
2495.020789
 20
594.898576
 30
0.0
  0
VERTEX
  5
1B51C
  8
ALPHA
 10
2495.096234
 20
593.893021
 30
0.0
  0
VERTEX
  5
1B51D
  8
ALPHA
 10
2495.144031
 20
592.642606
 30
0.0
  0
VERTEX
  5
1B51E
  8
ALPHA
 10
2495.162284
 20
591.213366
 30
0.0
  0
VERTEX
  5
1B51F
  8
ALPHA
 10
2495.150289
 20
589.693539
 30
0.0
  0
SEQEND
  5
1B520
  8
ALPHA
  0
POLYLINE
  5
19801
  8
ALPHA
 66
     1
 10
0.0
 20
0.0
 30
0.0
  0
VERTEX
  5
1B521
  8
ALPHA
 10
2497.371305
 20
595.652956
 30
0.0
  0
VERTEX
  5
1B522
  8
ALPHA
 10
2497.404019
 20
596.019925
 30
0.0
  0
VERTEX
  5
1B523
  8
ALPHA
 10
2497.427911
 20
596.01909
 30
0.0
  0
VERTEX
  5
1B524
  8
ALPHA
 10
2497.44153
 20
595.650692
 30
0.0
  0
SEQEND
  5
1B525
  8
ALPHA
  0
POLYLINE
  5
19807
  8
ALPHA
 66
     1
 10
0.0
 20
0.0
 30
0.0
  0
VERTEX
  5
1B526
  8
ALPHA
 10
2495.957498
 20
592.654141
 30
0.0
  0
VERTEX
  5
1B527
  8
ALPHA
 10
2496.034923
 20
593.912863
 30
0.0
  0
VERTEX
  5
1B528
  8
ALPHA
 10
2496.123855
 20
594.92531
 30
0.0
  0
VERTEX
  5
1B529
  8
ALPHA
 10
2496.21825
 20
595.635769
 30
0.0
  0
SEQEND
  5
1B52A
  8
ALPHA
  0
LINE
  5
1980D
  8
ALPHA
 10
2497.33225
 20
594.941283
 30
0.0
 11
2497.371305
 21
595.652956
 31
0.0
  0
LINE
  5
1980E
  8
ALPHA
 10
2497.290045
 20
593.926891
 30
0.0
 11
2497.33225
 21
594.941283
 31
0.0
  0
LINE
  5
1980F
  8
ALPHA
 10
2497.248138
 20
592.664952
 30
0.0
 11
2497.290045
 21
593.926891
 31
0.0
  0
LINE
  5
19810
  8
ALPHA
 10
2495.897109
 20
591.218253
 30
0.0
 11
2495.957498
 21
592.654141
 31
0.0
  0
POLYLINE
  5
19811
  8
ALPHA
 66
     1
 10
0.0
 20
0.0
 30
0.0
  0
VERTEX
  5
1B52B
  8
ALPHA
 10
2494.170986
 20
589.710991
 30
0.0
  0
VERTEX
  5
1B52C
  8
ALPHA
 10
2494.129407
 20
588.424401
 30
0.0
  0
VERTEX
  5
1B52D
  8
ALPHA
 10
2494.060851
 20
587.220355
 30
0.0
  0
VERTEX
  5
1B52E
  8
ALPHA
 10
2494.053369
 20
587.134616
 30
0.0
  0
SEQEND
  5
1B52F
  8
ALPHA
  0
POLYLINE
  5
19817
  8
ALPHA
 66
     1
 10
0.0
 20
0.0
 30
0.0
  0
VERTEX
  5
1B530
  8
ALPHA
 10
2494.040174
 20
589.693539
 30
0.0
  0
VERTEX
  5
1B531
  8
ALPHA
 10
2494.084683
 20
591.21385
 30
0.0
  0
VERTEX
  5
1B532
  8
ALPHA
 10
2494.162136
 20
592.645677
 30
0.0
  0
VERTEX
  5
1B533
  8
ALPHA
 10
2494.266617
 20
593.898738
 30
0.0
  0
VERTEX
  5
1B534
  8
ALPHA
 10
2494.390984
 20
594.905441
 30
0.0
  0
SEQEND
  5
1B535
  8
ALPHA
  0
LINE
  5
1981E
  8
ALPHA
 10
2497.213894
 20
591.372264
 30
0.0
 11
2497.248138
 21
592.664952
 31
0.0
  0
LINE
  5
1981F
  8
ALPHA
 10
2495.858378
 20
589.693539
 30
0.0
 11
2495.897109
 21
591.218253
 31
0.0
  0
POLYLINE
  5
19820
  8
ALPHA
 66
     1
 10
0.0
 20
0.0
 30
0.0
  0
VERTEX
  5
1B536
  8
ALPHA
 10
2497.188705
 20
590.219672
 30
0.0
  0
VERTEX
  5
1B537
  8
ALPHA
 10
2497.198206
 20
590.684608
 30
0.0
  0
VERTEX
  5
1B538
  8
ALPHA
 10
2497.208283
 20
591.138172
 30
0.0
  0
VERTEX
  5
1B539
  8
ALPHA
 10
2497.218829
 20
591.578139
 30
0.0
  0
VERTEX
  5
1B53A
  8
ALPHA
 10
2497.229784
 20
592.00269
 30
0.0
  0
VERTEX
  5
1B53B
  8
ALPHA
 10
2497.241049
 20
592.410181
 30
0.0
  0
VERTEX
  5
1B53C
  8
ALPHA
 10
2497.25251
 20
592.799119
 30
0.0
  0
VERTEX
  5
1B53D
  8
ALPHA
 10
2497.264108
 20
593.168218
 30
0.0
  0
VERTEX
  5
1B53E
  8
ALPHA
 10
2497.275762
 20
593.516294
 30
0.0
  0
VERTEX
  5
1B53F
  8
ALPHA
 10
2497.287357
 20
593.842291
 30
0.0
  0
VERTEX
  5
1B540
  8
ALPHA
 10
2497.298791
 20
594.14541
 30
0.0
  0
VERTEX
  5
1B541
  8
ALPHA
 10
2497.310019
 20
594.425178
 30
0.0
  0
VERTEX
  5
1B542
  8
ALPHA
 10
2497.320982
 20
594.681298
 30
0.0
  0
VERTEX
  5
1B543
  8
ALPHA
 10
2497.331592
 20
594.913562
 30
0.0
  0
VERTEX
  5
1B544
  8
ALPHA
 10
2497.34177
 20
595.1217
 30
0.0
  0
VERTEX
  5
1B545
  8
ALPHA
 10
2497.351484
 20
595.305727
 30
0.0
  0
VERTEX
  5
1B546
  8
ALPHA
 10
2497.360683
 20
595.465766
 30
0.0
  0
VERTEX
  5
1B547
  8
ALPHA
 10
2497.369283
 20
595.601886
 30
0.0
  0
VERTEX
  5
1B548
  8
ALPHA
 10
2497.377146
 20
595.713642
 30
0.0
  0
VERTEX
  5
1B549
  8
ALPHA
 10
2497.38405
 20
595.799673
 30
0.0
  0
VERTEX
  5
1B54A
  8
ALPHA
 10
2497.38955
 20
595.857932
 30
0.0
  0
VERTEX
  5
1B54B
  8
ALPHA
 10
2497.390735
 20
595.868937
 30
0.0
  0
SEQEND
  5
1B54C
  8
ALPHA
  0
LINE
  5
19838
  8
ALPHA
 10
2497.181095
 20
589.809177
 30
0.0
 11
2497.209976
 21
591.224351
 31
0.0
  0
POLYLINE
  5
19839
  8
ALPHA
 66
     1
 10
0.0
 20
0.0
 30
0.0
  0
VERTEX
  5
1B54D
  8
ALPHA
 10
2494.044777
 20
589.693487
 30
0.0
  0
VERTEX
  5
1B54E
  8
ALPHA
 10
2494.052618
 20
590.076993
 30
0.0
  0
VERTEX
  5
1B54F
  8
ALPHA
 10
2494.076016
 20
590.864758
 30
0.0
  0
VERTEX
  5
1B550
  8
ALPHA
 10
2494.107974
 20
591.620802
 30
0.0
  0
VERTEX
  5
1B551
  8
ALPHA
 10
2494.147403
 20
592.332446
 30
0.0
  0
VERTEX
  5
1B552
  8
ALPHA
 10
2494.192969
 20
592.988893
 30
0.0
  0
VERTEX
  5
1B553
  8
ALPHA
 10
2494.243288
 20
593.581231
 30
0.0
  0
VERTEX
  5
1B554
  8
ALPHA
 10
2494.29672
 20
594.102222
 30
0.0
  0
VERTEX
  5
1B555
  8
ALPHA
 10
2494.351588
 20
594.546637
 30
0.0
  0
VERTEX
  5
1B556
  8
ALPHA
 10
2494.406007
 20
594.911282
 30
0.0
  0
VERTEX
  5
1B557
  8
ALPHA
 10
2494.457582
 20
595.193388
 30
0.0
  0
VERTEX
  5
1B558
  8
ALPHA
 10
2494.502504
 20
595.389244
 30
0.0
  0
VERTEX
  5
1B559
  8
ALPHA
 10
2494.514783
 20
595.433985
 30
0.0
  0
SEQEND
  5
1B55A
  8
ALPHA
  0
LINE
  5
19848
  8
ALPHA
 10
2497.179925
 20
589.746056
 30
0.0
 11
2497.188705
 21
590.219672
 31
0.0
  0
POLYLINE
  5
19849
  8
ALPHA
 66
     1
 10
0.0
 20
0.0
 30
0.0
  0
VERTEX
  5
1B55B
  8
ALPHA
 10
2495.857366
 20
589.506114
 30
0.0
  0
VERTEX
  5
1B55C
  8
ALPHA
 10
2495.8642
 20
589.895318
 30
0.0
  0
VERTEX
  5
1B55D
  8
ALPHA
 10
2495.878264
 20
590.512242
 30
0.0
  0
VERTEX
  5
1B55E
  8
ALPHA
 10
2495.895885
 20
591.113838
 30
0.0
  0
VERTEX
  5
1B55F
  8
ALPHA
 10
2495.91665
 20
591.693698
 30
0.0
  0
VERTEX
  5
1B560
  8
ALPHA
 10
2495.940204
 20
592.246568
 30
0.0
  0
VERTEX
  5
1B561
  8
ALPHA
 10
2495.966082
 20
592.767747
 30
0.0
  0
VERTEX
  5
1B562
  8
ALPHA
 10
2495.993863
 20
593.253176
 30
0.0
  0
VERTEX
  5
1B563
  8
ALPHA
 10
2496.023082
 20
593.699488
 30
0.0
  0
VERTEX
  5
1B564
  8
ALPHA
 10
2496.053193
 20
594.103831
 30
0.0
  0
VERTEX
  5
1B565
  8
ALPHA
 10
2496.08373
 20
594.464106
 30
0.0
  0
VERTEX
  5
1B566
  8
ALPHA
 10
2496.1142
 20
594.779145
 30
0.0
  0
VERTEX
  5
1B567
  8
ALPHA
 10
2496.144015
 20
595.04797
 30
0.0
  0
VERTEX
  5
1B568
  8
ALPHA
 10
2496.172567
 20
595.269946
 30
0.0
  0
VERTEX
  5
1B569
  8
ALPHA
 10
2496.198977
 20
595.444274
 30
0.0
  0
VERTEX
  5
1B56A
  8
ALPHA
 10
2496.22158
 20
595.568293
 30
0.0
  0
VERTEX
  5
1B56B
  8
ALPHA
 10
2496.237002
 20
595.636704
 30
0.0
  0
VERTEX
  5
1B56C
  8
ALPHA
 10
2496.239055
 20
595.644351
 30
0.0
  0
SEQEND
  5
1B56D
  8
ALPHA
  0
LINE
  5
1985D
  8
ALPHA
 10
2497.171993
 20
589.272931
 30
0.0
 11
2497.179925
 21
589.746056
 31
0.0
  0
LINE
  5
1985E
  8
ALPHA
 10
2497.158595
 20
588.304715
 30
0.0
 11
2497.178735
 21
589.693539
 31
0.0
  0
LINE
  5
1985F
  8
ALPHA
 10
2495.843836
 20
588.171466
 30
0.0
 11
2495.858378
 21
589.693539
 31
0.0
  0
LINE
  5
19860
  8
ALPHA
 10
2497.145583
 20
586.861311
 30
0.0
 11
2497.15657
 21
588.165085
 31
0.0
  0
POLYLINE
  5
19861
  8
ALPHA
 66
     1
 10
0.0
 20
0.0
 30
0.0
  0
VERTEX
  5
1B56E
  8
ALPHA
 10
2497.44153
 20
595.650692
 30
0.0
  0
VERTEX
  5
1B56F
  8
ALPHA
 10
2497.444671
 20
594.938156
 30
0.0
  0
VERTEX
  5
1B570
  8
ALPHA
 10
2497.438141
 20
593.923628
 30
0.0
  0
VERTEX
  5
1B571
  8
ALPHA
 10
2497.423418
 20
592.662406
 30
0.0
  0
VERTEX
  5
1B572
  8
ALPHA
 10
2497.402331
 20
591.22299
 30
0.0
  0
VERTEX
  5
1B573
  8
ALPHA
 10
2497.376911
 20
589.693539
 30
0.0
  0
SEQEND
  5
1B574
  8
ALPHA
  0
LINE
  5
19869
  8
ALPHA
 10
2495.853969
 20
586.73869
 30
0.0
 11
2495.843836
 21
588.171466
 31
0.0
  0
LINE
  5
1986A
  8
ALPHA
 10
2495.863757
 20
586.370231
 30
0.0
 11
2495.853969
 21
586.73869
 31
0.0
  0
LINE
  5
1986B
  8
ALPHA
 10
2495.887238
 20
585.482394
 30
0.0
 11
2495.875031
 21
585.938215
 31
0.0
  0
POLYLINE
  5
1986C
  8
ALPHA
 66
     1
 10
0.0
 20
0.0
 30
0.0
  0
VERTEX
  5
1B575
  8
ALPHA
 10
2494.154179
 20
592.430061
 30
0.0
  0
VERTEX
  5
1B576
  8
ALPHA
 10
2494.164671
 20
592.199158
 30
0.0
  0
VERTEX
  5
1B577
  8
ALPHA
 10
2494.182988
 20
590.996673
 30
0.0
  0
VERTEX
  5
1B578
  8
ALPHA
 10
2494.170986
 20
589.710991
 30
0.0
  0
SEQEND
  5
1B579
  8
ALPHA
  0
POLYLINE
  5
19872
  8
ALPHA
 66
     1
 10
0.0
 20
0.0
 30
0.0
  0
VERTEX
  5
1B57A
  8
ALPHA
 10
2496.472578
 20
595.631833
 30
0.0
  0
VERTEX
  5
1B57B
  8
ALPHA
 10
2496.530904
 20
594.920449
 30
0.0
  0
VERTEX
  5
1B57C
  8
ALPHA
 10
2496.570987
 20
593.908607
 30
0.0
  0
VERTEX
  5
1B57D
  8
ALPHA
 10
2496.59176
 20
592.651558
 30
0.0
  0
VERTEX
  5
1B57E
  8
ALPHA
 10
2496.592977
 20
591.217378
 30
0.0
  0
VERTEX
  5
1B57F
  8
ALPHA
 10
2496.575178
 20
589.693539
 30
0.0
  0
SEQEND
  5
1B580
  8
ALPHA
  0
ARC
  5
1987A
  8
ALPHA
 10
2496.172708
 20
577.060991
 30
0.0
 40
1.0
 50
270.0
 51
359.0
  0
LINE
  5
1987B
  8
ALPHA
 10
2494.631372
 20
582.060991
 30
0.0
 11
2494.592392
 21
581.975885
 31
0.0
  0
LINE
  5
1987C
  8
ALPHA
 10
2494.747783
 20
577.060991
 30
0.0
 11
2494.047187
 21
577.060991
 31
0.0
  0
LINE
  5
1987D
  8
ALPHA
 10
2496.315432
 20
577.060991
 30
0.0
 11
2495.696174
 21
577.060991
 31
0.0
  0
LINE
  5
1987E
  8
ALPHA
 10
2497.136607
 20
577.060991
 30
0.0
 11
2497.012456
 21
577.060991
 31
0.0
  0
LINE
  5
1987F
  8
ALPHA
 10
2497.05992
 20
578.060991
 30
0.0
 11
2497.08682
 21
578.060991
 31
0.0
  0
LINE
  5
19880
  8
ALPHA
 10
2497.10781
 20
578.060991
 30
0.0
 11
2497.138264
 21
578.060991
 31
0.0
  0
LINE
  5
19881
  8
ALPHA
 10
2495.807985
 20
578.060991
 30
0.0
 11
2495.943612
 21
578.060991
 31
0.0
  0
LINE
  5
19882
  8
ALPHA
 10
2496.113531
 20
578.060991
 30
0.0
 11
2496.133894
 21
578.060991
 31
0.0
  0
LINE
  5
19883
  8
ALPHA
 10
2496.232788
 20
578.060991
 30
0.0
 11
2496.251982
 21
578.060991
 31
0.0
  0
LINE
  5
19884
  8
ALPHA
 10
2494.20288
 20
578.060991
 30
0.0
 11
2494.23693
 21
578.060991
 31
0.0
  0
LINE
  5
19885
  8
ALPHA
 10
2494.393232
 20
578.060991
 30
0.0
 11
2494.426169
 21
578.060991
 31
0.0
  0
LINE
  5
19886
  8
ALPHA
 10
2494.46978
 20
578.060991
 30
0.0
 11
2494.661716
 21
578.060991
 31
0.0
  0
LINE
  5
19887
  8
ALPHA
 10
2494.669188
 20
578.486523
 30
0.0
 11
2494.520516
 21
578.486523
 31
0.0
  0
LINE
  5
19888
  8
ALPHA
 10
2495.951071
 20
578.486523
 30
0.0
 11
2495.846191
 21
578.486523
 31
0.0
  0
LINE
  5
19889
  8
ALPHA
 10
2497.145711
 20
578.486523
 30
0.0
 11
2497.122628
 21
578.486523
 31
0.0
  0
LINE
  5
1988A
  8
ALPHA
 10
2497.096786
 20
578.571629
 30
0.0
 11
2497.075849
 21
578.571629
 31
0.0
  0
LINE
  5
1988B
  8
ALPHA
 10
2494.277415
 20
579.082268
 30
0.0
 11
2494.389056
 21
579.082268
 31
0.0
  0
LINE
  5
1988C
  8
ALPHA
 10
2494.389469
 20
579.422693
 30
0.0
 11
2494.288993
 21
579.422693
 31
0.0
  0
LINE
  5
1988D
  8
ALPHA
 10
2497.09813
 20
579.848225
 30
0.0
 11
2497.119067
 21
579.848225
 31
0.0
  0
LINE
  5
1988E
  8
ALPHA
 10
2497.127979
 20
580.358863
 30
0.0
 11
2497.107043
 21
580.358863
 31
0.0
  0
LINE
  5
1988F
  8
ALPHA
 10
2497.162223
 20
581.124821
 30
0.0
 11
2497.166843
 21
581.124821
 31
0.0
  0
LINE
  5
19890
  8
ALPHA
 10
2495.865416
 20
581.124821
 30
0.0
 11
2495.884644
 21
581.124821
 31
0.0
  0
LINE
  5
19891
  8
ALPHA
 10
2494.528875
 20
581.124821
 30
0.0
 11
2494.555925
 21
581.124821
 31
0.0
  0
LINE
  5
19892
  8
ALPHA
 10
2497.12786
 20
581.550353
 30
0.0
 11
2497.148795
 21
581.550353
 31
0.0
  0
LINE
  5
19893
  8
ALPHA
 10
2497.184591
 20
581.635459
 30
0.0
 11
2497.187975
 21
581.635459
 31
0.0
  0
LINE
  5
19894
  8
ALPHA
 10
2495.931622
 20
581.635459
 30
0.0
 11
2495.946691
 21
581.635459
 31
0.0
  0
LINE
  5
19895
  8
ALPHA
 10
2496.120753
 20
581.635459
 30
0.0
 11
2496.176002
 21
581.635459
 31
0.0
  0
LINE
  5
19896
  8
ALPHA
 10
2496.196363
 20
581.635459
 30
0.0
 11
2496.249708
 21
581.635459
 31
0.0
  0
LINE
  5
19897
  8
ALPHA
 10
2494.618562
 20
581.635459
 30
0.0
 11
2494.639886
 21
581.635459
 31
0.0
  0
LINE
  5
19898
  8
ALPHA
 10
2494.408
 20
582.060991
 30
0.0
 11
2494.363347
 21
582.060991
 31
0.0
  0
LINE
  5
19899
  8
ALPHA
 10
2494.652676
 20
582.060991
 30
0.0
 11
2494.631374
 21
582.060991
 31
0.0
  0
LINE
  5
1989A
  8
ALPHA
 10
2495.957904
 20
582.060991
 30
0.0
 11
2495.942857
 21
582.060991
 31
0.0
  0
LINE
  5
1989B
  8
ALPHA
 10
2496.257164
 20
582.060991
 30
0.0
 11
2496.128211
 21
582.060991
 31
0.0
  0
LINE
  5
1989C
  8
ALPHA
 10
2496.321897
 20
582.060991
 30
0.0
 11
2496.302704
 21
582.060991
 31
0.0
  0
LINE
  5
1989D
  8
ALPHA
 10
2497.156654
 20
582.060991
 30
0.0
 11
2497.129757
 21
582.060991
 31
0.0
  0
LINE
  5
1989E
  8
ALPHA
 10
2497.196254
 20
582.060991
 30
0.0
 11
2497.192892
 21
582.060991
 31
0.0
  0
LINE
  5
1989F
  8
ALPHA
 10
2497.117215
 20
583.060991
 30
0.0
 11
2497.241349
 21
583.060991
 31
0.0
  0
LINE
  5
198A0
  8
ALPHA
 10
2495.801124
 20
583.060991
 30
0.0
 11
2496.420292
 21
583.060991
 31
0.0
  0
LINE
  5
198A1
  8
ALPHA
 10
2494.152376
 20
583.060991
 30
0.0
 11
2494.85287
 21
583.060991
 31
0.0
  0
LINE
  5
198A2
  8
ALPHA
 10
2494.590309
 20
581.550353
 30
0.0
 11
2494.618578
 21
581.635459
 31
0.0
  0
LINE
  5
198A3
  8
ALPHA
 10
2495.942855
 20
582.060991
 30
0.0
 11
2495.914827
 21
581.975885
 31
0.0
  0
LINE
  5
198A4
  8
ALPHA
 10
2495.911193
 20
581.550353
 30
0.0
 11
2495.931639
 21
581.635459
 31
0.0
  0
POLYLINE
  5
198A5
  8
ALPHA
 66
     1
 10
0.0
 20
0.0
 30
0.0
  0
VERTEX
  5
1B581
  8
ALPHA
 10
2496.264358
 20
583.754757
 30
0.0
  0
VERTEX
  5
1B582
  8
ALPHA
 10
2496.177107
 20
583.38909
 30
0.0
  0
VERTEX
  5
1B583
  8
ALPHA
 10
2496.09053
 20
583.390687
 30
0.0
  0
VERTEX
  5
1B584
  8
ALPHA
 10
2496.009948
 20
583.759213
 30
0.0
  0
SEQEND
  5
1B585
  8
ALPHA
  0
LINE
  5
198AB
  8
ALPHA
 10
2494.592392
 20
581.975885
 30
0.0
 11
2494.567868
 21
581.805672
 31
0.0
  0
LINE
  5
198AC
  8
ALPHA
 10
2494.571195
 20
581.38014
 30
0.0
 11
2494.590309
 21
581.550353
 31
0.0
  0
LINE
  5
198AD
  8
ALPHA
 10
2495.914827
 20
581.975885
 30
0.0
 11
2495.896565
 21
581.805672
 31
0.0
  0
LINE
  5
198AE
  8
ALPHA
 10
2497.19289
 20
582.060991
 30
0.0
 11
2497.185314
 21
581.975885
 31
0.0
  0
POLYLINE
  5
198AF
  8
ALPHA
 66
     1
 10
0.0
 20
0.0
 30
0.0
  0
VERTEX
  5
1B586
  8
ALPHA
 10
2494.520499
 20
578.486523
 30
0.0
  0
VERTEX
  5
1B587
  8
ALPHA
 10
2494.603792
 20
579.422623
 30
0.0
  0
VERTEX
  5
1B588
  8
ALPHA
 10
2494.686243
 20
580.358863
 30
0.0
  0
SEQEND
  5
1B589
  8
ALPHA
  0
POLYLINE
  5
198B4
  8
ALPHA
 66
     1
 10
0.0
 20
0.0
 30
0.0
  0
VERTEX
  5
1B58A
  8
ALPHA
 10
2494.6644
 20
580.614182
 30
0.0
  0
VERTEX
  5
1B58B
  8
ALPHA
 10
2494.571346
 20
579.550263
 30
0.0
  0
VERTEX
  5
1B58C
  8
ALPHA
 10
2494.477238
 20
578.486523
 30
0.0
  0
SEQEND
  5
1B58D
  8
ALPHA
  0
LINE
  5
198B9
  8
ALPHA
 10
2495.896777
 20
581.38014
 30
0.0
 11
2495.911193
 21
581.550353
 31
0.0
  0
LINE
  5
198BA
  8
ALPHA
 10
2494.567868
 20
581.805672
 30
0.0
 11
2494.540275
 21
581.465246
 31
0.0
  0
LINE
  5
198BB
  8
ALPHA
 10
2497.086822
 20
578.060991
 30
0.0
 11
2497.093521
 21
578.146097
 31
0.0
  0
POLYLINE
  5
198BC
  8
ALPHA
 66
     1
 10
0.0
 20
0.0
 30
0.0
  0
VERTEX
  5
1B58E
  8
ALPHA
 10
2497.233491
 20
583.737762
 30
0.0
  0
VERTEX
  5
1B58F
  8
ALPHA
 10
2497.207013
 20
583.371008
 30
0.0
  0
VERTEX
  5
1B590
  8
ALPHA
 10
2497.183103
 20
583.371864
 30
0.0
  0
SEQEND
  5
1B591
  8
ALPHA
  0
LINE
  5
198C1
  8
ALPHA
 10
2497.178772
 20
581.550353
 30
0.0
 11
2497.184608
 21
581.635459
 31
0.0
  0
POLYLINE
  5
198C2
  8
ALPHA
 66
     1
 10
0.0
 20
0.0
 30
0.0
  0
VERTEX
  5
1B592
  8
ALPHA
 10
2495.846174
 20
578.486523
 30
0.0
  0
VERTEX
  5
1B593
  8
ALPHA
 10
2495.909887
 20
579.42264
 30
0.0
  0
VERTEX
  5
1B594
  8
ALPHA
 10
2495.972759
 20
580.358863
 30
0.0
  0
SEQEND
  5
1B595
  8
ALPHA
  0
POLYLINE
  5
198C7
  8
ALPHA
 66
     1
 10
0.0
 20
0.0
 30
0.0
  0
VERTEX
  5
1B596
  8
ALPHA
 10
2495.958726
 20
580.614182
 30
0.0
  0
VERTEX
  5
1B597
  8
ALPHA
 10
2495.887605
 20
579.550284
 30
0.0
  0
VERTEX
  5
1B598
  8
ALPHA
 10
2495.815429
 20
578.486523
 30
0.0
  0
SEQEND
  5
1B599
  8
ALPHA
  0
LINE
  5
198CC
  8
ALPHA
 10
2495.896565
 20
581.805672
 30
0.0
 11
2495.87524
 21
581.465246
 31
0.0
  0
LINE
  5
198CD
  8
ALPHA
 10
2494.55594
 20
581.124821
 30
0.0
 11
2494.571195
 21
581.38014
 31
0.0
  0
LINE
  5
198CE
  8
ALPHA
 10
2494.686243
 20
580.358863
 30
0.0
 11
2494.701204
 21
580.614182
 31
0.0
  0
LINE
  5
198CF
  8
ALPHA
 10
2497.101403
 20
578.656736
 30
0.0
 11
2497.09679
 21
578.571629
 31
0.0
  0
LINE
  5
198D0
  8
ALPHA
 10
2497.132604
 20
580.44397
 30
0.0
 11
2497.12799
 21
580.358863
 31
0.0
  0
LINE
  5
198D1
  8
ALPHA
 10
2496.261002
 20
580.784395
 30
0.0
 11
2496.290802
 21
581.38014
 31
0.0
  0
LINE
  5
198D2
  8
ALPHA
 10
2496.302702
 20
582.060991
 30
0.0
 11
2496.272902
 21
581.465246
 31
0.0
  0
LINE
  5
198D3
  8
ALPHA
 10
2495.884659
 20
581.124821
 30
0.0
 11
2495.896777
 21
581.38014
 31
0.0
  0
LINE
  5
198D4
  8
ALPHA
 10
2495.972759
 20
580.358863
 30
0.0
 11
2495.984585
 21
580.614182
 31
0.0
  0
LINE
  5
198D5
  8
ALPHA
 10
2497.12974
 20
580.103544
 30
0.0
 11
2497.133252
 21
580.188651
 31
0.0
  0
LINE
  5
198D6
  8
ALPHA
 10
2496.074542
 20
581.209927
 30
0.0
 11
2495.990657
 21
579.082268
 31
0.0
  0
LINE
  5
198D7
  8
ALPHA
 10
2495.998536
 20
578.912055
 30
0.0
 11
2496.08221
 21
581.039714
 31
0.0
  0
LINE
  5
198D8
  8
ALPHA
 10
2497.185314
 20
581.975885
 30
0.0
 11
2497.178743
 21
581.805672
 31
0.0
  0
LINE
  5
198D9
  8
ALPHA
 10
2497.093521
 20
578.146097
 30
0.0
 11
2497.102052
 21
578.401416
 31
0.0
  0
LINE
  5
198DA
  8
ALPHA
 10
2497.173125
 20
581.38014
 30
0.0
 11
2497.178772
 21
581.550353
 31
0.0
  0
LINE
  5
198DB
  8
ALPHA
 10
2494.680906
 20
580.954608
 30
0.0
 11
2494.6644
 21
580.614182
 31
0.0
  0
LINE
  5
198DC
  8
ALPHA
 10
2494.363345
 20
582.060991
 30
0.0
 11
2494.202882
 21
578.060991
 31
0.0
  0
LINE
  5
198DD
  8
ALPHA
 10
2494.236931
 20
578.060991
 30
0.0
 11
2494.277421
 21
579.082268
 31
0.0
  0
LINE
  5
198DE
  8
ALPHA
 10
2494.289021
 20
579.422693
 30
0.0
 11
2494.379749
 21
581.720565
 31
0.0
  0
LINE
  5
198DF
  8
ALPHA
 10
2495.972094
 20
580.954608
 30
0.0
 11
2495.958726
 21
580.614182
 31
0.0
  0
LINE
  5
198E0
  8
ALPHA
 10
2494.540275
 20
581.465246
 30
0.0
 11
2494.528889
 21
581.124821
 31
0.0
  0
LINE
  5
198E1
  8
ALPHA
 10
2494.701204
 20
580.614182
 30
0.0
 11
2494.712402
 21
580.954608
 31
0.0
  0
LINE
  5
198E2
  8
ALPHA
 10
2497.106433
 20
578.826948
 30
0.0
 11
2497.101403
 21
578.656736
 31
0.0
  0
LINE
  5
198E3
  8
ALPHA
 10
2497.137634
 20
580.614182
 30
0.0
 11
2497.132604
 21
580.44397
 31
0.0
  0
POLYLINE
  5
198E4
  8
ALPHA
 66
     1
 10
0.0
 20
0.0
 30
0.0
  0
VERTEX
  5
1B59A
  8
ALPHA
 10
2497.122612
 20
578.486523
 30
0.0
  0
VERTEX
  5
1B59B
  8
ALPHA
 10
2497.14978
 20
579.42267
 30
0.0
  0
VERTEX
  5
1B59C
  8
ALPHA
 10
2497.176108
 20
580.358863
 30
0.0
  0
SEQEND
  5
1B59D
  8
ALPHA
  0
LINE
  5
198E9
  8
ALPHA
 10
2495.87524
 20
581.465246
 30
0.0
 11
2495.86543
 21
581.124821
 31
0.0
  0
POLYLINE
  5
198EA
  8
ALPHA
 66
     1
 10
0.0
 20
0.0
 30
0.0
  0
VERTEX
  5
1B59E
  8
ALPHA
 10
2497.176672
 20
580.614182
 30
0.0
  0
VERTEX
  5
1B59F
  8
ALPHA
 10
2497.146484
 20
579.550323
 30
0.0
  0
VERTEX
  5
1B5A0
  8
ALPHA
 10
2497.115241
 20
578.486523
 30
0.0
  0
SEQEND
  5
1B5A1
  8
ALPHA
  0
LINE
  5
198EF
  8
ALPHA
 10
2497.178743
 20
581.805672
 30
0.0
 11
2497.169115
 21
581.465246
 31
0.0
  0
LINE
  5
198F0
  8
ALPHA
 10
2495.984585
 20
580.614182
 30
0.0
 11
2495.994209
 21
580.954608
 31
0.0
  0
LINE
  5
198F1
  8
ALPHA
 10
2497.102052
 20
578.401416
 30
0.0
 11
2497.110993
 21
578.741842
 31
0.0
  0
LINE
  5
198F2
  8
ALPHA
 10
2497.133252
 20
580.188651
 30
0.0
 11
2497.142193
 21
580.529076
 31
0.0
  0
LINE
  5
198F3
  8
ALPHA
 10
2497.166858
 20
581.124821
 30
0.0
 11
2497.173125
 21
581.38014
 31
0.0
  0
LINE
  5
198F4
  8
ALPHA
 10
2497.176108
 20
580.358863
 30
0.0
 11
2497.182084
 21
580.614182
 31
0.0
  0
LINE
  5
198F5
  8
ALPHA
 10
2497.184188
 20
580.954608
 30
0.0
 11
2497.176672
 21
580.614182
 31
0.0
  0
LINE
  5
198F6
  8
ALPHA
 10
2497.111911
 20
579.082268
 30
0.0
 11
2497.106433
 21
578.826948
 31
0.0
  0
LINE
  5
198F7
  8
ALPHA
 10
2497.143112
 20
580.869502
 30
0.0
 11
2497.137634
 21
580.614182
 31
0.0
  0
LINE
  5
198F8
  8
ALPHA
 10
2497.110993
 20
578.741842
 30
0.0
 11
2497.116439
 21
578.997161
 31
0.0
  0
LINE
  5
198F9
  8
ALPHA
 10
2497.142193
 20
580.529076
 30
0.0
 11
2497.147639
 21
580.784395
 31
0.0
  0
LINE
  5
198FA
  8
ALPHA
 10
2497.169115
 20
581.465246
 30
0.0
 11
2497.162238
 21
581.124821
 31
0.0
  0
LINE
  5
198FB
  8
ALPHA
 10
2497.182084
 20
580.614182
 30
0.0
 11
2497.188778
 21
580.954608
 31
0.0
  0
LINE
  5
198FC
  8
ALPHA
 10
2494.852867
 20
583.060991
 30
0.0
 11
2494.747785
 21
577.060991
 31
0.0
  0
LINE
  5
198FD
  8
ALPHA
 10
2494.712402
 20
580.954608
 30
0.0
 11
2494.715384
 21
581.124821
 31
0.0
  0
LINE
  5
198FE
  8
ALPHA
 10
2494.661717
 20
578.060991
 30
0.0
 11
2494.669171
 21
578.486523
 31
0.0
  0
LINE
  5
198FF
  8
ALPHA
 10
2494.683887
 20
581.124821
 30
0.0
 11
2494.680906
 21
580.954608
 31
0.0
  0
LINE
  5
19900
  8
ALPHA
 10
2494.477238
 20
578.486523
 30
0.0
 11
2494.469782
 21
578.060991
 31
0.0
  0
LINE
  5
19901
  8
ALPHA
 10
2494.047189
 20
577.060991
 30
0.0
 11
2494.152373
 21
583.060991
 31
0.0
  0
LINE
  5
19902
  8
ALPHA
 10
2497.241346
 20
583.060991
 30
0.0
 11
2497.13661
 21
577.060991
 31
0.0
  0
LINE
  5
19903
  8
ALPHA
 10
2497.188778
 20
580.954608
 30
0.0
 11
2497.19694
 21
581.465246
 31
0.0
  0
LINE
  5
19904
  8
ALPHA
 10
2497.138266
 20
578.060991
 30
0.0
 11
2497.145694
 21
578.486523
 31
0.0
  0
LINE
  5
19905
  8
ALPHA
 10
2497.187159
 20
581.124821
 30
0.0
 11
2497.184188
 21
580.954608
 31
0.0
  0
LINE
  5
19906
  8
ALPHA
 10
2497.115241
 20
578.486523
 30
0.0
 11
2497.107812
 21
578.060991
 31
0.0
  0
LINE
  5
19907
  8
ALPHA
 10
2497.147639
 20
580.784395
 30
0.0
 11
2497.153582
 21
581.124821
 31
0.0
  0
LINE
  5
19908
  8
ALPHA
 10
2497.116439
 20
578.997161
 30
0.0
 11
2497.123868
 21
579.422693
 31
0.0
  0
LINE
  5
19909
  8
ALPHA
 10
2497.116369
 20
579.337587
 30
0.0
 11
2497.111911
 21
579.082268
 31
0.0
  0
LINE
  5
1990A
  8
ALPHA
 10
2497.146083
 20
581.039714
 30
0.0
 11
2497.143112
 21
580.869502
 31
0.0
  0
LINE
  5
1990B
  8
ALPHA
 10
2497.107054
 20
580.358863
 30
0.0
 11
2497.127856
 21
581.550353
 31
0.0
  0
LINE
  5
1990C
  8
ALPHA
 10
2497.075853
 20
578.571629
 30
0.0
 11
2497.09814
 21
579.848225
 31
0.0
  0
LINE
  5
1990D
  8
ALPHA
 10
2497.129755
 20
582.060991
 30
0.0
 11
2497.059922
 21
578.060991
 31
0.0
  0
LINE
  5
1990E
  8
ALPHA
 10
2497.012154
 20
577.043539
 30
0.0
 11
2497.117212
 21
583.060991
 31
0.0
  0
LINE
  5
1990F
  8
ALPHA
 10
2496.420289
 20
583.060991
 30
0.0
 11
2496.315129
 21
577.043539
 31
0.0
  0
LINE
  5
19910
  8
ALPHA
 10
2496.251984
 20
578.060991
 30
0.0
 11
2496.321895
 21
582.060991
 31
0.0
  0
LINE
  5
19911
  8
ALPHA
 10
2496.290802
 20
581.38014
 30
0.0
 11
2496.23279
 21
578.060991
 31
0.0
  0
LINE
  5
19912
  8
ALPHA
 10
2496.272902
 20
581.465246
 30
0.0
 11
2496.261002
 21
580.784395
 31
0.0
  0
LINE
  5
19913
  8
ALPHA
 10
2496.249724
 20
581.635459
 30
0.0
 11
2496.257162
 21
582.060991
 31
0.0
  0
LINE
  5
19914
  8
ALPHA
 10
2496.133896
 20
578.060991
 30
0.0
 11
2496.19638
 21
581.635459
 31
0.0
  0
LINE
  5
19915
  8
ALPHA
 10
2496.176019
 20
581.635459
 30
0.0
 11
2496.113533
 21
578.060991
 31
0.0
  0
LINE
  5
19916
  8
ALPHA
 10
2496.128209
 20
582.060991
 30
0.0
 11
2496.12077
 21
581.635459
 31
0.0
  0
LINE
  5
19917
  8
ALPHA
 10
2495.994209
 20
580.954608
 30
0.0
 11
2495.997185
 21
581.124821
 31
0.0
  0
LINE
  5
19918
  8
ALPHA
 10
2495.943614
 20
578.060991
 30
0.0
 11
2495.951055
 21
578.486523
 31
0.0
  0
LINE
  5
19919
  8
ALPHA
 10
2495.97507
 20
581.124821
 30
0.0
 11
2495.972094
 21
580.954608
 31
0.0
  0
LINE
  5
1991A
  8
ALPHA
 10
2495.815429
 20
578.486523
 30
0.0
 11
2495.807987
 21
578.060991
 31
0.0
  0
LINE
  5
1991B
  8
ALPHA
 10
2495.695871
 20
577.043539
 30
0.0
 11
2495.801121
 21
583.060991
 31
0.0
  0
LINE
  5
1991C
  8
ALPHA
 10
2497.153582
 20
581.124821
 30
0.0
 11
2497.157051
 21
581.38014
 31
0.0
  0
LINE
  5
1991D
  8
ALPHA
 10
2497.123868
 20
579.422693
 30
0.0
 11
2497.127336
 21
579.678012
 31
0.0
  0
LINE
  5
1991E
  8
ALPHA
 10
2497.14952
 20
581.295034
 30
0.0
 11
2497.146083
 21
581.039714
 31
0.0
  0
LINE
  5
1991F
  8
ALPHA
 10
2497.119805
 20
579.592906
 30
0.0
 11
2497.116369
 21
579.337587
 31
0.0
  0
LINE
  5
19920
  8
ALPHA
 10
2497.190043
 20
581.38014
 30
0.0
 11
2497.187159
 21
581.124821
 31
0.0
  0
LINE
  5
19921
  8
ALPHA
 10
2497.157051
 20
581.38014
 30
0.0
 11
2497.159995
 21
581.720565
 31
0.0
  0
LINE
  5
19922
  8
ALPHA
 10
2497.127336
 20
579.678012
 30
0.0
 11
2497.13028
 21
580.018438
 31
0.0
  0
LINE
  5
19923
  8
ALPHA
 10
2497.19694
 20
581.465246
 30
0.0
 11
2497.199823
 21
581.805672
 31
0.0
  0
LINE
  5
19924
  8
ALPHA
 10
2495.997185
 20
581.124821
 30
0.0
 11
2495.999466
 21
581.465246
 31
0.0
  0
LINE
  5
19925
  8
ALPHA
 10
2497.150433
 20
581.465246
 30
0.0
 11
2497.14952
 21
581.295034
 31
0.0
  0
LINE
  5
19926
  8
ALPHA
 10
2497.120718
 20
579.763119
 30
0.0
 11
2497.119805
 21
579.592906
 31
0.0
  0
LINE
  5
19927
  8
ALPHA
 10
2497.190614
 20
581.550353
 30
0.0
 11
2497.190043
 21
581.38014
 31
0.0
  0
LINE
  5
19928
  8
ALPHA
 10
2494.715384
 20
581.124821
 30
0.0
 11
2494.716111
 21
581.465246
 31
0.0
  0
LINE
  5
19929
  8
ALPHA
 10
2497.159995
 20
581.720565
 30
0.0
 11
2497.160379
 21
581.975885
 31
0.0
  0
LINE
  5
1992A
  8
ALPHA
 10
2497.199823
 20
581.805672
 30
0.0
 11
2497.199648
 21
581.975885
 31
0.0
  0
LINE
  5
1992B
  8
ALPHA
 10
2494.389062
 20
579.082268
 30
0.0
 11
2494.393233
 21
578.060991
 31
0.0
  0
LINE
  5
1992C
  8
ALPHA
 10
2494.379749
 20
581.720565
 30
0.0
 11
2494.389497
 21
579.422693
 31
0.0
  0
LINE
  5
1992D
  8
ALPHA
 10
2494.426171
 20
578.060991
 30
0.0
 11
2494.407998
 21
582.060991
 31
0.0
  0
LINE
  5
1992E
  8
ALPHA
 10
2497.13028
 20
580.018438
 30
0.0
 11
2497.12974
 21
580.103544
 31
0.0
  0
LINE
  5
1992F
  8
ALPHA
 10
2497.149046
 20
584.452447
 30
0.0
 11
2497.142285
 21
585.466425
 31
0.0
  0
LINE
  5
19930
  8
ALPHA
 10
2495.972119
 20
581.38014
 30
0.0
 11
2495.97507
 21
581.124821
 31
0.0
  0
LINE
  5
19931
  8
ALPHA
 10
2497.148791
 20
581.550353
 30
0.0
 11
2497.150433
 21
581.465246
 31
0.0
  0
LINE
  5
19932
  8
ALPHA
 10
2497.119076
 20
579.848225
 30
0.0
 11
2497.120718
 21
579.763119
 31
0.0
  0
LINE
  5
19933
  8
ALPHA
 10
2497.163224
 20
583.74017
 30
0.0
 11
2497.149046
 21
584.452447
 31
0.0
  0
LINE
  5
19934
  8
ALPHA
 10
2494.677817
 20
581.38014
 30
0.0
 11
2494.683887
 21
581.124821
 31
0.0
  0
LINE
  5
19935
  8
ALPHA
 10
2495.999466
 20
581.465246
 30
0.0
 11
2495.990675
 21
581.805672
 31
0.0
  0
LINE
  5
19936
  8
ALPHA
 10
2497.187991
 20
581.635459
 30
0.0
 11
2497.190614
 21
581.550353
 31
0.0
  0
LINE
  5
19937
  8
ALPHA
 10
2497.199648
 20
581.975885
 30
0.0
 11
2497.196252
 21
582.060991
 31
0.0
  0
LINE
  5
19938
  8
ALPHA
 10
2497.160379
 20
581.975885
 30
0.0
 11
2497.156652
 21
582.060991
 31
0.0
  0
LINE
  5
19939
  8
ALPHA
 10
2494.716111
 20
581.465246
 30
0.0
 11
2494.701077
 21
581.805672
 31
0.0
  0
LINE
  5
1993A
  8
ALPHA
 10
2496.08221
 20
581.039714
 30
0.0
 11
2496.074542
 21
581.209927
 31
0.0
  0
LINE
  5
1993B
  8
ALPHA
 10
2495.990657
 20
579.082268
 30
0.0
 11
2495.998536
 21
578.912055
 31
0.0
  0
LINE
  5
1993C
  8
ALPHA
 10
2495.963933
 20
581.550353
 30
0.0
 11
2495.972119
 21
581.38014
 31
0.0
  0
LINE
  5
1993D
  8
ALPHA
 10
2497.169713
 20
583.615561
 30
0.0
 11
2497.163224
 21
583.74017
 31
0.0
  0
LINE
  5
1993E
  8
ALPHA
 10
2497.183103
 20
583.371864
 30
0.0
 11
2497.172876
 21
583.556524
 31
0.0
  0
LINE
  5
1993F
  8
ALPHA
 10
2495.990675
 20
581.805672
 30
0.0
 11
2495.978821
 21
581.975885
 31
0.0
  0
LINE
  5
19940
  8
ALPHA
 10
2494.664944
 20
581.550353
 30
0.0
 11
2494.677817
 21
581.38014
 31
0.0
  0
LINE
  5
19941
  8
ALPHA
 10
2494.701077
 20
581.805672
 30
0.0
 11
2494.682974
 21
581.975885
 31
0.0
  0
LINE
  5
19942
  8
ALPHA
 10
2495.946707
 20
581.635459
 30
0.0
 11
2495.963933
 21
581.550353
 31
0.0
  0
LINE
  5
19943
  8
ALPHA
 10
2495.978821
 20
581.975885
 30
0.0
 11
2495.957902
 21
582.060991
 31
0.0
  0
LINE
  5
19944
  8
ALPHA
 10
2494.639902
 20
581.635459
 30
0.0
 11
2494.664944
 21
581.550353
 31
0.0
  0
LINE
  5
19945
  8
ALPHA
 10
2494.682974
 20
581.975885
 30
0.0
 11
2494.652674
 21
582.060991
 31
0.0
  0
ENDSEC
  0
EOF
