  0
SECTION
  2
HEADER
  9
$ACADVER
  1
AC1014
  9
$ACADMAINTVER
 70
     0
  9
$DWGCODEPAGE
  3
ANSI_1252
  9
$INSBASE
 10
93.894301
 20
236.06014
 30
0.0
  9
$EXTMIN
 10
20.100738
 20
109.903422
 30
0.0
  9
$EXTMAX
 10
103.827237
 20
156.359182
 30
0.0
  9
$LIMMIN
 10
0.0
 20
0.0
  9
$LIMMAX
 10
210.0
 20
297.0
  9
$ORTHOMODE
 70
     0
  9
$REGENMODE
 70
     1
  9
$FILLMODE
 70
     1
  9
$QTEXTMODE
 70
     0
  9
$MIRRTEXT
 70
     0
  9
$DRAGMODE
 70
     1
  9
$LTSCALE
 40
7.0
  9
$OSMODE
 70
     0
  9
$ATTMODE
 70
     1
  9
$TEXTSIZE
 40
2.5
  9
$TRACEWID
 40
0.05
  9
$TEXTSTYLE
  7
STANDARD
  9
$CLAYER
  8
COTATION1
  9
$CELTYPE
  6
BYLAYER
  9
$CECOLOR
 62
   256
  9
$CELTSCALE
 40
1.0
  9
$DELOBJ
 70
     1
  9
$DISPSILH
 70
     0
  9
$DIMSCALE
 40
1.0
  9
$DIMASZ
 40
3.0
  9
$DIMEXO
 40
0.0625
  9
$DIMDLI
 40
0.38
  9
$DIMRND
 40
0.01
  9
$DIMDLE
 40
0.0
  9
$DIMEXE
 40
0.18
  9
$DIMTP
 40
0.0
  9
$DIMTM
 40
0.0
  9
$DIMTXT
 40
2.5
  9
$DIMCEN
 40
0.09
  9
$DIMTSZ
 40
0.0
  9
$DIMTOL
 70
     0
  9
$DIMLIM
 70
     0
  9
$DIMTIH
 70
     0
  9
$DIMTOH
 70
     0
  9
$DIMSE1
 70
     0
  9
$DIMSE2
 70
     0
  9
$DIMTAD
 70
     1
  9
$DIMZIN
 70
    12
  9
$DIMBLK
  1

  9
$DIMASO
 70
     1
  9
$DIMSHO
 70
     0
  9
$DIMPOST
  1

  9
$DIMAPOST
  1

  9
$DIMALT
 70
     0
  9
$DIMALTD
 70
     2
  9
$DIMALTF
 40
25.4
  9
$DIMLFAC
 40
1.0
  9
$DIMTOFL
 70
     1
  9
$DIMTVP
 40
0.0
  9
$DIMTIX
 70
     0
  9
$DIMSOXD
 70
     0
  9
$DIMSAH
 70
     0
  9
$DIMBLK1
  1

  9
$DIMBLK2
  1

  9
$DIMSTYLE
  2
SC_STAND
  9
$DIMCLRD
 70
     0
  9
$DIMCLRE
 70
     0
  9
$DIMCLRT
 70
     0
  9
$DIMTFAC
 40
1.0
  9
$DIMGAP
 40
1.0
  9
$DIMJUST
 70
     0
  9
$DIMSD1
 70
     0
  9
$DIMSD2
 70
     0
  9
$DIMTOLJ
 70
     1
  9
$DIMTZIN
 70
    12
  9
$DIMALTZ
 70
    12
  9
$DIMALTTZ
 70
    12
  9
$DIMFIT
 70
     5
  9
$DIMUPT
 70
     0
  9
$DIMUNIT
 70
     2
  9
$DIMDEC
 70
     3
  9
$DIMTDEC
 70
     3
  9
$DIMALTU
 70
     2
  9
$DIMALTTD
 70
     2
  9
$DIMTXSTY
  7
STANDARD
  9
$DIMAUNIT
 70
     0
  9
$LUNITS
 70
     2
  9
$LUPREC
 70
     3
  9
$SKETCHINC
 40
0.1
  9
$FILLETRAD
 40
0.0625
  9
$AUNITS
 70
     0
  9
$AUPREC
 70
     0
  9
$MENU
  1
ACAD
  9
$ELEVATION
 40
0.0
  9
$PELEVATION
 40
0.0
  9
$THICKNESS
 40
0.0
  9
$LIMCHECK
 70
     0
  9
$BLIPMODE
 70
     1
  9
$CHAMFERA
 40
0.0
  9
$CHAMFERB
 40
0.0
  9
$CHAMFERC
 40
0.0
  9
$CHAMFERD
 40
0.0
  9
$SKPOLY
 70
     0
  9
$TDCREATE
 40
2450953.590960648
  9
$TDUPDATE
 40
2452850.671667025
  9
$TDINDWG
 40
0.0027226968
  9
$TDUSRTIMER
 40
0.0027226968
  9
$USRTIMER
 70
     1
  9
$ANGBASE
 50
0.0
  9
$ANGDIR
 70
     0
  9
$PDMODE
 70
     0
  9
$PDSIZE
 40
0.0
  9
$PLINEWID
 40
0.0
  9
$COORDS
 70
     0
  9
$SPLFRAME
 70
     0
  9
$SPLINETYPE
 70
     6
  9
$SPLINESEGS
 70
     8
  9
$ATTDIA
 70
     0
  9
$ATTREQ
 70
     1
  9
$HANDLING
 70
     1
  9
$HANDSEED
  5
A68
  9
$SURFTAB1
 70
     6
  9
$SURFTAB2
 70
     6
  9
$SURFTYPE
 70
     6
  9
$SURFU
 70
     6
  9
$SURFV
 70
     6
  9
$UCSNAME
  2

  9
$UCSORG
 10
0.0
 20
0.0
 30
0.0
  9
$UCSXDIR
 10
1.0
 20
0.0
 30
0.0
  9
$UCSYDIR
 10
0.0
 20
1.0
 30
0.0
  9
$PUCSNAME
  2

  9
$PUCSORG
 10
0.0
 20
0.0
 30
0.0
  9
$PUCSXDIR
 10
1.0
 20
0.0
 30
0.0
  9
$PUCSYDIR
 10
0.0
 20
1.0
 30
0.0
  9
$USERI1
 70
     0
  9
$USERI2
 70
     0
  9
$USERI3
 70
     0
  9
$USERI4
 70
     0
  9
$USERI5
 70
     0
  9
$USERR1
 40
0.0
  9
$USERR2
 40
0.0
  9
$USERR3
 40
0.0
  9
$USERR4
 40
0.0
  9
$USERR5
 40
0.0
  9
$WORLDVIEW
 70
     1
  9
$SHADEDGE
 70
     3
  9
$SHADEDIF
 70
    70
  9
$TILEMODE
 70
     1
  9
$MAXACTVP
 70
    32
  9
$PINSBASE
 10
0.0
 20
0.0
 30
0.0
  9
$PLIMCHECK
 70
     0
  9
$PEXTMIN
 10
-3.174999
 20
-3.175
 30
0.0
  9
$PEXTMAX
 10
203.812116
 20
370.276807
 30
0.0
  9
$PLIMMIN
 10
-3.175
 20
-3.175
  9
$PLIMMAX
 10
203.812115
 20
370.276807
  9
$UNITMODE
 70
     0
  9
$VISRETAIN
 70
     0
  9
$PLINEGEN
 70
     0
  9
$PSLTSCALE
 70
     1
  9
$TREEDEPTH
 70
  3020
  9
$PICKSTYLE
 70
     1
  9
$CMLSTYLE
  2
STANDARD
  9
$CMLJUST
 70
     0
  9
$CMLSCALE
 40
1.0
  9
$PROXYGRAPHICS
 70
     1
  9
$MEASUREMENT
 70
     0
  0
ENDSEC
  0
SECTION
  2
CLASSES
  0
CLASS
  1
DICTIONARYVAR
  2
AcDbDictionaryVar
  3
"AutoCAD"
 90
        0
280
     0
281
     0
  0
ENDSEC
  0
SECTION
  2
TABLES
  0
TABLE
  2
VPORT
  5
F4
100
AcDbSymbolTable
 70
     2
  0
VPORT
  5
A67
100
AcDbSymbolTableRecord
100
AcDbViewportTableRecord
  2
*ACTIVE
 70
     0
 10
0.0
 20
0.0
 11
1.0
 21
1.0
 12
61.957627
 22
133.125664
 13
0.0
 23
0.0
 14
1.0
 24
1.0
 15
10.0
 25
10.0
 16
0.0
 26
0.0
 36
1.0
 17
0.0
 27
0.0
 37
0.0
 40
52.839497
 41
1.592689
 42
50.0
 43
0.0
 44
0.0
 50
0.0
 51
0.0
 71
     0
 72
   100
 73
     1
 74
     1
 75
     0
 76
     1
 77
     0
 78
     0
  0
ENDTAB
  0
TABLE
  2
LTYPE
  5
F1
100
AcDbSymbolTable
 70
     5
  0
LTYPE
  5
FD
100
AcDbSymbolTableRecord
100
AcDbLinetypeTableRecord
  2
BYBLOCK
 70
     0
  3

 72
    65
 73
     0
 40
0.0
  0
LTYPE
  5
FE
100
AcDbSymbolTableRecord
100
AcDbLinetypeTableRecord
  2
BYLAYER
 70
     0
  3

 72
    65
 73
     0
 40
0.0
  0
LTYPE
  5
FF
100
AcDbSymbolTableRecord
100
AcDbLinetypeTableRecord
  2
CONTINUOUS
 70
     0
  3
Solid line
 72
    65
 73
     0
 40
0.0
  0
LTYPE
  5
120
100
AcDbSymbolTableRecord
100
AcDbLinetypeTableRecord
  2
CACHE2
 70
     0
  3
_ _ _ _ _ _ _ _ _ _ _ _ _ _ _ _ _ _ _ _ _ _ _ _
 72
    65
 73
     2
 40
0.1875
 49
0.125
 74
     0
 49
-0.0625
 74
     0
  0
ENDTAB
  0
TABLE
  2
LAYER
  5
EE
100
AcDbSymbolTable
 70
     6
  0
LAYER
  5
FA
100
AcDbSymbolTableRecord
100
AcDbLayerTableRecord
  2
0
 70
     0
 62
     7
  6
CONTINUOUS
  0
LAYER
  5
12C
100
AcDbSymbolTableRecord
100
AcDbLayerTableRecord
  2
ALPHA
 70
     0
 62
   255
  6
CONTINUOUS
  0
LAYER
  5
12F
100
AcDbSymbolTableRecord
100
AcDbLayerTableRecord
  2
COTATION1
 70
     0
 62
     2
  6
CONTINUOUS
  0
LAYER
  5
132
100
AcDbSymbolTableRecord
100
AcDbLayerTableRecord
  2
TEXTE
 70
     0
 62
   131
  6
CONTINUOUS
  0
LAYER
  5
13B
100
AcDbSymbolTableRecord
100
AcDbLayerTableRecord
  2
ASHADE
 70
     0
 62
     7
  6
CONTINUOUS
  0
LAYER
  5
13C
100
AcDbSymbolTableRecord
100
AcDbLayerTableRecord
  2
POINTILLE_COURT
 70
     0
 62
    40
  6
CACHE2
  0
ENDTAB
  0
TABLE
  2
STYLE
  5
EF
100
AcDbSymbolTable
 70
     2
  0
STYLE
  5
FB
100
AcDbSymbolTableRecord
100
AcDbTextStyleTableRecord
  2
STANDARD
 70
     0
 40
0.0
 41
1.0
 50
0.0
 71
     0
 42
2.5
  3
txt
  4

  0
STYLE
  5
5E8
100
AcDbSymbolTableRecord
100
AcDbTextStyleTableRecord
  2
STD
 70
     0
 40
0.0
 41
1.0
 50
0.0
 71
     0
 42
0.0
  3
txt
  4

  0
ENDTAB
  0
TABLE
  2
VIEW
  5
F2
100
AcDbSymbolTable
 70
     0
  0
ENDTAB
  0
TABLE
  2
UCS
  5
F3
100
AcDbSymbolTable
 70
     0
  0
ENDTAB
  0
TABLE
  2
APPID
  5
F5
100
AcDbSymbolTable
 70
     3
  0
APPID
  5
FC
100
AcDbSymbolTableRecord
100
AcDbRegAppTableRecord
  2
ACAD
 70
     0
  0
APPID
  5
127
100
AcDbSymbolTableRecord
100
AcDbRegAppTableRecord
  2
AVE_RENDER
 70
     0
  0
APPID
  5
128
100
AcDbSymbolTableRecord
100
AcDbRegAppTableRecord
  2
AVE_MATERIAL
 70
     0
  0
ENDTAB
  0
TABLE
  2
DIMSTYLE
  5
F6
100
AcDbSymbolTable
 70
     2
  0
DIMSTYLE
105
129
100
AcDbSymbolTableRecord
100
AcDbDimStyleTableRecord
  2
STANDARD
 70
     0
  3

  4

  5

  6

  7

 40
1.0
 41
0.18
 42
0.0625
 43
0.38
 44
0.18
 45
0.0
 46
0.0
 47
0.0
 48
0.0
140
0.18
141
0.09
142
0.0
143
25.4
144
1.0
145
0.0
146
1.0
147
0.09
 71
     0
 72
     0
 73
     1
 74
     1
 75
     0
 76
     0
 77
     0
 78
     0
170
     0
171
     2
172
     0
173
     0
174
     0
175
     0
176
     0
177
     0
178
     0
270
     2
271
     3
272
     3
273
     2
274
     2
340
FB
275
     0
280
     0
281
     0
282
     0
283
     1
284
    12
285
    12
286
    12
287
     5
288
     0
  0
DIMSTYLE
105
12A
100
AcDbSymbolTableRecord
100
AcDbDimStyleTableRecord
  2
SC_STAND
 70
     0
  3

  4

  5

  6

  7

 40
1.0
 41
3.0
 42
0.0625
 43
0.38
 44
0.18
 45
0.01
 46
0.0
 47
0.0
 48
0.0
140
2.5
141
0.09
142
0.0
143
25.4
144
1.0
145
0.0
146
1.0
147
1.0
 71
     0
 72
     0
 73
     0
 74
     0
 75
     0
 76
     0
 77
     1
 78
    12
170
     0
171
     2
172
     1
173
     0
174
     0
175
     0
176
     0
177
     0
178
     0
270
     2
271
     3
272
     3
273
     2
274
     2
340
FB
275
     0
280
     0
281
     0
282
     0
283
     1
284
    12
285
    12
286
    12
287
     5
288
     0
  0
ENDTAB
  0
TABLE
  2
BLOCK_RECORD
  5
ED
100
AcDbSymbolTable
 70
     4
  0
BLOCK_RECORD
  5
103
100
AcDbSymbolTableRecord
100
AcDbBlockTableRecord
  2
*MODEL_SPACE
  0
BLOCK_RECORD
  5
100
100
AcDbSymbolTableRecord
100
AcDbBlockTableRecord
  2
*PAPER_SPACE
  0
BLOCK_RECORD
  5
108
100
AcDbSymbolTableRecord
100
AcDbBlockTableRecord
  2
AVE_RENDER
  0
BLOCK_RECORD
  5
109
100
AcDbSymbolTableRecord
100
AcDbBlockTableRecord
  2
AVE_GLOBAL
  0
BLOCK_RECORD
  5
10A
100
AcDbSymbolTableRecord
100
AcDbBlockTableRecord
  2
SCH_IS
  0
ENDTAB
  0
ENDSEC
  0
SECTION
  2
BLOCKS
  0
BLOCK
  5
141
100
AcDbEntity
  8
0
100
AcDbBlockBegin
  2
*MODEL_SPACE
 70
     0
 10
0.0
 20
0.0
 30
0.0
  3
*MODEL_SPACE
  1

  0
ENDBLK
  5
142
100
AcDbEntity
  8
0
100
AcDbBlockEnd
  0
BLOCK
  5
13F
100
AcDbEntity
 67
     1
  8
0
100
AcDbBlockBegin
  2
*PAPER_SPACE
 70
     0
 10
0.0
 20
0.0
 30
0.0
  3
*PAPER_SPACE
  1

  0
ENDBLK
  5
140
100
AcDbEntity
 67
     1
  8
0
100
AcDbBlockEnd
  0
BLOCK
  5
8D
100
AcDbEntity
  8
0
100
AcDbBlockBegin
  2
AVE_RENDER
 70
     0
 10
0.0
 20
0.0
 30
0.0
  3
AVE_RENDER
  1
AVE_RENDER
  0
ENDBLK
  5
8E
100
AcDbEntity
  8
0
100
AcDbBlockEnd
  0
BLOCK
  5
90
100
AcDbEntity
  8
0
100
AcDbBlockBegin
  2
AVE_GLOBAL
 70
     0
 10
0.0
 20
0.0
 30
0.0
  3
AVE_GLOBAL
  1
AVE_GLOBAL
  0
ENDBLK
  5
91
100
AcDbEntity
  8
0
100
AcDbBlockEnd
  0
BLOCK
  5
C9
100
AcDbEntity
  8
0
100
AcDbBlockBegin
  2
SCH_IS
 70
     0
 10
0.0
 20
0.0
 30
0.0
  3
SCH_IS
  1

  0
INSERT
  5
C0
100
AcDbEntity
  8
ASHADE
 62
     1
100
AcDbBlockReference
  2
AVE_RENDER
 10
0.0
 20
0.0
 30
0.0
1001
AVE_RENDER
1002
{
1070
     6
1000
Pref
1070
    50
1070
    20
1070
     1
1070
     0
1000

1070
    10
1070
     1
1070
    30
1040
25.4
1070
     1
1040
0.3
1040
0.7
1040
0.0
1040
10.0
1010
-1.0
1020
-1.0
1030
-1.0
1040
0.3
1070
    49
1070
     0
1070
     0
1010
1.0
1020
1.0
1030
1.0
1040
45.0
1070
     1
1070
     0
1000
WCS
1040
0.0
1002
}
  0
INSERT
  5
C1
100
AcDbEntity
  8
ASHADE
 62
     3
100
AcDbBlockReference
  2
AVE_RENDER
 10
0.0
 20
0.0
 30
0.0
1001
AVE_RENDER
1002
{
1070
     0
1000
Full Opt
1070
     0
1070
     1
1070
     1
1070
     1
1070
     0
1070
     0
1070
     0
1070
     1
1070
     1
1040
0.0001
1040
0.0001
1002
}
  0
INSERT
  5
C2
100
AcDbEntity
  8
ASHADE
 62
     4
100
AcDbBlockReference
  2
AVE_RENDER
 10
0.0
 20
0.0
 30
0.0
1001
AVE_RENDER
1002
{
1070
     0
1000
Quick Opt
1070
     0
1070
     1
1070
     1
1070
     1
1070
     0
1070
     0
1070
     1
1002
}
  0
INSERT
  5
C3
100
AcDbEntity
  8
ASHADE
 62
     5
100
AcDbBlockReference
  2
AVE_RENDER
 10
0.0
 20
0.0
 30
0.0
1001
AVE_RENDER
1002
{
1070
     1
1000
Scanl Opt
1070
     2
1070
     0
1070
     2
1040
2.0
1040
4.0
1070
     0
1070
     1
1070
     0
1040
0.03
1002
}
  0
INSERT
  5
C4
100
AcDbEntity
  8
ASHADE
 62
     6
100
AcDbBlockReference
  2
AVE_RENDER
 10
0.0
 20
0.0
 30
0.0
1001
AVE_RENDER
1002
{
1070
     2
1000
Raytr Opt
1070
     2
1070
     0
1070
     2
1040
2.0
1040
4.0
1070
     0
1070
     1
1070
     1
1040
0.03
1070
     3
1040
0.03
1002
}
  0
INSERT
  5
C5
100
AcDbEntity
  8
ASHADE
 62
     7
100
AcDbBlockReference
  2
AVE_RENDER
 10
0.0
 20
0.0
 30
0.0
1001
AVE_RENDER
1002
{
1070
     0
1000
RFile Opt
1070
     5
1070
   640
1070
   480
1070
 10000
1070
     3
1070
    32
1070
    24
1070
     0
1070
     0
1070
     0
1070
     1
1070
     0
1070
     0
1070
     0
1002
}
  0
INSERT
  5
C6
100
AcDbEntity
  8
ASHADE
 62
     8
100
AcDbBlockReference
  2
AVE_RENDER
 10
0.0
 20
0.0
 30
0.0
1001
AVE_RENDER
1002
{
1070
     0
1000
Fog Opt
1070
     0
1070
     0
1040
0.0
1040
1.0
1040
0.0
1040
1.0
1010
0.5
1020
0.5
1030
0.5
1002
}
  0
INSERT
  5
C7
100
AcDbEntity
  8
ASHADE
 62
     9
100
AcDbBlockReference
  2
AVE_RENDER
 10
0.0
 20
0.0
 30
0.0
1001
AVE_RENDER
1002
{
1070
     0
1000
BG Opt
1070
     0
1070
     1
1010
0.0
1020
0.0
1030
0.0
1010
1.0
1020
0.0
1030
0.0
1010
0.0
1020
1.0
1030
0.0
1010
0.0
1020
0.0
1030
1.0
1040
0.5
1040
0.33
1040
0.0
1000

1070
     1
1000

1070
     1
1070
     1
1040
1.0
1040
1.0
1040
0.0
1040
0.0
1070
     0
1002
}
  0
INSERT
  5
C8
100
AcDbEntity
  8
ASHADE
 62
     1
100
AcDbBlockReference
  2
AVE_GLOBAL
 10
0.0
 20
0.0
 30
0.0
1001
AVE_MATERIAL
1002
{
1000
*GLOBAL*
1000
1
1000
Finition globale.
1002
{
1002
}
1002
{
1070
    63
1002
{
1002
{
1010
-1.0
1020
-1.0
1030
-1.0
1002
}
1040
0.1
1000

1040
0.0
1002
{
1002
}
1040
0.0
1002
{
1002
}
1040
0.0
1002
}
1002
{
1002
{
1010
-1.0
1020
-1.0
1030
-1.0
1002
}
1040
0.7
1000

1040
0.0
1002
{
1002
}
1040
0.0
1002
{
1002
}
1040
0.0
1002
}
1002
{
1002
{
1010
-1.0
1020
-1.0
1030
-1.0
1002
}
1040
0.2
1000

1040
0.0
1002
{
1002
}
1040
0.0
1002
{
1002
}
1040
0.0
1002
}
1002
{
1070
     0
1002
{
1070
     1
1002
{
1040
1.0
1040
1.0
1000

1040
0.0
1002
{
1002
}
1040
0.0
1002
{
1002
}
1040
0.0
1002
}
1002
}
1040
1.0
1040
0.0
1040
0.0
1002
}
1002
{
1040
1.0
1040
1.0
1000

1040
0.0
1002
{
1002
}
1040
0.0
1002
{
1002
}
1040
0.0
1002
}
1002
{
1040
0.5
1040
1.0
1000

1040
0.0
1002
{
1002
}
1040
0.0
1002
{
1002
}
1040
0.0
1002
}
1002
{
1070
     0
1040
0.0
1002
{
1002
}
1040
1.0
1002
{
1002
}
1040
0.0
1002
}
1002
{
1040
0.0
1002
{
1002
{
1010
0.0
1020
0.0
1030
0.0
1002
}
1040
1.0
1000

1040
0.0
1002
{
1002
}
1040
0.0
1002
{
1002
}
1040
0.0
1002
}
1002
}
1002
{
1002
{
1070
     1
1002
{
1040
0.0
1040
1.0
1000

1040
0.0
1002
{
1002
}
1040
0.0
1002
{
1002
}
1040
0.0
1002
}
1002
}
1040
0.0
1002
{
1002
}
1010
1.0
1020
0.0
1030
0.0
1010
0.0
1020
1.0
1030
0.0
1010
0.0
1020
0.0
1030
1.0
1070
     0
1002
}
1002
{
1002
{
1040
1.0
1040
1.0
1002
{
1070
     1
1002
{
1040
1.0
1040
1.0
1000

1040
0.0
1002
{
1002
}
1040
0.0
1002
{
1002
}
1040
0.0
1002
}
1002
}
1002
}
1070
     0
1040
0.0
1002
{
1002
}
1002
}
1002
{
1002
}
1002
}
1002
{
1071
        3
1070
     3
1070
     0
1002
{
1070
     2
1070
     0
1070
     0
1040
0.0
1002
}
1070
     0
1070
     2
1002
{
1002
}
1002
}
1002
{
1040
8030.0
1040
190.300003
1040
0.305
1040
228.0
1040
545.0
1040
14.0
1040
17.4
1040
0.456
1002
}
1002
}
  0
ENDBLK
  5
CA
100
AcDbEntity
  8
0
100
AcDbBlockEnd
  0
ENDSEC
  0
SECTION
  2
ENTITIES
  0
INSERT
  5
CC
100
AcDbEntity
  8
0
100
AcDbBlockReference
  2
SCH_IS
 10
-68.718396
 20
-140.042541
 30
0.0
  0
INSERT
  5
EC
100
AcDbEntity
  8
COTATION1
100
AcDbBlockReference
  2
SCH_IS
 10
0.0
 20
0.0
 30
0.0
  0
MTEXT
  5
827
100
AcDbEntity
  8
TEXTE
 62
     7
100
AcDbMText
 10
60.337903
 20
141.497195
 30
0.0
 40
1.312417
 41
0.0
 71
     1
 72
     2
  1
\fTxt|b0|i0;13
  7
STD
  0
POLYLINE
  5
828
100
AcDbEntity
  8
POINTILLE_COURT
 62
     7
100
AcDb2dPolyline
 66
     1
 10
0.0
 20
0.0
 30
0.0
 70
     1
  0
VERTEX
  5
829
100
AcDbEntity
  8
POINTILLE_COURT
 62
     7
100
AcDbVertex
100
AcDb2dVertex
 10
60.261939
 20
136.786535
 30
0.0
  0
VERTEX
  5
82A
100
AcDbEntity
  8
POINTILLE_COURT
 62
     7
100
AcDbVertex
100
AcDb2dVertex
 10
72.17215
 20
136.786535
 30
0.0
  0
VERTEX
  5
82B
100
AcDbEntity
  8
POINTILLE_COURT
 62
     7
100
AcDbVertex
100
AcDb2dVertex
 10
72.17215
 20
142.091293
 30
0.0
  0
VERTEX
  5
82C
100
AcDbEntity
  8
POINTILLE_COURT
 62
     7
100
AcDbVertex
100
AcDb2dVertex
 10
60.261939
 20
142.091293
 30
0.0
  0
SEQEND
  5
82D
100
AcDbEntity
  8
POINTILLE_COURT
 62
     7
  0
POLYLINE
  5
82E
100
AcDbEntity
  8
ALPHA
 62
     7
100
AcDb2dPolyline
 66
     1
 10
0.0
 20
0.0
 30
0.0
 70
     1
  0
VERTEX
  5
82F
100
AcDbEntity
  8
ALPHA
 62
     7
100
AcDbVertex
100
AcDb2dVertex
 10
80.27002
 20
113.415869
 30
0.0
  0
VERTEX
  5
830
100
AcDbEntity
  8
ALPHA
 62
     7
100
AcDbVertex
100
AcDb2dVertex
 10
20.100738
 20
113.415869
 30
0.0
  0
VERTEX
  5
831
100
AcDbEntity
  8
ALPHA
 62
     7
100
AcDbVertex
100
AcDb2dVertex
 10
20.100738
 20
120.708791
 30
0.0
  0
VERTEX
  5
832
100
AcDbEntity
  8
ALPHA
 62
     7
100
AcDbVertex
100
AcDb2dVertex
 10
80.27002
 20
120.708791
 30
0.0
  0
SEQEND
  5
833
100
AcDbEntity
  8
ALPHA
 62
     7
  0
POLYLINE
  5
834
100
AcDbEntity
  8
ALPHA
 62
     7
100
AcDb2dPolyline
 66
     1
 10
0.0
 20
0.0
 30
0.0
 70
     1
  0
VERTEX
  5
835
100
AcDbEntity
  8
ALPHA
 62
     7
100
AcDbVertex
100
AcDb2dVertex
 10
79.769964
 20
113.915408
 30
0.0
  0
VERTEX
  5
836
100
AcDbEntity
  8
ALPHA
 62
     7
100
AcDbVertex
100
AcDb2dVertex
 10
20.600621
 20
113.915408
 30
0.0
  0
VERTEX
  5
837
100
AcDbEntity
  8
ALPHA
 62
     7
100
AcDbVertex
100
AcDb2dVertex
 10
20.600621
 20
120.208219
 30
0.0
  0
VERTEX
  5
838
100
AcDbEntity
  8
ALPHA
 62
     7
100
AcDbVertex
100
AcDb2dVertex
 10
79.769964
 20
120.208219
 30
0.0
  0
SEQEND
  5
839
100
AcDbEntity
  8
ALPHA
 62
     7
  0
POLYLINE
  5
83A
100
AcDbEntity
  8
ALPHA
 62
     7
100
AcDb2dPolyline
 66
     1
 10
0.0
 20
0.0
 30
0.0
 70
     1
  0
VERTEX
  5
83B
100
AcDbEntity
  8
ALPHA
 62
     7
100
AcDbVertex
100
AcDb2dVertex
 10
80.27002
 20
124.606572
 30
0.0
  0
VERTEX
  5
83C
100
AcDbEntity
  8
ALPHA
 62
     7
100
AcDbVertex
100
AcDb2dVertex
 10
20.100738
 20
124.606572
 30
0.0
  0
VERTEX
  5
83D
100
AcDbEntity
  8
ALPHA
 62
     7
100
AcDbVertex
100
AcDb2dVertex
 10
20.100738
 20
131.899495
 30
0.0
  0
VERTEX
  5
83E
100
AcDbEntity
  8
ALPHA
 62
     7
100
AcDbVertex
100
AcDb2dVertex
 10
80.27002
 20
131.899495
 30
0.0
  0
SEQEND
  5
83F
100
AcDbEntity
  8
ALPHA
 62
     7
  0
POLYLINE
  5
840
100
AcDbEntity
  8
ALPHA
 62
     7
100
AcDb2dPolyline
 66
     1
 10
0.0
 20
0.0
 30
0.0
 70
     1
  0
VERTEX
  5
841
100
AcDbEntity
  8
ALPHA
 62
     7
100
AcDbVertex
100
AcDb2dVertex
 10
80.27002
 20
146.591794
 30
0.0
  0
VERTEX
  5
842
100
AcDbEntity
  8
ALPHA
 62
     7
100
AcDbVertex
100
AcDb2dVertex
 10
20.100738
 20
146.591794
 30
0.0
  0
VERTEX
  5
843
100
AcDbEntity
  8
ALPHA
 62
     7
100
AcDbVertex
100
AcDb2dVertex
 10
20.100738
 20
153.884716
 30
0.0
  0
VERTEX
  5
844
100
AcDbEntity
  8
ALPHA
 62
     7
100
AcDbVertex
100
AcDb2dVertex
 10
80.27002
 20
153.884716
 30
0.0
  0
SEQEND
  5
845
100
AcDbEntity
  8
ALPHA
 62
     7
  0
POLYLINE
  5
846
100
AcDbEntity
  8
ALPHA
 62
     7
100
AcDb2dPolyline
 66
     1
 10
0.0
 20
0.0
 30
0.0
 70
     1
  0
VERTEX
  5
847
100
AcDbEntity
  8
ALPHA
 62
     7
100
AcDbVertex
100
AcDb2dVertex
 10
80.27002
 20
135.797276
 30
0.0
  0
VERTEX
  5
848
100
AcDbEntity
  8
ALPHA
 62
     7
100
AcDbVertex
100
AcDb2dVertex
 10
20.100738
 20
135.797276
 30
0.0
  0
VERTEX
  5
849
100
AcDbEntity
  8
ALPHA
 62
     7
100
AcDbVertex
100
AcDb2dVertex
 10
20.100738
 20
143.091404
 30
0.0
  0
VERTEX
  5
84A
100
AcDbEntity
  8
ALPHA
 62
     7
100
AcDbVertex
100
AcDb2dVertex
 10
80.27002
 20
143.091404
 30
0.0
  0
SEQEND
  5
84B
100
AcDbEntity
  8
ALPHA
 62
     7
  0
POLYLINE
  5
84C
100
AcDbEntity
  8
ALPHA
 62
     7
100
AcDb2dPolyline
 66
     1
 10
0.0
 20
0.0
 30
0.0
 70
     1
  0
VERTEX
  5
84D
100
AcDbEntity
  8
ALPHA
 62
     7
100
AcDbVertex
100
AcDb2dVertex
 10
36.089082
 20
116.159026
 30
0.0
  0
VERTEX
  5
84E
100
AcDbEntity
  8
ALPHA
 62
     7
100
AcDbVertex
100
AcDb2dVertex
 10
35.28913
 20
116.159026
 30
0.0
  0
VERTEX
  5
84F
100
AcDbEntity
  8
ALPHA
 62
     7
100
AcDbVertex
100
AcDb2dVertex
 10
35.28913
 20
116.958977
 30
0.0
  0
VERTEX
  5
850
100
AcDbEntity
  8
ALPHA
 62
     7
100
AcDbVertex
100
AcDb2dVertex
 10
36.089082
 20
116.958977
 30
0.0
  0
SEQEND
  5
851
100
AcDbEntity
  8
ALPHA
 62
     7
  0
POLYLINE
  5
852
100
AcDbEntity
  8
ALPHA
 62
     7
100
AcDb2dPolyline
 66
     1
 10
0.0
 20
0.0
 30
0.0
 70
     1
  0
VERTEX
  5
853
100
AcDbEntity
  8
ALPHA
 62
     7
100
AcDbVertex
100
AcDb2dVertex
 10
36.089082
 20
127.350246
 30
0.0
  0
VERTEX
  5
854
100
AcDbEntity
  8
ALPHA
 62
     7
100
AcDbVertex
100
AcDb2dVertex
 10
35.28913
 20
127.350246
 30
0.0
  0
VERTEX
  5
855
100
AcDbEntity
  8
ALPHA
 62
     7
100
AcDbVertex
100
AcDb2dVertex
 10
35.28913
 20
128.150198
 30
0.0
  0
VERTEX
  5
856
100
AcDbEntity
  8
ALPHA
 62
     7
100
AcDbVertex
100
AcDb2dVertex
 10
36.089082
 20
128.150198
 30
0.0
  0
SEQEND
  5
857
100
AcDbEntity
  8
ALPHA
 62
     7
  0
POLYLINE
  5
858
100
AcDbEntity
  8
ALPHA
 62
     7
100
AcDb2dPolyline
 66
     1
 10
0.0
 20
0.0
 30
0.0
 70
     1
  0
VERTEX
  5
859
100
AcDbEntity
  8
ALPHA
 62
     7
100
AcDbVertex
100
AcDb2dVertex
 10
23.23543
 20
116.159026
 30
0.0
  0
VERTEX
  5
85A
100
AcDbEntity
  8
ALPHA
 62
     7
100
AcDbVertex
100
AcDb2dVertex
 10
22.435479
 20
116.159026
 30
0.0
  0
VERTEX
  5
85B
100
AcDbEntity
  8
ALPHA
 62
     7
100
AcDbVertex
100
AcDb2dVertex
 10
22.435479
 20
116.958977
 30
0.0
  0
VERTEX
  5
85C
100
AcDbEntity
  8
ALPHA
 62
     7
100
AcDbVertex
100
AcDb2dVertex
 10
23.23543
 20
116.958977
 30
0.0
  0
SEQEND
  5
85D
100
AcDbEntity
  8
ALPHA
 62
     7
  0
POLYLINE
  5
85E
100
AcDbEntity
  8
ALPHA
 62
     7
100
AcDb2dPolyline
 66
     1
 10
0.0
 20
0.0
 30
0.0
 70
     1
  0
VERTEX
  5
85F
100
AcDbEntity
  8
ALPHA
 62
     7
100
AcDbVertex
100
AcDb2dVertex
 10
29.662256
 20
116.159026
 30
0.0
  0
VERTEX
  5
860
100
AcDbEntity
  8
ALPHA
 62
     7
100
AcDbVertex
100
AcDb2dVertex
 10
28.862305
 20
116.159026
 30
0.0
  0
VERTEX
  5
861
100
AcDbEntity
  8
ALPHA
 62
     7
100
AcDbVertex
100
AcDb2dVertex
 10
28.862305
 20
116.958977
 30
0.0
  0
VERTEX
  5
862
100
AcDbEntity
  8
ALPHA
 62
     7
100
AcDbVertex
100
AcDb2dVertex
 10
29.662256
 20
116.958977
 30
0.0
  0
SEQEND
  5
863
100
AcDbEntity
  8
ALPHA
 62
     7
  0
POLYLINE
  5
864
100
AcDbEntity
  8
ALPHA
 62
     7
100
AcDb2dPolyline
 66
     1
 10
0.0
 20
0.0
 30
0.0
 70
     1
  0
VERTEX
  5
865
100
AcDbEntity
  8
ALPHA
 62
     7
100
AcDbVertex
100
AcDb2dVertex
 10
26.448843
 20
116.159026
 30
0.0
  0
VERTEX
  5
866
100
AcDbEntity
  8
ALPHA
 62
     7
100
AcDbVertex
100
AcDb2dVertex
 10
25.64872
 20
116.159026
 30
0.0
  0
VERTEX
  5
867
100
AcDbEntity
  8
ALPHA
 62
     7
100
AcDbVertex
100
AcDb2dVertex
 10
25.64872
 20
116.958977
 30
0.0
  0
VERTEX
  5
868
100
AcDbEntity
  8
ALPHA
 62
     7
100
AcDbVertex
100
AcDb2dVertex
 10
26.448843
 20
116.958977
 30
0.0
  0
SEQEND
  5
869
100
AcDbEntity
  8
ALPHA
 62
     7
  0
POLYLINE
  5
86A
100
AcDbEntity
  8
ALPHA
 62
     7
100
AcDb2dPolyline
 66
     1
 10
0.0
 20
0.0
 30
0.0
 70
     1
  0
VERTEX
  5
86B
100
AcDbEntity
  8
ALPHA
 62
     7
100
AcDbVertex
100
AcDb2dVertex
 10
32.875669
 20
116.159026
 30
0.0
  0
VERTEX
  5
86C
100
AcDbEntity
  8
ALPHA
 62
     7
100
AcDbVertex
100
AcDb2dVertex
 10
32.075718
 20
116.159026
 30
0.0
  0
VERTEX
  5
86D
100
AcDbEntity
  8
ALPHA
 62
     7
100
AcDbVertex
100
AcDb2dVertex
 10
32.075718
 20
116.958977
 30
0.0
  0
VERTEX
  5
86E
100
AcDbEntity
  8
ALPHA
 62
     7
100
AcDbVertex
100
AcDb2dVertex
 10
32.875669
 20
116.958977
 30
0.0
  0
SEQEND
  5
86F
100
AcDbEntity
  8
ALPHA
 62
     7
  0
POLYLINE
  5
870
100
AcDbEntity
  8
ALPHA
 62
     7
100
AcDb2dPolyline
 66
     1
 10
0.0
 20
0.0
 30
0.0
 70
     1
  0
VERTEX
  5
871
100
AcDbEntity
  8
ALPHA
 62
     7
100
AcDbVertex
100
AcDb2dVertex
 10
23.23543
 20
127.350246
 30
0.0
  0
VERTEX
  5
872
100
AcDbEntity
  8
ALPHA
 62
     7
100
AcDbVertex
100
AcDb2dVertex
 10
22.435479
 20
127.350246
 30
0.0
  0
VERTEX
  5
873
100
AcDbEntity
  8
ALPHA
 62
     7
100
AcDbVertex
100
AcDb2dVertex
 10
22.435479
 20
128.150198
 30
0.0
  0
VERTEX
  5
874
100
AcDbEntity
  8
ALPHA
 62
     7
100
AcDbVertex
100
AcDb2dVertex
 10
23.23543
 20
128.150198
 30
0.0
  0
SEQEND
  5
875
100
AcDbEntity
  8
ALPHA
 62
     7
  0
POLYLINE
  5
876
100
AcDbEntity
  8
ALPHA
 62
     7
100
AcDb2dPolyline
 66
     1
 10
0.0
 20
0.0
 30
0.0
 70
     1
  0
VERTEX
  5
877
100
AcDbEntity
  8
ALPHA
 62
     7
100
AcDbVertex
100
AcDb2dVertex
 10
29.662428
 20
127.350246
 30
0.0
  0
VERTEX
  5
878
100
AcDbEntity
  8
ALPHA
 62
     7
100
AcDbVertex
100
AcDb2dVertex
 10
28.862305
 20
127.350246
 30
0.0
  0
VERTEX
  5
879
100
AcDbEntity
  8
ALPHA
 62
     7
100
AcDbVertex
100
AcDb2dVertex
 10
28.862305
 20
128.150198
 30
0.0
  0
VERTEX
  5
87A
100
AcDbEntity
  8
ALPHA
 62
     7
100
AcDbVertex
100
AcDb2dVertex
 10
29.662428
 20
128.150198
 30
0.0
  0
SEQEND
  5
87B
100
AcDbEntity
  8
ALPHA
 62
     7
  0
POLYLINE
  5
87C
100
AcDbEntity
  8
ALPHA
 62
     7
100
AcDb2dPolyline
 66
     1
 10
0.0
 20
0.0
 30
0.0
 70
     1
  0
VERTEX
  5
87D
100
AcDbEntity
  8
ALPHA
 62
     7
100
AcDbVertex
100
AcDb2dVertex
 10
26.449015
 20
127.350246
 30
0.0
  0
VERTEX
  5
87E
100
AcDbEntity
  8
ALPHA
 62
     7
100
AcDbVertex
100
AcDb2dVertex
 10
25.648892
 20
127.350246
 30
0.0
  0
VERTEX
  5
87F
100
AcDbEntity
  8
ALPHA
 62
     7
100
AcDbVertex
100
AcDb2dVertex
 10
25.648892
 20
128.150198
 30
0.0
  0
VERTEX
  5
880
100
AcDbEntity
  8
ALPHA
 62
     7
100
AcDbVertex
100
AcDb2dVertex
 10
26.449015
 20
128.150198
 30
0.0
  0
SEQEND
  5
881
100
AcDbEntity
  8
ALPHA
 62
     7
  0
POLYLINE
  5
882
100
AcDbEntity
  8
ALPHA
 62
     7
100
AcDb2dPolyline
 66
     1
 10
0.0
 20
0.0
 30
0.0
 70
     1
  0
VERTEX
  5
883
100
AcDbEntity
  8
ALPHA
 62
     7
100
AcDbVertex
100
AcDb2dVertex
 10
32.875841
 20
127.350246
 30
0.0
  0
VERTEX
  5
884
100
AcDbEntity
  8
ALPHA
 62
     7
100
AcDbVertex
100
AcDb2dVertex
 10
32.07589
 20
127.350246
 30
0.0
  0
VERTEX
  5
885
100
AcDbEntity
  8
ALPHA
 62
     7
100
AcDbVertex
100
AcDb2dVertex
 10
32.07589
 20
128.150198
 30
0.0
  0
VERTEX
  5
886
100
AcDbEntity
  8
ALPHA
 62
     7
100
AcDbVertex
100
AcDb2dVertex
 10
32.875841
 20
128.150198
 30
0.0
  0
SEQEND
  5
887
100
AcDbEntity
  8
ALPHA
 62
     7
  0
MTEXT
  5
888
100
AcDbEntity
  8
TEXTE
 62
     7
100
AcDbMText
 10
37.632312
 20
119.114409
 30
0.0
 40
1.312417
 41
0.0
 71
     1
 72
     2
  1
\fTxt|b0|i0;PE
  7
STD
  0
MTEXT
  5
889
100
AcDbEntity
  8
TEXTE
 62
     7
100
AcDbMText
 10
56.912789
 20
119.114409
 30
0.0
 40
1.312417
 41
0.0
 71
     1
 72
     2
  1
\fTxt|b0|i0;PE
  7
STD
  0
POLYLINE
  5
88A
100
AcDbEntity
  8
ALPHA
 62
     7
100
AcDb2dPolyline
 66
     1
 10
0.0
 20
0.0
 30
0.0
 70
     1
  0
VERTEX
  5
88B
100
AcDbEntity
  8
ALPHA
 62
     7
100
AcDbVertex
100
AcDb2dVertex
 10
48.942905
 20
116.159026
 30
0.0
  0
VERTEX
  5
88C
100
AcDbEntity
  8
ALPHA
 62
     7
100
AcDbVertex
100
AcDb2dVertex
 10
48.142782
 20
116.159026
 30
0.0
  0
VERTEX
  5
88D
100
AcDbEntity
  8
ALPHA
 62
     7
100
AcDbVertex
100
AcDb2dVertex
 10
48.142782
 20
116.958977
 30
0.0
  0
VERTEX
  5
88E
100
AcDbEntity
  8
ALPHA
 62
     7
100
AcDbVertex
100
AcDb2dVertex
 10
48.942905
 20
116.958977
 30
0.0
  0
SEQEND
  5
88F
100
AcDbEntity
  8
ALPHA
 62
     7
  0
POLYLINE
  5
890
100
AcDbEntity
  8
ALPHA
 62
     7
100
AcDb2dPolyline
 66
     1
 10
0.0
 20
0.0
 30
0.0
 70
     1
  0
VERTEX
  5
891
100
AcDbEntity
  8
ALPHA
 62
     7
100
AcDbVertex
100
AcDb2dVertex
 10
42.51608
 20
116.159026
 30
0.0
  0
VERTEX
  5
892
100
AcDbEntity
  8
ALPHA
 62
     7
100
AcDbVertex
100
AcDb2dVertex
 10
41.715956
 20
116.159026
 30
0.0
  0
VERTEX
  5
893
100
AcDbEntity
  8
ALPHA
 62
     7
100
AcDbVertex
100
AcDb2dVertex
 10
41.715956
 20
116.958977
 30
0.0
  0
VERTEX
  5
894
100
AcDbEntity
  8
ALPHA
 62
     7
100
AcDbVertex
100
AcDb2dVertex
 10
42.51608
 20
116.958977
 30
0.0
  0
SEQEND
  5
895
100
AcDbEntity
  8
ALPHA
 62
     7
  0
POLYLINE
  5
896
100
AcDbEntity
  8
ALPHA
 62
     7
100
AcDb2dPolyline
 66
     1
 10
0.0
 20
0.0
 30
0.0
 70
     1
  0
VERTEX
  5
897
100
AcDbEntity
  8
ALPHA
 62
     7
100
AcDbVertex
100
AcDb2dVertex
 10
39.302667
 20
116.159026
 30
0.0
  0
VERTEX
  5
898
100
AcDbEntity
  8
ALPHA
 62
     7
100
AcDbVertex
100
AcDb2dVertex
 10
38.502543
 20
116.159026
 30
0.0
  0
VERTEX
  5
899
100
AcDbEntity
  8
ALPHA
 62
     7
100
AcDbVertex
100
AcDb2dVertex
 10
38.502543
 20
116.958977
 30
0.0
  0
VERTEX
  5
89A
100
AcDbEntity
  8
ALPHA
 62
     7
100
AcDbVertex
100
AcDb2dVertex
 10
39.302667
 20
116.958977
 30
0.0
  0
SEQEND
  5
89B
100
AcDbEntity
  8
ALPHA
 62
     7
  0
POLYLINE
  5
89C
100
AcDbEntity
  8
ALPHA
 62
     7
100
AcDb2dPolyline
 66
     1
 10
0.0
 20
0.0
 30
0.0
 70
     1
  0
VERTEX
  5
89D
100
AcDbEntity
  8
ALPHA
 62
     7
100
AcDbVertex
100
AcDb2dVertex
 10
45.729492
 20
116.159026
 30
0.0
  0
VERTEX
  5
89E
100
AcDbEntity
  8
ALPHA
 62
     7
100
AcDbVertex
100
AcDb2dVertex
 10
44.929369
 20
116.159026
 30
0.0
  0
VERTEX
  5
89F
100
AcDbEntity
  8
ALPHA
 62
     7
100
AcDbVertex
100
AcDb2dVertex
 10
44.929369
 20
116.958977
 30
0.0
  0
VERTEX
  5
8A0
100
AcDbEntity
  8
ALPHA
 62
     7
100
AcDbVertex
100
AcDb2dVertex
 10
45.729492
 20
116.958977
 30
0.0
  0
SEQEND
  5
8A1
100
AcDbEntity
  8
ALPHA
 62
     7
  0
POLYLINE
  5
8A2
100
AcDbEntity
  8
ALPHA
 62
     7
100
AcDb2dPolyline
 66
     1
 10
0.0
 20
0.0
 30
0.0
 70
     1
  0
VERTEX
  5
8A3
100
AcDbEntity
  8
ALPHA
 62
     7
100
AcDbVertex
100
AcDb2dVertex
 10
52.156318
 20
116.159026
 30
0.0
  0
VERTEX
  5
8A4
100
AcDbEntity
  8
ALPHA
 62
     7
100
AcDbVertex
100
AcDb2dVertex
 10
51.356195
 20
116.159026
 30
0.0
  0
VERTEX
  5
8A5
100
AcDbEntity
  8
ALPHA
 62
     7
100
AcDbVertex
100
AcDb2dVertex
 10
51.356195
 20
116.958977
 30
0.0
  0
VERTEX
  5
8A6
100
AcDbEntity
  8
ALPHA
 62
     7
100
AcDbVertex
100
AcDb2dVertex
 10
52.156318
 20
116.958977
 30
0.0
  0
SEQEND
  5
8A7
100
AcDbEntity
  8
ALPHA
 62
     7
  0
POLYLINE
  5
8A8
100
AcDbEntity
  8
ALPHA
 62
     7
100
AcDb2dPolyline
 66
     1
 10
0.0
 20
0.0
 30
0.0
 70
     1
  0
VERTEX
  5
8A9
100
AcDbEntity
  8
ALPHA
 62
     7
100
AcDbVertex
100
AcDb2dVertex
 10
55.369731
 20
116.159026
 30
0.0
  0
VERTEX
  5
8AA
100
AcDbEntity
  8
ALPHA
 62
     7
100
AcDbVertex
100
AcDb2dVertex
 10
54.569607
 20
116.159026
 30
0.0
  0
VERTEX
  5
8AB
100
AcDbEntity
  8
ALPHA
 62
     7
100
AcDbVertex
100
AcDb2dVertex
 10
54.569607
 20
116.958977
 30
0.0
  0
VERTEX
  5
8AC
100
AcDbEntity
  8
ALPHA
 62
     7
100
AcDbVertex
100
AcDb2dVertex
 10
55.369731
 20
116.958977
 30
0.0
  0
SEQEND
  5
8AD
100
AcDbEntity
  8
ALPHA
 62
     7
  0
POLYLINE
  5
8AE
100
AcDbEntity
  8
ALPHA
 62
     7
100
AcDb2dPolyline
 66
     1
 10
0.0
 20
0.0
 30
0.0
 70
     1
  0
VERTEX
  5
8AF
100
AcDbEntity
  8
ALPHA
 62
     7
100
AcDbVertex
100
AcDb2dVertex
 10
58.583144
 20
116.159026
 30
0.0
  0
VERTEX
  5
8B0
100
AcDbEntity
  8
ALPHA
 62
     7
100
AcDbVertex
100
AcDb2dVertex
 10
57.78302
 20
116.159026
 30
0.0
  0
VERTEX
  5
8B1
100
AcDbEntity
  8
ALPHA
 62
     7
100
AcDbVertex
100
AcDb2dVertex
 10
57.78302
 20
116.958977
 30
0.0
  0
VERTEX
  5
8B2
100
AcDbEntity
  8
ALPHA
 62
     7
100
AcDbVertex
100
AcDb2dVertex
 10
58.583144
 20
116.958977
 30
0.0
  0
SEQEND
  5
8B3
100
AcDbEntity
  8
ALPHA
 62
     7
  0
POLYLINE
  5
8B4
100
AcDbEntity
  8
ALPHA
 62
     7
100
AcDb2dPolyline
 66
     1
 10
0.0
 20
0.0
 30
0.0
 70
     1
  0
VERTEX
  5
8B5
100
AcDbEntity
  8
ALPHA
 62
     7
100
AcDbVertex
100
AcDb2dVertex
 10
61.796556
 20
116.159026
 30
0.0
  0
VERTEX
  5
8B6
100
AcDbEntity
  8
ALPHA
 62
     7
100
AcDbVertex
100
AcDb2dVertex
 10
60.996605
 20
116.159026
 30
0.0
  0
VERTEX
  5
8B7
100
AcDbEntity
  8
ALPHA
 62
     7
100
AcDbVertex
100
AcDb2dVertex
 10
60.996605
 20
116.958977
 30
0.0
  0
VERTEX
  5
8B8
100
AcDbEntity
  8
ALPHA
 62
     7
100
AcDbVertex
100
AcDb2dVertex
 10
61.796556
 20
116.958977
 30
0.0
  0
SEQEND
  5
8B9
100
AcDbEntity
  8
ALPHA
 62
     7
  0
POLYLINE
  5
8BA
100
AcDbEntity
  8
ALPHA
 62
     7
100
AcDb2dPolyline
 66
     1
 10
0.0
 20
0.0
 30
0.0
 70
     1
  0
VERTEX
  5
8BB
100
AcDbEntity
  8
ALPHA
 62
     7
100
AcDbVertex
100
AcDb2dVertex
 10
48.943077
 20
127.350246
 30
0.0
  0
VERTEX
  5
8BC
100
AcDbEntity
  8
ALPHA
 62
     7
100
AcDbVertex
100
AcDb2dVertex
 10
48.142782
 20
127.350246
 30
0.0
  0
VERTEX
  5
8BD
100
AcDbEntity
  8
ALPHA
 62
     7
100
AcDbVertex
100
AcDb2dVertex
 10
48.142782
 20
128.150198
 30
0.0
  0
VERTEX
  5
8BE
100
AcDbEntity
  8
ALPHA
 62
     7
100
AcDbVertex
100
AcDb2dVertex
 10
48.943077
 20
128.150198
 30
0.0
  0
SEQEND
  5
8BF
100
AcDbEntity
  8
ALPHA
 62
     7
  0
POLYLINE
  5
8C0
100
AcDbEntity
  8
ALPHA
 62
     7
100
AcDb2dPolyline
 66
     1
 10
0.0
 20
0.0
 30
0.0
 70
     1
  0
VERTEX
  5
8C1
100
AcDbEntity
  8
ALPHA
 62
     7
100
AcDbVertex
100
AcDb2dVertex
 10
42.516252
 20
127.350246
 30
0.0
  0
VERTEX
  5
8C2
100
AcDbEntity
  8
ALPHA
 62
     7
100
AcDbVertex
100
AcDb2dVertex
 10
41.715956
 20
127.350246
 30
0.0
  0
VERTEX
  5
8C3
100
AcDbEntity
  8
ALPHA
 62
     7
100
AcDbVertex
100
AcDb2dVertex
 10
41.715956
 20
128.150198
 30
0.0
  0
VERTEX
  5
8C4
100
AcDbEntity
  8
ALPHA
 62
     7
100
AcDbVertex
100
AcDb2dVertex
 10
42.516252
 20
128.150198
 30
0.0
  0
SEQEND
  5
8C5
100
AcDbEntity
  8
ALPHA
 62
     7
  0
MTEXT
  5
8C6
100
AcDbEntity
  8
TEXTE
 62
     7
100
AcDbMText
 10
37.632312
 20
130.805685
 30
0.0
 40
1.312417
 41
0.0
 71
     1
 72
     2
  1
\fTxt|b0|i0;M-
  7
STD
  0
POLYLINE
  5
8C7
100
AcDbEntity
  8
ALPHA
 62
     7
100
AcDb2dPolyline
 66
     1
 10
0.0
 20
0.0
 30
0.0
 70
     1
  0
VERTEX
  5
8C8
100
AcDbEntity
  8
ALPHA
 62
     7
100
AcDbVertex
100
AcDb2dVertex
 10
39.302667
 20
127.350246
 30
0.0
  0
VERTEX
  5
8C9
100
AcDbEntity
  8
ALPHA
 62
     7
100
AcDbVertex
100
AcDb2dVertex
 10
38.502716
 20
127.350246
 30
0.0
  0
VERTEX
  5
8CA
100
AcDbEntity
  8
ALPHA
 62
     7
100
AcDbVertex
100
AcDb2dVertex
 10
38.502716
 20
128.150198
 30
0.0
  0
VERTEX
  5
8CB
100
AcDbEntity
  8
ALPHA
 62
     7
100
AcDbVertex
100
AcDb2dVertex
 10
39.302667
 20
128.150198
 30
0.0
  0
SEQEND
  5
8CC
100
AcDbEntity
  8
ALPHA
 62
     7
  0
POLYLINE
  5
8CD
100
AcDbEntity
  8
ALPHA
 62
     7
100
AcDb2dPolyline
 66
     1
 10
0.0
 20
0.0
 30
0.0
 70
     1
  0
VERTEX
  5
8CE
100
AcDbEntity
  8
ALPHA
 62
     7
100
AcDbVertex
100
AcDb2dVertex
 10
45.729492
 20
127.350246
 30
0.0
  0
VERTEX
  5
8CF
100
AcDbEntity
  8
ALPHA
 62
     7
100
AcDbVertex
100
AcDb2dVertex
 10
44.929541
 20
127.350246
 30
0.0
  0
VERTEX
  5
8D0
100
AcDbEntity
  8
ALPHA
 62
     7
100
AcDbVertex
100
AcDb2dVertex
 10
44.929541
 20
128.150198
 30
0.0
  0
VERTEX
  5
8D1
100
AcDbEntity
  8
ALPHA
 62
     7
100
AcDbVertex
100
AcDb2dVertex
 10
45.729492
 20
128.150198
 30
0.0
  0
SEQEND
  5
8D2
100
AcDbEntity
  8
ALPHA
 62
     7
  0
POLYLINE
  5
8D3
100
AcDbEntity
  8
ALPHA
 62
     7
100
AcDb2dPolyline
 66
     1
 10
0.0
 20
0.0
 30
0.0
 70
     1
  0
VERTEX
  5
8D4
100
AcDbEntity
  8
ALPHA
 62
     7
100
AcDbVertex
100
AcDb2dVertex
 10
52.156318
 20
127.350246
 30
0.0
  0
VERTEX
  5
8D5
100
AcDbEntity
  8
ALPHA
 62
     7
100
AcDbVertex
100
AcDb2dVertex
 10
51.356367
 20
127.350246
 30
0.0
  0
VERTEX
  5
8D6
100
AcDbEntity
  8
ALPHA
 62
     7
100
AcDbVertex
100
AcDb2dVertex
 10
51.356367
 20
128.150198
 30
0.0
  0
VERTEX
  5
8D7
100
AcDbEntity
  8
ALPHA
 62
     7
100
AcDbVertex
100
AcDb2dVertex
 10
52.156318
 20
128.150198
 30
0.0
  0
SEQEND
  5
8D8
100
AcDbEntity
  8
ALPHA
 62
     7
  0
POLYLINE
  5
8D9
100
AcDbEntity
  8
ALPHA
 62
     7
100
AcDb2dPolyline
 66
     1
 10
0.0
 20
0.0
 30
0.0
 70
     1
  0
VERTEX
  5
8DA
100
AcDbEntity
  8
ALPHA
 62
     7
100
AcDbVertex
100
AcDb2dVertex
 10
55.369903
 20
127.350246
 30
0.0
  0
VERTEX
  5
8DB
100
AcDbEntity
  8
ALPHA
 62
     7
100
AcDbVertex
100
AcDb2dVertex
 10
54.569607
 20
127.350246
 30
0.0
  0
VERTEX
  5
8DC
100
AcDbEntity
  8
ALPHA
 62
     7
100
AcDbVertex
100
AcDb2dVertex
 10
54.569607
 20
128.150198
 30
0.0
  0
VERTEX
  5
8DD
100
AcDbEntity
  8
ALPHA
 62
     7
100
AcDbVertex
100
AcDb2dVertex
 10
55.369903
 20
128.150198
 30
0.0
  0
SEQEND
  5
8DE
100
AcDbEntity
  8
ALPHA
 62
     7
  0
MTEXT
  5
8DF
100
AcDbEntity
  8
TEXTE
 62
     7
100
AcDbMText
 10
57.124318
 20
130.805685
 30
0.0
 40
1.312417
 41
0.0
 71
     1
 72
     2
  1
\fTxt|b0|i0;1N
  7
STD
  0
POLYLINE
  5
8E0
100
AcDbEntity
  8
ALPHA
 62
     7
100
AcDb2dPolyline
 66
     1
 10
0.0
 20
0.0
 30
0.0
 70
     1
  0
VERTEX
  5
8E1
100
AcDbEntity
  8
ALPHA
 62
     7
100
AcDbVertex
100
AcDb2dVertex
 10
58.583144
 20
127.350246
 30
0.0
  0
VERTEX
  5
8E2
100
AcDbEntity
  8
ALPHA
 62
     7
100
AcDbVertex
100
AcDb2dVertex
 10
57.783192
 20
127.350246
 30
0.0
  0
VERTEX
  5
8E3
100
AcDbEntity
  8
ALPHA
 62
     7
100
AcDbVertex
100
AcDb2dVertex
 10
57.783192
 20
128.150198
 30
0.0
  0
VERTEX
  5
8E4
100
AcDbEntity
  8
ALPHA
 62
     7
100
AcDbVertex
100
AcDb2dVertex
 10
58.583144
 20
128.150198
 30
0.0
  0
SEQEND
  5
8E5
100
AcDbEntity
  8
ALPHA
 62
     7
  0
POLYLINE
  5
8E6
100
AcDbEntity
  8
ALPHA
 62
     7
100
AcDb2dPolyline
 66
     1
 10
0.0
 20
0.0
 30
0.0
 70
     1
  0
VERTEX
  5
8E7
100
AcDbEntity
  8
ALPHA
 62
     7
100
AcDbVertex
100
AcDb2dVertex
 10
61.796729
 20
127.350246
 30
0.0
  0
VERTEX
  5
8E8
100
AcDbEntity
  8
ALPHA
 62
     7
100
AcDbVertex
100
AcDb2dVertex
 10
60.996777
 20
127.350246
 30
0.0
  0
VERTEX
  5
8E9
100
AcDbEntity
  8
ALPHA
 62
     7
100
AcDbVertex
100
AcDb2dVertex
 10
60.996777
 20
128.150198
 30
0.0
  0
VERTEX
  5
8EA
100
AcDbEntity
  8
ALPHA
 62
     7
100
AcDbVertex
100
AcDb2dVertex
 10
61.796729
 20
128.150198
 30
0.0
  0
SEQEND
  5
8EB
100
AcDbEntity
  8
ALPHA
 62
     7
  0
POLYLINE
  5
8EC
100
AcDbEntity
  8
POINTILLE_COURT
 62
     7
100
AcDb2dPolyline
 66
     1
 10
0.0
 20
0.0
 30
0.0
 70
     1
  0
VERTEX
  5
8ED
100
AcDbEntity
  8
POINTILLE_COURT
 62
     7
100
AcDbVertex
100
AcDb2dVertex
 10
52.891157
 20
147.580708
 30
0.0
  0
VERTEX
  5
8EE
100
AcDbEntity
  8
POINTILLE_COURT
 62
     7
100
AcDbVertex
100
AcDb2dVertex
 10
21.095337
 20
147.580708
 30
0.0
  0
VERTEX
  5
8EF
100
AcDbEntity
  8
POINTILLE_COURT
 62
     7
100
AcDbVertex
100
AcDb2dVertex
 10
21.095337
 20
152.884605
 30
0.0
  0
VERTEX
  5
8F0
100
AcDbEntity
  8
POINTILLE_COURT
 62
     7
100
AcDbVertex
100
AcDb2dVertex
 10
52.891157
 20
152.884605
 30
0.0
  0
SEQEND
  5
8F1
100
AcDbEntity
  8
POINTILLE_COURT
 62
     7
  0
POLYLINE
  5
8F2
100
AcDbEntity
  8
ALPHA
 62
     7
100
AcDb2dPolyline
 66
     1
 10
0.0
 20
0.0
 30
0.0
 70
     1
  0
VERTEX
  5
8F3
100
AcDbEntity
  8
ALPHA
 62
     7
100
AcDbVertex
100
AcDb2dVertex
 10
36.089082
 20
149.335468
 30
0.0
  0
VERTEX
  5
8F4
100
AcDbEntity
  8
ALPHA
 62
     7
100
AcDbVertex
100
AcDb2dVertex
 10
35.28913
 20
149.335468
 30
0.0
  0
VERTEX
  5
8F5
100
AcDbEntity
  8
ALPHA
 62
     7
100
AcDbVertex
100
AcDb2dVertex
 10
35.28913
 20
150.135419
 30
0.0
  0
VERTEX
  5
8F6
100
AcDbEntity
  8
ALPHA
 62
     7
100
AcDbVertex
100
AcDb2dVertex
 10
36.089082
 20
150.135419
 30
0.0
  0
SEQEND
  5
8F7
100
AcDbEntity
  8
ALPHA
 62
     7
  0
POLYLINE
  5
8F8
100
AcDbEntity
  8
ALPHA
 62
     7
100
AcDb2dPolyline
 66
     1
 10
0.0
 20
0.0
 30
0.0
 70
     1
  0
VERTEX
  5
8F9
100
AcDbEntity
  8
ALPHA
 62
     7
100
AcDbVertex
100
AcDb2dVertex
 10
36.089082
 20
138.541639
 30
0.0
  0
VERTEX
  5
8FA
100
AcDbEntity
  8
ALPHA
 62
     7
100
AcDbVertex
100
AcDb2dVertex
 10
35.28913
 20
138.541639
 30
0.0
  0
VERTEX
  5
8FB
100
AcDbEntity
  8
ALPHA
 62
     7
100
AcDbVertex
100
AcDb2dVertex
 10
35.28913
 20
139.341763
 30
0.0
  0
VERTEX
  5
8FC
100
AcDbEntity
  8
ALPHA
 62
     7
100
AcDbVertex
100
AcDb2dVertex
 10
36.089082
 20
139.341763
 30
0.0
  0
SEQEND
  5
8FD
100
AcDbEntity
  8
ALPHA
 62
     7
  0
POLYLINE
  5
8FE
100
AcDbEntity
  8
ALPHA
 62
     7
100
AcDb2dPolyline
 66
     1
 10
0.0
 20
0.0
 30
0.0
 70
     1
  0
VERTEX
  5
8FF
100
AcDbEntity
  8
ALPHA
 62
     7
100
AcDbVertex
100
AcDb2dVertex
 10
23.23543
 20
138.541639
 30
0.0
  0
VERTEX
  5
900
100
AcDbEntity
  8
ALPHA
 62
     7
100
AcDbVertex
100
AcDb2dVertex
 10
22.435479
 20
138.541639
 30
0.0
  0
VERTEX
  5
901
100
AcDbEntity
  8
ALPHA
 62
     7
100
AcDbVertex
100
AcDb2dVertex
 10
22.435479
 20
139.341763
 30
0.0
  0
VERTEX
  5
902
100
AcDbEntity
  8
ALPHA
 62
     7
100
AcDbVertex
100
AcDb2dVertex
 10
23.23543
 20
139.341763
 30
0.0
  0
SEQEND
  5
903
100
AcDbEntity
  8
ALPHA
 62
     7
  0
POLYLINE
  5
904
100
AcDbEntity
  8
ALPHA
 62
     7
100
AcDb2dPolyline
 66
     1
 10
0.0
 20
0.0
 30
0.0
 70
     1
  0
VERTEX
  5
905
100
AcDbEntity
  8
ALPHA
 62
     7
100
AcDbVertex
100
AcDb2dVertex
 10
29.662428
 20
138.541639
 30
0.0
  0
VERTEX
  5
906
100
AcDbEntity
  8
ALPHA
 62
     7
100
AcDbVertex
100
AcDb2dVertex
 10
28.862305
 20
138.541639
 30
0.0
  0
VERTEX
  5
907
100
AcDbEntity
  8
ALPHA
 62
     7
100
AcDbVertex
100
AcDb2dVertex
 10
28.862305
 20
139.341763
 30
0.0
  0
VERTEX
  5
908
100
AcDbEntity
  8
ALPHA
 62
     7
100
AcDbVertex
100
AcDb2dVertex
 10
29.662428
 20
139.341763
 30
0.0
  0
SEQEND
  5
909
100
AcDbEntity
  8
ALPHA
 62
     7
  0
POLYLINE
  5
90A
100
AcDbEntity
  8
ALPHA
 62
     7
100
AcDb2dPolyline
 66
     1
 10
0.0
 20
0.0
 30
0.0
 70
     1
  0
VERTEX
  5
90B
100
AcDbEntity
  8
ALPHA
 62
     7
100
AcDbVertex
100
AcDb2dVertex
 10
26.449015
 20
138.541639
 30
0.0
  0
VERTEX
  5
90C
100
AcDbEntity
  8
ALPHA
 62
     7
100
AcDbVertex
100
AcDb2dVertex
 10
25.648892
 20
138.541639
 30
0.0
  0
VERTEX
  5
90D
100
AcDbEntity
  8
ALPHA
 62
     7
100
AcDbVertex
100
AcDb2dVertex
 10
25.648892
 20
139.341763
 30
0.0
  0
VERTEX
  5
90E
100
AcDbEntity
  8
ALPHA
 62
     7
100
AcDbVertex
100
AcDb2dVertex
 10
26.449015
 20
139.341763
 30
0.0
  0
SEQEND
  5
90F
100
AcDbEntity
  8
ALPHA
 62
     7
  0
POLYLINE
  5
910
100
AcDbEntity
  8
ALPHA
 62
     7
100
AcDb2dPolyline
 66
     1
 10
0.0
 20
0.0
 30
0.0
 70
     1
  0
VERTEX
  5
911
100
AcDbEntity
  8
ALPHA
 62
     7
100
AcDbVertex
100
AcDb2dVertex
 10
32.875841
 20
138.541639
 30
0.0
  0
VERTEX
  5
912
100
AcDbEntity
  8
ALPHA
 62
     7
100
AcDbVertex
100
AcDb2dVertex
 10
32.07589
 20
138.541639
 30
0.0
  0
VERTEX
  5
913
100
AcDbEntity
  8
ALPHA
 62
     7
100
AcDbVertex
100
AcDb2dVertex
 10
32.07589
 20
139.341763
 30
0.0
  0
VERTEX
  5
914
100
AcDbEntity
  8
ALPHA
 62
     7
100
AcDbVertex
100
AcDb2dVertex
 10
32.875841
 20
139.341763
 30
0.0
  0
SEQEND
  5
915
100
AcDbEntity
  8
ALPHA
 62
     7
  0
MTEXT
  5
916
100
AcDbEntity
  8
TEXTE
 62
     7
100
AcDbMText
 10
22.411708
 20
152.290851
 30
0.0
 40
1.312417
 41
0.0
 71
     1
 72
     2
  1
\fTxt|b0|i0;1
  7
STD
  0
POLYLINE
  5
917
100
AcDbEntity
  8
ALPHA
 62
     7
100
AcDb2dPolyline
 66
     1
 10
0.0
 20
0.0
 30
0.0
 70
     1
  0
VERTEX
  5
918
100
AcDbEntity
  8
ALPHA
 62
     7
100
AcDbVertex
100
AcDb2dVertex
 10
23.23543
 20
149.335468
 30
0.0
  0
VERTEX
  5
919
100
AcDbEntity
  8
ALPHA
 62
     7
100
AcDbVertex
100
AcDb2dVertex
 10
22.435479
 20
149.335468
 30
0.0
  0
VERTEX
  5
91A
100
AcDbEntity
  8
ALPHA
 62
     7
100
AcDbVertex
100
AcDb2dVertex
 10
22.435479
 20
150.135419
 30
0.0
  0
VERTEX
  5
91B
100
AcDbEntity
  8
ALPHA
 62
     7
100
AcDbVertex
100
AcDb2dVertex
 10
23.23543
 20
150.135419
 30
0.0
  0
SEQEND
  5
91C
100
AcDbEntity
  8
ALPHA
 62
     7
  0
POLYLINE
  5
91D
100
AcDbEntity
  8
ALPHA
 62
     7
100
AcDb2dPolyline
 66
     1
 10
0.0
 20
0.0
 30
0.0
 70
     1
  0
VERTEX
  5
91E
100
AcDbEntity
  8
ALPHA
 62
     7
100
AcDbVertex
100
AcDb2dVertex
 10
29.662428
 20
149.335468
 30
0.0
  0
VERTEX
  5
91F
100
AcDbEntity
  8
ALPHA
 62
     7
100
AcDbVertex
100
AcDb2dVertex
 10
28.862305
 20
149.335468
 30
0.0
  0
VERTEX
  5
920
100
AcDbEntity
  8
ALPHA
 62
     7
100
AcDbVertex
100
AcDb2dVertex
 10
28.862305
 20
150.135419
 30
0.0
  0
VERTEX
  5
921
100
AcDbEntity
  8
ALPHA
 62
     7
100
AcDbVertex
100
AcDb2dVertex
 10
29.662428
 20
150.135419
 30
0.0
  0
SEQEND
  5
922
100
AcDbEntity
  8
ALPHA
 62
     7
  0
POLYLINE
  5
923
100
AcDbEntity
  8
ALPHA
 62
     7
100
AcDb2dPolyline
 66
     1
 10
0.0
 20
0.0
 30
0.0
 70
     1
  0
VERTEX
  5
924
100
AcDbEntity
  8
ALPHA
 62
     7
100
AcDbVertex
100
AcDb2dVertex
 10
26.449015
 20
149.335468
 30
0.0
  0
VERTEX
  5
925
100
AcDbEntity
  8
ALPHA
 62
     7
100
AcDbVertex
100
AcDb2dVertex
 10
25.648892
 20
149.335468
 30
0.0
  0
VERTEX
  5
926
100
AcDbEntity
  8
ALPHA
 62
     7
100
AcDbVertex
100
AcDb2dVertex
 10
25.648892
 20
150.135419
 30
0.0
  0
VERTEX
  5
927
100
AcDbEntity
  8
ALPHA
 62
     7
100
AcDbVertex
100
AcDb2dVertex
 10
26.449015
 20
150.135419
 30
0.0
  0
SEQEND
  5
928
100
AcDbEntity
  8
ALPHA
 62
     7
  0
POLYLINE
  5
929
100
AcDbEntity
  8
ALPHA
 62
     7
100
AcDb2dPolyline
 66
     1
 10
0.0
 20
0.0
 30
0.0
 70
     1
  0
VERTEX
  5
92A
100
AcDbEntity
  8
ALPHA
 62
     7
100
AcDbVertex
100
AcDb2dVertex
 10
32.875841
 20
149.335468
 30
0.0
  0
VERTEX
  5
92B
100
AcDbEntity
  8
ALPHA
 62
     7
100
AcDbVertex
100
AcDb2dVertex
 10
32.07589
 20
149.335468
 30
0.0
  0
VERTEX
  5
92C
100
AcDbEntity
  8
ALPHA
 62
     7
100
AcDbVertex
100
AcDb2dVertex
 10
32.07589
 20
150.135419
 30
0.0
  0
VERTEX
  5
92D
100
AcDbEntity
  8
ALPHA
 62
     7
100
AcDbVertex
100
AcDb2dVertex
 10
32.875841
 20
150.135419
 30
0.0
  0
SEQEND
  5
92E
100
AcDbEntity
  8
ALPHA
 62
     7
  0
MTEXT
  5
92F
100
AcDbEntity
  8
TEXTE
 62
     7
100
AcDbMText
 10
47.907654
 20
141.497195
 30
0.0
 40
1.312417
 41
0.0
 71
     1
 72
     2
  1
\fTxt|b0|i0;9
  7
STD
  0
POLYLINE
  5
930
100
AcDbEntity
  8
POINTILLE_COURT
 62
     7
100
AcDb2dPolyline
 66
     1
 10
0.0
 20
0.0
 30
0.0
 70
     1
  0
VERTEX
  5
931
100
AcDbEntity
  8
POINTILLE_COURT
 62
     7
100
AcDbVertex
100
AcDb2dVertex
 10
47.407943
 20
136.786535
 30
0.0
  0
VERTEX
  5
932
100
AcDbEntity
  8
POINTILLE_COURT
 62
     7
100
AcDbVertex
100
AcDb2dVertex
 10
59.318155
 20
136.786535
 30
0.0
  0
VERTEX
  5
933
100
AcDbEntity
  8
POINTILLE_COURT
 62
     7
100
AcDbVertex
100
AcDb2dVertex
 10
59.318155
 20
142.091293
 30
0.0
  0
VERTEX
  5
934
100
AcDbEntity
  8
POINTILLE_COURT
 62
     7
100
AcDbVertex
100
AcDb2dVertex
 10
47.407943
 20
142.091293
 30
0.0
  0
SEQEND
  5
935
100
AcDbEntity
  8
POINTILLE_COURT
 62
     7
  0
POLYLINE
  5
936
100
AcDbEntity
  8
ALPHA
 62
     7
100
AcDb2dPolyline
 66
     1
 10
0.0
 20
0.0
 30
0.0
 70
     1
  0
VERTEX
  5
937
100
AcDbEntity
  8
ALPHA
 62
     7
100
AcDbVertex
100
AcDb2dVertex
 10
48.943077
 20
138.541639
 30
0.0
  0
VERTEX
  5
938
100
AcDbEntity
  8
ALPHA
 62
     7
100
AcDbVertex
100
AcDb2dVertex
 10
48.142782
 20
138.541639
 30
0.0
  0
VERTEX
  5
939
100
AcDbEntity
  8
ALPHA
 62
     7
100
AcDbVertex
100
AcDb2dVertex
 10
48.142782
 20
139.341763
 30
0.0
  0
VERTEX
  5
93A
100
AcDbEntity
  8
ALPHA
 62
     7
100
AcDbVertex
100
AcDb2dVertex
 10
48.943077
 20
139.341763
 30
0.0
  0
SEQEND
  5
93B
100
AcDbEntity
  8
ALPHA
 62
     7
  0
MTEXT
  5
93C
100
AcDbEntity
  8
TEXTE
 62
     7
100
AcDbMText
 10
37.632312
 20
141.497195
 30
0.0
 40
1.312417
 41
0.0
 71
     1
 72
     2
  1
\fTxt|b0|i0;L+
  7
STD
  0
POLYLINE
  5
93D
100
AcDbEntity
  8
ALPHA
 62
     7
100
AcDb2dPolyline
 66
     1
 10
0.0
 20
0.0
 30
0.0
 70
     1
  0
VERTEX
  5
93E
100
AcDbEntity
  8
ALPHA
 62
     7
100
AcDbVertex
100
AcDb2dVertex
 10
42.516252
 20
138.541639
 30
0.0
  0
VERTEX
  5
93F
100
AcDbEntity
  8
ALPHA
 62
     7
100
AcDbVertex
100
AcDb2dVertex
 10
41.715956
 20
138.541639
 30
0.0
  0
VERTEX
  5
940
100
AcDbEntity
  8
ALPHA
 62
     7
100
AcDbVertex
100
AcDb2dVertex
 10
41.715956
 20
139.341763
 30
0.0
  0
VERTEX
  5
941
100
AcDbEntity
  8
ALPHA
 62
     7
100
AcDbVertex
100
AcDb2dVertex
 10
42.516252
 20
139.341763
 30
0.0
  0
SEQEND
  5
942
100
AcDbEntity
  8
ALPHA
 62
     7
  0
POLYLINE
  5
943
100
AcDbEntity
  8
ALPHA
 62
     7
100
AcDb2dPolyline
 66
     1
 10
0.0
 20
0.0
 30
0.0
 70
     1
  0
VERTEX
  5
944
100
AcDbEntity
  8
ALPHA
 62
     7
100
AcDbVertex
100
AcDb2dVertex
 10
39.302667
 20
138.541639
 30
0.0
  0
VERTEX
  5
945
100
AcDbEntity
  8
ALPHA
 62
     7
100
AcDbVertex
100
AcDb2dVertex
 10
38.502716
 20
138.541639
 30
0.0
  0
VERTEX
  5
946
100
AcDbEntity
  8
ALPHA
 62
     7
100
AcDbVertex
100
AcDb2dVertex
 10
38.502716
 20
139.341763
 30
0.0
  0
VERTEX
  5
947
100
AcDbEntity
  8
ALPHA
 62
     7
100
AcDbVertex
100
AcDb2dVertex
 10
39.302667
 20
139.341763
 30
0.0
  0
SEQEND
  5
948
100
AcDbEntity
  8
ALPHA
 62
     7
  0
POLYLINE
  5
949
100
AcDbEntity
  8
ALPHA
 62
     7
100
AcDb2dPolyline
 66
     1
 10
0.0
 20
0.0
 30
0.0
 70
     1
  0
VERTEX
  5
94A
100
AcDbEntity
  8
ALPHA
 62
     7
100
AcDbVertex
100
AcDb2dVertex
 10
45.729492
 20
138.541639
 30
0.0
  0
VERTEX
  5
94B
100
AcDbEntity
  8
ALPHA
 62
     7
100
AcDbVertex
100
AcDb2dVertex
 10
44.929541
 20
138.541639
 30
0.0
  0
VERTEX
  5
94C
100
AcDbEntity
  8
ALPHA
 62
     7
100
AcDbVertex
100
AcDb2dVertex
 10
44.929541
 20
139.341763
 30
0.0
  0
VERTEX
  5
94D
100
AcDbEntity
  8
ALPHA
 62
     7
100
AcDbVertex
100
AcDb2dVertex
 10
45.729492
 20
139.341763
 30
0.0
  0
SEQEND
  5
94E
100
AcDbEntity
  8
ALPHA
 62
     7
  0
MTEXT
  5
94F
100
AcDbEntity
  8
TEXTE
 62
     7
100
AcDbMText
 10
57.124318
 20
141.497195
 30
0.0
 40
1.312417
 41
0.0
 71
     1
 72
     2
  1
\fTxt|b0|i0;12
  7
STD
  0
POLYLINE
  5
950
100
AcDbEntity
  8
ALPHA
 62
     7
100
AcDb2dPolyline
 66
     1
 10
0.0
 20
0.0
 30
0.0
 70
     1
  0
VERTEX
  5
951
100
AcDbEntity
  8
ALPHA
 62
     7
100
AcDbVertex
100
AcDb2dVertex
 10
52.156318
 20
138.541639
 30
0.0
  0
VERTEX
  5
952
100
AcDbEntity
  8
ALPHA
 62
     7
100
AcDbVertex
100
AcDb2dVertex
 10
51.356367
 20
138.541639
 30
0.0
  0
VERTEX
  5
953
100
AcDbEntity
  8
ALPHA
 62
     7
100
AcDbVertex
100
AcDb2dVertex
 10
51.356367
 20
139.341763
 30
0.0
  0
VERTEX
  5
954
100
AcDbEntity
  8
ALPHA
 62
     7
100
AcDbVertex
100
AcDb2dVertex
 10
52.156318
 20
139.341763
 30
0.0
  0
SEQEND
  5
955
100
AcDbEntity
  8
ALPHA
 62
     7
  0
POLYLINE
  5
956
100
AcDbEntity
  8
ALPHA
 62
     7
100
AcDb2dPolyline
 66
     1
 10
0.0
 20
0.0
 30
0.0
 70
     1
  0
VERTEX
  5
957
100
AcDbEntity
  8
ALPHA
 62
     7
100
AcDbVertex
100
AcDb2dVertex
 10
55.369903
 20
138.541639
 30
0.0
  0
VERTEX
  5
958
100
AcDbEntity
  8
ALPHA
 62
     7
100
AcDbVertex
100
AcDb2dVertex
 10
54.569607
 20
138.541639
 30
0.0
  0
VERTEX
  5
959
100
AcDbEntity
  8
ALPHA
 62
     7
100
AcDbVertex
100
AcDb2dVertex
 10
54.569607
 20
139.341763
 30
0.0
  0
VERTEX
  5
95A
100
AcDbEntity
  8
ALPHA
 62
     7
100
AcDbVertex
100
AcDb2dVertex
 10
55.369903
 20
139.341763
 30
0.0
  0
SEQEND
  5
95B
100
AcDbEntity
  8
ALPHA
 62
     7
  0
POLYLINE
  5
95C
100
AcDbEntity
  8
ALPHA
 62
     7
100
AcDb2dPolyline
 66
     1
 10
0.0
 20
0.0
 30
0.0
 70
     1
  0
VERTEX
  5
95D
100
AcDbEntity
  8
ALPHA
 62
     7
100
AcDbVertex
100
AcDb2dVertex
 10
58.583144
 20
138.541639
 30
0.0
  0
VERTEX
  5
95E
100
AcDbEntity
  8
ALPHA
 62
     7
100
AcDbVertex
100
AcDb2dVertex
 10
57.783192
 20
138.541639
 30
0.0
  0
VERTEX
  5
95F
100
AcDbEntity
  8
ALPHA
 62
     7
100
AcDbVertex
100
AcDb2dVertex
 10
57.783192
 20
139.341763
 30
0.0
  0
VERTEX
  5
960
100
AcDbEntity
  8
ALPHA
 62
     7
100
AcDbVertex
100
AcDb2dVertex
 10
58.583144
 20
139.341763
 30
0.0
  0
SEQEND
  5
961
100
AcDbEntity
  8
ALPHA
 62
     7
  0
POLYLINE
  5
962
100
AcDbEntity
  8
ALPHA
 62
     7
100
AcDb2dPolyline
 66
     1
 10
0.0
 20
0.0
 30
0.0
 70
     1
  0
VERTEX
  5
963
100
AcDbEntity
  8
ALPHA
 62
     7
100
AcDbVertex
100
AcDb2dVertex
 10
61.796729
 20
138.541639
 30
0.0
  0
VERTEX
  5
964
100
AcDbEntity
  8
ALPHA
 62
     7
100
AcDbVertex
100
AcDb2dVertex
 10
60.996777
 20
138.541639
 30
0.0
  0
VERTEX
  5
965
100
AcDbEntity
  8
ALPHA
 62
     7
100
AcDbVertex
100
AcDb2dVertex
 10
60.996777
 20
139.341763
 30
0.0
  0
VERTEX
  5
966
100
AcDbEntity
  8
ALPHA
 62
     7
100
AcDbVertex
100
AcDb2dVertex
 10
61.796729
 20
139.341763
 30
0.0
  0
SEQEND
  5
967
100
AcDbEntity
  8
ALPHA
 62
     7
  0
POLYLINE
  5
968
100
AcDbEntity
  8
ALPHA
 62
     7
100
AcDb2dPolyline
 66
     1
 10
0.0
 20
0.0
 30
0.0
 70
     1
  0
VERTEX
  5
969
100
AcDbEntity
  8
ALPHA
 62
     7
100
AcDbVertex
100
AcDb2dVertex
 10
48.943077
 20
149.335468
 30
0.0
  0
VERTEX
  5
96A
100
AcDbEntity
  8
ALPHA
 62
     7
100
AcDbVertex
100
AcDb2dVertex
 10
48.142782
 20
149.335468
 30
0.0
  0
VERTEX
  5
96B
100
AcDbEntity
  8
ALPHA
 62
     7
100
AcDbVertex
100
AcDb2dVertex
 10
48.142782
 20
150.135419
 30
0.0
  0
VERTEX
  5
96C
100
AcDbEntity
  8
ALPHA
 62
     7
100
AcDbVertex
100
AcDb2dVertex
 10
48.943077
 20
150.135419
 30
0.0
  0
SEQEND
  5
96D
100
AcDbEntity
  8
ALPHA
 62
     7
  0
POLYLINE
  5
96E
100
AcDbEntity
  8
ALPHA
 62
     7
100
AcDb2dPolyline
 66
     1
 10
0.0
 20
0.0
 30
0.0
 70
     1
  0
VERTEX
  5
96F
100
AcDbEntity
  8
ALPHA
 62
     7
100
AcDbVertex
100
AcDb2dVertex
 10
42.516252
 20
149.335468
 30
0.0
  0
VERTEX
  5
970
100
AcDbEntity
  8
ALPHA
 62
     7
100
AcDbVertex
100
AcDb2dVertex
 10
41.715956
 20
149.335468
 30
0.0
  0
VERTEX
  5
971
100
AcDbEntity
  8
ALPHA
 62
     7
100
AcDbVertex
100
AcDb2dVertex
 10
41.715956
 20
150.135419
 30
0.0
  0
VERTEX
  5
972
100
AcDbEntity
  8
ALPHA
 62
     7
100
AcDbVertex
100
AcDb2dVertex
 10
42.516252
 20
150.135419
 30
0.0
  0
SEQEND
  5
973
100
AcDbEntity
  8
ALPHA
 62
     7
  0
MTEXT
  5
974
100
AcDbEntity
  8
TEXTE
 62
     7
100
AcDbMText
 10
38.267588
 20
152.290851
 30
0.0
 40
1.312417
 41
0.0
 71
     1
 72
     2
  1
\fTxt|b0|i0;6
  7
STD
  0
POLYLINE
  5
975
100
AcDbEntity
  8
ALPHA
 62
     7
100
AcDb2dPolyline
 66
     1
 10
0.0
 20
0.0
 30
0.0
 70
     1
  0
VERTEX
  5
976
100
AcDbEntity
  8
ALPHA
 62
     7
100
AcDbVertex
100
AcDb2dVertex
 10
39.302667
 20
149.335468
 30
0.0
  0
VERTEX
  5
977
100
AcDbEntity
  8
ALPHA
 62
     7
100
AcDbVertex
100
AcDb2dVertex
 10
38.502716
 20
149.335468
 30
0.0
  0
VERTEX
  5
978
100
AcDbEntity
  8
ALPHA
 62
     7
100
AcDbVertex
100
AcDb2dVertex
 10
38.502716
 20
150.135419
 30
0.0
  0
VERTEX
  5
979
100
AcDbEntity
  8
ALPHA
 62
     7
100
AcDbVertex
100
AcDb2dVertex
 10
39.302667
 20
150.135419
 30
0.0
  0
SEQEND
  5
97A
100
AcDbEntity
  8
ALPHA
 62
     7
  0
POLYLINE
  5
97B
100
AcDbEntity
  8
ALPHA
 62
     7
100
AcDb2dPolyline
 66
     1
 10
0.0
 20
0.0
 30
0.0
 70
     1
  0
VERTEX
  5
97C
100
AcDbEntity
  8
ALPHA
 62
     7
100
AcDbVertex
100
AcDb2dVertex
 10
45.729492
 20
149.335468
 30
0.0
  0
VERTEX
  5
97D
100
AcDbEntity
  8
ALPHA
 62
     7
100
AcDbVertex
100
AcDb2dVertex
 10
44.929541
 20
149.335468
 30
0.0
  0
VERTEX
  5
97E
100
AcDbEntity
  8
ALPHA
 62
     7
100
AcDbVertex
100
AcDb2dVertex
 10
44.929541
 20
150.135419
 30
0.0
  0
VERTEX
  5
97F
100
AcDbEntity
  8
ALPHA
 62
     7
100
AcDbVertex
100
AcDb2dVertex
 10
45.729492
 20
150.135419
 30
0.0
  0
SEQEND
  5
980
100
AcDbEntity
  8
ALPHA
 62
     7
  0
MTEXT
  5
981
100
AcDbEntity
  8
TEXTE
 62
     7
100
AcDbMText
 10
50.802912
 20
152.290851
 30
0.0
 40
1.312417
 41
0.0
 71
     1
 72
     2
  1
\fTxt|b0|i0;10
  7
STD
  0
POLYLINE
  5
982
100
AcDbEntity
  8
ALPHA
 62
     7
100
AcDb2dPolyline
 66
     1
 10
0.0
 20
0.0
 30
0.0
 70
     1
  0
VERTEX
  5
983
100
AcDbEntity
  8
ALPHA
 62
     7
100
AcDbVertex
100
AcDb2dVertex
 10
52.156318
 20
149.335468
 30
0.0
  0
VERTEX
  5
984
100
AcDbEntity
  8
ALPHA
 62
     7
100
AcDbVertex
100
AcDb2dVertex
 10
51.356367
 20
149.335468
 30
0.0
  0
VERTEX
  5
985
100
AcDbEntity
  8
ALPHA
 62
     7
100
AcDbVertex
100
AcDb2dVertex
 10
51.356367
 20
150.135419
 30
0.0
  0
VERTEX
  5
986
100
AcDbEntity
  8
ALPHA
 62
     7
100
AcDbVertex
100
AcDb2dVertex
 10
52.156318
 20
150.135419
 30
0.0
  0
SEQEND
  5
987
100
AcDbEntity
  8
ALPHA
 62
     7
  0
POLYLINE
  5
988
100
AcDbEntity
  8
ALPHA
 62
     7
100
AcDb2dPolyline
 66
     1
 10
0.0
 20
0.0
 30
0.0
 70
     1
  0
VERTEX
  5
989
100
AcDbEntity
  8
ALPHA
 62
     7
100
AcDbVertex
100
AcDb2dVertex
 10
55.369903
 20
149.335468
 30
0.0
  0
VERTEX
  5
98A
100
AcDbEntity
  8
ALPHA
 62
     7
100
AcDbVertex
100
AcDb2dVertex
 10
54.569607
 20
149.335468
 30
0.0
  0
VERTEX
  5
98B
100
AcDbEntity
  8
ALPHA
 62
     7
100
AcDbVertex
100
AcDb2dVertex
 10
54.569607
 20
150.135419
 30
0.0
  0
VERTEX
  5
98C
100
AcDbEntity
  8
ALPHA
 62
     7
100
AcDbVertex
100
AcDb2dVertex
 10
55.369903
 20
150.135419
 30
0.0
  0
SEQEND
  5
98D
100
AcDbEntity
  8
ALPHA
 62
     7
  0
POLYLINE
  5
98E
100
AcDbEntity
  8
ALPHA
 62
     7
100
AcDb2dPolyline
 66
     1
 10
0.0
 20
0.0
 30
0.0
 70
     1
  0
VERTEX
  5
98F
100
AcDbEntity
  8
ALPHA
 62
     7
100
AcDbVertex
100
AcDb2dVertex
 10
58.583144
 20
149.335468
 30
0.0
  0
VERTEX
  5
990
100
AcDbEntity
  8
ALPHA
 62
     7
100
AcDbVertex
100
AcDb2dVertex
 10
57.783192
 20
149.335468
 30
0.0
  0
VERTEX
  5
991
100
AcDbEntity
  8
ALPHA
 62
     7
100
AcDbVertex
100
AcDb2dVertex
 10
57.783192
 20
150.135419
 30
0.0
  0
VERTEX
  5
992
100
AcDbEntity
  8
ALPHA
 62
     7
100
AcDbVertex
100
AcDb2dVertex
 10
58.583144
 20
150.135419
 30
0.0
  0
SEQEND
  5
993
100
AcDbEntity
  8
ALPHA
 62
     7
  0
POLYLINE
  5
994
100
AcDbEntity
  8
ALPHA
 62
     7
100
AcDb2dPolyline
 66
     1
 10
0.0
 20
0.0
 30
0.0
 70
     1
  0
VERTEX
  5
995
100
AcDbEntity
  8
ALPHA
 62
     7
100
AcDbVertex
100
AcDb2dVertex
 10
61.796729
 20
149.335468
 30
0.0
  0
VERTEX
  5
996
100
AcDbEntity
  8
ALPHA
 62
     7
100
AcDbVertex
100
AcDb2dVertex
 10
60.996777
 20
149.335468
 30
0.0
  0
VERTEX
  5
997
100
AcDbEntity
  8
ALPHA
 62
     7
100
AcDbVertex
100
AcDb2dVertex
 10
60.996777
 20
150.135419
 30
0.0
  0
VERTEX
  5
998
100
AcDbEntity
  8
ALPHA
 62
     7
100
AcDbVertex
100
AcDb2dVertex
 10
61.796729
 20
150.135419
 30
0.0
  0
SEQEND
  5
999
100
AcDbEntity
  8
ALPHA
 62
     7
  0
LINE
  5
99A
100
AcDbEntity
  8
ALPHA
 62
     7
100
AcDbLine
 10
98.771216
 20
148.88416
 30
0.0
 11
98.771216
 21
109.903422
 31
0.0
  0
LINE
  5
99B
100
AcDbEntity
  8
ALPHA
 62
     7
100
AcDbLine
 10
103.354571
 20
146.383882
 30
0.0
 11
103.354571
 21
109.903422
 31
0.0
  0
LINE
  5
99C
100
AcDbEntity
  8
ALPHA
 62
     7
100
AcDbLine
 10
94.187861
 20
151.384438
 30
0.0
 11
94.187861
 21
109.903422
 31
0.0
  0
LINE
  5
99D
100
AcDbEntity
  8
ALPHA
 62
     7
100
AcDbLine
 10
89.687188
 20
153.884716
 30
0.0
 11
89.687188
 21
109.903422
 31
0.0
  0
POLYLINE
  5
99E
100
AcDbEntity
  8
ALPHA
 62
     7
100
AcDb2dPolyline
 66
     1
 10
0.0
 20
0.0
 30
0.0
 70
     1
  0
VERTEX
  5
99F
100
AcDbEntity
  8
ALPHA
 62
     7
100
AcDbVertex
100
AcDb2dVertex
 10
86.667217
 20
133.639268
 30
0.0
  0
VERTEX
  5
9A0
100
AcDbEntity
  8
ALPHA
 62
     7
100
AcDbVertex
100
AcDb2dVertex
 10
82.873134
 20
133.639268
 30
0.0
  0
VERTEX
  5
9A1
100
AcDbEntity
  8
ALPHA
 62
     7
100
AcDbVertex
100
AcDb2dVertex
 10
82.873134
 20
132.139274
 30
0.0
  0
VERTEX
  5
9A2
100
AcDbEntity
  8
ALPHA
 62
     7
100
AcDbVertex
100
AcDb2dVertex
 10
86.667217
 20
132.139274
 30
0.0
  0
SEQEND
  5
9A3
100
AcDbEntity
  8
ALPHA
 62
     7
  0
POLYLINE
  5
9A4
100
AcDbEntity
  8
ALPHA
 62
     7
100
AcDb2dPolyline
 66
     1
 10
0.0
 20
0.0
 30
0.0
  0
VERTEX
  5
9A5
100
AcDbEntity
  8
ALPHA
 62
     7
100
AcDbVertex
100
AcDb2dVertex
 10
98.771216
 20
132.899434
 30
0.0
  0
VERTEX
  5
9A6
100
AcDbEntity
  8
ALPHA
 62
     7
100
AcDbVertex
100
AcDb2dVertex
 10
74.250404
 20
132.899434
 30
0.0
  0
VERTEX
  5
9A7
100
AcDbEntity
  8
ALPHA
 62
     7
100
AcDbVertex
100
AcDb2dVertex
 10
74.250404
 20
138.941615
 30
0.0
  0
SEQEND
  5
9A8
100
AcDbEntity
  8
ALPHA
 62
     7
  0
MTEXT
  5
9A9
100
AcDbEntity
  8
TEXTE
 62
     7
100
AcDbMText
 10
81.068421
 20
131.41564
 30
0.0
 40
1.312417
 41
0.0
 71
     1
 72
     2
  1
\fTxt|b0|i0;8A max.
  7
STD
  0
MTEXT
  5
9AA
100
AcDbEntity
  8
TEXTE
 62
     7
100
AcDbMText
 10
81.703696
 20
129.298973
 30
0.0
 40
1.312417
 41
0.0
 71
     1
 72
     2
  1
\fTxt|b0|i0;fusion
  7
STD
  0
POLYLINE
  5
9AB
100
AcDbEntity
  8
ALPHA
 62
     7
100
AcDb2dPolyline
 66
     1
 10
0.0
 20
0.0
 30
0.0
  0
VERTEX
  5
9AC
100
AcDbEntity
  8
ALPHA
 62
     7
100
AcDbVertex
100
AcDb2dVertex
 10
103.354571
 20
121.606239
 30
0.0
  0
VERTEX
  5
9AD
100
AcDbEntity
  8
ALPHA
 62
     7
100
AcDbVertex
100
AcDb2dVertex
 10
74.250404
 20
121.606239
 30
0.0
  0
VERTEX
  5
9AE
100
AcDbEntity
  8
ALPHA
 62
     7
100
AcDbVertex
100
AcDb2dVertex
 10
74.250404
 20
127.750222
 30
0.0
  0
SEQEND
  5
9AF
100
AcDbEntity
  8
ALPHA
 62
     7
  0
POLYLINE
  5
9B0
100
AcDbEntity
  8
ALPHA
 62
     7
100
AcDb2dPolyline
 66
     1
 10
0.0
 20
0.0
 30
0.0
  0
VERTEX
  5
9B1
100
AcDbEntity
  8
ALPHA
 62
     7
100
AcDbVertex
100
AcDb2dVertex
 10
103.354571
 20
123.606461
 30
0.0
  0
VERTEX
  5
9B2
100
AcDbEntity
  8
ALPHA
 62
     7
100
AcDbVertex
100
AcDb2dVertex
 10
77.463645
 20
123.606461
 30
0.0
  0
VERTEX
  5
9B3
100
AcDbEntity
  8
ALPHA
 62
     7
100
AcDbVertex
100
AcDb2dVertex
 10
77.463645
 20
127.750222
 30
0.0
  0
SEQEND
  5
9B4
100
AcDbEntity
  8
ALPHA
 62
     7
  0
MTEXT
  5
9B5
100
AcDbEntity
  8
TEXTE
 62
     7
100
AcDbMText
 10
76.193438
 20
119.114409
 30
0.0
 40
1.312417
 41
0.0
 71
     1
 72
     2
  1
\fTxt|b0|i0;PE
  7
STD
  0
POLYLINE
  5
9B6
100
AcDbEntity
  8
ALPHA
 62
     7
100
AcDb2dPolyline
 66
     1
 10
0.0
 20
0.0
 30
0.0
 70
     1
  0
VERTEX
  5
9B7
100
AcDbEntity
  8
ALPHA
 62
     7
100
AcDbVertex
100
AcDb2dVertex
 10
65.010141
 20
116.159026
 30
0.0
  0
VERTEX
  5
9B8
100
AcDbEntity
  8
ALPHA
 62
     7
100
AcDbVertex
100
AcDb2dVertex
 10
64.210018
 20
116.159026
 30
0.0
  0
VERTEX
  5
9B9
100
AcDbEntity
  8
ALPHA
 62
     7
100
AcDbVertex
100
AcDb2dVertex
 10
64.210018
 20
116.958977
 30
0.0
  0
VERTEX
  5
9BA
100
AcDbEntity
  8
ALPHA
 62
     7
100
AcDbVertex
100
AcDb2dVertex
 10
65.010141
 20
116.958977
 30
0.0
  0
SEQEND
  5
9BB
100
AcDbEntity
  8
ALPHA
 62
     7
  0
POLYLINE
  5
9BC
100
AcDbEntity
  8
ALPHA
 62
     7
100
AcDb2dPolyline
 66
     1
 10
0.0
 20
0.0
 30
0.0
 70
     1
  0
VERTEX
  5
9BD
100
AcDbEntity
  8
ALPHA
 62
     7
100
AcDbVertex
100
AcDb2dVertex
 10
68.223554
 20
116.159026
 30
0.0
  0
VERTEX
  5
9BE
100
AcDbEntity
  8
ALPHA
 62
     7
100
AcDbVertex
100
AcDb2dVertex
 10
67.423431
 20
116.159026
 30
0.0
  0
VERTEX
  5
9BF
100
AcDbEntity
  8
ALPHA
 62
     7
100
AcDbVertex
100
AcDb2dVertex
 10
67.423431
 20
116.958977
 30
0.0
  0
VERTEX
  5
9C0
100
AcDbEntity
  8
ALPHA
 62
     7
100
AcDbVertex
100
AcDb2dVertex
 10
68.223554
 20
116.958977
 30
0.0
  0
SEQEND
  5
9C1
100
AcDbEntity
  8
ALPHA
 62
     7
  0
POLYLINE
  5
9C2
100
AcDbEntity
  8
ALPHA
 62
     7
100
AcDb2dPolyline
 66
     1
 10
0.0
 20
0.0
 30
0.0
 70
     1
  0
VERTEX
  5
9C3
100
AcDbEntity
  8
ALPHA
 62
     7
100
AcDbVertex
100
AcDb2dVertex
 10
71.436967
 20
116.159026
 30
0.0
  0
VERTEX
  5
9C4
100
AcDbEntity
  8
ALPHA
 62
     7
100
AcDbVertex
100
AcDb2dVertex
 10
70.636844
 20
116.159026
 30
0.0
  0
VERTEX
  5
9C5
100
AcDbEntity
  8
ALPHA
 62
     7
100
AcDbVertex
100
AcDb2dVertex
 10
70.636844
 20
116.958977
 30
0.0
  0
VERTEX
  5
9C6
100
AcDbEntity
  8
ALPHA
 62
     7
100
AcDbVertex
100
AcDb2dVertex
 10
71.436967
 20
116.958977
 30
0.0
  0
SEQEND
  5
9C7
100
AcDbEntity
  8
ALPHA
 62
     7
  0
POLYLINE
  5
9C8
100
AcDbEntity
  8
ALPHA
 62
     7
100
AcDb2dPolyline
 66
     1
 10
0.0
 20
0.0
 30
0.0
 70
     1
  0
VERTEX
  5
9C9
100
AcDbEntity
  8
ALPHA
 62
     7
100
AcDbVertex
100
AcDb2dVertex
 10
74.65038
 20
116.159026
 30
0.0
  0
VERTEX
  5
9CA
100
AcDbEntity
  8
ALPHA
 62
     7
100
AcDbVertex
100
AcDb2dVertex
 10
73.850256
 20
116.159026
 30
0.0
  0
VERTEX
  5
9CB
100
AcDbEntity
  8
ALPHA
 62
     7
100
AcDbVertex
100
AcDb2dVertex
 10
73.850256
 20
116.958977
 30
0.0
  0
VERTEX
  5
9CC
100
AcDbEntity
  8
ALPHA
 62
     7
100
AcDbVertex
100
AcDb2dVertex
 10
74.65038
 20
116.958977
 30
0.0
  0
SEQEND
  5
9CD
100
AcDbEntity
  8
ALPHA
 62
     7
  0
LINE
  5
9CE
100
AcDbEntity
  8
ALPHA
 62
     7
100
AcDbLine
 10
77.463989
 20
110.915591
 30
0.0
 11
77.463989
 21
116.559002
 31
0.0
  0
LINE
  5
9CF
100
AcDbEntity
  8
ALPHA
 62
     7
100
AcDbLine
 10
78.739192
 20
110.915591
 30
0.0
 11
76.21876
 21
110.915591
 31
0.0
  0
LINE
  5
9D0
100
AcDbEntity
  8
ALPHA
 62
     7
100
AcDbLine
 10
78.307521
 20
110.415018
 30
0.0
 11
76.71003
 21
110.415018
 31
0.0
  0
LINE
  5
9D1
100
AcDbEntity
  8
ALPHA
 62
     7
100
AcDbLine
 10
77.801437
 20
109.903422
 30
0.0
 11
77.245743
 21
109.903422
 31
0.0
  0
POLYLINE
  5
9D2
100
AcDbEntity
  8
ALPHA
 62
     7
100
AcDb2dPolyline
 66
     1
 10
0.0
 20
0.0
 30
0.0
 70
     1
  0
VERTEX
  5
9D3
100
AcDbEntity
  8
ALPHA
 62
     7
100
AcDbVertex
100
AcDb2dVertex
 10
77.863793
 20
116.159026
 30
0.0
  0
VERTEX
  5
9D4
100
AcDbEntity
  8
ALPHA
 62
     7
100
AcDbVertex
100
AcDb2dVertex
 10
77.063669
 20
116.159026
 30
0.0
  0
VERTEX
  5
9D5
100
AcDbEntity
  8
ALPHA
 62
     7
100
AcDbVertex
100
AcDb2dVertex
 10
77.063669
 20
116.958977
 30
0.0
  0
VERTEX
  5
9D6
100
AcDbEntity
  8
ALPHA
 62
     7
100
AcDbVertex
100
AcDb2dVertex
 10
77.863793
 20
116.958977
 30
0.0
  0
SEQEND
  5
9D7
100
AcDbEntity
  8
ALPHA
 62
     7
  0
MTEXT
  5
9D8
100
AcDbEntity
  8
TEXTE
 62
     7
100
AcDbMText
 10
73.189832
 20
130.805685
 30
0.0
 40
1.312417
 41
0.0
 71
     1
 72
     2
  1
\fTxt|b0|i0;1N
  7
STD
  0
POLYLINE
  5
9D9
100
AcDbEntity
  8
ALPHA
 62
     7
100
AcDb2dPolyline
 66
     1
 10
0.0
 20
0.0
 30
0.0
 70
     1
  0
VERTEX
  5
9DA
100
AcDbEntity
  8
ALPHA
 62
     7
100
AcDbVertex
100
AcDb2dVertex
 10
65.010314
 20
127.350246
 30
0.0
  0
VERTEX
  5
9DB
100
AcDbEntity
  8
ALPHA
 62
     7
100
AcDbVertex
100
AcDb2dVertex
 10
64.210018
 20
127.350246
 30
0.0
  0
VERTEX
  5
9DC
100
AcDbEntity
  8
ALPHA
 62
     7
100
AcDbVertex
100
AcDb2dVertex
 10
64.210018
 20
128.150198
 30
0.0
  0
VERTEX
  5
9DD
100
AcDbEntity
  8
ALPHA
 62
     7
100
AcDbVertex
100
AcDb2dVertex
 10
65.010314
 20
128.150198
 30
0.0
  0
SEQEND
  5
9DE
100
AcDbEntity
  8
ALPHA
 62
     7
  0
POLYLINE
  5
9DF
100
AcDbEntity
  8
ALPHA
 62
     7
100
AcDb2dPolyline
 66
     1
 10
0.0
 20
0.0
 30
0.0
 70
     1
  0
VERTEX
  5
9E0
100
AcDbEntity
  8
ALPHA
 62
     7
100
AcDbVertex
100
AcDb2dVertex
 10
68.223554
 20
127.350246
 30
0.0
  0
VERTEX
  5
9E1
100
AcDbEntity
  8
ALPHA
 62
     7
100
AcDbVertex
100
AcDb2dVertex
 10
67.423603
 20
127.350246
 30
0.0
  0
VERTEX
  5
9E2
100
AcDbEntity
  8
ALPHA
 62
     7
100
AcDbVertex
100
AcDb2dVertex
 10
67.423603
 20
128.150198
 30
0.0
  0
VERTEX
  5
9E3
100
AcDbEntity
  8
ALPHA
 62
     7
100
AcDbVertex
100
AcDb2dVertex
 10
68.223554
 20
128.150198
 30
0.0
  0
SEQEND
  5
9E4
100
AcDbEntity
  8
ALPHA
 62
     7
  0
POLYLINE
  5
9E5
100
AcDbEntity
  8
ALPHA
 62
     7
100
AcDb2dPolyline
 66
     1
 10
0.0
 20
0.0
 30
0.0
 70
     1
  0
VERTEX
  5
9E6
100
AcDbEntity
  8
ALPHA
 62
     7
100
AcDbVertex
100
AcDb2dVertex
 10
71.437139
 20
127.350246
 30
0.0
  0
VERTEX
  5
9E7
100
AcDbEntity
  8
ALPHA
 62
     7
100
AcDbVertex
100
AcDb2dVertex
 10
70.636844
 20
127.350246
 30
0.0
  0
VERTEX
  5
9E8
100
AcDbEntity
  8
ALPHA
 62
     7
100
AcDbVertex
100
AcDb2dVertex
 10
70.636844
 20
128.150198
 30
0.0
  0
VERTEX
  5
9E9
100
AcDbEntity
  8
ALPHA
 62
     7
100
AcDbVertex
100
AcDb2dVertex
 10
71.437139
 20
128.150198
 30
0.0
  0
SEQEND
  5
9EA
100
AcDbEntity
  8
ALPHA
 62
     7
  0
POLYLINE
  5
9EB
100
AcDbEntity
  8
ALPHA
 62
     7
100
AcDb2dPolyline
 66
     1
 10
0.0
 20
0.0
 30
0.0
 70
     1
  0
VERTEX
  5
9EC
100
AcDbEntity
  8
ALPHA
 62
     7
100
AcDbVertex
100
AcDb2dVertex
 10
74.65038
 20
127.350246
 30
0.0
  0
VERTEX
  5
9ED
100
AcDbEntity
  8
ALPHA
 62
     7
100
AcDbVertex
100
AcDb2dVertex
 10
73.850429
 20
127.350246
 30
0.0
  0
VERTEX
  5
9EE
100
AcDbEntity
  8
ALPHA
 62
     7
100
AcDbVertex
100
AcDb2dVertex
 10
73.850429
 20
128.150198
 30
0.0
  0
VERTEX
  5
9EF
100
AcDbEntity
  8
ALPHA
 62
     7
100
AcDbVertex
100
AcDb2dVertex
 10
74.65038
 20
128.150198
 30
0.0
  0
SEQEND
  5
9F0
100
AcDbEntity
  8
ALPHA
 62
     7
  0
MTEXT
  5
9F1
100
AcDbEntity
  8
TEXTE
 62
     7
100
AcDbMText
 10
82.232863
 20
127.182306
 30
0.0
 40
1.312417
 41
0.0
 71
     1
 72
     2
  1
\fTxt|b0|i0;lente
  7
STD
  0
MTEXT
  5
9F2
100
AcDbEntity
  8
TEXTE
 62
     7
100
AcDbMText
 10
76.193266
 20
130.805685
 30
0.0
 40
1.312417
 41
0.0
 71
     1
 72
     2
  1
\fTxt|b0|i0;2N
  7
STD
  0
POLYLINE
  5
9F3
100
AcDbEntity
  8
ALPHA
 62
     7
100
AcDb2dPolyline
 66
     1
 10
0.0
 20
0.0
 30
0.0
 70
     1
  0
VERTEX
  5
9F4
100
AcDbEntity
  8
ALPHA
 62
     7
100
AcDbVertex
100
AcDb2dVertex
 10
77.863965
 20
127.350246
 30
0.0
  0
VERTEX
  5
9F5
100
AcDbEntity
  8
ALPHA
 62
     7
100
AcDbVertex
100
AcDb2dVertex
 10
77.063669
 20
127.350246
 30
0.0
  0
VERTEX
  5
9F6
100
AcDbEntity
  8
ALPHA
 62
     7
100
AcDbVertex
100
AcDb2dVertex
 10
77.063669
 20
128.150198
 30
0.0
  0
VERTEX
  5
9F7
100
AcDbEntity
  8
ALPHA
 62
     7
100
AcDbVertex
100
AcDb2dVertex
 10
77.863965
 20
128.150198
 30
0.0
  0
SEQEND
  5
9F8
100
AcDbEntity
  8
ALPHA
 62
     7
  0
SPLINE
  5
9F9
100
AcDbEntity
  8
TEXTE
 62
     7
100
AcDbSpline
210
0.0
220
0.0
230
1.0
 70
     8
 71
     3
 72
    26
 73
    22
 74
     0
 42
0.0000001
 43
0.0000001
 40
0.0
 40
0.0
 40
0.0
 40
0.0
 40
1.0
 40
1.0
 40
1.0
 40
2.0
 40
2.0
 40
2.0
 40
3.0
 40
3.0
 40
3.0
 40
4.0
 40
4.0
 40
4.0
 40
5.0
 40
5.0
 40
5.0
 40
6.0
 40
6.0
 40
6.0
 40
7.0
 40
7.0
 40
7.0
 40
7.0
 10
88.72497302404786
 20
154.9135941390884
 30
0.0
 10
88.56891019852701
 20
154.7813024724217
 30
0.0
 10
88.23576946502006
 20
154.4578080062759
 30
0.0
 10
88.02389609262425
 20
154.391317663394
 30
0.0
 10
87.99013415686037
 20
154.3809823769356
 30
0.0
 10
87.9574057497423
 20
154.376159243255
 30
0.0
 10
87.92743341901314
 20
154.3830494342273
 30
0.0
 10
87.7531115874159
 20
154.4216345036717
 30
0.0
 10
87.45545533741591
 20
154.7275589828384
 30
0.0
 10
87.19018298498538
 20
154.988352711137
 30
0.0
 10
87.14470772456868
 20
155.0331389524565
 30
0.0
 10
87.09716540686036
 20
155.0779251937759
 30
0.0
 10
87.05031210824925
 20
155.1223669255467
 30
0.0
 10
86.92008749887424
 20
155.2460458534981
 30
0.0
 10
86.79950915686035
 20
155.3538773422134
 30
0.0
 10
86.67961983394368
 20
155.3859167302342
 30
0.0
 10
86.64172378359646
 20
155.3959075071439
 30
0.0
 10
86.60107165686037
 20
155.397630054887
 30
0.0
 10
86.55904149192981
 20
155.3869502588801
 30
0.0
 10
86.34475655269369
 20
155.3318287311023
 30
0.0
 10
86.07018244245063
 20
155.0138464177342
 30
0.0
 10
85.96441801102702
 20
154.901536304887
 30
0.0
  0
MTEXT
  5
9FA
100
AcDbEntity
  8
TEXTE
 62
     7
100
AcDbMText
 10
81.068421
 20
152.798314
 30
0.0
 40
1.312417
 41
0.0
 71
     1
 72
     2
  1
\fTxt|b0|i0;4A max.
  7
STD
  0
MTEXT
  5
9FB
100
AcDbEntity
  8
TEXTE
 62
     7
100
AcDbMText
 10
81.703696
 20
150.681647
 30
0.0
 40
1.312417
 41
0.0
 71
     1
 72
     2
  1
\fTxt|b0|i0;fusion
  7
STD
  0
MTEXT
  5
9FC
100
AcDbEntity
  8
TEXTE
 62
     7
100
AcDbMText
 10
81.703696
 20
148.56498
 30
0.0
 40
1.312417
 41
0.0
 71
     1
 72
     2
  1
\fTxt|b0|i0;rapide
  7
STD
  0
MTEXT
  5
9FD
100
AcDbEntity
  8
TEXTE
 62
     7
100
AcDbMText
 10
81.068421
 20
142.142633
 30
0.0
 40
1.312417
 41
0.0
 71
     1
 72
     2
  1
\fTxt|b0|i0;8A max.
  7
STD
  0
MTEXT
  5
9FE
100
AcDbEntity
  8
TEXTE
 62
     7
100
AcDbMText
 10
81.703696
 20
140.025967
 30
0.0
 40
1.312417
 41
0.0
 71
     1
 72
     2
  1
\fTxt|b0|i0;fusion
  7
STD
  0
POLYLINE
  5
9FF
100
AcDbEntity
  8
ALPHA
 62
     7
100
AcDb2dPolyline
 66
     1
 10
0.0
 20
0.0
 30
0.0
  0
VERTEX
  5
A00
100
AcDbEntity
  8
ALPHA
 62
     7
100
AcDbVertex
100
AcDb2dVertex
 10
89.687188
 20
145.591683
 30
0.0
  0
VERTEX
  5
A01
100
AcDbEntity
  8
ALPHA
 62
     7
100
AcDbVertex
100
AcDb2dVertex
 10
77.463645
 20
145.591683
 30
0.0
  0
VERTEX
  5
A02
100
AcDbEntity
  8
ALPHA
 62
     7
100
AcDbVertex
100
AcDb2dVertex
 10
77.463645
 20
149.735443
 30
0.0
  0
SEQEND
  5
A03
100
AcDbEntity
  8
ALPHA
 62
     7
  0
POLYLINE
  5
A04
100
AcDbEntity
  8
ALPHA
 62
     7
100
AcDb2dPolyline
 66
     1
 10
0.0
 20
0.0
 30
0.0
  0
VERTEX
  5
A05
100
AcDbEntity
  8
ALPHA
 62
     7
100
AcDbVertex
100
AcDb2dVertex
 10
94.187861
 20
144.091343
 30
0.0
  0
VERTEX
  5
A06
100
AcDbEntity
  8
ALPHA
 62
     7
100
AcDbVertex
100
AcDb2dVertex
 10
74.250404
 20
144.091343
 30
0.0
  0
VERTEX
  5
A07
100
AcDbEntity
  8
ALPHA
 62
     7
100
AcDbVertex
100
AcDb2dVertex
 10
74.250404
 20
149.735443
 30
0.0
  0
SEQEND
  5
A08
100
AcDbEntity
  8
ALPHA
 62
     7
  0
POLYLINE
  5
A09
100
AcDbEntity
  8
ALPHA
 62
     7
100
AcDb2dPolyline
 66
     1
 10
0.0
 20
0.0
 30
0.0
  0
VERTEX
  5
A0A
100
AcDbEntity
  8
ALPHA
 62
     7
100
AcDbVertex
100
AcDb2dVertex
 10
98.771216
 20
134.899656
 30
0.0
  0
VERTEX
  5
A0B
100
AcDbEntity
  8
ALPHA
 62
     7
100
AcDbVertex
100
AcDb2dVertex
 10
77.463645
 20
134.899656
 30
0.0
  0
VERTEX
  5
A0C
100
AcDbEntity
  8
ALPHA
 62
     7
100
AcDbVertex
100
AcDb2dVertex
 10
77.463645
 20
138.941615
 30
0.0
  0
SEQEND
  5
A0D
100
AcDbEntity
  8
ALPHA
 62
     7
  0
MTEXT
  5
A0E
100
AcDbEntity
  8
TEXTE
 62
     7
100
AcDbMText
 10
72.227961
 20
141.497195
 30
0.0
 40
1.312417
 41
0.0
 71
     1
 72
     2
  1
\fTxt|b0|i0;1L+
  7
STD
  0
MTEXT
  5
A0F
100
AcDbEntity
  8
TEXTE
 62
     7
100
AcDbMText
 10
69.978314
 20
141.497195
 30
0.0
 40
1.312417
 41
0.0
 71
     1
 72
     2
  1
\fTxt|b0|i0;16
  7
STD
  0
POLYLINE
  5
A10
100
AcDbEntity
  8
ALPHA
 62
     7
100
AcDb2dPolyline
 66
     1
 10
0.0
 20
0.0
 30
0.0
 70
     1
  0
VERTEX
  5
A11
100
AcDbEntity
  8
ALPHA
 62
     7
100
AcDbVertex
100
AcDb2dVertex
 10
65.010314
 20
138.541639
 30
0.0
  0
VERTEX
  5
A12
100
AcDbEntity
  8
ALPHA
 62
     7
100
AcDbVertex
100
AcDb2dVertex
 10
64.210018
 20
138.541639
 30
0.0
  0
VERTEX
  5
A13
100
AcDbEntity
  8
ALPHA
 62
     7
100
AcDbVertex
100
AcDb2dVertex
 10
64.210018
 20
139.341763
 30
0.0
  0
VERTEX
  5
A14
100
AcDbEntity
  8
ALPHA
 62
     7
100
AcDbVertex
100
AcDb2dVertex
 10
65.010314
 20
139.341763
 30
0.0
  0
SEQEND
  5
A15
100
AcDbEntity
  8
ALPHA
 62
     7
  0
POLYLINE
  5
A16
100
AcDbEntity
  8
ALPHA
 62
     7
100
AcDb2dPolyline
 66
     1
 10
0.0
 20
0.0
 30
0.0
 70
     1
  0
VERTEX
  5
A17
100
AcDbEntity
  8
ALPHA
 62
     7
100
AcDbVertex
100
AcDb2dVertex
 10
68.223554
 20
138.541639
 30
0.0
  0
VERTEX
  5
A18
100
AcDbEntity
  8
ALPHA
 62
     7
100
AcDbVertex
100
AcDb2dVertex
 10
67.423603
 20
138.541639
 30
0.0
  0
VERTEX
  5
A19
100
AcDbEntity
  8
ALPHA
 62
     7
100
AcDbVertex
100
AcDb2dVertex
 10
67.423603
 20
139.341763
 30
0.0
  0
VERTEX
  5
A1A
100
AcDbEntity
  8
ALPHA
 62
     7
100
AcDbVertex
100
AcDb2dVertex
 10
68.223554
 20
139.341763
 30
0.0
  0
SEQEND
  5
A1B
100
AcDbEntity
  8
ALPHA
 62
     7
  0
POLYLINE
  5
A1C
100
AcDbEntity
  8
ALPHA
 62
     7
100
AcDb2dPolyline
 66
     1
 10
0.0
 20
0.0
 30
0.0
 70
     1
  0
VERTEX
  5
A1D
100
AcDbEntity
  8
ALPHA
 62
     7
100
AcDbVertex
100
AcDb2dVertex
 10
71.437139
 20
138.541639
 30
0.0
  0
VERTEX
  5
A1E
100
AcDbEntity
  8
ALPHA
 62
     7
100
AcDbVertex
100
AcDb2dVertex
 10
70.636844
 20
138.541639
 30
0.0
  0
VERTEX
  5
A1F
100
AcDbEntity
  8
ALPHA
 62
     7
100
AcDbVertex
100
AcDb2dVertex
 10
70.636844
 20
139.341763
 30
0.0
  0
VERTEX
  5
A20
100
AcDbEntity
  8
ALPHA
 62
     7
100
AcDbVertex
100
AcDb2dVertex
 10
71.437139
 20
139.341763
 30
0.0
  0
SEQEND
  5
A21
100
AcDbEntity
  8
ALPHA
 62
     7
  0
POLYLINE
  5
A22
100
AcDbEntity
  8
ALPHA
 62
     7
100
AcDb2dPolyline
 66
     1
 10
0.0
 20
0.0
 30
0.0
 70
     1
  0
VERTEX
  5
A23
100
AcDbEntity
  8
ALPHA
 62
     7
100
AcDbVertex
100
AcDb2dVertex
 10
74.65038
 20
138.541639
 30
0.0
  0
VERTEX
  5
A24
100
AcDbEntity
  8
ALPHA
 62
     7
100
AcDbVertex
100
AcDb2dVertex
 10
73.850429
 20
138.541639
 30
0.0
  0
VERTEX
  5
A25
100
AcDbEntity
  8
ALPHA
 62
     7
100
AcDbVertex
100
AcDb2dVertex
 10
73.850429
 20
139.341763
 30
0.0
  0
VERTEX
  5
A26
100
AcDbEntity
  8
ALPHA
 62
     7
100
AcDbVertex
100
AcDb2dVertex
 10
74.65038
 20
139.341763
 30
0.0
  0
SEQEND
  5
A27
100
AcDbEntity
  8
ALPHA
 62
     7
  0
MTEXT
  5
A28
100
AcDbEntity
  8
TEXTE
 62
     7
100
AcDbMText
 10
76.461294
 20
141.497195
 30
0.0
 40
1.312417
 41
0.0
 71
     1
 72
     2
  1
\fTxt|b0|i0;2L1
  7
STD
  0
POLYLINE
  5
A29
100
AcDbEntity
  8
ALPHA
 62
     7
100
AcDb2dPolyline
 66
     1
 10
0.0
 20
0.0
 30
0.0
 70
     1
  0
VERTEX
  5
A2A
100
AcDbEntity
  8
ALPHA
 62
     7
100
AcDbVertex
100
AcDb2dVertex
 10
77.863965
 20
138.541639
 30
0.0
  0
VERTEX
  5
A2B
100
AcDbEntity
  8
ALPHA
 62
     7
100
AcDbVertex
100
AcDb2dVertex
 10
77.063669
 20
138.541639
 30
0.0
  0
VERTEX
  5
A2C
100
AcDbEntity
  8
ALPHA
 62
     7
100
AcDbVertex
100
AcDb2dVertex
 10
77.063669
 20
139.341763
 30
0.0
  0
VERTEX
  5
A2D
100
AcDbEntity
  8
ALPHA
 62
     7
100
AcDbVertex
100
AcDb2dVertex
 10
77.863965
 20
139.341763
 30
0.0
  0
SEQEND
  5
A2E
100
AcDbEntity
  8
ALPHA
 62
     7
  0
MTEXT
  5
A2F
100
AcDbEntity
  8
TEXTE
 62
     7
100
AcDbMText
 10
82.232863
 20
137.9093
 30
0.0
 40
1.312417
 41
0.0
 71
     1
 72
     2
  1
\fTxt|b0|i0;lente
  7
STD
  0
POLYLINE
  5
A30
100
AcDbEntity
  8
ALPHA
 62
     7
100
AcDb2dPolyline
 66
     1
 10
0.0
 20
0.0
 30
0.0
 70
     1
  0
VERTEX
  5
A31
100
AcDbEntity
  8
ALPHA
 62
     7
100
AcDbVertex
100
AcDb2dVertex
 10
86.667217
 20
135.639491
 30
0.0
  0
VERTEX
  5
A32
100
AcDbEntity
  8
ALPHA
 62
     7
100
AcDbVertex
100
AcDb2dVertex
 10
82.873134
 20
135.639491
 30
0.0
  0
VERTEX
  5
A33
100
AcDbEntity
  8
ALPHA
 62
     7
100
AcDbVertex
100
AcDb2dVertex
 10
82.873134
 20
134.139496
 30
0.0
  0
VERTEX
  5
A34
100
AcDbEntity
  8
ALPHA
 62
     7
100
AcDbVertex
100
AcDb2dVertex
 10
86.667217
 20
134.139496
 30
0.0
  0
SEQEND
  5
A35
100
AcDbEntity
  8
ALPHA
 62
     7
  0
POLYLINE
  5
A36
100
AcDbEntity
  8
ALPHA
 62
     7
100
AcDb2dPolyline
 66
     1
 10
0.0
 20
0.0
 30
0.0
 70
     1
  0
VERTEX
  5
A37
100
AcDbEntity
  8
ALPHA
 62
     7
100
AcDbVertex
100
AcDb2dVertex
 10
86.667217
 20
146.331517
 30
0.0
  0
VERTEX
  5
A38
100
AcDbEntity
  8
ALPHA
 62
     7
100
AcDbVertex
100
AcDb2dVertex
 10
82.873134
 20
146.331517
 30
0.0
  0
VERTEX
  5
A39
100
AcDbEntity
  8
ALPHA
 62
     7
100
AcDbVertex
100
AcDb2dVertex
 10
82.873134
 20
144.831522
 30
0.0
  0
VERTEX
  5
A3A
100
AcDbEntity
  8
ALPHA
 62
     7
100
AcDbVertex
100
AcDb2dVertex
 10
86.667217
 20
144.831522
 30
0.0
  0
SEQEND
  5
A3B
100
AcDbEntity
  8
ALPHA
 62
     7
  0
POLYLINE
  5
A3C
100
AcDbEntity
  8
ALPHA
 62
     7
100
AcDb2dPolyline
 66
     1
 10
0.0
 20
0.0
 30
0.0
 70
     1
  0
VERTEX
  5
A3D
100
AcDbEntity
  8
ALPHA
 62
     7
100
AcDbVertex
100
AcDb2dVertex
 10
65.010314
 20
149.335468
 30
0.0
  0
VERTEX
  5
A3E
100
AcDbEntity
  8
ALPHA
 62
     7
100
AcDbVertex
100
AcDb2dVertex
 10
64.210018
 20
149.335468
 30
0.0
  0
VERTEX
  5
A3F
100
AcDbEntity
  8
ALPHA
 62
     7
100
AcDbVertex
100
AcDb2dVertex
 10
64.210018
 20
150.135419
 30
0.0
  0
VERTEX
  5
A40
100
AcDbEntity
  8
ALPHA
 62
     7
100
AcDbVertex
100
AcDb2dVertex
 10
65.010314
 20
150.135419
 30
0.0
  0
SEQEND
  5
A41
100
AcDbEntity
  8
ALPHA
 62
     7
  0
POLYLINE
  5
A42
100
AcDbEntity
  8
ALPHA
 62
     7
100
AcDb2dPolyline
 66
     1
 10
0.0
 20
0.0
 30
0.0
 70
     1
  0
VERTEX
  5
A43
100
AcDbEntity
  8
ALPHA
 62
     7
100
AcDbVertex
100
AcDb2dVertex
 10
68.223554
 20
149.335468
 30
0.0
  0
VERTEX
  5
A44
100
AcDbEntity
  8
ALPHA
 62
     7
100
AcDbVertex
100
AcDb2dVertex
 10
67.423603
 20
149.335468
 30
0.0
  0
VERTEX
  5
A45
100
AcDbEntity
  8
ALPHA
 62
     7
100
AcDbVertex
100
AcDb2dVertex
 10
67.423603
 20
150.135419
 30
0.0
  0
VERTEX
  5
A46
100
AcDbEntity
  8
ALPHA
 62
     7
100
AcDbVertex
100
AcDb2dVertex
 10
68.223554
 20
150.135419
 30
0.0
  0
SEQEND
  5
A47
100
AcDbEntity
  8
ALPHA
 62
     7
  0
MTEXT
  5
A48
100
AcDbEntity
  8
TEXTE
 62
     7
100
AcDbMText
 10
73.615301
 20
152.790735
 30
0.0
 40
1.312417
 41
0.0
 71
     1
 72
     2
  1
\fTxt|b0|i0;N
  7
STD
  0
POLYLINE
  5
A49
100
AcDbEntity
  8
ALPHA
 62
     7
100
AcDb2dPolyline
 66
     1
 10
0.0
 20
0.0
 30
0.0
 70
     1
  0
VERTEX
  5
A4A
100
AcDbEntity
  8
ALPHA
 62
     7
100
AcDbVertex
100
AcDb2dVertex
 10
71.437139
 20
149.335468
 30
0.0
  0
VERTEX
  5
A4B
100
AcDbEntity
  8
ALPHA
 62
     7
100
AcDbVertex
100
AcDb2dVertex
 10
70.636844
 20
149.335468
 30
0.0
  0
VERTEX
  5
A4C
100
AcDbEntity
  8
ALPHA
 62
     7
100
AcDbVertex
100
AcDb2dVertex
 10
70.636844
 20
150.135419
 30
0.0
  0
VERTEX
  5
A4D
100
AcDbEntity
  8
ALPHA
 62
     7
100
AcDbVertex
100
AcDb2dVertex
 10
71.437139
 20
150.135419
 30
0.0
  0
SEQEND
  5
A4E
100
AcDbEntity
  8
ALPHA
 62
     7
  0
POLYLINE
  5
A4F
100
AcDbEntity
  8
ALPHA
 62
     7
100
AcDb2dPolyline
 66
     1
 10
0.0
 20
0.0
 30
0.0
 70
     1
  0
VERTEX
  5
A50
100
AcDbEntity
  8
ALPHA
 62
     7
100
AcDbVertex
100
AcDb2dVertex
 10
74.65038
 20
149.335468
 30
0.0
  0
VERTEX
  5
A51
100
AcDbEntity
  8
ALPHA
 62
     7
100
AcDbVertex
100
AcDb2dVertex
 10
73.850429
 20
149.335468
 30
0.0
  0
VERTEX
  5
A52
100
AcDbEntity
  8
ALPHA
 62
     7
100
AcDbVertex
100
AcDb2dVertex
 10
73.850429
 20
150.135419
 30
0.0
  0
VERTEX
  5
A53
100
AcDbEntity
  8
ALPHA
 62
     7
100
AcDbVertex
100
AcDb2dVertex
 10
74.65038
 20
150.135419
 30
0.0
  0
SEQEND
  5
A54
100
AcDbEntity
  8
ALPHA
 62
     7
  0
MTEXT
  5
A55
100
AcDbEntity
  8
TEXTE
 62
     7
100
AcDbMText
 10
76.404795
 20
152.790735
 30
0.0
 40
1.312417
 41
0.0
 71
     1
 72
     2
  1
\fTxt|b0|i0;L1
  7
STD
  0
POLYLINE
  5
A56
100
AcDbEntity
  8
ALPHA
 62
     7
100
AcDb2dPolyline
 66
     1
 10
0.0
 20
0.0
 30
0.0
 70
     1
  0
VERTEX
  5
A57
100
AcDbEntity
  8
ALPHA
 62
     7
100
AcDbVertex
100
AcDb2dVertex
 10
77.863965
 20
149.335468
 30
0.0
  0
VERTEX
  5
A58
100
AcDbEntity
  8
ALPHA
 62
     7
100
AcDbVertex
100
AcDb2dVertex
 10
77.063669
 20
149.335468
 30
0.0
  0
VERTEX
  5
A59
100
AcDbEntity
  8
ALPHA
 62
     7
100
AcDbVertex
100
AcDb2dVertex
 10
77.063669
 20
150.135419
 30
0.0
  0
VERTEX
  5
A5A
100
AcDbEntity
  8
ALPHA
 62
     7
100
AcDbVertex
100
AcDb2dVertex
 10
77.863965
 20
150.135419
 30
0.0
  0
SEQEND
  5
A5B
100
AcDbEntity
  8
ALPHA
 62
     7
  0
MTEXT
  5
A5C
100
AcDbEntity
  8
TEXTE
 62
     7
100
AcDbMText
 10
102.719468
 20
148.196355
 30
0.0
 40
1.312417
 41
0.0
 71
     1
 72
     2
  1
\fTxt|b0|i0;N
  7
STD
  0
MTEXT
  5
A5D
100
AcDbEntity
  8
TEXTE
 62
     7
100
AcDbMText
 10
89.37489
 20
155.697189
 30
0.0
 40
1.312417
 41
0.0
 71
     1
 72
     2
  1
\fTxt|b0|i0;120V
  7
STD
  0
MTEXT
  5
A5E
100
AcDbEntity
  8
TEXTE
 62
     7
100
AcDbMText
 10
90.376724
 20
153.196911
 30
0.0
 40
1.312417
 41
0.0
 71
     1
 72
     2
  1
\fTxt|b0|i0;Retour
  7
STD
  0
MTEXT
  5
A5F
100
AcDbEntity
  8
TEXTE
 62
     7
100
AcDbMText
 10
98.136113
 20
150.696633
 30
0.0
 40
1.312417
 41
0.0
 71
     1
 72
     2
  1
\fTxt|b0|i0;L
  7
STD
  0
ENDSEC
  0
SECTION
  2
OBJECTS
  0
DICTIONARY
  5
F8
100
AcDbDictionary
  3
ACAD_GROUP
350
F9
  3
ACAD_MLINESTYLE
350
106
  3
ACDBVARIABLEDICTIONARY
350
143
  0
DICTIONARY
  5
F9
102
{ACAD_REACTORS
330
F8
102
}
100
AcDbDictionary
  0
DICTIONARY
  5
106
102
{ACAD_REACTORS
330
F8
102
}
100
AcDbDictionary
  3
STANDARD
350
107
  0
DICTIONARY
  5
143
102
{ACAD_REACTORS
330
F8
102
}
100
AcDbDictionary
  3
DIMADEC
350
144
  0
MLINESTYLE
  5
107
102
{ACAD_REACTORS
330
106
102
}
100
AcDbMlineStyle
  2
STANDARD
 70
     0
  3

 62
   256
 51
90.0
 52
90.0
 71
     2
 49
0.5
 62
   256
  6
BYLAYER
 49
-0.5
 62
   256
  6
BYLAYER
  0
DICTIONARYVAR
  5
144
102
{ACAD_REACTORS
330
143
102
}
100
DictionaryVariables
280
     0
  1
0
  0
ENDSEC
  0
EOF
