  0
SECTION
  2
HEADER
  9
$ACADVER
  1
AC1014
  9
$ACADMAINTVER
 70
     0
  9
$DWGCODEPAGE
  3
ANSI_1252
  9
$INSBASE
 10
93.894301
 20
236.06014
 30
0.0
  9
$EXTMIN
 10
19.919999
 20
110.084073
 30
0.0
  9
$EXTMAX
 10
101.615138
 20
160.56242
 30
0.0
  9
$LIMMIN
 10
0.0
 20
0.0
  9
$LIMMAX
 10
210.0
 20
297.0
  9
$ORTHOMODE
 70
     0
  9
$REGENMODE
 70
     1
  9
$FILLMODE
 70
     1
  9
$QTEXTMODE
 70
     0
  9
$MIRRTEXT
 70
     0
  9
$DRAGMODE
 70
     1
  9
$LTSCALE
 40
7.0
  9
$OSMODE
 70
     0
  9
$ATTMODE
 70
     1
  9
$TEXTSIZE
 40
2.5
  9
$TRACEWID
 40
0.05
  9
$TEXTSTYLE
  7
STANDARD
  9
$CLAYER
  8
COTATION1
  9
$CELTYPE
  6
BYLAYER
  9
$CECOLOR
 62
   256
  9
$CELTSCALE
 40
1.0
  9
$DELOBJ
 70
     1
  9
$DISPSILH
 70
     0
  9
$DIMSCALE
 40
1.0
  9
$DIMASZ
 40
3.0
  9
$DIMEXO
 40
0.0625
  9
$DIMDLI
 40
0.38
  9
$DIMRND
 40
0.01
  9
$DIMDLE
 40
0.0
  9
$DIMEXE
 40
0.18
  9
$DIMTP
 40
0.0
  9
$DIMTM
 40
0.0
  9
$DIMTXT
 40
2.5
  9
$DIMCEN
 40
0.09
  9
$DIMTSZ
 40
0.0
  9
$DIMTOL
 70
     0
  9
$DIMLIM
 70
     0
  9
$DIMTIH
 70
     0
  9
$DIMTOH
 70
     0
  9
$DIMSE1
 70
     0
  9
$DIMSE2
 70
     0
  9
$DIMTAD
 70
     1
  9
$DIMZIN
 70
    12
  9
$DIMBLK
  1

  9
$DIMASO
 70
     1
  9
$DIMSHO
 70
     0
  9
$DIMPOST
  1

  9
$DIMAPOST
  1

  9
$DIMALT
 70
     0
  9
$DIMALTD
 70
     2
  9
$DIMALTF
 40
25.4
  9
$DIMLFAC
 40
1.0
  9
$DIMTOFL
 70
     1
  9
$DIMTVP
 40
0.0
  9
$DIMTIX
 70
     0
  9
$DIMSOXD
 70
     0
  9
$DIMSAH
 70
     0
  9
$DIMBLK1
  1

  9
$DIMBLK2
  1

  9
$DIMSTYLE
  2
SC_STAND
  9
$DIMCLRD
 70
     0
  9
$DIMCLRE
 70
     0
  9
$DIMCLRT
 70
     0
  9
$DIMTFAC
 40
1.0
  9
$DIMGAP
 40
1.0
  9
$DIMJUST
 70
     0
  9
$DIMSD1
 70
     0
  9
$DIMSD2
 70
     0
  9
$DIMTOLJ
 70
     1
  9
$DIMTZIN
 70
    12
  9
$DIMALTZ
 70
    12
  9
$DIMALTTZ
 70
    12
  9
$DIMFIT
 70
     5
  9
$DIMUPT
 70
     0
  9
$DIMUNIT
 70
     2
  9
$DIMDEC
 70
     3
  9
$DIMTDEC
 70
     3
  9
$DIMALTU
 70
     2
  9
$DIMALTTD
 70
     2
  9
$DIMTXSTY
  7
STANDARD
  9
$DIMAUNIT
 70
     0
  9
$LUNITS
 70
     2
  9
$LUPREC
 70
     3
  9
$SKETCHINC
 40
0.1
  9
$FILLETRAD
 40
0.0625
  9
$AUNITS
 70
     0
  9
$AUPREC
 70
     0
  9
$MENU
  1
ACAD
  9
$ELEVATION
 40
0.0
  9
$PELEVATION
 40
0.0
  9
$THICKNESS
 40
0.0
  9
$LIMCHECK
 70
     0
  9
$BLIPMODE
 70
     1
  9
$CHAMFERA
 40
0.0
  9
$CHAMFERB
 40
0.0
  9
$CHAMFERC
 40
0.0
  9
$CHAMFERD
 40
0.0
  9
$SKPOLY
 70
     0
  9
$TDCREATE
 40
2450953.590960648
  9
$TDUPDATE
 40
2452853.360789560
  9
$TDINDWG
 40
0.0030116782
  9
$TDUSRTIMER
 40
0.0030116782
  9
$USRTIMER
 70
     1
  9
$ANGBASE
 50
0.0
  9
$ANGDIR
 70
     0
  9
$PDMODE
 70
     0
  9
$PDSIZE
 40
0.0
  9
$PLINEWID
 40
0.0
  9
$COORDS
 70
     0
  9
$SPLFRAME
 70
     0
  9
$SPLINETYPE
 70
     6
  9
$SPLINESEGS
 70
     8
  9
$ATTDIA
 70
     0
  9
$ATTREQ
 70
     1
  9
$HANDLING
 70
     1
  9
$HANDSEED
  5
949
  9
$SURFTAB1
 70
     6
  9
$SURFTAB2
 70
     6
  9
$SURFTYPE
 70
     6
  9
$SURFU
 70
     6
  9
$SURFV
 70
     6
  9
$UCSNAME
  2

  9
$UCSORG
 10
0.0
 20
0.0
 30
0.0
  9
$UCSXDIR
 10
1.0
 20
0.0
 30
0.0
  9
$UCSYDIR
 10
0.0
 20
1.0
 30
0.0
  9
$PUCSNAME
  2

  9
$PUCSORG
 10
0.0
 20
0.0
 30
0.0
  9
$PUCSXDIR
 10
1.0
 20
0.0
 30
0.0
  9
$PUCSYDIR
 10
0.0
 20
1.0
 30
0.0
  9
$USERI1
 70
     0
  9
$USERI2
 70
     0
  9
$USERI3
 70
     0
  9
$USERI4
 70
     0
  9
$USERI5
 70
     0
  9
$USERR1
 40
0.0
  9
$USERR2
 40
0.0
  9
$USERR3
 40
0.0
  9
$USERR4
 40
0.0
  9
$USERR5
 40
0.0
  9
$WORLDVIEW
 70
     1
  9
$SHADEDGE
 70
     3
  9
$SHADEDIF
 70
    70
  9
$TILEMODE
 70
     1
  9
$MAXACTVP
 70
    32
  9
$PINSBASE
 10
0.0
 20
0.0
 30
0.0
  9
$PLIMCHECK
 70
     0
  9
$PEXTMIN
 10
-3.174999
 20
-3.175
 30
0.0
  9
$PEXTMAX
 10
203.812116
 20
370.276807
 30
0.0
  9
$PLIMMIN
 10
-3.175
 20
-3.175
  9
$PLIMMAX
 10
203.812115
 20
370.276807
  9
$UNITMODE
 70
     0
  9
$VISRETAIN
 70
     0
  9
$PLINEGEN
 70
     0
  9
$PSLTSCALE
 70
     1
  9
$TREEDEPTH
 70
  3020
  9
$PICKSTYLE
 70
     1
  9
$CMLSTYLE
  2
STANDARD
  9
$CMLJUST
 70
     0
  9
$CMLSCALE
 40
1.0
  9
$PROXYGRAPHICS
 70
     1
  9
$MEASUREMENT
 70
     0
  0
ENDSEC
  0
SECTION
  2
CLASSES
  0
CLASS
  1
DICTIONARYVAR
  2
AcDbDictionaryVar
  3
"AutoCAD"
 90
        0
280
     0
281
     0
  0
ENDSEC
  0
SECTION
  2
TABLES
  0
TABLE
  2
VPORT
  5
F4
100
AcDbSymbolTable
 70
     2
  0
VPORT
  5
948
100
AcDbSymbolTableRecord
100
AcDbViewportTableRecord
  2
*ACTIVE
 70
     0
 10
0.0
 20
0.0
 11
1.0
 21
1.0
 12
60.764008
 22
135.323617
 13
0.0
 23
0.0
 14
1.0
 24
1.0
 15
10.0
 25
10.0
 16
0.0
 26
0.0
 36
1.0
 17
0.0
 27
0.0
 37
0.0
 40
51.55566
 41
1.592689
 42
50.0
 43
0.0
 44
0.0
 50
0.0
 51
0.0
 71
     0
 72
   100
 73
     1
 74
     1
 75
     0
 76
     1
 77
     0
 78
     0
  0
ENDTAB
  0
TABLE
  2
LTYPE
  5
F1
100
AcDbSymbolTable
 70
     5
  0
LTYPE
  5
FD
100
AcDbSymbolTableRecord
100
AcDbLinetypeTableRecord
  2
BYBLOCK
 70
     0
  3

 72
    65
 73
     0
 40
0.0
  0
LTYPE
  5
FE
100
AcDbSymbolTableRecord
100
AcDbLinetypeTableRecord
  2
BYLAYER
 70
     0
  3

 72
    65
 73
     0
 40
0.0
  0
LTYPE
  5
FF
100
AcDbSymbolTableRecord
100
AcDbLinetypeTableRecord
  2
CONTINUOUS
 70
     0
  3
Solid line
 72
    65
 73
     0
 40
0.0
  0
LTYPE
  5
120
100
AcDbSymbolTableRecord
100
AcDbLinetypeTableRecord
  2
CACHE2
 70
     0
  3
_ _ _ _ _ _ _ _ _ _ _ _ _ _ _ _ _ _ _ _ _ _ _ _
 72
    65
 73
     2
 40
0.1875
 49
0.125
 74
     0
 49
-0.0625
 74
     0
  0
ENDTAB
  0
TABLE
  2
LAYER
  5
EE
100
AcDbSymbolTable
 70
     6
  0
LAYER
  5
FA
100
AcDbSymbolTableRecord
100
AcDbLayerTableRecord
  2
0
 70
     0
 62
     7
  6
CONTINUOUS
  0
LAYER
  5
12C
100
AcDbSymbolTableRecord
100
AcDbLayerTableRecord
  2
ALPHA
 70
     0
 62
   255
  6
CONTINUOUS
  0
LAYER
  5
12F
100
AcDbSymbolTableRecord
100
AcDbLayerTableRecord
  2
COTATION1
 70
     0
 62
     2
  6
CONTINUOUS
  0
LAYER
  5
132
100
AcDbSymbolTableRecord
100
AcDbLayerTableRecord
  2
TEXTE
 70
     0
 62
   131
  6
CONTINUOUS
  0
LAYER
  5
13B
100
AcDbSymbolTableRecord
100
AcDbLayerTableRecord
  2
ASHADE
 70
     0
 62
     7
  6
CONTINUOUS
  0
LAYER
  5
13C
100
AcDbSymbolTableRecord
100
AcDbLayerTableRecord
  2
POINTILLE_COURT
 70
     0
 62
    40
  6
CACHE2
  0
ENDTAB
  0
TABLE
  2
STYLE
  5
EF
100
AcDbSymbolTable
 70
     2
  0
STYLE
  5
FB
100
AcDbSymbolTableRecord
100
AcDbTextStyleTableRecord
  2
STANDARD
 70
     0
 40
0.0
 41
1.0
 50
0.0
 71
     0
 42
2.5
  3
txt
  4

  0
STYLE
  5
5E8
100
AcDbSymbolTableRecord
100
AcDbTextStyleTableRecord
  2
STD
 70
     0
 40
0.0
 41
1.0
 50
0.0
 71
     0
 42
0.0
  3
txt
  4

  0
ENDTAB
  0
TABLE
  2
VIEW
  5
F2
100
AcDbSymbolTable
 70
     0
  0
ENDTAB
  0
TABLE
  2
UCS
  5
F3
100
AcDbSymbolTable
 70
     0
  0
ENDTAB
  0
TABLE
  2
APPID
  5
F5
100
AcDbSymbolTable
 70
     3
  0
APPID
  5
FC
100
AcDbSymbolTableRecord
100
AcDbRegAppTableRecord
  2
ACAD
 70
     0
  0
APPID
  5
127
100
AcDbSymbolTableRecord
100
AcDbRegAppTableRecord
  2
AVE_RENDER
 70
     0
  0
APPID
  5
128
100
AcDbSymbolTableRecord
100
AcDbRegAppTableRecord
  2
AVE_MATERIAL
 70
     0
  0
ENDTAB
  0
TABLE
  2
DIMSTYLE
  5
F6
100
AcDbSymbolTable
 70
     2
  0
DIMSTYLE
105
129
100
AcDbSymbolTableRecord
100
AcDbDimStyleTableRecord
  2
STANDARD
 70
     0
  3

  4

  5

  6

  7

 40
1.0
 41
0.18
 42
0.0625
 43
0.38
 44
0.18
 45
0.0
 46
0.0
 47
0.0
 48
0.0
140
0.18
141
0.09
142
0.0
143
25.4
144
1.0
145
0.0
146
1.0
147
0.09
 71
     0
 72
     0
 73
     1
 74
     1
 75
     0
 76
     0
 77
     0
 78
     0
170
     0
171
     2
172
     0
173
     0
174
     0
175
     0
176
     0
177
     0
178
     0
270
     2
271
     3
272
     3
273
     2
274
     2
340
FB
275
     0
280
     0
281
     0
282
     0
283
     1
284
    12
285
    12
286
    12
287
     5
288
     0
  0
DIMSTYLE
105
12A
100
AcDbSymbolTableRecord
100
AcDbDimStyleTableRecord
  2
SC_STAND
 70
     0
  3

  4

  5

  6

  7

 40
1.0
 41
3.0
 42
0.0625
 43
0.38
 44
0.18
 45
0.01
 46
0.0
 47
0.0
 48
0.0
140
2.5
141
0.09
142
0.0
143
25.4
144
1.0
145
0.0
146
1.0
147
1.0
 71
     0
 72
     0
 73
     0
 74
     0
 75
     0
 76
     0
 77
     1
 78
    12
170
     0
171
     2
172
     1
173
     0
174
     0
175
     0
176
     0
177
     0
178
     0
270
     2
271
     3
272
     3
273
     2
274
     2
340
FB
275
     0
280
     0
281
     0
282
     0
283
     1
284
    12
285
    12
286
    12
287
     5
288
     0
  0
ENDTAB
  0
TABLE
  2
BLOCK_RECORD
  5
ED
100
AcDbSymbolTable
 70
     4
  0
BLOCK_RECORD
  5
103
100
AcDbSymbolTableRecord
100
AcDbBlockTableRecord
  2
*MODEL_SPACE
  0
BLOCK_RECORD
  5
100
100
AcDbSymbolTableRecord
100
AcDbBlockTableRecord
  2
*PAPER_SPACE
  0
BLOCK_RECORD
  5
108
100
AcDbSymbolTableRecord
100
AcDbBlockTableRecord
  2
AVE_RENDER
  0
BLOCK_RECORD
  5
109
100
AcDbSymbolTableRecord
100
AcDbBlockTableRecord
  2
AVE_GLOBAL
  0
BLOCK_RECORD
  5
10A
100
AcDbSymbolTableRecord
100
AcDbBlockTableRecord
  2
SCH_IS
  0
ENDTAB
  0
ENDSEC
  0
SECTION
  2
BLOCKS
  0
BLOCK
  5
141
100
AcDbEntity
  8
0
100
AcDbBlockBegin
  2
*MODEL_SPACE
 70
     0
 10
0.0
 20
0.0
 30
0.0
  3
*MODEL_SPACE
  1

  0
ENDBLK
  5
142
100
AcDbEntity
  8
0
100
AcDbBlockEnd
  0
BLOCK
  5
13F
100
AcDbEntity
 67
     1
  8
0
100
AcDbBlockBegin
  2
*PAPER_SPACE
 70
     0
 10
0.0
 20
0.0
 30
0.0
  3
*PAPER_SPACE
  1

  0
ENDBLK
  5
140
100
AcDbEntity
 67
     1
  8
0
100
AcDbBlockEnd
  0
BLOCK
  5
8D
100
AcDbEntity
  8
0
100
AcDbBlockBegin
  2
AVE_RENDER
 70
     0
 10
0.0
 20
0.0
 30
0.0
  3
AVE_RENDER
  1
AVE_RENDER
  0
ENDBLK
  5
8E
100
AcDbEntity
  8
0
100
AcDbBlockEnd
  0
BLOCK
  5
90
100
AcDbEntity
  8
0
100
AcDbBlockBegin
  2
AVE_GLOBAL
 70
     0
 10
0.0
 20
0.0
 30
0.0
  3
AVE_GLOBAL
  1
AVE_GLOBAL
  0
ENDBLK
  5
91
100
AcDbEntity
  8
0
100
AcDbBlockEnd
  0
BLOCK
  5
C9
100
AcDbEntity
  8
0
100
AcDbBlockBegin
  2
SCH_IS
 70
     0
 10
0.0
 20
0.0
 30
0.0
  3
SCH_IS
  1

  0
INSERT
  5
C0
100
AcDbEntity
  8
ASHADE
 62
     1
100
AcDbBlockReference
  2
AVE_RENDER
 10
0.0
 20
0.0
 30
0.0
1001
AVE_RENDER
1002
{
1070
     6
1000
Pref
1070
    50
1070
    20
1070
     1
1070
     0
1000

1070
    10
1070
     1
1070
    30
1040
25.4
1070
     1
1040
0.3
1040
0.7
1040
0.0
1040
10.0
1010
-1.0
1020
-1.0
1030
-1.0
1040
0.3
1070
    49
1070
     0
1070
     0
1010
1.0
1020
1.0
1030
1.0
1040
45.0
1070
     1
1070
     0
1000
WCS
1040
0.0
1002
}
  0
INSERT
  5
C1
100
AcDbEntity
  8
ASHADE
 62
     3
100
AcDbBlockReference
  2
AVE_RENDER
 10
0.0
 20
0.0
 30
0.0
1001
AVE_RENDER
1002
{
1070
     0
1000
Full Opt
1070
     0
1070
     1
1070
     1
1070
     1
1070
     0
1070
     0
1070
     0
1070
     1
1070
     1
1040
0.0001
1040
0.0001
1002
}
  0
INSERT
  5
C2
100
AcDbEntity
  8
ASHADE
 62
     4
100
AcDbBlockReference
  2
AVE_RENDER
 10
0.0
 20
0.0
 30
0.0
1001
AVE_RENDER
1002
{
1070
     0
1000
Quick Opt
1070
     0
1070
     1
1070
     1
1070
     1
1070
     0
1070
     0
1070
     1
1002
}
  0
INSERT
  5
C3
100
AcDbEntity
  8
ASHADE
 62
     5
100
AcDbBlockReference
  2
AVE_RENDER
 10
0.0
 20
0.0
 30
0.0
1001
AVE_RENDER
1002
{
1070
     1
1000
Scanl Opt
1070
     2
1070
     0
1070
     2
1040
2.0
1040
4.0
1070
     0
1070
     1
1070
     0
1040
0.03
1002
}
  0
INSERT
  5
C4
100
AcDbEntity
  8
ASHADE
 62
     6
100
AcDbBlockReference
  2
AVE_RENDER
 10
0.0
 20
0.0
 30
0.0
1001
AVE_RENDER
1002
{
1070
     2
1000
Raytr Opt
1070
     2
1070
     0
1070
     2
1040
2.0
1040
4.0
1070
     0
1070
     1
1070
     1
1040
0.03
1070
     3
1040
0.03
1002
}
  0
INSERT
  5
C5
100
AcDbEntity
  8
ASHADE
 62
     7
100
AcDbBlockReference
  2
AVE_RENDER
 10
0.0
 20
0.0
 30
0.0
1001
AVE_RENDER
1002
{
1070
     0
1000
RFile Opt
1070
     5
1070
   640
1070
   480
1070
 10000
1070
     3
1070
    32
1070
    24
1070
     0
1070
     0
1070
     0
1070
     1
1070
     0
1070
     0
1070
     0
1002
}
  0
INSERT
  5
C6
100
AcDbEntity
  8
ASHADE
 62
     8
100
AcDbBlockReference
  2
AVE_RENDER
 10
0.0
 20
0.0
 30
0.0
1001
AVE_RENDER
1002
{
1070
     0
1000
Fog Opt
1070
     0
1070
     0
1040
0.0
1040
1.0
1040
0.0
1040
1.0
1010
0.5
1020
0.5
1030
0.5
1002
}
  0
INSERT
  5
C7
100
AcDbEntity
  8
ASHADE
 62
     9
100
AcDbBlockReference
  2
AVE_RENDER
 10
0.0
 20
0.0
 30
0.0
1001
AVE_RENDER
1002
{
1070
     0
1000
BG Opt
1070
     0
1070
     1
1010
0.0
1020
0.0
1030
0.0
1010
1.0
1020
0.0
1030
0.0
1010
0.0
1020
1.0
1030
0.0
1010
0.0
1020
0.0
1030
1.0
1040
0.5
1040
0.33
1040
0.0
1000

1070
     1
1000

1070
     1
1070
     1
1040
1.0
1040
1.0
1040
0.0
1040
0.0
1070
     0
1002
}
  0
INSERT
  5
C8
100
AcDbEntity
  8
ASHADE
 62
     1
100
AcDbBlockReference
  2
AVE_GLOBAL
 10
0.0
 20
0.0
 30
0.0
1001
AVE_MATERIAL
1002
{
1000
*GLOBAL*
1000
1
1000
Finition globale.
1002
{
1002
}
1002
{
1070
    63
1002
{
1002
{
1010
-1.0
1020
-1.0
1030
-1.0
1002
}
1040
0.1
1000

1040
0.0
1002
{
1002
}
1040
0.0
1002
{
1002
}
1040
0.0
1002
}
1002
{
1002
{
1010
-1.0
1020
-1.0
1030
-1.0
1002
}
1040
0.7
1000

1040
0.0
1002
{
1002
}
1040
0.0
1002
{
1002
}
1040
0.0
1002
}
1002
{
1002
{
1010
-1.0
1020
-1.0
1030
-1.0
1002
}
1040
0.2
1000

1040
0.0
1002
{
1002
}
1040
0.0
1002
{
1002
}
1040
0.0
1002
}
1002
{
1070
     0
1002
{
1070
     1
1002
{
1040
1.0
1040
1.0
1000

1040
0.0
1002
{
1002
}
1040
0.0
1002
{
1002
}
1040
0.0
1002
}
1002
}
1040
1.0
1040
0.0
1040
0.0
1002
}
1002
{
1040
1.0
1040
1.0
1000

1040
0.0
1002
{
1002
}
1040
0.0
1002
{
1002
}
1040
0.0
1002
}
1002
{
1040
0.5
1040
1.0
1000

1040
0.0
1002
{
1002
}
1040
0.0
1002
{
1002
}
1040
0.0
1002
}
1002
{
1070
     0
1040
0.0
1002
{
1002
}
1040
1.0
1002
{
1002
}
1040
0.0
1002
}
1002
{
1040
0.0
1002
{
1002
{
1010
0.0
1020
0.0
1030
0.0
1002
}
1040
1.0
1000

1040
0.0
1002
{
1002
}
1040
0.0
1002
{
1002
}
1040
0.0
1002
}
1002
}
1002
{
1002
{
1070
     1
1002
{
1040
0.0
1040
1.0
1000

1040
0.0
1002
{
1002
}
1040
0.0
1002
{
1002
}
1040
0.0
1002
}
1002
}
1040
0.0
1002
{
1002
}
1010
1.0
1020
0.0
1030
0.0
1010
0.0
1020
1.0
1030
0.0
1010
0.0
1020
0.0
1030
1.0
1070
     0
1002
}
1002
{
1002
{
1040
1.0
1040
1.0
1002
{
1070
     1
1002
{
1040
1.0
1040
1.0
1000

1040
0.0
1002
{
1002
}
1040
0.0
1002
{
1002
}
1040
0.0
1002
}
1002
}
1002
}
1070
     0
1040
0.0
1002
{
1002
}
1002
}
1002
{
1002
}
1002
}
1002
{
1071
        3
1070
     3
1070
     0
1002
{
1070
     2
1070
     0
1070
     0
1040
0.0
1002
}
1070
     0
1070
     2
1002
{
1002
}
1002
}
1002
{
1040
8030.0
1040
190.300003
1040
0.305
1040
228.0
1040
545.0
1040
14.0
1040
17.4
1040
0.456
1002
}
1002
}
  0
ENDBLK
  5
CA
100
AcDbEntity
  8
0
100
AcDbBlockEnd
  0
ENDSEC
  0
SECTION
  2
ENTITIES
  0
INSERT
  5
CC
100
AcDbEntity
  8
0
100
AcDbBlockReference
  2
SCH_IS
 10
-68.718396
 20
-140.042541
 30
0.0
  0
INSERT
  5
EC
100
AcDbEntity
  8
COTATION1
100
AcDbBlockReference
  2
SCH_IS
 10
0.0
 20
0.0
 30
0.0
  0
MTEXT
  5
798
100
AcDbEntity
  8
TEXTE
 62
     7
100
AcDbMText
 10
60.006605
 20
123.525975
 30
0.0
 40
1.312417
 41
0.0
 71
     1
 72
     2
  1
\fTxt|b0|i0;O1
  7
STD
 11
0.0
 21
1.0
 31
0.0
  0
MTEXT
  5
799
100
AcDbEntity
  8
TEXTE
 62
     7
100
AcDbMText
 10
60.006605
 20
138.81927
 30
0.0
 40
1.312417
 41
0.0
 71
     1
 72
     2
  1
\fTxt|b0|i0;I1
  7
STD
 11
0.0
 21
1.0
 31
0.0
  0
POLYLINE
  5
79A
100
AcDbEntity
  8
POINTILLE_COURT
 62
     7
100
AcDb2dPolyline
 66
     1
 10
0.0
 20
0.0
 30
0.0
 70
     1
  0
VERTEX
  5
79B
100
AcDbEntity
  8
POINTILLE_COURT
 62
     7
100
AcDbVertex
100
AcDb2dVertex
 10
65.064358
 20
122.074039
 30
0.0
  0
VERTEX
  5
79C
100
AcDbEntity
  8
POINTILLE_COURT
 62
     7
100
AcDbVertex
100
AcDb2dVertex
 10
59.5808
 20
122.074039
 30
0.0
  0
VERTEX
  5
79D
100
AcDbEntity
  8
POINTILLE_COURT
 62
     7
100
AcDbVertex
100
AcDb2dVertex
 10
59.5808
 20
130.377753
 30
0.0
  0
VERTEX
  5
79E
100
AcDbEntity
  8
POINTILLE_COURT
 62
     7
100
AcDbVertex
100
AcDb2dVertex
 10
65.064358
 20
130.377753
 30
0.0
  0
SEQEND
  5
79F
100
AcDbEntity
  8
POINTILLE_COURT
 62
     7
  0
POLYLINE
  5
7A0
100
AcDbEntity
  8
POINTILLE_COURT
 62
     7
100
AcDb2dPolyline
 66
     1
 10
0.0
 20
0.0
 30
0.0
 70
     1
  0
VERTEX
  5
7A1
100
AcDbEntity
  8
POINTILLE_COURT
 62
     7
100
AcDbVertex
100
AcDb2dVertex
 10
71.491184
 20
137.367335
 30
0.0
  0
VERTEX
  5
7A2
100
AcDbEntity
  8
POINTILLE_COURT
 62
     7
100
AcDbVertex
100
AcDb2dVertex
 10
59.5808
 20
137.367335
 30
0.0
  0
VERTEX
  5
7A3
100
AcDbEntity
  8
POINTILLE_COURT
 62
     7
100
AcDbVertex
100
AcDb2dVertex
 10
59.5808
 20
145.671048
 30
0.0
  0
VERTEX
  5
7A4
100
AcDbEntity
  8
POINTILLE_COURT
 62
     7
100
AcDbVertex
100
AcDb2dVertex
 10
71.491184
 20
145.671048
 30
0.0
  0
SEQEND
  5
7A5
100
AcDbEntity
  8
POINTILLE_COURT
 62
     7
  0
POLYLINE
  5
7A6
100
AcDbEntity
  8
ALPHA
 62
     7
100
AcDb2dPolyline
 66
     1
 10
0.0
 20
0.0
 30
0.0
 70
     1
  0
VERTEX
  5
7A7
100
AcDbEntity
  8
ALPHA
 62
     7
100
AcDbVertex
100
AcDb2dVertex
 10
79.089514
 20
121.085124
 30
0.0
  0
VERTEX
  5
7A8
100
AcDbEntity
  8
ALPHA
 62
     7
100
AcDbVertex
100
AcDb2dVertex
 10
19.919999
 20
121.085124
 30
0.0
  0
VERTEX
  5
7A9
100
AcDbEntity
  8
ALPHA
 62
     7
100
AcDbVertex
100
AcDb2dVertex
 10
19.919999
 20
131.377864
 30
0.0
  0
VERTEX
  5
7AA
100
AcDbEntity
  8
ALPHA
 62
     7
100
AcDbVertex
100
AcDb2dVertex
 10
79.089514
 20
131.377864
 30
0.0
  0
SEQEND
  5
7AB
100
AcDbEntity
  8
ALPHA
 62
     7
  0
POLYLINE
  5
7AC
100
AcDbEntity
  8
ALPHA
 62
     7
100
AcDb2dPolyline
 66
     1
 10
0.0
 20
0.0
 30
0.0
 70
     1
  0
VERTEX
  5
7AD
100
AcDbEntity
  8
ALPHA
 62
     7
100
AcDbVertex
100
AcDb2dVertex
 10
61.116106
 20
122.386854
 30
0.0
  0
VERTEX
  5
7AE
100
AcDbEntity
  8
ALPHA
 62
     7
100
AcDbVertex
100
AcDb2dVertex
 10
60.316155
 20
122.386854
 30
0.0
  0
VERTEX
  5
7AF
100
AcDbEntity
  8
ALPHA
 62
     7
100
AcDbVertex
100
AcDb2dVertex
 10
60.316155
 20
123.186805
 30
0.0
  0
VERTEX
  5
7B0
100
AcDbEntity
  8
ALPHA
 62
     7
100
AcDbVertex
100
AcDb2dVertex
 10
61.116106
 20
123.186805
 30
0.0
  0
SEQEND
  5
7B1
100
AcDbEntity
  8
ALPHA
 62
     7
  0
POLYLINE
  5
7B2
100
AcDbEntity
  8
ALPHA
 62
     7
100
AcDb2dPolyline
 66
     1
 10
0.0
 20
0.0
 30
0.0
 70
     1
  0
VERTEX
  5
7B3
100
AcDbEntity
  8
ALPHA
 62
     7
100
AcDbVertex
100
AcDb2dVertex
 10
79.089514
 20
136.37842
 30
0.0
  0
VERTEX
  5
7B4
100
AcDbEntity
  8
ALPHA
 62
     7
100
AcDbVertex
100
AcDb2dVertex
 10
19.919999
 20
136.37842
 30
0.0
  0
VERTEX
  5
7B5
100
AcDbEntity
  8
ALPHA
 62
     7
100
AcDbVertex
100
AcDb2dVertex
 10
19.919999
 20
146.67116
 30
0.0
  0
VERTEX
  5
7B6
100
AcDbEntity
  8
ALPHA
 62
     7
100
AcDbVertex
100
AcDb2dVertex
 10
79.089514
 20
146.67116
 30
0.0
  0
SEQEND
  5
7B7
100
AcDbEntity
  8
ALPHA
 62
     7
  0
POLYLINE
  5
7B8
100
AcDbEntity
  8
ALPHA
 62
     7
100
AcDb2dPolyline
 66
     1
 10
0.0
 20
0.0
 30
0.0
 70
     1
  0
VERTEX
  5
7B9
100
AcDbEntity
  8
ALPHA
 62
     7
100
AcDbVertex
100
AcDb2dVertex
 10
61.116106
 20
137.680149
 30
0.0
  0
VERTEX
  5
7BA
100
AcDbEntity
  8
ALPHA
 62
     7
100
AcDbVertex
100
AcDb2dVertex
 10
60.316155
 20
137.680149
 30
0.0
  0
VERTEX
  5
7BB
100
AcDbEntity
  8
ALPHA
 62
     7
100
AcDbVertex
100
AcDb2dVertex
 10
60.316155
 20
138.480101
 30
0.0
  0
VERTEX
  5
7BC
100
AcDbEntity
  8
ALPHA
 62
     7
100
AcDbVertex
100
AcDb2dVertex
 10
61.116106
 20
138.480101
 30
0.0
  0
SEQEND
  5
7BD
100
AcDbEntity
  8
ALPHA
 62
     7
  0
POLYLINE
  5
7BE
100
AcDbEntity
  8
ALPHA
 62
     7
100
AcDb2dPolyline
 66
     1
 10
0.0
 20
0.0
 30
0.0
 70
     1
  0
VERTEX
  5
7BF
100
AcDbEntity
  8
ALPHA
 62
     7
100
AcDbVertex
100
AcDb2dVertex
 10
79.089514
 20
149.171265
 30
0.0
  0
VERTEX
  5
7C0
100
AcDbEntity
  8
ALPHA
 62
     7
100
AcDbVertex
100
AcDb2dVertex
 10
19.919999
 20
149.171265
 30
0.0
  0
VERTEX
  5
7C1
100
AcDbEntity
  8
ALPHA
 62
     7
100
AcDbVertex
100
AcDb2dVertex
 10
19.919999
 20
159.464177
 30
0.0
  0
VERTEX
  5
7C2
100
AcDbEntity
  8
ALPHA
 62
     7
100
AcDbVertex
100
AcDb2dVertex
 10
79.089514
 20
159.464177
 30
0.0
  0
SEQEND
  5
7C3
100
AcDbEntity
  8
ALPHA
 62
     7
  0
POLYLINE
  5
7C4
100
AcDbEntity
  8
ALPHA
 62
     7
100
AcDb2dPolyline
 66
     1
 10
0.0
 20
0.0
 30
0.0
  0
VERTEX
  5
7C5
100
AcDbEntity
  8
ALPHA
 62
     7
100
AcDbVertex
100
AcDb2dVertex
 10
44.648894
 20
138.080125
 30
0.0
  0
VERTEX
  5
7C6
100
AcDbEntity
  8
ALPHA
 62
     7
100
AcDbVertex
100
AcDb2dVertex
 10
46.255515
 20
136.831967
 30
0.0
  0
VERTEX
  5
7C7
100
AcDbEntity
  8
ALPHA
 62
     7
100
AcDbVertex
100
AcDb2dVertex
 10
46.255515
 20
124.287168
 30
0.0
  0
VERTEX
  5
7C8
100
AcDbEntity
  8
ALPHA
 62
     7
100
AcDbVertex
100
AcDb2dVertex
 10
44.648894
 20
122.787002
 30
0.0
  0
SEQEND
  5
7C9
100
AcDbEntity
  8
ALPHA
 62
     7
  0
POLYLINE
  5
7CA
100
AcDbEntity
  8
ALPHA
 62
     7
100
AcDb2dPolyline
 66
     1
 10
0.0
 20
0.0
 30
0.0
  0
VERTEX
  5
7CB
100
AcDbEntity
  8
ALPHA
 62
     7
100
AcDbVertex
100
AcDb2dVertex
 10
38.222069
 20
138.080125
 30
0.0
  0
VERTEX
  5
7CC
100
AcDbEntity
  8
ALPHA
 62
     7
100
AcDbVertex
100
AcDb2dVertex
 10
39.828689
 20
136.831967
 30
0.0
  0
VERTEX
  5
7CD
100
AcDbEntity
  8
ALPHA
 62
     7
100
AcDbVertex
100
AcDb2dVertex
 10
39.828689
 20
124.287168
 30
0.0
  0
VERTEX
  5
7CE
100
AcDbEntity
  8
ALPHA
 62
     7
100
AcDbVertex
100
AcDb2dVertex
 10
38.222069
 20
122.787002
 30
0.0
  0
SEQEND
  5
7CF
100
AcDbEntity
  8
ALPHA
 62
     7
  0
POLYLINE
  5
7D0
100
AcDbEntity
  8
ALPHA
 62
     7
100
AcDb2dPolyline
 66
     1
 10
0.0
 20
0.0
 30
0.0
  0
VERTEX
  5
7D1
100
AcDbEntity
  8
ALPHA
 62
     7
100
AcDbVertex
100
AcDb2dVertex
 10
31.795243
 20
138.080125
 30
0.0
  0
VERTEX
  5
7D2
100
AcDbEntity
  8
ALPHA
 62
     7
100
AcDbVertex
100
AcDb2dVertex
 10
33.401863
 20
136.831967
 30
0.0
  0
VERTEX
  5
7D3
100
AcDbEntity
  8
ALPHA
 62
     7
100
AcDbVertex
100
AcDb2dVertex
 10
33.401863
 20
124.287168
 30
0.0
  0
VERTEX
  5
7D4
100
AcDbEntity
  8
ALPHA
 62
     7
100
AcDbVertex
100
AcDb2dVertex
 10
31.795243
 20
122.787002
 30
0.0
  0
SEQEND
  5
7D5
100
AcDbEntity
  8
ALPHA
 62
     7
  0
POLYLINE
  5
7D6
100
AcDbEntity
  8
ALPHA
 62
     7
100
AcDb2dPolyline
 66
     1
 10
0.0
 20
0.0
 30
0.0
  0
VERTEX
  5
7D7
100
AcDbEntity
  8
ALPHA
 62
     7
100
AcDbVertex
100
AcDb2dVertex
 10
25.368418
 20
138.080125
 30
0.0
  0
VERTEX
  5
7D8
100
AcDbEntity
  8
ALPHA
 62
     7
100
AcDbVertex
100
AcDb2dVertex
 10
26.975038
 20
136.831967
 30
0.0
  0
VERTEX
  5
7D9
100
AcDbEntity
  8
ALPHA
 62
     7
100
AcDbVertex
100
AcDb2dVertex
 10
26.975038
 20
124.287168
 30
0.0
  0
VERTEX
  5
7DA
100
AcDbEntity
  8
ALPHA
 62
     7
100
AcDbVertex
100
AcDb2dVertex
 10
25.368418
 20
122.787002
 30
0.0
  0
SEQEND
  5
7DB
100
AcDbEntity
  8
ALPHA
 62
     7
  0
MTEXT
  5
7DC
100
AcDbEntity
  8
TEXTE
 62
     7
100
AcDbMText
 10
34.297925
 20
123.525975
 30
0.0
 40
1.312417
 41
0.0
 71
     1
 72
     2
  1
\fTxt|b0|i0;UI3-
  7
STD
 11
0.0
 21
1.0
 31
0.0
  0
POLYLINE
  5
7DD
100
AcDbEntity
  8
POINTILLE_COURT
 62
     7
100
AcDb2dPolyline
 66
     1
 10
0.0
 20
0.0
 30
0.0
 70
     1
  0
VERTEX
  5
7DE
100
AcDbEntity
  8
POINTILLE_COURT
 62
     7
100
AcDbVertex
100
AcDb2dVertex
 10
39.357056
 20
122.074039
 30
0.0
  0
VERTEX
  5
7DF
100
AcDbEntity
  8
POINTILLE_COURT
 62
     7
100
AcDbVertex
100
AcDb2dVertex
 10
33.873497
 20
122.074039
 30
0.0
  0
VERTEX
  5
7E0
100
AcDbEntity
  8
POINTILLE_COURT
 62
     7
100
AcDbVertex
100
AcDb2dVertex
 10
33.873497
 20
130.377753
 30
0.0
  0
VERTEX
  5
7E1
100
AcDbEntity
  8
POINTILLE_COURT
 62
     7
100
AcDbVertex
100
AcDb2dVertex
 10
39.357056
 20
130.377753
 30
0.0
  0
SEQEND
  5
7E2
100
AcDbEntity
  8
POINTILLE_COURT
 62
     7
  0
POLYLINE
  5
7E3
100
AcDbEntity
  8
ALPHA
 62
     7
100
AcDb2dPolyline
 66
     1
 10
0.0
 20
0.0
 30
0.0
 70
     1
  0
VERTEX
  5
7E4
100
AcDbEntity
  8
ALPHA
 62
     7
100
AcDbVertex
100
AcDb2dVertex
 10
35.408459
 20
122.386854
 30
0.0
  0
VERTEX
  5
7E5
100
AcDbEntity
  8
ALPHA
 62
     7
100
AcDbVertex
100
AcDb2dVertex
 10
34.608508
 20
122.386854
 30
0.0
  0
VERTEX
  5
7E6
100
AcDbEntity
  8
ALPHA
 62
     7
100
AcDbVertex
100
AcDb2dVertex
 10
34.608508
 20
123.186805
 30
0.0
  0
VERTEX
  5
7E7
100
AcDbEntity
  8
ALPHA
 62
     7
100
AcDbVertex
100
AcDb2dVertex
 10
35.408459
 20
123.186805
 30
0.0
  0
SEQEND
  5
7E8
100
AcDbEntity
  8
ALPHA
 62
     7
  0
MTEXT
  5
7E9
100
AcDbEntity
  8
TEXTE
 62
     7
100
AcDbMText
 10
21.443584
 20
123.525975
 30
0.0
 40
1.312417
 41
0.0
 71
     1
 72
     2
  1
\fTxt|b0|i0;UI1-
  7
STD
 11
0.0
 21
1.0
 31
0.0
  0
POLYLINE
  5
7EA
100
AcDbEntity
  8
POINTILLE_COURT
 62
     7
100
AcDb2dPolyline
 66
     1
 10
0.0
 20
0.0
 30
0.0
 70
     1
  0
VERTEX
  5
7EB
100
AcDbEntity
  8
POINTILLE_COURT
 62
     7
100
AcDbVertex
100
AcDb2dVertex
 10
26.503404
 20
122.074039
 30
0.0
  0
VERTEX
  5
7EC
100
AcDbEntity
  8
POINTILLE_COURT
 62
     7
100
AcDbVertex
100
AcDb2dVertex
 10
21.019846
 20
122.074039
 30
0.0
  0
VERTEX
  5
7ED
100
AcDbEntity
  8
POINTILLE_COURT
 62
     7
100
AcDbVertex
100
AcDb2dVertex
 10
21.019846
 20
130.377753
 30
0.0
  0
VERTEX
  5
7EE
100
AcDbEntity
  8
POINTILLE_COURT
 62
     7
100
AcDbVertex
100
AcDb2dVertex
 10
26.503404
 20
130.377753
 30
0.0
  0
SEQEND
  5
7EF
100
AcDbEntity
  8
POINTILLE_COURT
 62
     7
  0
POLYLINE
  5
7F0
100
AcDbEntity
  8
ALPHA
 62
     7
100
AcDb2dPolyline
 66
     1
 10
0.0
 20
0.0
 30
0.0
 70
     1
  0
VERTEX
  5
7F1
100
AcDbEntity
  8
ALPHA
 62
     7
100
AcDbVertex
100
AcDb2dVertex
 10
22.554808
 20
122.386854
 30
0.0
  0
VERTEX
  5
7F2
100
AcDbEntity
  8
ALPHA
 62
     7
100
AcDbVertex
100
AcDb2dVertex
 10
21.754857
 20
122.386854
 30
0.0
  0
VERTEX
  5
7F3
100
AcDbEntity
  8
ALPHA
 62
     7
100
AcDbVertex
100
AcDb2dVertex
 10
21.754857
 20
123.186805
 30
0.0
  0
VERTEX
  5
7F4
100
AcDbEntity
  8
ALPHA
 62
     7
100
AcDbVertex
100
AcDb2dVertex
 10
22.554808
 20
123.186805
 30
0.0
  0
SEQEND
  5
7F5
100
AcDbEntity
  8
ALPHA
 62
     7
  0
MTEXT
  5
7F6
100
AcDbEntity
  8
TEXTE
 62
     7
100
AcDbMText
 10
27.870754
 20
123.525975
 30
0.0
 40
1.312417
 41
0.0
 71
     1
 72
     2
  1
\fTxt|b0|i0;UI2-
  7
STD
 11
0.0
 21
1.0
 31
0.0
  0
POLYLINE
  5
7F7
100
AcDbEntity
  8
POINTILLE_COURT
 62
     7
100
AcDb2dPolyline
 66
     1
 10
0.0
 20
0.0
 30
0.0
 70
     1
  0
VERTEX
  5
7F8
100
AcDbEntity
  8
POINTILLE_COURT
 62
     7
100
AcDbVertex
100
AcDb2dVertex
 10
32.93023
 20
122.074039
 30
0.0
  0
VERTEX
  5
7F9
100
AcDbEntity
  8
POINTILLE_COURT
 62
     7
100
AcDbVertex
100
AcDb2dVertex
 10
27.446671
 20
122.074039
 30
0.0
  0
VERTEX
  5
7FA
100
AcDbEntity
  8
POINTILLE_COURT
 62
     7
100
AcDbVertex
100
AcDb2dVertex
 10
27.446671
 20
130.377753
 30
0.0
  0
VERTEX
  5
7FB
100
AcDbEntity
  8
POINTILLE_COURT
 62
     7
100
AcDbVertex
100
AcDb2dVertex
 10
32.93023
 20
130.377753
 30
0.0
  0
SEQEND
  5
7FC
100
AcDbEntity
  8
POINTILLE_COURT
 62
     7
  0
POLYLINE
  5
7FD
100
AcDbEntity
  8
ALPHA
 62
     7
100
AcDb2dPolyline
 66
     1
 10
0.0
 20
0.0
 30
0.0
 70
     1
  0
VERTEX
  5
7FE
100
AcDbEntity
  8
ALPHA
 62
     7
100
AcDbVertex
100
AcDb2dVertex
 10
28.981978
 20
122.386854
 30
0.0
  0
VERTEX
  5
7FF
100
AcDbEntity
  8
ALPHA
 62
     7
100
AcDbVertex
100
AcDb2dVertex
 10
28.181683
 20
122.386854
 30
0.0
  0
VERTEX
  5
800
100
AcDbEntity
  8
ALPHA
 62
     7
100
AcDbVertex
100
AcDb2dVertex
 10
28.181683
 20
123.186805
 30
0.0
  0
VERTEX
  5
801
100
AcDbEntity
  8
ALPHA
 62
     7
100
AcDbVertex
100
AcDb2dVertex
 10
28.981978
 20
123.186805
 30
0.0
  0
SEQEND
  5
802
100
AcDbEntity
  8
ALPHA
 62
     7
  0
MTEXT
  5
803
100
AcDbEntity
  8
TEXTE
 62
     7
100
AcDbMText
 10
24.657169
 20
123.525975
 30
0.0
 40
1.312417
 41
0.0
 71
     1
 72
     2
  1
\fTxt|b0|i0;I1+
  7
STD
 11
0.0
 21
1.0
 31
0.0
  0
POLYLINE
  5
804
100
AcDbEntity
  8
ALPHA
 62
     7
100
AcDb2dPolyline
 66
     1
 10
0.0
 20
0.0
 30
0.0
 70
     1
  0
VERTEX
  5
805
100
AcDbEntity
  8
ALPHA
 62
     7
100
AcDbVertex
100
AcDb2dVertex
 10
25.768393
 20
122.386854
 30
0.0
  0
VERTEX
  5
806
100
AcDbEntity
  8
ALPHA
 62
     7
100
AcDbVertex
100
AcDb2dVertex
 10
24.968442
 20
122.386854
 30
0.0
  0
VERTEX
  5
807
100
AcDbEntity
  8
ALPHA
 62
     7
100
AcDbVertex
100
AcDb2dVertex
 10
24.968442
 20
123.186805
 30
0.0
  0
VERTEX
  5
808
100
AcDbEntity
  8
ALPHA
 62
     7
100
AcDbVertex
100
AcDb2dVertex
 10
25.768393
 20
123.186805
 30
0.0
  0
SEQEND
  5
809
100
AcDbEntity
  8
ALPHA
 62
     7
  0
MTEXT
  5
80A
100
AcDbEntity
  8
TEXTE
 62
     7
100
AcDbMText
 10
31.08434
 20
123.525975
 30
0.0
 40
1.312417
 41
0.0
 71
     1
 72
     2
  1
\fTxt|b0|i0;I2+
  7
STD
 11
0.0
 21
1.0
 31
0.0
  0
POLYLINE
  5
80B
100
AcDbEntity
  8
ALPHA
 62
     7
100
AcDb2dPolyline
 66
     1
 10
0.0
 20
0.0
 30
0.0
 70
     1
  0
VERTEX
  5
80C
100
AcDbEntity
  8
ALPHA
 62
     7
100
AcDbVertex
100
AcDb2dVertex
 10
32.195219
 20
122.386854
 30
0.0
  0
VERTEX
  5
80D
100
AcDbEntity
  8
ALPHA
 62
     7
100
AcDbVertex
100
AcDb2dVertex
 10
31.395268
 20
122.386854
 30
0.0
  0
VERTEX
  5
80E
100
AcDbEntity
  8
ALPHA
 62
     7
100
AcDbVertex
100
AcDb2dVertex
 10
31.395268
 20
123.186805
 30
0.0
  0
VERTEX
  5
80F
100
AcDbEntity
  8
ALPHA
 62
     7
100
AcDbVertex
100
AcDb2dVertex
 10
32.195219
 20
123.186805
 30
0.0
  0
SEQEND
  5
810
100
AcDbEntity
  8
ALPHA
 62
     7
  0
MTEXT
  5
811
100
AcDbEntity
  8
TEXTE
 62
     7
100
AcDbMText
 10
47.152265
 20
123.525975
 30
0.0
 40
1.312417
 41
0.0
 71
     1
 72
     2
  1
\fTxt|b0|i0;AGND
  7
STD
 11
0.0
 21
1.0
 31
0.0
  0
LINE
  5
812
100
AcDbEntity
  8
ALPHA
 62
     7
100
AcDbLine
 10
57.502546
 20
122.786829
 30
0.0
 11
47.862307
 21
122.786829
 31
0.0
  0
POLYLINE
  5
813
100
AcDbEntity
  8
ALPHA
 62
     7
100
AcDb2dPolyline
 66
     1
 10
0.0
 20
0.0
 30
0.0
 70
     1
  0
VERTEX
  5
814
100
AcDbEntity
  8
ALPHA
 62
     7
100
AcDbVertex
100
AcDb2dVertex
 10
48.262455
 20
122.386854
 30
0.0
  0
VERTEX
  5
815
100
AcDbEntity
  8
ALPHA
 62
     7
100
AcDbVertex
100
AcDb2dVertex
 10
47.462159
 20
122.386854
 30
0.0
  0
VERTEX
  5
816
100
AcDbEntity
  8
ALPHA
 62
     7
100
AcDbVertex
100
AcDb2dVertex
 10
47.462159
 20
123.186805
 30
0.0
  0
VERTEX
  5
817
100
AcDbEntity
  8
ALPHA
 62
     7
100
AcDbVertex
100
AcDb2dVertex
 10
48.262455
 20
123.186805
 30
0.0
  0
SEQEND
  5
818
100
AcDbEntity
  8
ALPHA
 62
     7
  0
MTEXT
  5
819
100
AcDbEntity
  8
TEXTE
 62
     7
100
AcDbMText
 10
40.725095
 20
123.525975
 30
0.0
 40
1.312417
 41
0.0
 71
     1
 72
     2
  1
\fTxt|b0|i0;UI4-
  7
STD
 11
0.0
 21
1.0
 31
0.0
  0
POLYLINE
  5
81A
100
AcDbEntity
  8
POINTILLE_COURT
 62
     7
100
AcDb2dPolyline
 66
     1
 10
0.0
 20
0.0
 30
0.0
 70
     1
  0
VERTEX
  5
81B
100
AcDbEntity
  8
POINTILLE_COURT
 62
     7
100
AcDbVertex
100
AcDb2dVertex
 10
45.783881
 20
122.074039
 30
0.0
  0
VERTEX
  5
81C
100
AcDbEntity
  8
POINTILLE_COURT
 62
     7
100
AcDbVertex
100
AcDb2dVertex
 10
40.300323
 20
122.074039
 30
0.0
  0
VERTEX
  5
81D
100
AcDbEntity
  8
POINTILLE_COURT
 62
     7
100
AcDbVertex
100
AcDb2dVertex
 10
40.300323
 20
130.377753
 30
0.0
  0
VERTEX
  5
81E
100
AcDbEntity
  8
POINTILLE_COURT
 62
     7
100
AcDbVertex
100
AcDb2dVertex
 10
45.783881
 20
130.377753
 30
0.0
  0
SEQEND
  5
81F
100
AcDbEntity
  8
POINTILLE_COURT
 62
     7
  0
POLYLINE
  5
820
100
AcDbEntity
  8
ALPHA
 62
     7
100
AcDb2dPolyline
 66
     1
 10
0.0
 20
0.0
 30
0.0
 70
     1
  0
VERTEX
  5
821
100
AcDbEntity
  8
ALPHA
 62
     7
100
AcDbVertex
100
AcDb2dVertex
 10
41.835629
 20
122.386854
 30
0.0
  0
VERTEX
  5
822
100
AcDbEntity
  8
ALPHA
 62
     7
100
AcDbVertex
100
AcDb2dVertex
 10
41.035334
 20
122.386854
 30
0.0
  0
VERTEX
  5
823
100
AcDbEntity
  8
ALPHA
 62
     7
100
AcDbVertex
100
AcDb2dVertex
 10
41.035334
 20
123.186805
 30
0.0
  0
VERTEX
  5
824
100
AcDbEntity
  8
ALPHA
 62
     7
100
AcDbVertex
100
AcDb2dVertex
 10
41.835629
 20
123.186805
 30
0.0
  0
SEQEND
  5
825
100
AcDbEntity
  8
ALPHA
 62
     7
  0
MTEXT
  5
826
100
AcDbEntity
  8
TEXTE
 62
     7
100
AcDbMText
 10
37.51151
 20
123.525975
 30
0.0
 40
1.312417
 41
0.0
 71
     1
 72
     2
  1
\fTxt|b0|i0;I3+
  7
STD
 11
0.0
 21
1.0
 31
0.0
  0
POLYLINE
  5
827
100
AcDbEntity
  8
ALPHA
 62
     7
100
AcDb2dPolyline
 66
     1
 10
0.0
 20
0.0
 30
0.0
 70
     1
  0
VERTEX
  5
828
100
AcDbEntity
  8
ALPHA
 62
     7
100
AcDbVertex
100
AcDb2dVertex
 10
38.622044
 20
122.386854
 30
0.0
  0
VERTEX
  5
829
100
AcDbEntity
  8
ALPHA
 62
     7
100
AcDbVertex
100
AcDb2dVertex
 10
37.822093
 20
122.386854
 30
0.0
  0
VERTEX
  5
82A
100
AcDbEntity
  8
ALPHA
 62
     7
100
AcDbVertex
100
AcDb2dVertex
 10
37.822093
 20
123.186805
 30
0.0
  0
VERTEX
  5
82B
100
AcDbEntity
  8
ALPHA
 62
     7
100
AcDbVertex
100
AcDb2dVertex
 10
38.622044
 20
123.186805
 30
0.0
  0
SEQEND
  5
82C
100
AcDbEntity
  8
ALPHA
 62
     7
  0
MTEXT
  5
82D
100
AcDbEntity
  8
TEXTE
 62
     7
100
AcDbMText
 10
43.93868
 20
123.525975
 30
0.0
 40
1.312417
 41
0.0
 71
     1
 72
     2
  1
\fTxt|b0|i0;I4+
  7
STD
 11
0.0
 21
1.0
 31
0.0
  0
POLYLINE
  5
82E
100
AcDbEntity
  8
ALPHA
 62
     7
100
AcDb2dPolyline
 66
     1
 10
0.0
 20
0.0
 30
0.0
 70
     1
  0
VERTEX
  5
82F
100
AcDbEntity
  8
ALPHA
 62
     7
100
AcDbVertex
100
AcDb2dVertex
 10
45.04887
 20
122.386854
 30
0.0
  0
VERTEX
  5
830
100
AcDbEntity
  8
ALPHA
 62
     7
100
AcDbVertex
100
AcDb2dVertex
 10
44.248919
 20
122.386854
 30
0.0
  0
VERTEX
  5
831
100
AcDbEntity
  8
ALPHA
 62
     7
100
AcDbVertex
100
AcDb2dVertex
 10
44.248919
 20
123.186805
 30
0.0
  0
VERTEX
  5
832
100
AcDbEntity
  8
ALPHA
 62
     7
100
AcDbVertex
100
AcDb2dVertex
 10
45.04887
 20
123.186805
 30
0.0
  0
SEQEND
  5
833
100
AcDbEntity
  8
ALPHA
 62
     7
  0
MTEXT
  5
834
100
AcDbEntity
  8
TEXTE
 62
     7
100
AcDbMText
 10
50.36585
 20
123.525975
 30
0.0
 40
1.312417
 41
0.0
 71
     1
 72
     2
  1
\fTxt|b0|i0;AGND
  7
STD
 11
0.0
 21
1.0
 31
0.0
  0
MTEXT
  5
835
100
AcDbEntity
  8
TEXTE
 62
     7
100
AcDbMText
 10
53.579435
 20
123.525975
 30
0.0
 40
1.312417
 41
0.0
 71
     1
 72
     2
  1
\fTxt|b0|i0;AGND
  7
STD
 11
0.0
 21
1.0
 31
0.0
  0
MTEXT
  5
836
100
AcDbEntity
  8
TEXTE
 62
     7
100
AcDbMText
 10
56.79302
 20
123.525975
 30
0.0
 40
1.312417
 41
0.0
 71
     1
 72
     2
  1
\fTxt|b0|i0;AGND
  7
STD
 11
0.0
 21
1.0
 31
0.0
  0
POLYLINE
  5
837
100
AcDbEntity
  8
ALPHA
 62
     7
100
AcDb2dPolyline
 66
     1
 10
0.0
 20
0.0
 30
0.0
 70
     1
  0
VERTEX
  5
838
100
AcDbEntity
  8
ALPHA
 62
     7
100
AcDbVertex
100
AcDb2dVertex
 10
54.689281
 20
122.386854
 30
0.0
  0
VERTEX
  5
839
100
AcDbEntity
  8
ALPHA
 62
     7
100
AcDbVertex
100
AcDb2dVertex
 10
53.888985
 20
122.386854
 30
0.0
  0
VERTEX
  5
83A
100
AcDbEntity
  8
ALPHA
 62
     7
100
AcDbVertex
100
AcDb2dVertex
 10
53.888985
 20
123.186805
 30
0.0
  0
VERTEX
  5
83B
100
AcDbEntity
  8
ALPHA
 62
     7
100
AcDbVertex
100
AcDb2dVertex
 10
54.689281
 20
123.186805
 30
0.0
  0
SEQEND
  5
83C
100
AcDbEntity
  8
ALPHA
 62
     7
  0
POLYLINE
  5
83D
100
AcDbEntity
  8
ALPHA
 62
     7
100
AcDb2dPolyline
 66
     1
 10
0.0
 20
0.0
 30
0.0
 70
     1
  0
VERTEX
  5
83E
100
AcDbEntity
  8
ALPHA
 62
     7
100
AcDbVertex
100
AcDb2dVertex
 10
51.475696
 20
122.386854
 30
0.0
  0
VERTEX
  5
83F
100
AcDbEntity
  8
ALPHA
 62
     7
100
AcDbVertex
100
AcDb2dVertex
 10
50.675745
 20
122.386854
 30
0.0
  0
VERTEX
  5
840
100
AcDbEntity
  8
ALPHA
 62
     7
100
AcDbVertex
100
AcDb2dVertex
 10
50.675745
 20
123.186805
 30
0.0
  0
VERTEX
  5
841
100
AcDbEntity
  8
ALPHA
 62
     7
100
AcDbVertex
100
AcDb2dVertex
 10
51.475696
 20
123.186805
 30
0.0
  0
SEQEND
  5
842
100
AcDbEntity
  8
ALPHA
 62
     7
  0
POLYLINE
  5
843
100
AcDbEntity
  8
ALPHA
 62
     7
100
AcDb2dPolyline
 66
     1
 10
0.0
 20
0.0
 30
0.0
 70
     1
  0
VERTEX
  5
844
100
AcDbEntity
  8
ALPHA
 62
     7
100
AcDbVertex
100
AcDb2dVertex
 10
57.902521
 20
122.386854
 30
0.0
  0
VERTEX
  5
845
100
AcDbEntity
  8
ALPHA
 62
     7
100
AcDbVertex
100
AcDb2dVertex
 10
57.10257
 20
122.386854
 30
0.0
  0
VERTEX
  5
846
100
AcDbEntity
  8
ALPHA
 62
     7
100
AcDbVertex
100
AcDb2dVertex
 10
57.10257
 20
123.186805
 30
0.0
  0
VERTEX
  5
847
100
AcDbEntity
  8
ALPHA
 62
     7
100
AcDbVertex
100
AcDb2dVertex
 10
57.902521
 20
123.186805
 30
0.0
  0
SEQEND
  5
848
100
AcDbEntity
  8
ALPHA
 62
     7
  0
MTEXT
  5
849
100
AcDbEntity
  8
TEXTE
 62
     7
100
AcDbMText
 10
34.297925
 20
138.81927
 30
0.0
 40
1.312417
 41
0.0
 71
     1
 72
     2
  1
\fTxt|b0|i0;U3+
  7
STD
 11
0.0
 21
1.0
 31
0.0
  0
POLYLINE
  5
84A
100
AcDbEntity
  8
POINTILLE_COURT
 62
     7
100
AcDb2dPolyline
 66
     1
 10
0.0
 20
0.0
 30
0.0
 70
     1
  0
VERTEX
  5
84B
100
AcDbEntity
  8
POINTILLE_COURT
 62
     7
100
AcDbVertex
100
AcDb2dVertex
 10
39.357056
 20
137.367335
 30
0.0
  0
VERTEX
  5
84C
100
AcDbEntity
  8
POINTILLE_COURT
 62
     7
100
AcDbVertex
100
AcDb2dVertex
 10
33.873497
 20
137.367335
 30
0.0
  0
VERTEX
  5
84D
100
AcDbEntity
  8
POINTILLE_COURT
 62
     7
100
AcDbVertex
100
AcDb2dVertex
 10
33.873497
 20
145.671048
 30
0.0
  0
VERTEX
  5
84E
100
AcDbEntity
  8
POINTILLE_COURT
 62
     7
100
AcDbVertex
100
AcDb2dVertex
 10
39.357056
 20
145.671048
 30
0.0
  0
SEQEND
  5
84F
100
AcDbEntity
  8
POINTILLE_COURT
 62
     7
  0
POLYLINE
  5
850
100
AcDbEntity
  8
ALPHA
 62
     7
100
AcDb2dPolyline
 66
     1
 10
0.0
 20
0.0
 30
0.0
 70
     1
  0
VERTEX
  5
851
100
AcDbEntity
  8
ALPHA
 62
     7
100
AcDbVertex
100
AcDb2dVertex
 10
35.408459
 20
137.680149
 30
0.0
  0
VERTEX
  5
852
100
AcDbEntity
  8
ALPHA
 62
     7
100
AcDbVertex
100
AcDb2dVertex
 10
34.608508
 20
137.680149
 30
0.0
  0
VERTEX
  5
853
100
AcDbEntity
  8
ALPHA
 62
     7
100
AcDbVertex
100
AcDb2dVertex
 10
34.608508
 20
138.480101
 30
0.0
  0
VERTEX
  5
854
100
AcDbEntity
  8
ALPHA
 62
     7
100
AcDbVertex
100
AcDb2dVertex
 10
35.408459
 20
138.480101
 30
0.0
  0
SEQEND
  5
855
100
AcDbEntity
  8
ALPHA
 62
     7
  0
MTEXT
  5
856
100
AcDbEntity
  8
TEXTE
 62
     7
100
AcDbMText
 10
21.443584
 20
138.81927
 30
0.0
 40
1.312417
 41
0.0
 71
     1
 72
     2
  1
\fTxt|b0|i0;U1+
  7
STD
 11
0.0
 21
1.0
 31
0.0
  0
POLYLINE
  5
857
100
AcDbEntity
  8
POINTILLE_COURT
 62
     7
100
AcDb2dPolyline
 66
     1
 10
0.0
 20
0.0
 30
0.0
 70
     1
  0
VERTEX
  5
858
100
AcDbEntity
  8
POINTILLE_COURT
 62
     7
100
AcDbVertex
100
AcDb2dVertex
 10
26.503404
 20
137.367335
 30
0.0
  0
VERTEX
  5
859
100
AcDbEntity
  8
POINTILLE_COURT
 62
     7
100
AcDbVertex
100
AcDb2dVertex
 10
21.019846
 20
137.367335
 30
0.0
  0
VERTEX
  5
85A
100
AcDbEntity
  8
POINTILLE_COURT
 62
     7
100
AcDbVertex
100
AcDb2dVertex
 10
21.019846
 20
145.671048
 30
0.0
  0
VERTEX
  5
85B
100
AcDbEntity
  8
POINTILLE_COURT
 62
     7
100
AcDbVertex
100
AcDb2dVertex
 10
26.503404
 20
145.671048
 30
0.0
  0
SEQEND
  5
85C
100
AcDbEntity
  8
POINTILLE_COURT
 62
     7
  0
POLYLINE
  5
85D
100
AcDbEntity
  8
ALPHA
 62
     7
100
AcDb2dPolyline
 66
     1
 10
0.0
 20
0.0
 30
0.0
 70
     1
  0
VERTEX
  5
85E
100
AcDbEntity
  8
ALPHA
 62
     7
100
AcDbVertex
100
AcDb2dVertex
 10
22.554808
 20
137.680149
 30
0.0
  0
VERTEX
  5
85F
100
AcDbEntity
  8
ALPHA
 62
     7
100
AcDbVertex
100
AcDb2dVertex
 10
21.754857
 20
137.680149
 30
0.0
  0
VERTEX
  5
860
100
AcDbEntity
  8
ALPHA
 62
     7
100
AcDbVertex
100
AcDb2dVertex
 10
21.754857
 20
138.480101
 30
0.0
  0
VERTEX
  5
861
100
AcDbEntity
  8
ALPHA
 62
     7
100
AcDbVertex
100
AcDb2dVertex
 10
22.554808
 20
138.480101
 30
0.0
  0
SEQEND
  5
862
100
AcDbEntity
  8
ALPHA
 62
     7
  0
POLYLINE
  5
863
100
AcDbEntity
  8
POINTILLE_COURT
 62
     7
100
AcDb2dPolyline
 66
     1
 10
0.0
 20
0.0
 30
0.0
 70
     1
  0
VERTEX
  5
864
100
AcDbEntity
  8
POINTILLE_COURT
 62
     7
100
AcDbVertex
100
AcDb2dVertex
 10
32.93023
 20
137.367335
 30
0.0
  0
VERTEX
  5
865
100
AcDbEntity
  8
POINTILLE_COURT
 62
     7
100
AcDbVertex
100
AcDb2dVertex
 10
27.446671
 20
137.367335
 30
0.0
  0
VERTEX
  5
866
100
AcDbEntity
  8
POINTILLE_COURT
 62
     7
100
AcDbVertex
100
AcDb2dVertex
 10
27.446671
 20
145.671048
 30
0.0
  0
VERTEX
  5
867
100
AcDbEntity
  8
POINTILLE_COURT
 62
     7
100
AcDbVertex
100
AcDb2dVertex
 10
32.93023
 20
145.671048
 30
0.0
  0
SEQEND
  5
868
100
AcDbEntity
  8
POINTILLE_COURT
 62
     7
  0
MTEXT
  5
869
100
AcDbEntity
  8
TEXTE
 62
     7
100
AcDbMText
 10
27.870754
 20
138.81927
 30
0.0
 40
1.312417
 41
0.0
 71
     1
 72
     2
  1
\fTxt|b0|i0;U2+
  7
STD
 11
0.0
 21
1.0
 31
0.0
  0
POLYLINE
  5
86A
100
AcDbEntity
  8
ALPHA
 62
     7
100
AcDb2dPolyline
 66
     1
 10
0.0
 20
0.0
 30
0.0
 70
     1
  0
VERTEX
  5
86B
100
AcDbEntity
  8
ALPHA
 62
     7
100
AcDbVertex
100
AcDb2dVertex
 10
28.981978
 20
137.680149
 30
0.0
  0
VERTEX
  5
86C
100
AcDbEntity
  8
ALPHA
 62
     7
100
AcDbVertex
100
AcDb2dVertex
 10
28.181683
 20
137.680149
 30
0.0
  0
VERTEX
  5
86D
100
AcDbEntity
  8
ALPHA
 62
     7
100
AcDbVertex
100
AcDb2dVertex
 10
28.181683
 20
138.480101
 30
0.0
  0
VERTEX
  5
86E
100
AcDbEntity
  8
ALPHA
 62
     7
100
AcDbVertex
100
AcDb2dVertex
 10
28.981978
 20
138.480101
 30
0.0
  0
SEQEND
  5
86F
100
AcDbEntity
  8
ALPHA
 62
     7
  0
MTEXT
  5
870
100
AcDbEntity
  8
TEXTE
 62
     7
100
AcDbMText
 10
24.657169
 20
138.81927
 30
0.0
 40
1.312417
 41
0.0
 71
     1
 72
     2
  1
\fTxt|b0|i0;IS1
  7
STD
 11
0.0
 21
1.0
 31
0.0
  0
POLYLINE
  5
871
100
AcDbEntity
  8
ALPHA
 62
     7
100
AcDb2dPolyline
 66
     1
 10
0.0
 20
0.0
 30
0.0
 70
     1
  0
VERTEX
  5
872
100
AcDbEntity
  8
ALPHA
 62
     7
100
AcDbVertex
100
AcDb2dVertex
 10
25.768393
 20
137.680149
 30
0.0
  0
VERTEX
  5
873
100
AcDbEntity
  8
ALPHA
 62
     7
100
AcDbVertex
100
AcDb2dVertex
 10
24.968442
 20
137.680149
 30
0.0
  0
VERTEX
  5
874
100
AcDbEntity
  8
ALPHA
 62
     7
100
AcDbVertex
100
AcDb2dVertex
 10
24.968442
 20
138.480101
 30
0.0
  0
VERTEX
  5
875
100
AcDbEntity
  8
ALPHA
 62
     7
100
AcDbVertex
100
AcDb2dVertex
 10
25.768393
 20
138.480101
 30
0.0
  0
SEQEND
  5
876
100
AcDbEntity
  8
ALPHA
 62
     7
  0
MTEXT
  5
877
100
AcDbEntity
  8
TEXTE
 62
     7
100
AcDbMText
 10
31.08434
 20
138.81927
 30
0.0
 40
1.312417
 41
0.0
 71
     1
 72
     2
  1
\fTxt|b0|i0;IS2
  7
STD
 11
0.0
 21
1.0
 31
0.0
  0
POLYLINE
  5
878
100
AcDbEntity
  8
ALPHA
 62
     7
100
AcDb2dPolyline
 66
     1
 10
0.0
 20
0.0
 30
0.0
 70
     1
  0
VERTEX
  5
879
100
AcDbEntity
  8
ALPHA
 62
     7
100
AcDbVertex
100
AcDb2dVertex
 10
32.195219
 20
137.680149
 30
0.0
  0
VERTEX
  5
87A
100
AcDbEntity
  8
ALPHA
 62
     7
100
AcDbVertex
100
AcDb2dVertex
 10
31.395268
 20
137.680149
 30
0.0
  0
VERTEX
  5
87B
100
AcDbEntity
  8
ALPHA
 62
     7
100
AcDbVertex
100
AcDb2dVertex
 10
31.395268
 20
138.480101
 30
0.0
  0
VERTEX
  5
87C
100
AcDbEntity
  8
ALPHA
 62
     7
100
AcDbVertex
100
AcDb2dVertex
 10
32.195219
 20
138.480101
 30
0.0
  0
SEQEND
  5
87D
100
AcDbEntity
  8
ALPHA
 62
     7
  0
MTEXT
  5
87E
100
AcDbEntity
  8
TEXTE
 62
     7
100
AcDbMText
 10
47.152265
 20
138.81927
 30
0.0
 40
1.312417
 41
0.0
 71
     1
 72
     2
  1
\fTxt|b0|i0;QV1
  7
STD
 11
0.0
 21
1.0
 31
0.0
  0
POLYLINE
  5
87F
100
AcDbEntity
  8
POINTILLE_COURT
 62
     7
100
AcDb2dPolyline
 66
     1
 10
0.0
 20
0.0
 30
0.0
 70
     1
  0
VERTEX
  5
880
100
AcDbEntity
  8
POINTILLE_COURT
 62
     7
100
AcDbVertex
100
AcDb2dVertex
 10
52.210707
 20
137.367335
 30
0.0
  0
VERTEX
  5
881
100
AcDbEntity
  8
POINTILLE_COURT
 62
     7
100
AcDbVertex
100
AcDb2dVertex
 10
46.727148
 20
137.367335
 30
0.0
  0
VERTEX
  5
882
100
AcDbEntity
  8
POINTILLE_COURT
 62
     7
100
AcDbVertex
100
AcDb2dVertex
 10
46.727148
 20
145.671048
 30
0.0
  0
VERTEX
  5
883
100
AcDbEntity
  8
POINTILLE_COURT
 62
     7
100
AcDbVertex
100
AcDb2dVertex
 10
52.210707
 20
145.671048
 30
0.0
  0
SEQEND
  5
884
100
AcDbEntity
  8
POINTILLE_COURT
 62
     7
  0
POLYLINE
  5
885
100
AcDbEntity
  8
ALPHA
 62
     7
100
AcDb2dPolyline
 66
     1
 10
0.0
 20
0.0
 30
0.0
 70
     1
  0
VERTEX
  5
886
100
AcDbEntity
  8
ALPHA
 62
     7
100
AcDbVertex
100
AcDb2dVertex
 10
48.262111
 20
137.680149
 30
0.0
  0
VERTEX
  5
887
100
AcDbEntity
  8
ALPHA
 62
     7
100
AcDbVertex
100
AcDb2dVertex
 10
47.462159
 20
137.680149
 30
0.0
  0
VERTEX
  5
888
100
AcDbEntity
  8
ALPHA
 62
     7
100
AcDbVertex
100
AcDb2dVertex
 10
47.462159
 20
138.480101
 30
0.0
  0
VERTEX
  5
889
100
AcDbEntity
  8
ALPHA
 62
     7
100
AcDbVertex
100
AcDb2dVertex
 10
48.262111
 20
138.480101
 30
0.0
  0
SEQEND
  5
88A
100
AcDbEntity
  8
ALPHA
 62
     7
  0
POLYLINE
  5
88B
100
AcDbEntity
  8
POINTILLE_COURT
 62
     7
100
AcDb2dPolyline
 66
     1
 10
0.0
 20
0.0
 30
0.0
 70
     1
  0
VERTEX
  5
88C
100
AcDbEntity
  8
POINTILLE_COURT
 62
     7
100
AcDbVertex
100
AcDb2dVertex
 10
45.783881
 20
137.367335
 30
0.0
  0
VERTEX
  5
88D
100
AcDbEntity
  8
POINTILLE_COURT
 62
     7
100
AcDbVertex
100
AcDb2dVertex
 10
40.300323
 20
137.367335
 30
0.0
  0
VERTEX
  5
88E
100
AcDbEntity
  8
POINTILLE_COURT
 62
     7
100
AcDbVertex
100
AcDb2dVertex
 10
40.300323
 20
145.671048
 30
0.0
  0
VERTEX
  5
88F
100
AcDbEntity
  8
POINTILLE_COURT
 62
     7
100
AcDbVertex
100
AcDb2dVertex
 10
45.783881
 20
145.671048
 30
0.0
  0
SEQEND
  5
890
100
AcDbEntity
  8
POINTILLE_COURT
 62
     7
  0
MTEXT
  5
891
100
AcDbEntity
  8
TEXTE
 62
     7
100
AcDbMText
 10
40.725095
 20
138.81927
 30
0.0
 40
1.312417
 41
0.0
 71
     1
 72
     2
  1
\fTxt|b0|i0;U4+
  7
STD
 11
0.0
 21
1.0
 31
0.0
  0
POLYLINE
  5
892
100
AcDbEntity
  8
ALPHA
 62
     7
100
AcDb2dPolyline
 66
     1
 10
0.0
 20
0.0
 30
0.0
 70
     1
  0
VERTEX
  5
893
100
AcDbEntity
  8
ALPHA
 62
     7
100
AcDbVertex
100
AcDb2dVertex
 10
41.835629
 20
137.680149
 30
0.0
  0
VERTEX
  5
894
100
AcDbEntity
  8
ALPHA
 62
     7
100
AcDbVertex
100
AcDb2dVertex
 10
41.035334
 20
137.680149
 30
0.0
  0
VERTEX
  5
895
100
AcDbEntity
  8
ALPHA
 62
     7
100
AcDbVertex
100
AcDb2dVertex
 10
41.035334
 20
138.480101
 30
0.0
  0
VERTEX
  5
896
100
AcDbEntity
  8
ALPHA
 62
     7
100
AcDbVertex
100
AcDb2dVertex
 10
41.835629
 20
138.480101
 30
0.0
  0
SEQEND
  5
897
100
AcDbEntity
  8
ALPHA
 62
     7
  0
MTEXT
  5
898
100
AcDbEntity
  8
TEXTE
 62
     7
100
AcDbMText
 10
37.51151
 20
138.81927
 30
0.0
 40
1.312417
 41
0.0
 71
     1
 72
     2
  1
\fTxt|b0|i0;IS3
  7
STD
 11
0.0
 21
1.0
 31
0.0
  0
POLYLINE
  5
899
100
AcDbEntity
  8
ALPHA
 62
     7
100
AcDb2dPolyline
 66
     1
 10
0.0
 20
0.0
 30
0.0
 70
     1
  0
VERTEX
  5
89A
100
AcDbEntity
  8
ALPHA
 62
     7
100
AcDbVertex
100
AcDb2dVertex
 10
38.622044
 20
137.680149
 30
0.0
  0
VERTEX
  5
89B
100
AcDbEntity
  8
ALPHA
 62
     7
100
AcDbVertex
100
AcDb2dVertex
 10
37.822093
 20
137.680149
 30
0.0
  0
VERTEX
  5
89C
100
AcDbEntity
  8
ALPHA
 62
     7
100
AcDbVertex
100
AcDb2dVertex
 10
37.822093
 20
138.480101
 30
0.0
  0
VERTEX
  5
89D
100
AcDbEntity
  8
ALPHA
 62
     7
100
AcDbVertex
100
AcDb2dVertex
 10
38.622044
 20
138.480101
 30
0.0
  0
SEQEND
  5
89E
100
AcDbEntity
  8
ALPHA
 62
     7
  0
MTEXT
  5
89F
100
AcDbEntity
  8
TEXTE
 62
     7
100
AcDbMText
 10
43.93868
 20
138.81927
 30
0.0
 40
1.312417
 41
0.0
 71
     1
 72
     2
  1
\fTxt|b0|i0;IS4
  7
STD
 11
0.0
 21
1.0
 31
0.0
  0
POLYLINE
  5
8A0
100
AcDbEntity
  8
ALPHA
 62
     7
100
AcDb2dPolyline
 66
     1
 10
0.0
 20
0.0
 30
0.0
 70
     1
  0
VERTEX
  5
8A1
100
AcDbEntity
  8
ALPHA
 62
     7
100
AcDbVertex
100
AcDb2dVertex
 10
45.04887
 20
137.680149
 30
0.0
  0
VERTEX
  5
8A2
100
AcDbEntity
  8
ALPHA
 62
     7
100
AcDbVertex
100
AcDb2dVertex
 10
44.248919
 20
137.680149
 30
0.0
  0
VERTEX
  5
8A3
100
AcDbEntity
  8
ALPHA
 62
     7
100
AcDbVertex
100
AcDb2dVertex
 10
44.248919
 20
138.480101
 30
0.0
  0
VERTEX
  5
8A4
100
AcDbEntity
  8
ALPHA
 62
     7
100
AcDbVertex
100
AcDb2dVertex
 10
45.04887
 20
138.480101
 30
0.0
  0
SEQEND
  5
8A5
100
AcDbEntity
  8
ALPHA
 62
     7
  0
POLYLINE
  5
8A6
100
AcDbEntity
  8
POINTILLE_COURT
 62
     7
100
AcDb2dPolyline
 66
     1
 10
0.0
 20
0.0
 30
0.0
 70
     1
  0
VERTEX
  5
8A7
100
AcDbEntity
  8
POINTILLE_COURT
 62
     7
100
AcDbVertex
100
AcDb2dVertex
 10
58.637532
 20
137.367335
 30
0.0
  0
VERTEX
  5
8A8
100
AcDbEntity
  8
POINTILLE_COURT
 62
     7
100
AcDbVertex
100
AcDb2dVertex
 10
53.153974
 20
137.367335
 30
0.0
  0
VERTEX
  5
8A9
100
AcDbEntity
  8
POINTILLE_COURT
 62
     7
100
AcDbVertex
100
AcDb2dVertex
 10
53.153974
 20
145.671048
 30
0.0
  0
VERTEX
  5
8AA
100
AcDbEntity
  8
POINTILLE_COURT
 62
     7
100
AcDbVertex
100
AcDb2dVertex
 10
58.637532
 20
145.671048
 30
0.0
  0
SEQEND
  5
8AB
100
AcDbEntity
  8
POINTILLE_COURT
 62
     7
  0
MTEXT
  5
8AC
100
AcDbEntity
  8
TEXTE
 62
     7
100
AcDbMText
 10
53.579435
 20
138.81927
 30
0.0
 40
1.312417
 41
0.0
 71
     1
 72
     2
  1
\fTxt|b0|i0;QV2
  7
STD
 11
0.0
 21
1.0
 31
0.0
  0
POLYLINE
  5
8AD
100
AcDbEntity
  8
ALPHA
 62
     7
100
AcDb2dPolyline
 66
     1
 10
0.0
 20
0.0
 30
0.0
 70
     1
  0
VERTEX
  5
8AE
100
AcDbEntity
  8
ALPHA
 62
     7
100
AcDbVertex
100
AcDb2dVertex
 10
54.689281
 20
137.680149
 30
0.0
  0
VERTEX
  5
8AF
100
AcDbEntity
  8
ALPHA
 62
     7
100
AcDbVertex
100
AcDb2dVertex
 10
53.888985
 20
137.680149
 30
0.0
  0
VERTEX
  5
8B0
100
AcDbEntity
  8
ALPHA
 62
     7
100
AcDbVertex
100
AcDb2dVertex
 10
53.888985
 20
138.480101
 30
0.0
  0
VERTEX
  5
8B1
100
AcDbEntity
  8
ALPHA
 62
     7
100
AcDbVertex
100
AcDb2dVertex
 10
54.689281
 20
138.480101
 30
0.0
  0
SEQEND
  5
8B2
100
AcDbEntity
  8
ALPHA
 62
     7
  0
MTEXT
  5
8B3
100
AcDbEntity
  8
TEXTE
 62
     7
100
AcDbMText
 10
50.36585
 20
138.81927
 30
0.0
 40
1.312417
 41
0.0
 71
     1
 72
     2
  1
\fTxt|b0|i0;QI1
  7
STD
 11
0.0
 21
1.0
 31
0.0
  0
POLYLINE
  5
8B4
100
AcDbEntity
  8
ALPHA
 62
     7
100
AcDb2dPolyline
 66
     1
 10
0.0
 20
0.0
 30
0.0
 70
     1
  0
VERTEX
  5
8B5
100
AcDbEntity
  8
ALPHA
 62
     7
100
AcDbVertex
100
AcDb2dVertex
 10
51.475696
 20
137.680149
 30
0.0
  0
VERTEX
  5
8B6
100
AcDbEntity
  8
ALPHA
 62
     7
100
AcDbVertex
100
AcDb2dVertex
 10
50.675745
 20
137.680149
 30
0.0
  0
VERTEX
  5
8B7
100
AcDbEntity
  8
ALPHA
 62
     7
100
AcDbVertex
100
AcDb2dVertex
 10
50.675745
 20
138.480101
 30
0.0
  0
VERTEX
  5
8B8
100
AcDbEntity
  8
ALPHA
 62
     7
100
AcDbVertex
100
AcDb2dVertex
 10
51.475696
 20
138.480101
 30
0.0
  0
SEQEND
  5
8B9
100
AcDbEntity
  8
ALPHA
 62
     7
  0
MTEXT
  5
8BA
100
AcDbEntity
  8
TEXTE
 62
     7
100
AcDbMText
 10
56.79302
 20
138.81927
 30
0.0
 40
1.312417
 41
0.0
 71
     1
 72
     2
  1
\fTxt|b0|i0;QI2
  7
STD
 11
0.0
 21
1.0
 31
0.0
  0
POLYLINE
  5
8BB
100
AcDbEntity
  8
ALPHA
 62
     7
100
AcDb2dPolyline
 66
     1
 10
0.0
 20
0.0
 30
0.0
 70
     1
  0
VERTEX
  5
8BC
100
AcDbEntity
  8
ALPHA
 62
     7
100
AcDbVertex
100
AcDb2dVertex
 10
57.902521
 20
137.680149
 30
0.0
  0
VERTEX
  5
8BD
100
AcDbEntity
  8
ALPHA
 62
     7
100
AcDbVertex
100
AcDb2dVertex
 10
57.10257
 20
137.680149
 30
0.0
  0
VERTEX
  5
8BE
100
AcDbEntity
  8
ALPHA
 62
     7
100
AcDbVertex
100
AcDb2dVertex
 10
57.10257
 20
138.480101
 30
0.0
  0
VERTEX
  5
8BF
100
AcDbEntity
  8
ALPHA
 62
     7
100
AcDbVertex
100
AcDb2dVertex
 10
57.902521
 20
138.480101
 30
0.0
  0
SEQEND
  5
8C0
100
AcDbEntity
  8
ALPHA
 62
     7
  0
POLYLINE
  5
8C1
100
AcDbEntity
  8
ALPHA
 62
     7
100
AcDb2dPolyline
 66
     1
 10
0.0
 20
0.0
 30
0.0
  0
VERTEX
  5
8C2
100
AcDbEntity
  8
ALPHA
 62
     7
100
AcDbVertex
100
AcDb2dVertex
 10
73.569782
 20
138.080125
 30
0.0
  0
VERTEX
  5
8C3
100
AcDbEntity
  8
ALPHA
 62
     7
100
AcDbVertex
100
AcDb2dVertex
 10
71.963162
 20
136.831967
 30
0.0
  0
VERTEX
  5
8C4
100
AcDbEntity
  8
ALPHA
 62
     7
100
AcDbVertex
100
AcDb2dVertex
 10
71.963162
 20
124.287168
 30
0.0
  0
VERTEX
  5
8C5
100
AcDbEntity
  8
ALPHA
 62
     7
100
AcDbVertex
100
AcDb2dVertex
 10
73.569782
 20
122.787002
 30
0.0
  0
VERTEX
  5
8C6
100
AcDbEntity
  8
ALPHA
 62
     7
100
AcDbVertex
100
AcDb2dVertex
 10
67.142956
 20
122.787002
 30
0.0
  0
SEQEND
  5
8C7
100
AcDbEntity
  8
ALPHA
 62
     7
  0
LINE
  5
8C8
100
AcDbEntity
  8
ALPHA
 62
     7
100
AcDbLine
 10
97.756419
 20
153.116933
 30
0.0
 11
97.756419
 21
110.084073
 31
0.0
  0
LINE
  5
8C9
100
AcDbEntity
  8
ALPHA
 62
     7
100
AcDbLine
 10
93.173064
 20
155.617039
 30
0.0
 11
93.173064
 21
112.584179
 31
0.0
  0
LINE
  5
8CA
100
AcDbEntity
  8
ALPHA
 62
     7
100
AcDbLine
 10
88.589709
 20
158.117489
 30
0.0
 11
88.589709
 21
115.084457
 31
0.0
  0
POLYLINE
  5
8CB
100
AcDbEntity
  8
ALPHA
 62
     7
100
AcDb2dPolyline
 66
     1
 10
0.0
 20
0.0
 30
0.0
 70
     1
  0
VERTEX
  5
8CC
100
AcDbEntity
  8
ALPHA
 62
     7
100
AcDbVertex
100
AcDb2dVertex
 10
85.486712
 20
135.618087
 30
0.0
  0
VERTEX
  5
8CD
100
AcDbEntity
  8
ALPHA
 62
     7
100
AcDbVertex
100
AcDb2dVertex
 10
81.692628
 20
135.618087
 30
0.0
  0
VERTEX
  5
8CE
100
AcDbEntity
  8
ALPHA
 62
     7
100
AcDbVertex
100
AcDb2dVertex
 10
81.692628
 20
134.118093
 30
0.0
  0
VERTEX
  5
8CF
100
AcDbEntity
  8
ALPHA
 62
     7
100
AcDbVertex
100
AcDb2dVertex
 10
85.486712
 20
134.118093
 30
0.0
  0
SEQEND
  5
8D0
100
AcDbEntity
  8
ALPHA
 62
     7
  0
POLYLINE
  5
8D1
100
AcDbEntity
  8
ALPHA
 62
     7
100
AcDb2dPolyline
 66
     1
 10
0.0
 20
0.0
 30
0.0
  0
VERTEX
  5
8D2
100
AcDbEntity
  8
ALPHA
 62
     7
100
AcDbVertex
100
AcDb2dVertex
 10
93.173064
 20
134.878253
 30
0.0
  0
VERTEX
  5
8D3
100
AcDbEntity
  8
ALPHA
 62
     7
100
AcDbVertex
100
AcDb2dVertex
 10
76.783367
 20
134.878253
 30
0.0
  0
VERTEX
  5
8D4
100
AcDbEntity
  8
ALPHA
 62
     7
100
AcDbVertex
100
AcDb2dVertex
 10
76.783367
 20
138.080125
 30
0.0
  0
SEQEND
  5
8D5
100
AcDbEntity
  8
ALPHA
 62
     7
  0
POLYLINE
  5
8D6
100
AcDbEntity
  8
ALPHA
 62
     7
100
AcDb2dPolyline
 66
     1
 10
0.0
 20
0.0
 30
0.0
  0
VERTEX
  5
8D7
100
AcDbEntity
  8
ALPHA
 62
     7
100
AcDbVertex
100
AcDb2dVertex
 10
97.756419
 20
132.878031
 30
0.0
  0
VERTEX
  5
8D8
100
AcDbEntity
  8
ALPHA
 62
     7
100
AcDbVertex
100
AcDb2dVertex
 10
73.570127
 20
132.878031
 30
0.0
  0
VERTEX
  5
8D9
100
AcDbEntity
  8
ALPHA
 62
     7
100
AcDbVertex
100
AcDb2dVertex
 10
73.570127
 20
138.080125
 30
0.0
  0
SEQEND
  5
8DA
100
AcDbEntity
  8
ALPHA
 62
     7
  0
MTEXT
  5
8DB
100
AcDbEntity
  8
TEXTE
 62
     7
100
AcDbMText
 10
80.523018
 20
124.674922
 30
0.0
 40
1.312417
 41
0.0
 71
     1
 72
     2
  1
\fTxt|b0|i0;fusion
  7
STD
  0
MTEXT
  5
8DC
100
AcDbEntity
  8
TEXTE
 62
     7
100
AcDbMText
 10
80.523018
 20
122.558255
 30
0.0
 40
1.312417
 41
0.0
 71
     1
 72
     2
  1
\fTxt|b0|i0;rapide
  7
STD
  0
POLYLINE
  5
8DD
100
AcDbEntity
  8
ALPHA
 62
     7
100
AcDb2dPolyline
 66
     1
 10
0.0
 20
0.0
 30
0.0
  0
VERTEX
  5
8DE
100
AcDbEntity
  8
ALPHA
 62
     7
100
AcDbVertex
100
AcDb2dVertex
 10
88.589709
 20
119.584958
 30
0.0
  0
VERTEX
  5
8DF
100
AcDbEntity
  8
ALPHA
 62
     7
100
AcDbVertex
100
AcDb2dVertex
 10
76.783367
 20
119.584958
 30
0.0
  0
VERTEX
  5
8E0
100
AcDbEntity
  8
ALPHA
 62
     7
100
AcDbVertex
100
AcDb2dVertex
 10
76.783367
 20
122.786829
 30
0.0
  0
SEQEND
  5
8E1
100
AcDbEntity
  8
ALPHA
 62
     7
  0
POLYLINE
  5
8E2
100
AcDbEntity
  8
ALPHA
 62
     7
100
AcDb2dPolyline
 66
     1
 10
0.0
 20
0.0
 30
0.0
  0
VERTEX
  5
8E3
100
AcDbEntity
  8
ALPHA
 62
     7
100
AcDbVertex
100
AcDb2dVertex
 10
97.756419
 20
117.584735
 30
0.0
  0
VERTEX
  5
8E4
100
AcDbEntity
  8
ALPHA
 62
     7
100
AcDbVertex
100
AcDb2dVertex
 10
73.570127
 20
117.584735
 30
0.0
  0
VERTEX
  5
8E5
100
AcDbEntity
  8
ALPHA
 62
     7
100
AcDbVertex
100
AcDb2dVertex
 10
73.570127
 20
122.786829
 30
0.0
  0
SEQEND
  5
8E6
100
AcDbEntity
  8
ALPHA
 62
     7
  0
POLYLINE
  5
8E7
100
AcDbEntity
  8
ALPHA
 62
     7
100
AcDb2dPolyline
 66
     1
 10
0.0
 20
0.0
 30
0.0
 70
     1
  0
VERTEX
  5
8E8
100
AcDbEntity
  8
ALPHA
 62
     7
100
AcDbVertex
100
AcDb2dVertex
 10
85.486712
 20
120.324792
 30
0.0
  0
VERTEX
  5
8E9
100
AcDbEntity
  8
ALPHA
 62
     7
100
AcDbVertex
100
AcDb2dVertex
 10
81.692628
 20
120.324792
 30
0.0
  0
VERTEX
  5
8EA
100
AcDbEntity
  8
ALPHA
 62
     7
100
AcDbVertex
100
AcDb2dVertex
 10
81.692628
 20
118.824797
 30
0.0
  0
VERTEX
  5
8EB
100
AcDbEntity
  8
ALPHA
 62
     7
100
AcDbVertex
100
AcDb2dVertex
 10
85.486712
 20
118.824797
 30
0.0
  0
SEQEND
  5
8EC
100
AcDbEntity
  8
ALPHA
 62
     7
  0
MTEXT
  5
8ED
100
AcDbEntity
  8
TEXTE
 62
     7
100
AcDbMText
 10
72.299231
 20
125.342237
 30
0.0
 40
1.312417
 41
0.0
 71
     1
 72
     2
  1
\fTxt|b0|i0;M-
  7
STD
  0
POLYLINE
  5
8EE
100
AcDbEntity
  8
ALPHA
 62
     7
100
AcDb2dPolyline
 66
     1
 10
0.0
 20
0.0
 30
0.0
 70
     1
  0
VERTEX
  5
8EF
100
AcDbEntity
  8
ALPHA
 62
     7
100
AcDbVertex
100
AcDb2dVertex
 10
73.969758
 20
122.386854
 30
0.0
  0
VERTEX
  5
8F0
100
AcDbEntity
  8
ALPHA
 62
     7
100
AcDbVertex
100
AcDb2dVertex
 10
73.169806
 20
122.386854
 30
0.0
  0
VERTEX
  5
8F1
100
AcDbEntity
  8
ALPHA
 62
     7
100
AcDbVertex
100
AcDb2dVertex
 10
73.169806
 20
123.186805
 30
0.0
  0
VERTEX
  5
8F2
100
AcDbEntity
  8
ALPHA
 62
     7
100
AcDbVertex
100
AcDb2dVertex
 10
73.969758
 20
123.186805
 30
0.0
  0
SEQEND
  5
8F3
100
AcDbEntity
  8
ALPHA
 62
     7
  0
MTEXT
  5
8F4
100
AcDbEntity
  8
TEXTE
 62
     7
100
AcDbMText
 10
66.433775
 20
123.525975
 30
0.0
 40
1.312417
 41
0.0
 71
     1
 72
     2
  1
\fTxt|b0|i0;M-
  7
STD
 11
0.0
 21
1.0
 31
0.0
  0
POLYLINE
  5
8F5
100
AcDbEntity
  8
ALPHA
 62
     7
100
AcDb2dPolyline
 66
     1
 10
0.0
 20
0.0
 30
0.0
 70
     1
  0
VERTEX
  5
8F6
100
AcDbEntity
  8
ALPHA
 62
     7
100
AcDbVertex
100
AcDb2dVertex
 10
67.542932
 20
122.386854
 30
0.0
  0
VERTEX
  5
8F7
100
AcDbEntity
  8
ALPHA
 62
     7
100
AcDbVertex
100
AcDb2dVertex
 10
66.742981
 20
122.386854
 30
0.0
  0
VERTEX
  5
8F8
100
AcDbEntity
  8
ALPHA
 62
     7
100
AcDbVertex
100
AcDb2dVertex
 10
66.742981
 20
123.186805
 30
0.0
  0
VERTEX
  5
8F9
100
AcDbEntity
  8
ALPHA
 62
     7
100
AcDbVertex
100
AcDb2dVertex
 10
67.542932
 20
123.186805
 30
0.0
  0
SEQEND
  5
8FA
100
AcDbEntity
  8
ALPHA
 62
     7
  0
MTEXT
  5
8FB
100
AcDbEntity
  8
TEXTE
 62
     7
100
AcDbMText
 10
63.22019
 20
123.525975
 30
0.0
 40
1.312417
 41
0.0
 71
     1
 72
     2
  1
\fTxt|b0|i0;O2
  7
STD
 11
0.0
 21
1.0
 31
0.0
  0
POLYLINE
  5
8FC
100
AcDbEntity
  8
ALPHA
 62
     7
100
AcDb2dPolyline
 66
     1
 10
0.0
 20
0.0
 30
0.0
 70
     1
  0
VERTEX
  5
8FD
100
AcDbEntity
  8
ALPHA
 62
     7
100
AcDbVertex
100
AcDb2dVertex
 10
64.329691
 20
122.386854
 30
0.0
  0
VERTEX
  5
8FE
100
AcDbEntity
  8
ALPHA
 62
     7
100
AcDbVertex
100
AcDb2dVertex
 10
63.529396
 20
122.386854
 30
0.0
  0
VERTEX
  5
8FF
100
AcDbEntity
  8
ALPHA
 62
     7
100
AcDbVertex
100
AcDb2dVertex
 10
63.529396
 20
123.186805
 30
0.0
  0
VERTEX
  5
900
100
AcDbEntity
  8
ALPHA
 62
     7
100
AcDbVertex
100
AcDb2dVertex
 10
64.329691
 20
123.186805
 30
0.0
  0
SEQEND
  5
901
100
AcDbEntity
  8
ALPHA
 62
     7
  0
MTEXT
  5
902
100
AcDbEntity
  8
TEXTE
 62
     7
100
AcDbMText
 10
69.64736
 20
123.525975
 30
0.0
 40
1.312417
 41
0.0
 71
     1
 72
     2
  1
\fTxt|b0|i0;M-
  7
STD
 11
0.0
 21
1.0
 31
0.0
  0
POLYLINE
  5
903
100
AcDbEntity
  8
ALPHA
 62
     7
100
AcDb2dPolyline
 66
     1
 10
0.0
 20
0.0
 30
0.0
 70
     1
  0
VERTEX
  5
904
100
AcDbEntity
  8
ALPHA
 62
     7
100
AcDbVertex
100
AcDb2dVertex
 10
70.756517
 20
122.386854
 30
0.0
  0
VERTEX
  5
905
100
AcDbEntity
  8
ALPHA
 62
     7
100
AcDbVertex
100
AcDb2dVertex
 10
69.956221
 20
122.386854
 30
0.0
  0
VERTEX
  5
906
100
AcDbEntity
  8
ALPHA
 62
     7
100
AcDbVertex
100
AcDb2dVertex
 10
69.956221
 20
123.186805
 30
0.0
  0
VERTEX
  5
907
100
AcDbEntity
  8
ALPHA
 62
     7
100
AcDbVertex
100
AcDb2dVertex
 10
70.756517
 20
123.186805
 30
0.0
  0
SEQEND
  5
908
100
AcDbEntity
  8
ALPHA
 62
     7
  0
MTEXT
  5
909
100
AcDbEntity
  8
TEXTE
 62
     7
100
AcDbMText
 10
82.640546
 20
126.791589
 30
0.0
 40
1.312417
 41
0.0
 71
     1
 72
     2
  1
\fTxt|b0|i0;5A
  7
STD
  0
POLYLINE
  5
90A
100
AcDbEntity
  8
ALPHA
 62
     7
100
AcDb2dPolyline
 66
     1
 10
0.0
 20
0.0
 30
0.0
 70
     1
  0
VERTEX
  5
90B
100
AcDbEntity
  8
ALPHA
 62
     7
100
AcDbVertex
100
AcDb2dVertex
 10
77.183343
 20
122.386854
 30
0.0
  0
VERTEX
  5
90C
100
AcDbEntity
  8
ALPHA
 62
     7
100
AcDbVertex
100
AcDb2dVertex
 10
76.383047
 20
122.386854
 30
0.0
  0
VERTEX
  5
90D
100
AcDbEntity
  8
ALPHA
 62
     7
100
AcDbVertex
100
AcDb2dVertex
 10
76.383047
 20
123.186805
 30
0.0
  0
VERTEX
  5
90E
100
AcDbEntity
  8
ALPHA
 62
     7
100
AcDbVertex
100
AcDb2dVertex
 10
77.183343
 20
123.186805
 30
0.0
  0
SEQEND
  5
90F
100
AcDbEntity
  8
ALPHA
 62
     7
  0
MTEXT
  5
910
100
AcDbEntity
  8
TEXTE
 62
     7
100
AcDbMText
 10
75.089241
 20
125.342237
 30
0.0
 40
1.312417
 41
0.0
 71
     1
 72
     2
  1
\fTxt|b0|i0;1L+
  7
STD
  0
LINE
  5
911
100
AcDbEntity
  8
TEXTE
 62
     7
100
AcDbLine
 10
87.972693
 20
159.464177
 30
0.0
 11
85.366823
 21
159.464177
 31
0.0
  0
MTEXT
  5
912
100
AcDbEntity
  8
TEXTE
 62
     7
100
AcDbMText
 10
80.734892
 20
142.084884
 30
0.0
 40
1.312417
 41
0.0
 71
     1
 72
     2
  1
\fTxt|b0|i0;325mA
  7
STD
  0
MTEXT
  5
913
100
AcDbEntity
  8
TEXTE
 62
     7
100
AcDbMText
 10
80.523018
 20
139.968218
 30
0.0
 40
1.312417
 41
0.0
 71
     1
 72
     2
  1
\fTxt|b0|i0;fusion
  7
STD
  0
MTEXT
  5
914
100
AcDbEntity
  8
TEXTE
 62
     7
100
AcDbMText
 10
80.523018
 20
137.851551
 30
0.0
 40
1.312417
 41
0.0
 71
     1
 72
     2
  1
\fTxt|b0|i0;rapide
  7
STD
  0
MTEXT
  5
915
100
AcDbEntity
  8
TEXTE
 62
     7
100
AcDbMText
 10
72.299231
 20
140.635533
 30
0.0
 40
1.312417
 41
0.0
 71
     1
 72
     2
  1
\fTxt|b0|i0;M-
  7
STD
  0
POLYLINE
  5
916
100
AcDbEntity
  8
ALPHA
 62
     7
100
AcDb2dPolyline
 66
     1
 10
0.0
 20
0.0
 30
0.0
 70
     1
  0
VERTEX
  5
917
100
AcDbEntity
  8
ALPHA
 62
     7
100
AcDbVertex
100
AcDb2dVertex
 10
73.969758
 20
137.680149
 30
0.0
  0
VERTEX
  5
918
100
AcDbEntity
  8
ALPHA
 62
     7
100
AcDbVertex
100
AcDb2dVertex
 10
73.169806
 20
137.680149
 30
0.0
  0
VERTEX
  5
919
100
AcDbEntity
  8
ALPHA
 62
     7
100
AcDbVertex
100
AcDb2dVertex
 10
73.169806
 20
138.480101
 30
0.0
  0
VERTEX
  5
91A
100
AcDbEntity
  8
ALPHA
 62
     7
100
AcDbVertex
100
AcDb2dVertex
 10
73.969758
 20
138.480101
 30
0.0
  0
SEQEND
  5
91B
100
AcDbEntity
  8
ALPHA
 62
     7
  0
MTEXT
  5
91C
100
AcDbEntity
  8
TEXTE
 62
     7
100
AcDbMText
 10
66.433775
 20
138.81927
 30
0.0
 40
1.312417
 41
0.0
 71
     1
 72
     2
  1
\fTxt|b0|i0;I3
  7
STD
 11
0.0
 21
1.0
 31
0.0
  0
POLYLINE
  5
91D
100
AcDbEntity
  8
ALPHA
 62
     7
100
AcDb2dPolyline
 66
     1
 10
0.0
 20
0.0
 30
0.0
 70
     1
  0
VERTEX
  5
91E
100
AcDbEntity
  8
ALPHA
 62
     7
100
AcDbVertex
100
AcDb2dVertex
 10
67.542932
 20
137.680149
 30
0.0
  0
VERTEX
  5
91F
100
AcDbEntity
  8
ALPHA
 62
     7
100
AcDbVertex
100
AcDb2dVertex
 10
66.742981
 20
137.680149
 30
0.0
  0
VERTEX
  5
920
100
AcDbEntity
  8
ALPHA
 62
     7
100
AcDbVertex
100
AcDb2dVertex
 10
66.742981
 20
138.480101
 30
0.0
  0
VERTEX
  5
921
100
AcDbEntity
  8
ALPHA
 62
     7
100
AcDbVertex
100
AcDb2dVertex
 10
67.542932
 20
138.480101
 30
0.0
  0
SEQEND
  5
922
100
AcDbEntity
  8
ALPHA
 62
     7
  0
MTEXT
  5
923
100
AcDbEntity
  8
TEXTE
 62
     7
100
AcDbMText
 10
63.22019
 20
138.81927
 30
0.0
 40
1.312417
 41
0.0
 71
     1
 72
     2
  1
\fTxt|b0|i0;I2
  7
STD
 11
0.0
 21
1.0
 31
0.0
  0
POLYLINE
  5
924
100
AcDbEntity
  8
ALPHA
 62
     7
100
AcDb2dPolyline
 66
     1
 10
0.0
 20
0.0
 30
0.0
 70
     1
  0
VERTEX
  5
925
100
AcDbEntity
  8
ALPHA
 62
     7
100
AcDbVertex
100
AcDb2dVertex
 10
64.329691
 20
137.680149
 30
0.0
  0
VERTEX
  5
926
100
AcDbEntity
  8
ALPHA
 62
     7
100
AcDbVertex
100
AcDb2dVertex
 10
63.529396
 20
137.680149
 30
0.0
  0
VERTEX
  5
927
100
AcDbEntity
  8
ALPHA
 62
     7
100
AcDbVertex
100
AcDb2dVertex
 10
63.529396
 20
138.480101
 30
0.0
  0
VERTEX
  5
928
100
AcDbEntity
  8
ALPHA
 62
     7
100
AcDbVertex
100
AcDb2dVertex
 10
64.329691
 20
138.480101
 30
0.0
  0
SEQEND
  5
929
100
AcDbEntity
  8
ALPHA
 62
     7
  0
MTEXT
  5
92A
100
AcDbEntity
  8
TEXTE
 62
     7
100
AcDbMText
 10
69.64736
 20
138.81927
 30
0.0
 40
1.312417
 41
0.0
 71
     1
 72
     2
  1
\fTxt|b0|i0;I4
  7
STD
 11
0.0
 21
1.0
 31
0.0
  0
POLYLINE
  5
92B
100
AcDbEntity
  8
ALPHA
 62
     7
100
AcDb2dPolyline
 66
     1
 10
0.0
 20
0.0
 30
0.0
 70
     1
  0
VERTEX
  5
92C
100
AcDbEntity
  8
ALPHA
 62
     7
100
AcDbVertex
100
AcDb2dVertex
 10
70.756517
 20
137.680149
 30
0.0
  0
VERTEX
  5
92D
100
AcDbEntity
  8
ALPHA
 62
     7
100
AcDbVertex
100
AcDb2dVertex
 10
69.956221
 20
137.680149
 30
0.0
  0
VERTEX
  5
92E
100
AcDbEntity
  8
ALPHA
 62
     7
100
AcDbVertex
100
AcDb2dVertex
 10
69.956221
 20
138.480101
 30
0.0
  0
VERTEX
  5
92F
100
AcDbEntity
  8
ALPHA
 62
     7
100
AcDbVertex
100
AcDb2dVertex
 10
70.756517
 20
138.480101
 30
0.0
  0
SEQEND
  5
930
100
AcDbEntity
  8
ALPHA
 62
     7
  0
MTEXT
  5
931
100
AcDbEntity
  8
TEXTE
 62
     7
100
AcDbMText
 10
75.512988
 20
140.635533
 30
0.0
 40
1.312417
 41
0.0
 71
     1
 72
     2
  1
\fTxt|b0|i0;L+
  7
STD
  0
POLYLINE
  5
932
100
AcDbEntity
  8
ALPHA
 62
     7
100
AcDb2dPolyline
 66
     1
 10
0.0
 20
0.0
 30
0.0
 70
     1
  0
VERTEX
  5
933
100
AcDbEntity
  8
ALPHA
 62
     7
100
AcDbVertex
100
AcDb2dVertex
 10
77.183343
 20
137.680149
 30
0.0
  0
VERTEX
  5
934
100
AcDbEntity
  8
ALPHA
 62
     7
100
AcDbVertex
100
AcDb2dVertex
 10
76.383047
 20
137.680149
 30
0.0
  0
VERTEX
  5
935
100
AcDbEntity
  8
ALPHA
 62
     7
100
AcDbVertex
100
AcDb2dVertex
 10
76.383047
 20
138.480101
 30
0.0
  0
VERTEX
  5
936
100
AcDbEntity
  8
ALPHA
 62
     7
100
AcDbVertex
100
AcDb2dVertex
 10
77.183343
 20
138.480101
 30
0.0
  0
SEQEND
  5
937
100
AcDbEntity
  8
ALPHA
 62
     7
  0
LINE
  5
938
100
AcDbEntity
  8
TEXTE
 62
     7
100
AcDbLine
 10
86.00451
 20
158.617373
 30
0.0
 11
85.366823
 21
158.617373
 31
0.0
  0
MTEXT
  5
939
100
AcDbEntity
  8
TEXTE
 62
     7
100
AcDbMText
 10
93.945283
 20
154.929234
 30
0.0
 40
1.312417
 41
0.0
 71
     1
 72
     2
  1
\fTxt|b0|i0;Retour
  7
STD
  0
MTEXT
  5
93A
100
AcDbEntity
  8
TEXTE
 62
     7
100
AcDbMText
 10
88.777467
 20
159.92979
 30
0.0
 40
1.312417
 41
0.0
 71
     1
 72
     2
  1
\fTxt|b0|i0;24V
  7
STD
  0
LINE
  5
93B
100
AcDbEntity
  8
TEXTE
 62
     7
100
AcDbLine
 10
87.972693
 20
158.617373
 30
0.0
 11
87.33535
 21
158.617373
 31
0.0
  0
LINE
  5
93C
100
AcDbEntity
  8
TEXTE
 62
     7
100
AcDbLine
 10
86.991185
 20
158.617373
 30
0.0
 11
86.353842
 21
158.617373
 31
0.0
  0
LINE
  5
93D
100
AcDbEntity
  8
TEXTE
 62
     7
100
AcDbLine
 10
91.57454
 20
156.117267
 30
0.0
 11
90.937197
 21
156.117267
 31
0.0
  0
LINE
  5
93E
100
AcDbEntity
  8
TEXTE
 62
     7
100
AcDbLine
 10
90.587865
 20
156.117267
 30
0.0
 11
89.950178
 21
156.117267
 31
0.0
  0
LINE
  5
93F
100
AcDbEntity
  8
TEXTE
 62
     7
100
AcDbLine
 10
92.556048
 20
156.117267
 30
0.0
 11
91.918705
 21
156.117267
 31
0.0
  0
LINE
  5
940
100
AcDbEntity
  8
TEXTE
 62
     7
100
AcDbLine
 10
92.556048
 20
156.963727
 30
0.0
 11
89.950178
 21
156.963727
 31
0.0
  0
MTEXT
  5
941
100
AcDbEntity
  8
TEXTE
 62
     7
100
AcDbMText
 10
93.360822
 20
157.429684
 30
0.0
 40
1.312417
 41
0.0
 71
     1
 72
     2
  1
\fTxt|b0|i0;24V
  7
STD
  0
ENDSEC
  0
SECTION
  2
OBJECTS
  0
DICTIONARY
  5
F8
100
AcDbDictionary
  3
ACAD_GROUP
350
F9
  3
ACAD_MLINESTYLE
350
106
  3
ACDBVARIABLEDICTIONARY
350
143
  0
DICTIONARY
  5
F9
102
{ACAD_REACTORS
330
F8
102
}
100
AcDbDictionary
  0
DICTIONARY
  5
106
102
{ACAD_REACTORS
330
F8
102
}
100
AcDbDictionary
  3
STANDARD
350
107
  0
DICTIONARY
  5
143
102
{ACAD_REACTORS
330
F8
102
}
100
AcDbDictionary
  3
DIMADEC
350
144
  0
MLINESTYLE
  5
107
102
{ACAD_REACTORS
330
106
102
}
100
AcDbMlineStyle
  2
STANDARD
 70
     0
  3

 62
   256
 51
90.0
 52
90.0
 71
     2
 49
0.5
 62
   256
  6
BYLAYER
 49
-0.5
 62
   256
  6
BYLAYER
  0
DICTIONARYVAR
  5
144
102
{ACAD_REACTORS
330
143
102
}
100
DictionaryVariables
280
     0
  1
0
  0
ENDSEC
  0
EOF
