999
DXF file: C:\Users\sesa63760\Dev\_Creo\CAD\MCADID0000207_3D-CAD\drw0001_1.dxf
999
Pro/ENGINEER 2019471 by Parametric Technology Corporation
  0
SECTION
  2
HEADER
  9
$ACADVER
  1
AC1024
  9
$DWGCODEPAGE
  3
ANSI_1252
  9
$EXTMAX
 10
172.7826219681
 20
244.3639939263
 30
0.0
  9
$EXTMIN
 10
0.0
 20
0.0
 30
0.0
  9
$LIMMIN
 10
0.0
 20
0.0
  9
$LIMMAX
 10
172.7826219681
 20
244.3639939263
  9
$VIEWCTR
 10
86.391310984
 20
122.1819969631
  9
$VIEWSIZE
 40
244.3639939263
  9
$CLAYER
  8
0
  9
$LTSCALE
 40
15.9289121967
  9
$CELTYPE
  6
BYLAYER
  9
$DIMSCALE
 40
1.0
  9
$DIMASZ
 40
2.0569359758
  9
$DIMEXO
 40
1.0
  9
$DIMDLI
 40
11.005430245
  9
$DIMEXE
 40
1.0
  9
$DIMCEN
 40
2.6065492685
  9
$DIMLFAC
 40
1.0
  9
$DIMBLK
  1
_FILLED
  9
$DIMALT
 70
0
  9
$DIMALTF
 40
0.0393700787
  9
$DIMTXT
 40
2.8797103661
  9
$DIMTOL
 70
1
  9
$DIMLIM
 70
0
  9
$DIMTFAC
 40
1.0
  9
$DIMTP
 40
0.01
  9
$DIMTM
 40
0.01
  9
$DIMGAP
 40
0.625
  9
$DIMDSEP
 70
46
  9
$AUNITS
 70
0
  9
$PDMODE
 70
3
  9
$PDSIZE
 40
0.3125
  9
$HANDSEED
  5
488
  9
$TILEMODE
 70
1
  9
$MEASUREMENT
 70
1
  9
$INSUNITS
 70
4
  0
ENDSEC
  0
SECTION
  2
CLASSES
  0
CLASS
  1
ACDBDICTIONARYWDFLT
  2
AcDbDictionaryWithDefault
  3
AutoCAD 2000
 90
0
 91
1
280
0
281
0
  0
CLASS
  1
ACDBPLACEHOLDER
  2
AcDbPlaceHolder
  3
AutoCAD 2000
 90
0
 91
1
280
0
281
0
  0
CLASS
  1
LAYOUT
  2
AcDbLayout
  3
AutoCAD 2000
 90
0
 91
0
280
0
281
0
  0
ENDSEC
  0
SECTION
  2
TABLES
  0
TABLE
  2
VPORT
  5
8
100
AcDbSymbolTable
 70
2
  0
VPORT
  5
1F4
100
AcDbSymbolTableRecord
100
AcDbViewportTableRecord
  2
*ACTIVE
 70
0
 10
0.0
 20
0.0
 11
1.0
 21
1.0
 12
86.391310984
 22
122.1819969631
 13
0.0
 23
0.0
 14
1.0
 24
1.0
 15
0.0
 25
0.0
 16
0.0
 26
0.0
 36
1.0
 17
0.0
 27
0.0
 37
0.0
 40
244.3639939263
 41
0.7070707071
 42
50.0
 43
0.0
 44
0.0
 50
0.0
 51
0.0
 71
0
 72
100
 73
1
 74
1
 75
0
 76
0
 77
0
 78
0
  0
ENDTAB
  0
TABLE
  2
LTYPE
  5
5
100
AcDbSymbolTable
 70
6
  0
LTYPE
  5
14
100
AcDbSymbolTableRecord
100
AcDbLinetypeTableRecord
  2
BYBLOCK
 70
0
  3

 72
65
 73
0
 40
0.0
  0
LTYPE
  5
15
100
AcDbSymbolTableRecord
100
AcDbLinetypeTableRecord
  2
BYLAYER
 70
0
  3

 72
65
 73
0
 40
0.0
  0
LTYPE
  5
16
100
AcDbSymbolTableRecord
100
AcDbLinetypeTableRecord
  2
CONTINUOUS
 70
64
  3
Solid line
 72
65
 73
0
 40
0.0
  0
LTYPE
  5
1F5
100
AcDbSymbolTableRecord
100
AcDbLinetypeTableRecord
  2
CENTER
 70
64
  3
____ _ ____ _ ____ _ ____ _ ____ _ ____ _ ____
 72
65
 73
4
 40
0.6
 49
0.375
 74
0
 49
-0.075
 74
0
 49
0.075
 74
0
 49
-0.075
 74
0
  0
LTYPE
  5
1F6
100
AcDbSymbolTableRecord
100
AcDbLinetypeTableRecord
  2
HIDDEN
 70
64
  3
- - - - - - - - - - - - - - - - - - - -
 72
65
 73
2
 40
0.2
 49
0.1
 74
0
 49
-0.1
 74
0
  0
LTYPE
  5
1F7
100
AcDbSymbolTableRecord
100
AcDbLinetypeTableRecord
  2
PHANTOM
 70
64
  3
_____ _ _ _____ _ _ _____ _ _ _____
 72
65
 73
6
 40
0.8
 49
0.45
 74
0
 49
-0.05
 74
0
 49
0.1
 74
0
 49
-0.05
 74
0
 49
0.1
 74
0
 49
-0.05
 74
0
  0
LTYPE
  5
1F8
100
AcDbSymbolTableRecord
100
AcDbLinetypeTableRecord
  2
DOT
 70
64
  3
. . . . . . . . . . . . . . . . . . . .
 72
65
 73
2
 40
0.2
 49
0.1
 74
0
 49
-0.1
 74
0
  0
LTYPE
  5
1F9
100
AcDbSymbolTableRecord
100
AcDbLinetypeTableRecord
  2
DASHED
 70
64
  3
- - - - - - - - - - - - - - - - - - - -
 72
65
 73
2
 40
0.2
 49
0.1
 74
0
 49
-0.1
 74
0
  0
ENDTAB
  0
TABLE
  2
LAYER
  5
2
100
AcDbSymbolTable
 70
36
  0
LAYER
  5
10
100
AcDbSymbolTableRecord
100
AcDbLayerTableRecord
  2
0
 70
0
 62
7
  6
CONTINUOUS
370
-3
390
F
  0
LAYER
  5
1FA
100
AcDbSymbolTableRecord
100
AcDbLayerTableRecord
  2
DEFAULT_1
 70
0
 62
7
  6
CENTER
370
-3
390
F
  0
LAYER
  5
1FB
100
AcDbSymbolTableRecord
100
AcDbLayerTableRecord
  2
DEFAULT_2
 70
0
 62
8
  6
HIDDEN
370
-3
390
F
  0
LAYER
  5
1FC
100
AcDbSymbolTableRecord
100
AcDbLayerTableRecord
  2
DEFAULT_3
 70
0
 62
7
  6
PHANTOM
370
-3
390
F
  0
LAYER
  5
1FD
100
AcDbSymbolTableRecord
100
AcDbLayerTableRecord
  2
00_COMPONENTS
 70
0
 62
7
  6
CONTINUOUS
370
-3
390
F
  0
LAYER
  5
1FE
100
AcDbSymbolTableRecord
100
AcDbLayerTableRecord
  2
01_1_DEFAULT_DATUMS
 70
0
 62
7
  6
CONTINUOUS
370
-3
390
F
  0
LAYER
  5
1FF
100
AcDbSymbolTableRecord
100
AcDbLayerTableRecord
  2
01_PLANES
 70
0
 62
7
  6
CONTINUOUS
370
-3
390
F
  0
LAYER
  5
200
100
AcDbSymbolTableRecord
100
AcDbLayerTableRecord
  2
02_COORD_SYS
 70
0
 62
7
  6
CONTINUOUS
370
-3
390
F
  0
LAYER
  5
201
100
AcDbSymbolTableRecord
100
AcDbLayerTableRecord
  2
03_AXES
 70
0
 62
7
  6
CONTINUOUS
370
-3
390
F
  0
LAYER
  5
202
100
AcDbSymbolTableRecord
100
AcDbLayerTableRecord
  2
04_POINTS
 70
0
 62
7
  6
CONTINUOUS
370
-3
390
F
  0
LAYER
  5
203
100
AcDbSymbolTableRecord
100
AcDbLayerTableRecord
  2
05_CURVES
 70
0
 62
7
  6
CONTINUOUS
370
-3
390
F
  0
LAYER
  5
204
100
AcDbSymbolTableRecord
100
AcDbLayerTableRecord
  2
06_SURFS
 70
0
 62
7
  6
CONTINUOUS
370
-3
390
F
  0
LAYER
  5
205
100
AcDbSymbolTableRecord
100
AcDbLayerTableRecord
  2
07_COSMETICS
 70
0
 62
7
  6
CONTINUOUS
370
-3
390
F
  0
LAYER
  5
206
100
AcDbSymbolTableRecord
100
AcDbLayerTableRecord
  2
10_NOTES
 70
0
 62
7
  6
CONTINUOUS
370
-3
390
F
  0
LAYER
  5
207
100
AcDbSymbolTableRecord
100
AcDbLayerTableRecord
  2
11_NOTES_PUB
 70
0
 62
7
  6
CONTINUOUS
370
-3
390
F
  0
LAYER
  5
208
100
AcDbSymbolTableRecord
100
AcDbLayerTableRecord
  2
13_REF_GTOL
 70
0
 62
7
  6
CONTINUOUS
370
-3
390
F
  0
LAYER
  5
209
100
AcDbSymbolTableRecord
100
AcDbLayerTableRecord
  2
16_MISC
 70
0
 62
7
  6
CONTINUOUS
370
-3
390
F
  0
LAYER
  5
20A
100
AcDbSymbolTableRecord
100
AcDbLayerTableRecord
  2
17_NO_PRINT
 70
0
 62
7
  6
CONTINUOUS
370
-3
390
F
  0
LAYER
  5
20B
100
AcDbSymbolTableRecord
100
AcDbLayerTableRecord
  2
18_DATUM_CAMS_JOINTS
 70
0
 62
7
  6
CONTINUOUS
370
-3
390
F
  0
LAYER
  5
20C
100
AcDbSymbolTableRecord
100
AcDbLayerTableRecord
  2
19_DATUM_FUNCTIONAL
 70
0
 62
7
  6
CONTINUOUS
370
-3
390
F
  0
LAYER
  5
20D
100
AcDbSymbolTableRecord
100
AcDbLayerTableRecord
  2
20_DATUM_KINEMATIC_SCHEME
 70
0
 62
7
  6
CONTINUOUS
370
-3
390
F
  0
ENDTAB
  0
TABLE
  2
STYLE
  5
3
100
AcDbSymbolTable
 70
1
  0
STYLE
  5
11
100
AcDbSymbolTableRecord
100
AcDbTextStyleTableRecord
  2
STANDARD
 70
0
 40
0.0
 41
0.8
 50
0.0
 71
0
 42
0.2
  3
txt
  4

  0
STYLE
  5
20E
100
AcDbSymbolTableRecord
100
AcDbTextStyleTableRecord
  2
TEXTSTYLE_1
 70
0
 40
0.0
 41
0.8
 50
0.0
 71
0
 42
0.2
  3
gdt
  4

  0
ENDTAB
  0
TABLE
  2
VIEW
  5
6
100
AcDbSymbolTable
 70
0
  0
ENDTAB
  0
TABLE
  2
UCS
  5
7
100
AcDbSymbolTable
 70
0
  0
ENDTAB
  0
TABLE
  2
APPID
  5
9
100
AcDbSymbolTable
 70
1
  0
APPID
  5
20F
100
AcDbSymbolTableRecord
100
AcDbRegAppTableRecord
  2
ACAD
 70
0
  0
ENDTAB
  0
TABLE
  2
BLOCK_RECORD
  5
1
100
AcDbSymbolTable
 70
0
  0
BLOCK_RECORD
  5
210
100
AcDbSymbolTableRecord
100
AcDbBlockTableRecord
  2
*Model_Space
  0
BLOCK_RECORD
  5
211
100
AcDbSymbolTableRecord
100
AcDbBlockTableRecord
  2
*Paper_Space
  0
BLOCK_RECORD
  5
212
100
AcDbSymbolTableRecord
100
AcDbBlockTableRecord
  2
_FILLED
  0
ENDTAB
  0
TABLE
  2
DIMSTYLE
  5
A
100
AcDbSymbolTable
 70
1
100
AcDbDimStyleTable
 71
0
  0
DIMSTYLE
105
213
100
AcDbSymbolTableRecord
100
AcDbDimStyleTableRecord
  2
STANDARD
 70
0
  3

  4

 40
1.0
 41
2.0569359758
 42
1.0
 43
0.38
 44
1.0
 45
0.0
 46
0.0
 47
0.01
 48
0.01
140
2.8797103661
141
0.09
142
0.0
143
25.4
144
1.0
145
0.0
146
1.0
147
0.625
 71
1
 72
0
 73
0
 74
0
 75
0
 76
0
 77
1
 78
8
 79
2
170
0
171
1
172
0
173
0
174
0
175
0
176
0
177
0
178
0
270
2
179
2
271
2
272
2
273
2
274
2
275
0
280
0
281
0
282
0
283
1
284
8
285
0
286
0
287
3
288
0
340
11
278
46
341
212
342
212
343
212
344
212
  0
ENDTAB
  0
ENDSEC
  0
SECTION
  2
BLOCKS
  0
BLOCK
  5
20
100
AcDbEntity
  8
0
100
AcDbBlockBegin
  2
*Model_Space
 70
0
 10
0.0
 20
0.0
 30
0.0
  3
*Model_Space
  1

  0
ENDBLK
  5
21
100
AcDbEntity
  8
0
100
AcDbBlockEnd
  0
BLOCK
  5
1C
100
AcDbEntity
  8
0
100
AcDbBlockBegin
  2
*Paper_Space
 70
0
 10
0.0
 20
0.0
 30
0.0
  3
*Paper_Space
  1

  0
ENDBLK
  5
1D
100
AcDbEntity
  8
0
100
AcDbBlockEnd
  0
BLOCK
  5
214
100
AcDbEntity
  8
0
100
AcDbBlockBegin
  2
_FILLED
 70
64
 10
0.0
 20
0.0
  3
_FILLED
  1

  0
SOLID
  5
215
100
AcDbEntity
  8
0
  6
BYBLOCK
 62
0
100
AcDbTrace
 10
0.0
 20
0.0
 11
-1.0
 21
0.25
 12
-1.0
 22
-0.25
 13
-1.0
 23
-0.25
  0
ENDBLK
  5
216
100
AcDbEntity
  8
0
  6
BYBLOCK
 62
0
100
AcDbBlockEnd
  0
ENDSEC
  0
SECTION
  2
ENTITIES
  0
LINE
  5
217
100
AcDbEntity
  8
0
100
AcDbLine
 62
7
  6
CONTINUOUS
 10
88.2469119529
 20
42.8699698027
 11
88.4966093762
 21
42.8454272578
  0
LINE
  5
218
100
AcDbEntity
  8
0
100
AcDbLine
 62
7
  6
CONTINUOUS
 10
88.746570358
 20
42.4125465928
 11
88.2466590625
 21
42.4618645972
  0
LINE
  5
219
100
AcDbEntity
  8
0
100
AcDbLine
 62
7
  6
CONTINUOUS
 10
34.7116861809
 20
57.8563640709
 11
53.9013129022
 21
46.7774785556
  0
LINE
  5
21A
100
AcDbEntity
  8
0
100
AcDbLine
 62
7
  6
CONTINUOUS
 10
24.3828734194
 20
67.9023976999
 11
41.9006451264
 21
57.7887362909
  0
LINE
  5
21B
100
AcDbEntity
  8
0
100
AcDbLine
 62
7
  6
CONTINUOUS
 10
41.9006451264
 20
57.7887362909
 11
53.9013129022
 21
46.7774785556
  0
LINE
  5
21C
100
AcDbEntity
  8
0
100
AcDbLine
 62
7
  6
CONTINUOUS
 10
34.7116861809
 20
57.8563640709
 11
24.3828734194
 21
67.9023976999
  0
LINE
  5
21D
100
AcDbEntity
  8
0
100
AcDbLine
 62
7
  6
CONTINUOUS
 10
65.9019806607
 20
52.0962691728
 11
90.3679771106
 21
37.9711390897
  0
LINE
  5
21E
100
AcDbEntity
  8
0
100
AcDbLine
 62
7
  6
CONTINUOUS
 10
24.3828734194
 20
86.2231441832
 11
20.0447720596
 21
92.4934671306
  0
LINE
  5
21F
100
AcDbEntity
  8
0
100
AcDbLine
 62
7
  6
CONTINUOUS
 10
20.0447720596
 20
92.4934671306
 11
20.0447720596
 21
94.4449349273
  0
LINE
  5
220
100
AcDbEntity
  8
0
100
AcDbLine
 62
7
  6
CONTINUOUS
 10
20.0447720596
 20
94.6125740453
 11
20.0447720596
 21
123.0340139297
  0
LINE
  5
221
100
AcDbEntity
  8
0
100
AcDbLine
 62
7
  6
CONTINUOUS
 10
20.0447720596
 20
123.2020960209
 11
20.0447720596
 21
127.0251792516
  0
LINE
  5
222
100
AcDbEntity
  8
0
100
AcDbLine
 62
7
  6
CONTINUOUS
 10
88.2466590625
 20
42.4618645972
 11
69.507928639
 21
53.2804309028
  0
LINE
  5
223
100
AcDbEntity
  8
0
100
AcDbLine
 62
7
  6
CONTINUOUS
 10
88.4587790864
 20
42.5843442675
 11
69.72037137
 21
53.4027242623
  0
LINE
  5
224
100
AcDbEntity
  8
0
100
AcDbLine
 62
7
  6
CONTINUOUS
 10
69.5079661974
 20
53.6886604275
 11
88.2469119529
 21
42.8699698027
  0
LINE
  5
225
100
AcDbEntity
  8
0
100
AcDbLine
 62
7
  6
CONTINUOUS
 10
41.9006451078
 20
76.1094827849
 11
36.8603646399
 21
82.7851998582
  0
LINE
  5
226
100
AcDbEntity
  8
0
100
AcDbLine
 62
7
  6
CONTINUOUS
 10
24.3828734194
 20
67.9023976999
 11
24.3828734194
 21
86.2231441832
  0
LINE
  5
227
100
AcDbEntity
  8
0
100
AcDbLine
 62
7
  6
CONTINUOUS
 10
107.9166780061
 20
203.385884515
 11
109.1894649131
 21
204.120723992
  0
LINE
  5
228
100
AcDbEntity
  8
0
100
AcDbLine
 62
7
  6
CONTINUOUS
 10
109.9469639298
 20
204.257407985
 11
109.8055431623
 21
204.1757591542
  0
LINE
  5
229
100
AcDbEntity
  8
0
100
AcDbLine
 62
7
  6
CONTINUOUS
 10
113.5747221112
 20
204.5814808771
 11
113.4333013438
 21
204.4998320464
  0
LINE
  5
22A
100
AcDbEntity
  8
0
100
AcDbLine
 62
7
  6
CONTINUOUS
 10
110.4493786843
 20
202.5769268345
 11
113.843514801
 21
204.5364770086
  0
LINE
  5
22B
100
AcDbEntity
  8
0
100
AcDbLine
 62
7
  6
CONTINUOUS
 10
114.3171885001
 20
204.2630075576
 11
114.4586092675
 21
204.3446563884
  0
LINE
  5
22C
100
AcDbEntity
  8
0
100
AcDbLine
 62
7
  6
CONTINUOUS
 10
90.8448951397
 20
187.3390995237
 11
106.2067992467
 21
194.5320945408
  0
LINE
  5
22D
100
AcDbEntity
  8
0
100
AcDbLine
 62
7
  6
CONTINUOUS
 10
24.3828734194
 20
86.2231441832
 11
41.9006451078
 21
76.1094827849
  0
LINE
  5
22E
100
AcDbEntity
  8
0
100
AcDbLine
 62
7
  6
CONTINUOUS
 10
20.0447720596
 20
92.4934671307
 11
36.8603646398
 21
82.7851998583
  0
LINE
  5
22F
100
AcDbEntity
  8
0
100
AcDbLine
 62
7
  6
CONTINUOUS
 10
36.8603646378
 20
84.7366676561
 11
20.0447720596
 21
94.4449349273
  0
LINE
  5
230
100
AcDbEntity
  8
0
100
AcDbLine
 62
7
  6
CONTINUOUS
 10
20.0447720596
 20
94.6125740454
 11
36.8603646376
 21
84.9043067742
  0
LINE
  5
231
100
AcDbEntity
  8
0
100
AcDbLine
 62
7
  6
CONTINUOUS
 10
35.359928292
 20
107.4248050963
 11
35.359928292
 21
107.7663841695
  0
LINE
  5
232
100
AcDbEntity
  8
0
100
AcDbLine
 62
7
  6
CONTINUOUS
 10
36.8603645989
 20
117.3169089511
 11
36.8603646034
 21
113.4938287641
  0
LINE
  5
233
100
AcDbEntity
  8
0
100
AcDbLine
 62
7
  6
CONTINUOUS
 10
36.8603646036
 20
113.3257466729
 11
36.8603646101
 21
107.7783056015
  0
LINE
  5
234
100
AcDbEntity
  8
0
100
AcDbLine
 62
7
  6
CONTINUOUS
 10
36.8603646126
 20
105.6554439052
 11
36.8603646369
 21
84.9043067738
  0
LINE
  5
235
100
AcDbEntity
  8
0
100
AcDbLine
 62
7
  6
CONTINUOUS
 10
36.8603646369
 20
84.7366676555
 11
36.8603646392
 21
82.785199859
  0
LINE
  5
236
100
AcDbEntity
  8
0
100
AcDbLine
 62
7
  6
CONTINUOUS
 10
38.1404358475
 20
103.0626308807
 11
38.1404358544
 21
96.2371610526
  0
LINE
  5
237
100
AcDbEntity
  8
0
100
AcDbLine
 62
7
  6
CONTINUOUS
 10
33.7896313355
 20
108.4316412217
 11
33.7896632823
 21
108.773240794
  0
LINE
  5
238
100
AcDbEntity
  8
0
100
AcDbLine
 62
7
  6
CONTINUOUS
 10
111.3981485545
 20
200.1171975677
 11
110.4081513874
 21
199.5456258486
  0
LINE
  5
239
100
AcDbEntity
  8
0
100
AcDbLine
 62
7
  6
CONTINUOUS
 10
109.9453038752
 20
199.1014569286
 11
105.5704371894
 21
196.5756415469
  0
LINE
  5
23A
100
AcDbEntity
  8
0
100
AcDbLine
 62
7
  6
CONTINUOUS
 10
106.2067992467
 20
196.2082460534
 11
90.8448951397
 21
187.3390995237
  0
LINE
  5
23B
100
AcDbEntity
  8
0
100
AcDbLine
 62
7
  6
CONTINUOUS
 10
109.6371545277
 20
197.4538166013
 11
106.2067992467
 21
195.4733118784
  0
LINE
  5
23C
100
AcDbEntity
  8
0
100
AcDbLine
 62
7
  6
CONTINUOUS
 10
127.1956994981
 20
206.9129947384
 11
122.1037531205
 21
203.9731756749
  0
LINE
  5
23D
100
AcDbEntity
  8
0
100
AcDbLine
 62
7
  6
CONTINUOUS
 10
122.0176686891
 20
203.6393809451
 11
118.848965632
 21
201.8099403024
  0
LINE
  5
23E
100
AcDbEntity
  8
0
100
AcDbLine
 62
7
  6
CONTINUOUS
 10
119.1681396703
 20
201.6256692543
 11
119.0267189029
 21
201.5440204235
  0
LINE
  5
23F
100
AcDbEntity
  8
0
100
AcDbLine
 62
7
  6
CONTINUOUS
 10
116.1063349944
 20
199.3109554722
 11
119.5003926021
 21
201.2705509725
  0
LINE
  5
240
100
AcDbEntity
  8
0
100
AcDbLine
 62
7
  6
CONTINUOUS
 10
119.9106060592
 20
200.7602430261
 11
120.0520268266
 21
200.8418918569
  0
LINE
  5
241
100
AcDbEntity
  8
0
100
AcDbLine
 62
7
  6
CONTINUOUS
 10
95.0874954561
 20
184.8896214903
 11
110.4494575978
 21
193.7588015262
  0
LINE
  5
242
100
AcDbEntity
  8
0
100
AcDbLine
 62
7
  6
CONTINUOUS
 10
123.5176619994
 20
201.0413008122
 11
121.0411073677
 21
199.6114698638
  0
LINE
  5
243
100
AcDbEntity
  8
0
100
AcDbLine
 62
7
  6
CONTINUOUS
 10
128.9417248311
 20
203.8887720984
 11
123.8497784535
 21
200.9489530349
  0
LINE
  5
244
100
AcDbEntity
  8
0
100
AcDbLine
 62
7
  6
CONTINUOUS
 10
116.0355465158
 20
196.2491151097
 11
111.0858196553
 21
193.3914060326
  0
LINE
  5
245
100
AcDbEntity
  8
0
100
AcDbLine
 62
7
  6
CONTINUOUS
 10
116.1063349944
 20
196.2082462871
 11
118.227646506
 21
197.4329787487
  0
LINE
  5
246
100
AcDbEntity
  8
0
100
AcDbLine
 62
7
  6
CONTINUOUS
 10
81.4634046808
 20
69.4793129805
 11
80.9634177657
 21
69.5288184728
  0
LINE
  5
247
100
AcDbEntity
  8
0
100
AcDbLine
 62
7
  6
CONTINUOUS
 10
41.8604266074
 20
87.0835675911
 11
41.9006450967
 21
87.0603479608
  0
LINE
  5
248
100
AcDbEntity
  8
0
100
AcDbLine
 62
7
  6
CONTINUOUS
 10
41.7391989296
 20
87.1535568402
 11
41.8272703404
 21
87.1027099377
  0
LINE
  5
249
100
AcDbEntity
  8
0
100
AcDbLine
 62
7
  6
CONTINUOUS
 10
41.9006450965
 20
87.227987079
 11
41.8604266074
 21
87.2512067092
  0
LINE
  5
24A
100
AcDbEntity
  8
0
100
AcDbLine
 62
7
  6
CONTINUOUS
 10
41.756673773
 20
87.1616131279
 11
41.8604266074
 21
87.0835675911
  0
LINE
  5
24B
100
AcDbEntity
  8
0
100
AcDbLine
 62
7
  6
CONTINUOUS
 10
34.6990571654
 20
100.3303913275
 11
32.8699725343
 21
102.7617174459
  0
LINE
  5
24C
100
AcDbEntity
  8
0
100
AcDbLine
 62
7
  6
CONTINUOUS
 10
33.0113933017
 20
102.8433662768
 11
34.8404779329
 21
100.4120401582
  0
LINE
  5
24D
100
AcDbEntity
  8
0
100
AcDbLine
 62
7
  6
CONTINUOUS
 10
33.2337209102
 20
103.0966616249
 11
35.3572744013
 21
100.2739102987
  0
LINE
  5
24E
100
AcDbEntity
  8
0
100
AcDbLine
 62
7
  6
CONTINUOUS
 10
41.7120859329
 20
115.5577206993
 11
41.7120859574
 21
87.2230419682
  0
LINE
  5
24F
100
AcDbEntity
  8
0
100
AcDbLine
 62
7
  6
CONTINUOUS
 10
41.8272703405
 20
105.6164934154
 11
41.8272703405
 21
97.1011313082
  0
LINE
  5
250
100
AcDbEntity
  8
0
100
AcDbLine
 62
7
  6
CONTINUOUS
 10
41.8272703405
 20
87.1941597004
 11
41.8272703405
 21
87.102709939
  0
LINE
  5
251
100
AcDbEntity
  8
0
100
AcDbLine
 62
7
  6
CONTINUOUS
 10
41.8272703404
 20
115.5122124459
 11
41.8272703404
 21
115.6067194265
  0
LINE
  5
252
100
AcDbEntity
  8
0
100
AcDbLine
 62
7
  6
CONTINUOUS
 10
41.8604266074
 20
105.6534862352
 11
41.8604266074
 21
97.0259020002
  0
LINE
  5
253
100
AcDbEntity
  8
0
100
AcDbLine
 62
7
  6
CONTINUOUS
 10
41.8604266074
 20
87.2230419684
 11
41.8604266074
 21
87.0835675911
  0
LINE
  5
254
100
AcDbEntity
  8
0
100
AcDbLine
 62
7
  6
CONTINUOUS
 10
41.8604266074
 20
115.4930700994
 11
41.8604266074
 21
115.6379325769
  0
LINE
  5
255
100
AcDbEntity
  8
0
100
AcDbLine
 62
7
  6
CONTINUOUS
 10
41.8899186879
 20
87.2230419684
 11
41.8899186795
 21
96.9336307484
  0
LINE
  5
256
100
AcDbEntity
  8
0
100
AcDbLine
 62
7
  6
CONTINUOUS
 10
41.8899186719
 20
105.6898150107
 11
41.8899186634
 21
115.4652875402
  0
LINE
  5
257
100
AcDbEntity
  8
0
100
AcDbLine
 62
7
  6
CONTINUOUS
 10
41.8977053671
 20
115.4685999554
 11
41.8977053937
 21
87.2266327004
  0
LINE
  5
258
100
AcDbEntity
  8
0
100
AcDbLine
 62
7
  6
CONTINUOUS
 10
41.9006451264
 20
57.7887362909
 11
41.9006451078
 21
76.1094827849
  0
LINE
  5
259
100
AcDbEntity
  8
0
100
AcDbLine
 62
7
  6
CONTINUOUS
 10
45.0315192913
 20
144.1628006915
 11
45.0315192913
 21
158.2679184112
  0
LINE
  5
25A
100
AcDbEntity
  8
0
100
AcDbLine
 62
7
  6
CONTINUOUS
 10
123.679785008
 20
196.3289394041
 11
123.5383642405
 21
196.2472905733
  0
LINE
  5
25B
100
AcDbEntity
  8
0
100
AcDbLine
 62
7
  6
CONTINUOUS
 10
122.8816555829
 20
194.7460461419
 11
124.1544424899
 21
195.4808856189
  0
LINE
  5
25C
100
AcDbEntity
  8
0
100
AcDbLine
 62
7
  6
CONTINUOUS
 10
80.9634177657
 20
69.5288184728
 11
72.1952571749
 21
74.5910038283
  0
LINE
  5
25D
100
AcDbEntity
  8
0
100
AcDbLine
 62
7
  6
CONTINUOUS
 10
72.257055339
 20
75.3657661297
 11
81.6679027118
 21
69.9325337818
  0
LINE
  5
25E
100
AcDbEntity
  8
0
100
AcDbLine
 62
7
  6
CONTINUOUS
 10
73.6202696213
 20
74.6143353179
 11
72.3809891175
 21
75.329818064
  0
LINE
  5
25F
100
AcDbEntity
  8
0
100
AcDbLine
 62
7
  6
CONTINUOUS
 10
80.0699106921
 20
72.7115955791
 11
74.8074586956
 21
75.7498049223
  0
LINE
  5
260
100
AcDbEntity
  8
0
100
AcDbLine
 62
7
  6
CONTINUOUS
 10
72.3809891175
 20
78.5858664017
 11
73.6202696213
 21
77.8703836556
  0
LINE
  5
261
100
AcDbEntity
  8
0
100
AcDbLine
 62
7
  6
CONTINUOUS
 10
73.0688738725
 20
78.9830144795
 11
74.3081543763
 21
78.2675317334
  0
LINE
  5
262
100
AcDbEntity
  8
0
100
AcDbLine
 62
7
  6
CONTINUOUS
 10
74.8074586956
 20
78.0414822565
 11
73.6705535373
 21
78.6978599064
  0
LINE
  5
263
100
AcDbEntity
  8
0
100
AcDbLine
 62
7
  6
CONTINUOUS
 10
73.6705535373
 20
79.6103830078
 11
72.8623271216
 21
80.0770021902
  0
LINE
  5
264
100
AcDbEntity
  8
0
100
AcDbLine
 62
7
  6
CONTINUOUS
 10
20.0447720596
 20
127.0251792516
 11
45.0407277667
 21
144.1577725026
  0
LINE
  5
265
100
AcDbEntity
  8
0
100
AcDbLine
 62
7
  6
CONTINUOUS
 10
130.9684550458
 20
190.0772359177
 11
132.2412419528
 21
190.8120753947
  0
LINE
  5
266
100
AcDbEntity
  8
0
100
AcDbLine
 62
7
  6
CONTINUOUS
 10
132.9987409695
 20
190.9487593877
 11
132.8573202021
 21
190.8671105569
  0
LINE
  5
267
100
AcDbEntity
  8
0
100
AcDbLine
 62
7
  6
CONTINUOUS
 10
136.626499151
 20
191.2728322798
 11
136.4850783836
 21
191.191183449
  0
LINE
  5
268
100
AcDbEntity
  8
0
100
AcDbLine
 62
7
  6
CONTINUOUS
 10
113.8979549802
 20
174.031191547
 11
129.2585762867
 21
181.2234461073
  0
LINE
  5
269
100
AcDbEntity
  8
0
100
AcDbLine
 62
7
  6
CONTINUOUS
 10
34.8770524275
 20
108.8359410919
 11
33.8196919054
 21
109.4005331459
  0
LINE
  5
26A
100
AcDbEntity
  8
0
100
AcDbLine
 62
7
  6
CONTINUOUS
 10
72.8623271216
 20
83.3952680134
 11
73.6705535373
 21
82.928648831
  0
LINE
  5
26B
100
AcDbEntity
  8
0
100
AcDbLine
 62
7
  6
CONTINUOUS
 10
73.6202696213
 20
83.1381306513
 11
72.3809891175
 21
83.8536133974
  0
LINE
  5
26C
100
AcDbEntity
  8
0
100
AcDbLine
 62
7
  6
CONTINUOUS
 10
74.2542716835
 20
83.5041697276
 11
74.8074586956
 21
83.1847942825
  0
LINE
  5
26D
100
AcDbEntity
  8
0
100
AcDbLine
 62
7
  6
CONTINUOUS
 10
74.8074586956
 20
85.4764716167
 11
80.0699106921
 21
82.4382622733
  0
LINE
  5
26E
100
AcDbEntity
  8
0
100
AcDbLine
 62
7
  6
CONTINUOUS
 10
72.3809891175
 20
87.1096617351
 11
73.6202696213
 21
86.394178989
  0
LINE
  5
26F
100
AcDbEntity
  8
0
100
AcDbLine
 62
7
  6
CONTINUOUS
 10
73.0688738725
 20
87.5068098129
 11
74.3081543763
 21
86.7913270668
  0
LINE
  5
270
100
AcDbEntity
  8
0
100
AcDbLine
 62
7
  6
CONTINUOUS
 10
73.6202696213
 20
87.4726153829
 11
72.3809891175
 21
88.1880981289
  0
LINE
  5
271
100
AcDbEntity
  8
0
100
AcDbLine
 62
7
  6
CONTINUOUS
 10
79.7232713627
 20
85.7700034267
 11
74.8074586956
 21
88.6080849873
  0
LINE
  5
272
100
AcDbEntity
  8
0
100
AcDbLine
 62
7
  6
CONTINUOUS
 10
33.7921434572
 20
107.5610011897
 11
34.8770451903
 21
106.8878927554
  0
LINE
  5
273
100
AcDbEntity
  8
0
100
AcDbLine
 62
7
  6
CONTINUOUS
 10
35.359928292
 20
107.4248050963
 11
33.7896586043
 21
108.4316587213
  0
LINE
  5
274
100
AcDbEntity
  8
0
100
AcDbLine
 62
7
  6
CONTINUOUS
 10
33.7896586043
 20
108.7732377944
 11
35.359928292
 21
107.7663841695
  0
LINE
  5
275
100
AcDbEntity
  8
0
100
AcDbLine
 62
7
  6
CONTINUOUS
 10
37.3582561211
 20
107.8932001675
 11
37.3116217636
 21
107.9231020195
  0
LINE
  5
276
100
AcDbEntity
  8
0
100
AcDbLine
 62
7
  6
CONTINUOUS
 10
35.4686814201
 20
106.7085360534
 11
35.5241744237
 21
106.6714921062
  0
LINE
  5
277
100
AcDbEntity
  8
0
100
AcDbLine
 62
7
  6
CONTINUOUS
 10
20.0447720596
 20
123.0340139297
 11
20.1890440459
 21
123.1188024351
  0
LINE
  5
278
100
AcDbEntity
  8
0
100
AcDbLine
 62
7
  6
CONTINUOUS
 10
133.5011526112
 20
189.2682800343
 11
136.8952918407
 21
191.2278284112
  0
LINE
  5
279
100
AcDbEntity
  8
0
100
AcDbLine
 62
7
  6
CONTINUOUS
 10
137.3689655399
 20
190.9543589602
 11
137.5103863073
 21
191.036007791
  0
LINE
  5
27A
100
AcDbEntity
  8
0
100
AcDbLine
 62
7
  6
CONTINUOUS
 10
133.4599276339
 20
186.2369750306
 11
134.4499286254
 21
186.8085489577
  0
LINE
  5
27B
100
AcDbEntity
  8
0
100
AcDbLine
 62
7
  6
CONTINUOUS
 10
132.9302785687
 20
185.7542402088
 11
128.6222142292
 21
183.2669929496
  0
LINE
  5
27C
100
AcDbEntity
  8
0
100
AcDbLine
 62
7
  6
CONTINUOUS
 10
113.8976413587
 20
174.0309931068
 11
129.2585762867
 21
182.899597456
  0
LINE
  5
27D
100
AcDbEntity
  8
0
100
AcDbLine
 62
7
  6
CONTINUOUS
 10
132.6614525483
 20
184.1293030795
 11
129.2585762867
 21
182.1646632812
  0
LINE
  5
27E
100
AcDbEntity
  8
0
100
AcDbLine
 62
7
  6
CONTINUOUS
 10
145.1555331916
 20
190.6645270646
 11
150.2474795692
 21
193.604346128
  0
LINE
  5
27F
100
AcDbEntity
  8
0
100
AcDbLine
 62
7
  6
CONTINUOUS
 10
141.9007441987
 20
188.5012908235
 11
145.0694487602
 21
190.3307323348
  0
LINE
  5
280
100
AcDbEntity
  8
0
100
AcDbLine
 62
7
  6
CONTINUOUS
 10
142.2199167101
 20
188.3170206569
 11
142.0784959427
 21
188.2353718261
  0
LINE
  5
281
100
AcDbEntity
  8
0
100
AcDbLine
 62
7
  6
CONTINUOUS
 10
139.1581120341
 20
186.0023068749
 11
142.5521696418
 21
187.9619023751
  0
LINE
  5
282
100
AcDbEntity
  8
0
100
AcDbLine
 62
7
  6
CONTINUOUS
 10
142.962383099
 20
187.4515944288
 11
143.1038038664
 21
187.5332432595
  0
LINE
  5
283
100
AcDbEntity
  8
0
100
AcDbLine
 62
7
  6
CONTINUOUS
 10
37.4354654576
 20
107.9639921882
 11
37.4797614223
 21
107.9447004247
  0
LINE
  5
284
100
AcDbEntity
  8
0
100
AcDbLine
 62
7
  6
CONTINUOUS
 10
72.3809891175
 20
91.4441464667
 11
73.6202696213
 21
90.7286637206
  0
LINE
  5
285
100
AcDbEntity
  8
0
100
AcDbLine
 62
7
  6
CONTINUOUS
 10
73.0688738725
 20
91.8412945444
 11
74.3081543763
 21
91.1258117983
  0
LINE
  5
286
100
AcDbEntity
  8
0
100
AcDbLine
 62
7
  6
CONTINUOUS
 10
74.8074586956
 20
90.8997623221
 11
73.6705535373
 21
91.556139972
  0
LINE
  5
287
100
AcDbEntity
  8
0
100
AcDbLine
 62
7
  6
CONTINUOUS
 10
36.8603646083
 20
113.3257466755
 11
20.0447720596
 21
123.0340139297
  0
LINE
  5
288
100
AcDbEntity
  8
0
100
AcDbLine
 62
7
  6
CONTINUOUS
 10
20.0447720596
 20
123.2020960209
 11
36.8603646081
 21
113.4938287667
  0
LINE
  5
289
100
AcDbEntity
  8
0
100
AcDbLine
 62
7
  6
CONTINUOUS
 10
73.6705535373
 20
92.4686630728
 11
72.8623271215
 21
92.9352822552
  0
LINE
  5
28A
100
AcDbEntity
  8
0
100
AcDbLine
 62
7
  6
CONTINUOUS
 10
72.8623271215
 20
96.2535480784
 11
73.6705535373
 21
95.786928896
  0
LINE
  5
28B
100
AcDbEntity
  8
0
100
AcDbLine
 62
7
  6
CONTINUOUS
 10
73.6202696213
 20
95.9964107162
 11
72.3809891175
 21
96.7118934623
  0
LINE
  5
28C
100
AcDbEntity
  8
0
100
AcDbLine
 62
7
  6
CONTINUOUS
 10
20.0447720611
 20
127.0251783279
 11
36.8603646114
 21
117.3169098727
  0
LINE
  5
28D
100
AcDbEntity
  8
0
100
AcDbLine
 62
7
  6
CONTINUOUS
 10
74.2542716835
 20
96.3624497925
 11
74.8074586956
 21
96.0430743474
  0
LINE
  5
28E
100
AcDbEntity
  8
0
100
AcDbLine
 62
7
  6
CONTINUOUS
 10
41.8604266074
 20
115.4930700993
 11
41.9006450679
 21
115.4698504857
  0
LINE
  5
28F
100
AcDbEntity
  8
0
100
AcDbLine
 62
7
  6
CONTINUOUS
 10
41.7544894829
 20
115.554231543
 11
41.8272703404
 21
115.5122124459
  0
LINE
  5
290
100
AcDbEntity
  8
0
100
AcDbLine
 62
7
  6
CONTINUOUS
 10
41.8899186635
 20
115.4652875402
 11
41.8272703407
 21
115.5122124458
  0
LINE
  5
291
100
AcDbEntity
  8
0
100
AcDbLine
 62
7
  6
CONTINUOUS
 10
65.9019805809
 20
132.1135053568
 11
65.9019806607
 21
52.0962691728
  0
LINE
  5
292
100
AcDbEntity
  8
0
100
AcDbLine
 62
7
  6
CONTINUOUS
 10
129.185037257
 20
204.1474007934
 11
128.9417248311
 21
203.8887720984
  0
LINE
  5
293
100
AcDbEntity
  8
0
100
AcDbLine
 62
7
  6
CONTINUOUS
 10
118.140613265
 20
171.5817469814
 11
133.5012346378
 21
180.4501529287
  0
LINE
  5
294
100
AcDbEntity
  8
0
100
AcDbLine
 62
7
  6
CONTINUOUS
 10
144.0928761655
 20
186.3028315196
 11
146.5694348069
 21
187.7326647829
  0
LINE
  5
295
100
AcDbEntity
  8
0
100
AcDbLine
 62
7
  6
CONTINUOUS
 10
146.9015512609
 20
187.6403170057
 11
151.9934976385
 21
190.5801360691
  0
LINE
  5
296
100
AcDbEntity
  8
0
100
AcDbLine
 62
7
  6
CONTINUOUS
 10
139.0873235556
 20
182.9404665123
 11
134.1375966951
 21
180.0827574352
  0
LINE
  5
297
100
AcDbEntity
  8
0
100
AcDbLine
 62
7
  6
CONTINUOUS
 10
139.1581120341
 20
182.8995976898
 11
141.2794235458
 21
184.1243301514
  0
LINE
  5
298
100
AcDbEntity
  8
0
100
AcDbLine
 62
7
  6
CONTINUOUS
 10
146.7315620477
 20
183.0202908067
 11
146.5901412803
 21
182.9386419759
  0
LINE
  5
299
100
AcDbEntity
  8
0
100
AcDbLine
 62
7
  6
CONTINUOUS
 10
145.9334326227
 20
181.4373975445
 11
147.2062195297
 21
182.1722370215
  0
LINE
  5
29A
100
AcDbEntity
  8
0
100
AcDbLine
 62
7
  6
CONTINUOUS
 10
35.3171246327
 20
99.5450636126
 11
33.004968708
 21
99.663313117
  0
LINE
  5
29B
100
AcDbEntity
  8
0
100
AcDbLine
 62
7
  6
CONTINUOUS
 10
33.1463894754
 20
99.7449619478
 11
35.4585454
 21
99.6267124434
  0
LINE
  5
29C
100
AcDbEntity
  8
0
100
AcDbLine
 62
7
  6
CONTINUOUS
 10
32.760280857
 20
100.4295452543
 11
34.6990571654
 21
100.3303913275
  0
LINE
  5
29D
100
AcDbEntity
  8
0
100
AcDbLine
 62
7
  6
CONTINUOUS
 10
81.4634046814
 20
99.342888887
 11
80.9634177662
 21
99.3923943794
  0
LINE
  5
29E
100
AcDbEntity
  8
0
100
AcDbLine
 62
7
  6
CONTINUOUS
 10
71.6952702598
 20
101.7483895697
 11
72.1952571749
 21
101.6988840773
  0
LINE
  5
29F
100
AcDbEntity
  8
0
100
AcDbLine
 62
7
  6
CONTINUOUS
 10
74.8074586956
 20
98.3347516816
 11
79.7232713627
 21
95.496670121
  0
LINE
  5
2A0
100
AcDbEntity
  8
0
100
AcDbLine
 62
7
  6
CONTINUOUS
 10
72.3809891175
 20
99.9679418
 11
73.6202696213
 21
99.252459054
  0
LINE
  5
2A1
100
AcDbEntity
  8
0
100
AcDbLine
 62
7
  6
CONTINUOUS
 10
73.0688738725
 20
100.3650898778
 11
74.3081543763
 21
99.6496071317
  0
LINE
  5
2A2
100
AcDbEntity
  8
0
100
AcDbLine
 62
7
  6
CONTINUOUS
 10
72.1952571749
 20
101.6988840773
 11
80.9634177657
 21
96.6366987219
  0
LINE
  5
2A3
100
AcDbEntity
  8
0
100
AcDbLine
 62
7
  6
CONTINUOUS
 10
80.9634177662
 20
99.3923943794
 11
72.1952571744
 21
104.4545797354
  0
LINE
  5
2A4
100
AcDbEntity
  8
0
100
AcDbLine
 62
7
  6
CONTINUOUS
 10
73.7175256532
 20
104.3185837882
 11
72.4786694148
 21
105.0338215901
  0
LINE
  5
2A5
100
AcDbEntity
  8
0
100
AcDbLine
 62
7
  6
CONTINUOUS
 10
72.257055339
 20
105.1723583327
 11
72.4832552665
 21
105.0417646981
  0
LINE
  5
2A6
100
AcDbEntity
  8
0
100
AcDbLine
 62
7
  6
CONTINUOUS
 10
73.722111505
 20
104.3265268962
 11
81.6432283238
 21
99.7533714271
  0
LINE
  5
2A7
100
AcDbEntity
  8
0
100
AcDbLine
 62
7
  6
CONTINUOUS
 10
79.7321950872
 20
102.6889134446
 11
74.8743512756
 21
105.493527428
  0
LINE
  5
2A8
100
AcDbEntity
  8
0
100
AcDbLine
 62
7
  6
CONTINUOUS
 10
68.8011304937
 20
54.5049808289
 11
68.8011304937
 21
129.9991666601
  0
LINE
  5
2A9
100
AcDbEntity
  8
0
100
AcDbLine
 62
7
  6
CONTINUOUS
 10
69.0132616449
 20
54.627467434
 11
69.0132616449
 21
130.1212809224
  0
LINE
  5
2AA
100
AcDbEntity
  8
0
100
AcDbLine
 62
7
  6
CONTINUOUS
 10
69.1546853563
 20
129.7950036905
 11
69.1546853563
 21
54.3005689589
  0
LINE
  5
2AB
100
AcDbEntity
  8
0
100
AcDbLine
 62
7
  6
CONTINUOUS
 10
71.4881474497
 20
75.8157470001
 11
71.4881474497
 21
101.2906224145
  0
LINE
  5
2AC
100
AcDbEntity
  8
0
100
AcDbLine
 62
7
  6
CONTINUOUS
 10
71.4881474493
 20
105.6793229071
 11
71.4881474493
 21
118.1309847689
  0
LINE
  5
2AD
100
AcDbEntity
  8
0
100
AcDbLine
 62
7
  6
CONTINUOUS
 10
72.257055339
 20
75.3657661297
 11
72.257055339
 21
101.6636759811
  0
LINE
  5
2AE
100
AcDbEntity
  8
0
100
AcDbLine
 62
7
  6
CONTINUOUS
 10
72.257055339
 20
105.1723583327
 11
72.257055339
 21
118.5035680517
  0
LINE
  5
2AF
100
AcDbEntity
  8
0
100
AcDbLine
 62
7
  6
CONTINUOUS
 10
72.3809891175
 20
75.329818064
 11
72.3809891175
 21
78.5858664017
  0
LINE
  5
2B0
100
AcDbEntity
  8
0
100
AcDbLine
 62
7
  6
CONTINUOUS
 10
72.3809891175
 20
83.8536133974
 11
72.3809891175
 21
87.1096617351
  0
LINE
  5
2B1
100
AcDbEntity
  8
0
100
AcDbLine
 62
7
  6
CONTINUOUS
 10
72.3809891175
 20
88.1880981289
 11
72.3809891175
 21
91.4441464667
  0
LINE
  5
2B2
100
AcDbEntity
  8
0
100
AcDbLine
 62
7
  6
CONTINUOUS
 10
72.3809891175
 20
96.7118934623
 11
72.3809891175
 21
99.9679418
  0
LINE
  5
2B3
100
AcDbEntity
  8
0
100
AcDbLine
 62
7
  6
CONTINUOUS
 10
72.4786694148
 20
105.0338215901
 11
72.4786694148
 21
108.2892137947
  0
LINE
  5
2B4
100
AcDbEntity
  8
0
100
AcDbLine
 62
7
  6
CONTINUOUS
 10
72.4786694148
 20
113.5568791388
 11
72.4786694148
 21
116.8122742759
  0
LINE
  5
2B5
100
AcDbEntity
  8
0
100
AcDbLine
 62
7
  6
CONTINUOUS
 10
72.8623271216
 20
80.0770021902
 11
72.8623271216
 21
83.3952680134
  0
LINE
  5
2B6
100
AcDbEntity
  8
0
100
AcDbLine
 62
7
  6
CONTINUOUS
 10
72.8623271215
 20
92.9352822552
 11
72.8623271215
 21
96.2535480784
  0
LINE
  5
2B7
100
AcDbEntity
  8
0
100
AcDbLine
 62
7
  6
CONTINUOUS
 10
72.8810089604
 20
109.8483135998
 11
72.8810089604
 21
113.166579423
  0
LINE
  5
2B8
100
AcDbEntity
  8
0
100
AcDbLine
 62
7
  6
CONTINUOUS
 10
73.6202696213
 20
99.252459054
 11
73.6202696213
 21
95.9964107162
  0
LINE
  5
2B9
100
AcDbEntity
  8
0
100
AcDbLine
 62
7
  6
CONTINUOUS
 10
73.6202696213
 20
90.7286637206
 11
73.6202696213
 21
87.4726153829
  0
LINE
  5
2BA
100
AcDbEntity
  8
0
100
AcDbLine
 62
7
  6
CONTINUOUS
 10
73.6202696213
 20
86.394178989
 11
73.6202696213
 21
83.1381306513
  0
LINE
  5
2BB
100
AcDbEntity
  8
0
100
AcDbLine
 62
7
  6
CONTINUOUS
 10
73.6202696213
 20
77.8703836556
 11
73.6202696213
 21
74.6143353179
  0
LINE
  5
2BC
100
AcDbEntity
  8
0
100
AcDbLine
 62
7
  6
CONTINUOUS
 10
73.6705535373
 20
78.6978599064
 11
73.6705535373
 21
79.6103830078
  0
LINE
  5
2BD
100
AcDbEntity
  8
0
100
AcDbLine
 62
7
  6
CONTINUOUS
 10
73.6705535373
 20
82.928648831
 11
73.6705535373
 21
83.1671619104
  0
LINE
  5
2BE
100
AcDbEntity
  8
0
100
AcDbLine
 62
7
  6
CONTINUOUS
 10
73.6705535373
 20
91.556139972
 11
73.6705535373
 21
92.4686630728
  0
LINE
  5
2BF
100
AcDbEntity
  8
0
100
AcDbLine
 62
7
  6
CONTINUOUS
 10
73.6705535373
 20
95.786928896
 11
73.6705535373
 21
96.0254419754
  0
LINE
  5
2C0
100
AcDbEntity
  8
0
100
AcDbLine
 62
7
  6
CONTINUOUS
 10
73.6892353763
 20
108.468844715
 11
73.6892353763
 21
109.3816944174
  0
LINE
  5
2C1
100
AcDbEntity
  8
0
100
AcDbLine
 62
7
  6
CONTINUOUS
 10
73.6892353763
 20
112.6999602406
 11
73.6892353763
 21
112.8416413369
  0
LINE
  5
2C2
100
AcDbEntity
  8
0
100
AcDbLine
 62
7
  6
CONTINUOUS
 10
73.7175256532
 20
116.097036474
 11
73.7175256532
 21
112.8416413369
  0
LINE
  5
2C3
100
AcDbEntity
  8
0
100
AcDbLine
 62
7
  6
CONTINUOUS
 10
73.7175256532
 20
107.5739759928
 11
73.7175256532
 21
104.3185837882
  0
LINE
  5
2C4
100
AcDbEntity
  8
0
100
AcDbLine
 62
7
  6
CONTINUOUS
 10
68.8011304937
 20
129.9991666601
 11
69.0083178853
 21
130.4563936129
  0
LINE
  5
2C5
100
AcDbEntity
  8
0
100
AcDbLine
 62
7
  6
CONTINUOUS
 10
69.2582787778
 20
130.0235131026
 11
69.1546853563
 21
129.7950036905
  0
LINE
  5
2C6
100
AcDbEntity
  8
0
100
AcDbLine
 62
7
  6
CONTINUOUS
 10
35.5241744237
 20
106.6714921061
 11
35.5454189213
 21
106.6853238899
  0
LINE
  5
2C7
100
AcDbEntity
  8
0
100
AcDbLine
 62
7
  6
CONTINUOUS
 10
37.4797614227
 20
107.9447004249
 11
36.9686691496
 21
107.6119525773
  0
LINE
  5
2C8
100
AcDbEntity
  8
0
100
AcDbLine
 62
7
  6
CONTINUOUS
 10
92.0226000898
 20
145.8882470537
 11
151.0374863439
 21
179.9603041356
  0
LINE
  5
2C9
100
AcDbEntity
  8
0
100
AcDbLine
 62
7
  6
CONTINUOUS
 10
68.8011304937
 20
129.9988076763
 11
69.0132616449
 21
130.1212809224
  0
LINE
  5
2CA
100
AcDbEntity
  8
0
100
AcDbLine
 62
7
  6
CONTINUOUS
 10
69.2582733694
 20
130.0235224702
 11
69.4704045206
 21
130.1459957164
  0
LINE
  5
2CB
100
AcDbEntity
  8
0
100
AcDbLine
 62
7
  6
CONTINUOUS
 10
69.5082402188
 20
129.9988181303
 11
69.72037137
 21
130.1212913765
  0
LINE
  5
2CC
100
AcDbEntity
  8
0
100
AcDbLine
 62
7
  6
CONTINUOUS
 10
36.8603646114
 20
117.3169098727
 11
65.9019805749
 21
132.1135053573
  0
LINE
  5
2CD
100
AcDbEntity
  8
0
100
AcDbLine
 62
7
  6
CONTINUOUS
 10
41.8899186795
 20
96.9336307484
 11
41.5882597435
 21
96.867430535
  0
LINE
  5
2CE
100
AcDbEntity
  8
0
100
AcDbLine
 62
7
  6
CONTINUOUS
 10
72.4786694148
 20
108.2892137947
 11
73.7175256532
 21
107.5739759928
  0
LINE
  5
2CF
100
AcDbEntity
  8
0
100
AcDbLine
 62
7
  6
CONTINUOUS
 10
73.185773252
 20
108.6974579486
 11
74.4246294904
 21
107.9822201466
  0
LINE
  5
2D0
100
AcDbEntity
  8
0
100
AcDbLine
 62
7
  6
CONTINUOUS
 10
74.8743512756
 20
107.7846332105
 11
73.6892353763
 21
108.468844715
  0
LINE
  5
2D1
100
AcDbEntity
  8
0
100
AcDbLine
 62
7
  6
CONTINUOUS
 10
73.6892353763
 20
109.3816944174
 11
72.8810089604
 21
109.8483135998
  0
LINE
  5
2D2
100
AcDbEntity
  8
0
100
AcDbLine
 62
7
  6
CONTINUOUS
 10
72.8810089604
 20
113.166579423
 11
73.6892353763
 21
112.6999602406
  0
LINE
  5
2D3
100
AcDbEntity
  8
0
100
AcDbLine
 62
7
  6
CONTINUOUS
 10
73.7175256532
 20
112.8416413369
 11
72.4786694148
 21
113.5568791388
  0
LINE
  5
2D4
100
AcDbEntity
  8
0
100
AcDbLine
 62
7
  6
CONTINUOUS
 10
74.3712417836
 20
113.2190622678
 11
74.8743512756
 21
112.9285984384
  0
LINE
  5
2D5
100
AcDbEntity
  8
0
100
AcDbLine
 62
7
  6
CONTINUOUS
 10
74.3081543763
 20
99.6496071317
 11
74.3081543763
 21
96.393558794
  0
LINE
  5
2D6
100
AcDbEntity
  8
0
100
AcDbLine
 62
7
  6
CONTINUOUS
 10
74.3081543763
 20
91.1258117983
 11
74.3081543763
 21
87.8697634606
  0
LINE
  5
2D7
100
AcDbEntity
  8
0
100
AcDbLine
 62
7
  6
CONTINUOUS
 10
74.3081543763
 20
86.7913270668
 11
74.3081543763
 21
83.535278729
  0
LINE
  5
2D8
100
AcDbEntity
  8
0
100
AcDbLine
 62
7
  6
CONTINUOUS
 10
74.3081543763
 20
78.2675317334
 11
74.3081543763
 21
75.0114833957
  0
LINE
  5
2D9
100
AcDbEntity
  8
0
100
AcDbLine
 62
7
  6
CONTINUOUS
 10
74.4246294904
 20
116.5052806278
 11
74.4246294904
 21
113.2498854907
  0
LINE
  5
2DA
100
AcDbEntity
  8
0
100
AcDbLine
 62
7
  6
CONTINUOUS
 10
74.4246294904
 20
107.9822201466
 11
74.4246294904
 21
104.7268279421
  0
LINE
  5
2DB
100
AcDbEntity
  8
0
100
AcDbLine
 62
7
  6
CONTINUOUS
 10
74.8074586956
 20
75.7498049223
 11
74.8074586956
 21
78.0414822565
  0
LINE
  5
2DC
100
AcDbEntity
  8
0
100
AcDbLine
 62
7
  6
CONTINUOUS
 10
74.8074586956
 20
83.1847942825
 11
74.8074586956
 21
85.4764716167
  0
LINE
  5
2DD
100
AcDbEntity
  8
0
100
AcDbLine
 62
7
  6
CONTINUOUS
 10
74.8074586956
 20
88.6080849873
 11
74.8074586956
 21
90.8997623221
  0
LINE
  5
2DE
100
AcDbEntity
  8
0
100
AcDbLine
 62
7
  6
CONTINUOUS
 10
74.8074586956
 20
96.0430743474
 11
74.8074586956
 21
98.3347516816
  0
LINE
  5
2DF
100
AcDbEntity
  8
0
100
AcDbLine
 62
7
  6
CONTINUOUS
 10
74.8743512756
 20
105.493527428
 11
74.8743512756
 21
107.7846332105
  0
LINE
  5
2E0
100
AcDbEntity
  8
0
100
AcDbLine
 62
7
  6
CONTINUOUS
 10
74.8743512756
 20
112.9285984384
 11
74.8743512756
 21
115.2197042208
  0
LINE
  5
2E1
100
AcDbEntity
  8
0
100
AcDbLine
 62
7
  6
CONTINUOUS
 10
76.7207594148
 20
117.9881742056
 11
76.7207594148
 21
125.4265112256
  0
LINE
  5
2E2
100
AcDbEntity
  8
0
100
AcDbLine
 62
7
  6
CONTINUOUS
 10
77.2864424846
 20
118.3147695287
 11
77.2864424846
 21
125.7531065487
  0
LINE
  5
2E3
100
AcDbEntity
  8
0
100
AcDbLine
 62
7
  6
CONTINUOUS
 10
78.7006619354
 20
118.069839711
 11
78.7006619354
 21
124.3569083238
  0
LINE
  5
2E4
100
AcDbEntity
  8
0
100
AcDbLine
 62
7
  6
CONTINUOUS
 10
79.5491894843
 20
123.8670071618
 11
79.5491894843
 21
118.7230419333
  0
LINE
  5
2E5
100
AcDbEntity
  8
0
100
AcDbLine
 62
7
  6
CONTINUOUS
 10
79.7232713627
 20
95.496670121
 11
79.7232713627
 21
85.7700034267
  0
LINE
  5
2E6
100
AcDbEntity
  8
0
100
AcDbLine
 62
7
  6
CONTINUOUS
 10
79.7321950872
 20
112.4150902374
 11
79.7321950872
 21
102.6889134446
  0
LINE
  5
2E7
100
AcDbEntity
  8
0
100
AcDbLine
 62
7
  6
CONTINUOUS
 10
79.8320333746
 20
118.5597456313
 11
79.8320333746
 21
123.7036941524
  0
LINE
  5
2E8
100
AcDbEntity
  8
0
100
AcDbLine
 62
7
  6
CONTINUOUS
 10
80.0699106921
 20
82.4382622733
 11
80.0699106921
 21
72.7115955791
  0
LINE
  5
2E9
100
AcDbEntity
  8
0
100
AcDbLine
 62
7
  6
CONTINUOUS
 10
81.0694709776
 20
122.9076261665
 11
81.0694709776
 21
119.1517150466
  0
LINE
  5
2EA
100
AcDbEntity
  8
0
100
AcDbLine
 62
7
  6
CONTINUOUS
 10
81.3523148666
 20
122.3360786567
 11
81.3523148666
 21
122.0094776896
  0
LINE
  5
2EB
100
AcDbEntity
  8
0
100
AcDbLine
 62
7
  6
CONTINUOUS
 10
81.3523148666
 20
121.6828767225
 11
81.3523148666
 21
121.3562757553
  0
LINE
  5
2EC
100
AcDbEntity
  8
0
100
AcDbLine
 62
7
  6
CONTINUOUS
 10
81.3523148666
 20
121.0296747882
 11
81.3523148666
 21
120.7030738225
  0
LINE
  5
2ED
100
AcDbEntity
  8
0
100
AcDbLine
 62
7
  6
CONTINUOUS
 10
81.3523148666
 20
120.3764728554
 11
81.3523148666
 21
120.0498718882
  0
LINE
  5
2EE
100
AcDbEntity
  8
0
100
AcDbLine
 62
7
  6
CONTINUOUS
 10
81.3523148666
 20
119.723270921
 11
81.3523148666
 21
119.3966699539
  0
LINE
  5
2EF
100
AcDbEntity
  8
0
100
AcDbLine
 62
7
  6
CONTINUOUS
 10
71.4881474493
 20
118.1309847689
 11
71.6952702593
 21
118.5887519239
  0
LINE
  5
2F0
100
AcDbEntity
  8
0
100
AcDbLine
 62
7
  6
CONTINUOUS
 10
78.7006619354
 20
124.3569083238
 11
78.8042233404
 21
124.5857919012
  0
LINE
  5
2F1
100
AcDbEntity
  8
0
100
AcDbLine
 62
7
  6
CONTINUOUS
 10
79.6941795542
 20
124.1874370635
 11
79.5491894843
 21
123.8670071618
  0
LINE
  5
2F2
100
AcDbEntity
  8
0
100
AcDbLine
 62
7
  6
CONTINUOUS
 10
77.0276253063
 20
125.9025417902
 11
77.1400522424
 21
126.0066844359
  0
LINE
  5
2F3
100
AcDbEntity
  8
0
100
AcDbLine
 62
7
  6
CONTINUOUS
 10
20.0447720596
 20
94.4449349273
 11
20.1837265963
 21
94.5323504211
  0
LINE
  5
2F4
100
AcDbEntity
  8
0
100
AcDbLine
 62
7
  6
CONTINUOUS
 10
32.8699725343
 20
102.7617174459
 11
33.0113933017
 21
102.8433662767
  0
LINE
  5
2F5
100
AcDbEntity
  8
0
100
AcDbLine
 62
7
  6
CONTINUOUS
 10
77.0276253063
 20
125.9025417902
 11
76.8154941552
 21
125.780068544
  0
LINE
  5
2F6
100
AcDbEntity
  8
0
100
AcDbLine
 62
7
  6
CONTINUOUS
 10
76.7207594148
 20
125.4265112256
 11
77.2864424846
 21
125.7531065487
  0
LINE
  5
2F7
100
AcDbEntity
  8
0
100
AcDbLine
 62
7
  6
CONTINUOUS
 10
33.004968708
 20
99.663313117
 11
33.1463894754
 21
99.7449619478
  0
LINE
  5
2F8
100
AcDbEntity
  8
0
100
AcDbLine
 62
7
  6
CONTINUOUS
 10
34.8404779329
 20
100.4120401582
 11
34.6990571654
 21
100.3303913275
  0
LINE
  5
2F9
100
AcDbEntity
  8
0
100
AcDbLine
 62
7
  6
CONTINUOUS
 10
35.4585454001
 20
99.6267124434
 11
35.3171246327
 21
99.5450636126
  0
LINE
  5
2FA
100
AcDbEntity
  8
0
100
AcDbLine
 62
7
  6
CONTINUOUS
 10
41.9006450676
 20
115.6379325769
 11
36.8603646087
 21
113.4938287664
  0
LINE
  5
2FB
100
AcDbEntity
  8
0
100
AcDbLine
 62
7
  6
CONTINUOUS
 10
41.8899186634
 20
115.4652875402
 11
36.8603646036
 21
113.3257466729
  0
LINE
  5
2FC
100
AcDbEntity
  8
0
100
AcDbLine
 62
7
  6
CONTINUOUS
 10
32.6807415461
 20
100.4089895829
 11
32.760280857
 21
100.4295452543
  0
LINE
  5
2FD
100
AcDbEntity
  8
0
100
AcDbLine
 62
7
  6
CONTINUOUS
 10
35.4182229932
 20
99.5688119503
 11
35.3171246327
 21
99.5450636126
  0
LINE
  5
2FE
100
AcDbEntity
  8
0
100
AcDbLine
 62
7
  6
CONTINUOUS
 10
40.433429955
 20
108.8237903839
 11
40.006540023
 21
108.7993948302
  0
LINE
  5
2FF
100
AcDbEntity
  8
0
100
AcDbLine
 62
7
  6
CONTINUOUS
 10
82.8776241311
 20
113.8562402599
 11
82.377637216
 21
113.9057457523
  0
LINE
  5
300
100
AcDbEntity
  8
0
100
AcDbLine
 62
7
  6
CONTINUOUS
 10
82.1326491561
 20
116.2080035695
 11
81.8826556986
 21
116.2327563156
  0
LINE
  5
301
100
AcDbEntity
  8
0
100
AcDbLine
 62
7
  6
CONTINUOUS
 10
74.8743512756
 20
115.2197042208
 11
79.7321950872
 21
112.4150902374
  0
LINE
  5
302
100
AcDbEntity
  8
0
100
AcDbLine
 62
7
  6
CONTINUOUS
 10
72.4786694148
 20
116.8122742759
 11
73.7175256532
 21
116.097036474
  0
LINE
  5
303
100
AcDbEntity
  8
0
100
AcDbLine
 62
7
  6
CONTINUOUS
 10
73.185773252
 20
117.2205184298
 11
74.4246294904
 21
116.5052806278
  0
LINE
  5
304
100
AcDbEntity
  8
0
100
AcDbLine
 62
7
  6
CONTINUOUS
 10
72.1952571744
 20
118.5392464315
 11
80.9634177662
 21
113.4770610755
  0
LINE
  5
305
100
AcDbEntity
  8
0
100
AcDbLine
 62
7
  6
CONTINUOUS
 10
82.377637216
 20
113.9057457523
 11
77.42786914
 21
116.7634310339
  0
LINE
  5
306
100
AcDbEntity
  8
0
100
AcDbLine
 62
7
  6
CONTINUOUS
 10
82.9433202858
 20
114.2323410754
 11
77.9935522097
 21
117.090026357
  0
LINE
  5
307
100
AcDbEntity
  8
0
100
AcDbLine
 62
7
  6
CONTINUOUS
 10
80.3802851199
 20
116.6918795425
 11
79.054216798
 21
117.4574681251
  0
LINE
  5
308
100
AcDbEntity
  8
0
100
AcDbLine
 62
7
  6
CONTINUOUS
 10
81.8826556986
 20
116.2327563156
 11
81.2215273625
 21
116.6144503034
  0
LINE
  5
309
100
AcDbEntity
  8
0
100
AcDbLine
 62
7
  6
CONTINUOUS
 10
80.044166294
 20
117.8657217119
 11
80.6078699716
 21
117.5402746045
  0
LINE
  5
30A
100
AcDbEntity
  8
0
100
AcDbLine
 62
7
  6
CONTINUOUS
 10
80.6776944051
 20
117.8265633288
 11
80.0441807604
 21
118.1923143276
  0
LINE
  5
30B
100
AcDbEntity
  8
0
100
AcDbLine
 62
7
  6
CONTINUOUS
 10
81.5381519041
 20
117.419604464
 11
81.847296091
 21
117.2411240222
  0
LINE
  5
30C
100
AcDbEntity
  8
0
100
AcDbLine
 62
7
  6
CONTINUOUS
 10
81.8472960909
 20
117.5677249894
 11
81.4683274773
 21
117.7865176708
  0
LINE
  5
30D
100
AcDbEntity
  8
0
100
AcDbLine
 62
7
  6
CONTINUOUS
 10
81.6705274914
 20
112.2523179038
 11
81.6705274914
 21
99.800656042
  0
LINE
  5
30E
100
AcDbEntity
  8
0
100
AcDbLine
 62
7
  6
CONTINUOUS
 10
81.6705274908
 20
95.4119555502
 11
81.6705274908
 21
69.9370801354
  0
LINE
  5
30F
100
AcDbEntity
  8
0
100
AcDbLine
 62
7
  6
CONTINUOUS
 10
81.7058697291
 20
119.1925495767
 11
81.7058697291
 21
119.5191505438
  0
LINE
  5
310
100
AcDbEntity
  8
0
100
AcDbLine
 62
7
  6
CONTINUOUS
 10
81.7058697291
 20
119.8457515109
 11
81.7058697291
 21
120.1723524781
  0
LINE
  5
311
100
AcDbEntity
  8
0
100
AcDbLine
 62
7
  6
CONTINUOUS
 10
81.7058697291
 20
120.4989534452
 11
81.7058697291
 21
120.8255544109
  0
LINE
  5
312
100
AcDbEntity
  8
0
100
AcDbLine
 62
7
  6
CONTINUOUS
 10
81.7058697291
 20
121.152155378
 11
81.7058697291
 21
121.4787563452
  0
LINE
  5
313
100
AcDbEntity
  8
0
100
AcDbLine
 62
7
  6
CONTINUOUS
 10
81.7058697291
 20
121.8053573124
 11
81.7058697291
 21
122.1319582795
  0
LINE
  5
314
100
AcDbEntity
  8
0
100
AcDbLine
 62
7
  6
CONTINUOUS
 10
82.0594290078
 20
122.0013195419
 11
82.0594290078
 21
117.690220196
  0
LINE
  5
315
100
AcDbEntity
  8
0
100
AcDbLine
 62
7
  6
CONTINUOUS
 10
82.2362105606
 20
121.9074533454
 11
82.2362105606
 21
116.4368871442
  0
LINE
  5
316
100
AcDbEntity
  8
0
100
AcDbLine
 62
7
  6
CONTINUOUS
 10
83.0847469411
 20
121.7523444349
 11
83.0847469411
 21
114.3140074149
  0
LINE
  5
317
100
AcDbEntity
  8
0
100
AcDbLine
 62
7
  6
CONTINUOUS
 10
88.6002027978
 20
43.0739366572
 11
88.6002027978
 21
118.5683714089
  0
LINE
  5
318
100
AcDbEntity
  8
0
100
AcDbLine
 62
7
  6
CONTINUOUS
 10
92.0226000897
 20
145.8882470537
 11
91.0055615771
 21
142.7825794735
  0
LINE
  5
319
100
AcDbEntity
  8
0
100
AcDbLine
 62
7
  6
CONTINUOUS
 10
71.4881474497
 20
101.2906224145
 11
71.6952702598
 21
101.7483895697
  0
LINE
  5
31A
100
AcDbEntity
  8
0
100
AcDbLine
 62
7
  6
CONTINUOUS
 10
82.2362105606
 20
116.4368871442
 11
82.1326491561
 21
116.2080035695
  0
LINE
  5
31B
100
AcDbEntity
  8
0
100
AcDbLine
 62
7
  6
CONTINUOUS
 10
83.0847469411
 20
114.3140074149
 11
82.8776241311
 21
113.8562402599
  0
LINE
  5
31C
100
AcDbEntity
  8
0
100
AcDbLine
 62
7
  6
CONTINUOUS
 10
130.1431015902
 20
205.9359082129
 11
129.185037257
 21
204.1474007934
  0
LINE
  5
31D
100
AcDbEntity
  8
0
100
AcDbLine
 62
7
  6
CONTINUOUS
 10
151.9934976385
 20
190.5801360691
 11
152.2368090522
 21
190.8387636882
  0
LINE
  5
31E
100
AcDbEntity
  8
0
100
AcDbLine
 62
7
  6
CONTINUOUS
 10
78.7006619354
 20
124.3569083238
 11
79.0542198527
 21
124.561033864
  0
LINE
  5
31F
100
AcDbEntity
  8
0
100
AcDbLine
 62
7
  6
CONTINUOUS
 10
79.8320333746
 20
123.7037108599
 11
80.0441681242
 21
123.8261861836
  0
LINE
  5
320
100
AcDbEntity
  8
0
100
AcDbLine
 62
7
  6
CONTINUOUS
 10
71.4881474497
 20
118.1309847686
 11
72.1952632842
 21
118.539235849
  0
LINE
  5
321
100
AcDbEntity
  8
0
100
AcDbLine
 62
7
  6
CONTINUOUS
 10
81.1185679103
 20
122.9359721246
 11
81.0694709776
 21
122.9076261665
  0
LINE
  5
322
100
AcDbEntity
  8
0
100
AcDbLine
 62
7
  6
CONTINUOUS
 10
81.6351636445
 20
122.172779533
 11
81.3523148666
 21
122.0094776896
  0
LINE
  5
323
100
AcDbEntity
  8
0
100
AcDbLine
 62
7
  6
CONTINUOUS
 10
72.4786694148
 20
116.8122742759
 11
73.185773252
 21
117.2205184298
  0
LINE
  5
324
100
AcDbEntity
  8
0
100
AcDbLine
 62
7
  6
CONTINUOUS
 10
81.6351636446
 20
121.5195775986
 11
81.3523148666
 21
121.3562757553
  0
LINE
  5
325
100
AcDbEntity
  8
0
100
AcDbLine
 62
7
  6
CONTINUOUS
 10
82.9900122021
 20
122.2152895336
 11
83.2021433533
 21
122.3377627797
  0
LINE
  5
326
100
AcDbEntity
  8
0
100
AcDbLine
 62
7
  6
CONTINUOUS
 10
81.6351636433
 20
120.8663756651
 11
81.3523148666
 21
120.7030738225
  0
LINE
  5
327
100
AcDbEntity
  8
0
100
AcDbLine
 62
7
  6
CONTINUOUS
 10
77.2864424846
 20
118.3147695287
 11
76.7207594148
 21
117.9881742056
  0
LINE
  5
328
100
AcDbEntity
  8
0
100
AcDbLine
 62
7
  6
CONTINUOUS
 10
73.7175256532
 20
116.097036474
 11
74.4246294904
 21
116.5052806278
  0
LINE
  5
329
100
AcDbEntity
  8
0
100
AcDbLine
 62
7
  6
CONTINUOUS
 10
81.6351636446
 20
120.2131737316
 11
81.3523148666
 21
120.0498718882
  0
LINE
  5
32A
100
AcDbEntity
  8
0
100
AcDbLine
 62
7
  6
CONTINUOUS
 10
79.5906163538
 20
118.5836520669
 11
78.7006619354
 21
118.069839711
  0
LINE
  5
32B
100
AcDbEntity
  8
0
100
AcDbLine
 62
7
  6
CONTINUOUS
 10
81.0694709776
 20
119.2741762999
 11
79.8320333746
 21
118.5597456313
  0
LINE
  5
32C
100
AcDbEntity
  8
0
100
AcDbLine
 62
7
  6
CONTINUOUS
 10
81.6351636445
 20
119.5599717972
 11
81.3523148666
 21
119.3966699539
  0
LINE
  5
32D
100
AcDbEntity
  8
0
100
AcDbLine
 62
7
  6
CONTINUOUS
 10
77.42786914
 20
116.7634310339
 11
77.9935522097
 21
117.090026357
  0
LINE
  5
32E
100
AcDbEntity
  8
0
100
AcDbLine
 62
7
  6
CONTINUOUS
 10
80.0441662914
 20
118.1923226812
 11
81.3876844043
 21
118.9679985952
  0
LINE
  5
32F
100
AcDbEntity
  8
0
100
AcDbLine
 62
7
  6
CONTINUOUS
 10
79.054216798
 20
117.4574681251
 11
79.9441740436
 21
117.9712821134
  0
LINE
  5
330
100
AcDbEntity
  8
0
100
AcDbLine
 62
7
  6
CONTINUOUS
 10
82.0594290078
 20
118.6243034116
 11
80.6776944052
 21
117.8265633287
  0
LINE
  5
331
100
AcDbEntity
  8
0
100
AcDbLine
 62
7
  6
CONTINUOUS
 10
80.776414767
 20
117.7977092895
 11
82.0594290078
 21
118.5384534851
  0
LINE
  5
332
100
AcDbEntity
  8
0
100
AcDbLine
 62
7
  6
CONTINUOUS
 10
82.0594290078
 20
118.2136381859
 11
81.369607116
 21
117.8153717083
  0
LINE
  5
333
100
AcDbEntity
  8
0
100
AcDbLine
 62
7
  6
CONTINUOUS
 10
81.4683274778
 20
117.7865176705
 11
82.0594290078
 21
118.1277882608
  0
LINE
  5
334
100
AcDbEntity
  8
0
100
AcDbLine
 62
7
  6
CONTINUOUS
 10
37.3582561211
 20
107.8932001675
 11
37.4797614223
 21
107.9447004247
  0
LINE
  5
335
100
AcDbEntity
  8
0
100
AcDbLine
 62
7
  6
CONTINUOUS
 10
81.0555434086
 20
116.6624922292
 11
80.5462690738
 21
116.6438376166
  0
LINE
  5
336
100
AcDbEntity
  8
0
100
AcDbLine
 62
7
  6
CONTINUOUS
 10
80.8382174893
 20
117.4729485107
 11
81.3078043943
 21
117.4869305526
  0
LINE
  5
337
100
AcDbEntity
  8
0
100
AcDbLine
 62
7
  6
CONTINUOUS
 10
81.3696071162
 20
117.8153717083
 11
80.7764147668
 21
117.7977092894
  0
LINE
  5
338
100
AcDbEntity
  8
0
100
AcDbLine
 62
7
  6
CONTINUOUS
 10
81.847296091
 20
117.2411240222
 11
82.1972828276
 21
117.2064772851
  0
LINE
  5
339
100
AcDbEntity
  8
0
100
AcDbLine
 62
7
  6
CONTINUOUS
 10
71.6952702593
 20
118.5887519239
 11
72.1952571744
 21
118.5392464315
  0
LINE
  5
33A
100
AcDbEntity
  8
0
100
AcDbLine
 62
7
  6
CONTINUOUS
 10
81.6351587569
 20
118.8251224434
 11
82.0594290078
 21
118.7612278616
  0
LINE
  5
33B
100
AcDbEntity
  8
0
100
AcDbLine
 62
7
  6
CONTINUOUS
 10
81.0694709776
 20
119.1517150466
 11
81.6351587569
 21
118.8251224434
  0
LINE
  5
33C
100
AcDbEntity
  8
0
100
AcDbLine
 62
7
  6
CONTINUOUS
 10
81.3523148666
 20
119.3966699539
 11
81.7058697291
 21
119.1925495767
  0
LINE
  5
33D
100
AcDbEntity
  8
0
100
AcDbLine
 62
7
  6
CONTINUOUS
 10
81.7058697291
 20
119.5191505438
 11
81.3523148666
 21
119.723270921
  0
LINE
  5
33E
100
AcDbEntity
  8
0
100
AcDbLine
 62
7
  6
CONTINUOUS
 10
81.3523148666
 20
120.0498718882
 11
81.7058697291
 21
119.8457515109
  0
LINE
  5
33F
100
AcDbEntity
  8
0
100
AcDbLine
 62
7
  6
CONTINUOUS
 10
81.7058697291
 20
120.1723524781
 11
81.3523148666
 21
120.3764728554
  0
LINE
  5
340
100
AcDbEntity
  8
0
100
AcDbLine
 62
7
  6
CONTINUOUS
 10
81.3523148666
 20
120.7030738225
 11
81.7058697291
 21
120.4989534452
  0
LINE
  5
341
100
AcDbEntity
  8
0
100
AcDbLine
 62
7
  6
CONTINUOUS
 10
81.7058697291
 20
120.8255544109
 11
81.3523148666
 21
121.0296747882
  0
LINE
  5
342
100
AcDbEntity
  8
0
100
AcDbLine
 62
7
  6
CONTINUOUS
 10
81.3523148666
 20
121.3562757553
 11
81.7058697291
 21
121.152155378
  0
LINE
  5
343
100
AcDbEntity
  8
0
100
AcDbLine
 62
7
  6
CONTINUOUS
 10
81.7058697291
 20
121.4787563452
 11
81.3523148666
 21
121.6828767225
  0
LINE
  5
344
100
AcDbEntity
  8
0
100
AcDbLine
 62
7
  6
CONTINUOUS
 10
81.3523148666
 20
122.0094776896
 11
81.7058697291
 21
121.8053573124
  0
LINE
  5
345
100
AcDbEntity
  8
0
100
AcDbLine
 62
7
  6
CONTINUOUS
 10
81.7058697291
 20
122.1319582795
 11
81.3523148666
 21
122.3360786567
  0
LINE
  5
346
100
AcDbEntity
  8
0
100
AcDbLine
 62
7
  6
CONTINUOUS
 10
81.4683404804
 20
122.5875443756
 11
81.8472816203
 21
122.3687675558
  0
LINE
  5
347
100
AcDbEntity
  8
0
100
AcDbLine
 62
7
  6
CONTINUOUS
 10
81.26804654
 20
122.7929811057
 11
81.0694709776
 21
122.9076261665
  0
LINE
  5
348
100
AcDbEntity
  8
0
100
AcDbLine
 62
7
  6
CONTINUOUS
 10
81.2215273631
 20
122.9015189153
 11
81.8826556986
 21
122.5198249279
  0
LINE
  5
349
100
AcDbEntity
  8
0
100
AcDbLine
 62
7
  6
CONTINUOUS
 10
80.0441662914
 20
123.8261893582
 11
80.6776814046
 21
123.4604375115
  0
LINE
  5
34A
100
AcDbEntity
  8
0
100
AcDbLine
 62
7
  6
CONTINUOUS
 10
88.2469219489
 20
119.1802799372
 11
82.9900122011
 21
122.2152895341
  0
LINE
  5
34B
100
AcDbEntity
  8
0
100
AcDbLine
 62
7
  6
CONTINUOUS
 10
76.8154941549
 20
125.7800685442
 11
69.5079761917
 21
129.998970563
  0
LINE
  5
34C
100
AcDbEntity
  8
0
100
AcDbLine
 62
7
  6
CONTINUOUS
 10
45.0315192913
 20
144.1628006915
 11
65.9019805809
 21
132.1135053568
  0
LINE
  5
34D
100
AcDbEntity
  8
0
100
AcDbLine
 62
7
  6
CONTINUOUS
 10
79.054216798
 20
124.5610391551
 11
80.3802851196
 21
123.7954505725
  0
LINE
  5
34E
100
AcDbEntity
  8
0
100
AcDbLine
 62
7
  6
CONTINUOUS
 10
88.4587790864
 20
119.3029113817
 11
83.2021433533
 21
122.3377627797
  0
LINE
  5
34F
100
AcDbEntity
  8
0
100
AcDbLine
 62
7
  6
CONTINUOUS
 10
77.0276253063
 20
125.9025417902
 11
69.72037137
 21
130.1212913765
  0
LINE
  5
350
100
AcDbEntity
  8
0
100
AcDbLine
 62
7
  6
CONTINUOUS
 10
69.5082273656
 20
130.4070767592
 11
88.2469593658
 21
119.5885095433
  0
LINE
  5
351
100
AcDbEntity
  8
0
100
AcDbLine
 62
7
  6
CONTINUOUS
 10
81.1951865701
 20
122.8792800689
 11
81.3696071163
 21
122.6726877204
  0
LINE
  5
352
100
AcDbEntity
  8
0
100
AcDbLine
 62
7
  6
CONTINUOUS
 10
80.546269073
 20
123.6518350738
 11
81.0555434089
 21
123.0451344147
  0
LINE
  5
353
100
AcDbEntity
  8
0
100
AcDbLine
 62
7
  6
CONTINUOUS
 10
88.812333949
 20
43.1967263074
 11
88.812333949
 21
118.6905397959
  0
LINE
  5
354
100
AcDbEntity
  8
0
100
AcDbLine
 62
7
  6
CONTINUOUS
 10
88.9537576604
 20
118.3639594042
 11
88.9537576604
 21
42.8697726222
  0
LINE
  5
355
100
AcDbEntity
  8
0
100
AcDbLine
 62
7
  6
CONTINUOUS
 10
90.3679771106
 20
37.9711390897
 11
90.3679771106
 21
132.0934944297
  0
LINE
  5
356
100
AcDbEntity
  8
0
100
AcDbLine
 62
7
  6
CONTINUOUS
 10
82.0594380755
 20
117.6902044901
 11
81.847296091
 21
117.5677249894
  0
LINE
  5
357
100
AcDbEntity
  8
0
100
AcDbLine
 62
7
  6
CONTINUOUS
 10
81.5894509701
 20
117.3899876044
 11
80.3802851199
 21
116.6918795425
  0
LINE
  5
358
100
AcDbEntity
  8
0
100
AcDbLine
 62
7
  6
CONTINUOUS
 10
73.7175256532
 20
112.8416413369
 11
74.4246294904
 21
113.2498854907
  0
LINE
  5
359
100
AcDbEntity
  8
0
100
AcDbLine
 62
7
  6
CONTINUOUS
 10
74.4797977101
 20
113.1563888923
 11
73.6892353763
 21
112.6999602406
  0
LINE
  5
35A
100
AcDbEntity
  8
0
100
AcDbLine
 62
7
  6
CONTINUOUS
 10
80.5462690738
 20
116.6438376166
 11
81.7140497611
 21
117.3180520863
  0
LINE
  5
35B
100
AcDbEntity
  8
0
100
AcDbLine
 62
7
  6
CONTINUOUS
 10
81.899913861
 20
117.1499868272
 11
81.0555434086
 21
116.6624922292
  0
LINE
  5
35C
100
AcDbEntity
  8
0
100
AcDbLine
 62
7
  6
CONTINUOUS
 10
82.1972904198
 20
117.206464135
 11
82.2362105606
 21
117.2289345546
  0
LINE
  5
35D
100
AcDbEntity
  8
0
100
AcDbLine
 62
7
  6
CONTINUOUS
 10
81.2215273625
 20
116.6144503034
 11
82.2362105606
 21
117.2002744241
  0
LINE
  5
35E
100
AcDbEntity
  8
0
100
AcDbLine
 62
7
  6
CONTINUOUS
 10
76.8585354516
 20
114.0741608684
 11
74.8743512756
 21
112.9285984384
  0
LINE
  5
35F
100
AcDbEntity
  8
0
100
AcDbLine
 62
7
  6
CONTINUOUS
 10
82.2362136143
 20
116.436881855
 11
81.8826556986
 21
116.2327563156
  0
LINE
  5
360
100
AcDbEntity
  8
0
100
AcDbLine
 62
7
  6
CONTINUOUS
 10
88.4587790864
 20
119.3029113817
 11
88.2466479352
 21
119.1804381355
  0
LINE
  5
361
100
AcDbEntity
  8
0
100
AcDbLine
 62
7
  6
CONTINUOUS
 10
78.5294990522
 20
113.1094514084
 11
72.8810089604
 21
109.8483135998
  0
LINE
  5
362
100
AcDbEntity
  8
0
100
AcDbLine
 62
7
  6
CONTINUOUS
 10
88.6002027978
 20
118.5680665497
 11
88.812333949
 21
118.6905397959
  0
LINE
  5
363
100
AcDbEntity
  8
0
100
AcDbLine
 62
7
  6
CONTINUOUS
 10
79.337725468
 20
112.642832226
 11
73.6892353763
 21
109.3816944174
  0
LINE
  5
364
100
AcDbEntity
  8
0
100
AcDbLine
 62
7
  6
CONTINUOUS
 10
72.4786694148
 20
108.2892137947
 11
73.185773252
 21
108.6974579486
  0
LINE
  5
365
100
AcDbEntity
  8
0
100
AcDbLine
 62
7
  6
CONTINUOUS
 10
82.9433202858
 20
114.2323410754
 11
82.377637216
 21
113.9057457523
  0
LINE
  5
366
100
AcDbEntity
  8
0
100
AcDbLine
 62
7
  6
CONTINUOUS
 10
79.7321950872
 20
111.957728305
 11
73.6892353763
 21
108.468844715
  0
LINE
  5
367
100
AcDbEntity
  8
0
100
AcDbLine
 62
7
  6
CONTINUOUS
 10
73.7175256532
 20
107.5739759928
 11
74.4246294904
 21
107.9822201466
  0
LINE
  5
368
100
AcDbEntity
  8
0
100
AcDbLine
 62
7
  6
CONTINUOUS
 10
79.7321950872
 20
110.5892939012
 11
74.8743512756
 21
107.7846332105
  0
LINE
  5
369
100
AcDbEntity
  8
0
100
AcDbLine
 62
7
  6
CONTINUOUS
 10
72.257055339
 20
106.1232494337
 11
71.4881474497
 21
105.6793229068
  0
LINE
  5
36A
100
AcDbEntity
  8
0
100
AcDbLine
 62
7
  6
CONTINUOUS
 10
72.1952571744
 20
104.4545797354
 11
72.8477793856
 21
104.8313113609
  0
LINE
  5
36B
100
AcDbEntity
  8
0
100
AcDbLine
 62
7
  6
CONTINUOUS
 10
69.5079761917
 20
129.998970563
 11
69.2582787778
 21
130.0235131026
  0
LINE
  5
36C
100
AcDbEntity
  8
0
100
AcDbLine
 62
7
  6
CONTINUOUS
 10
69.470409929
 20
130.1459863487
 11
69.7201073429
 21
130.1214438091
  0
LINE
  5
36D
100
AcDbEntity
  8
0
100
AcDbLine
 62
7
  6
CONTINUOUS
 10
69.0083178853
 20
130.4563936129
 11
69.5082273656
 21
130.4070767592
  0
LINE
  5
36E
100
AcDbEntity
  8
0
100
AcDbLine
 62
7
  6
CONTINUOUS
 10
78.8042233404
 20
124.5857919012
 11
79.054216798
 21
124.5610391551
  0
LINE
  5
36F
100
AcDbEntity
  8
0
100
AcDbLine
 62
7
  6
CONTINUOUS
 10
79.7321950872
 20
108.2981881187
 11
74.8743512756
 21
105.493527428
  0
LINE
  5
370
100
AcDbEntity
  8
0
100
AcDbLine
 62
7
  6
CONTINUOUS
 10
73.7175256532
 20
104.3185837882
 11
74.4246294904
 21
104.7268279421
  0
LINE
  5
371
100
AcDbEntity
  8
0
100
AcDbLine
 62
7
  6
CONTINUOUS
 10
71.4881474497
 20
101.2906224147
 11
72.1952632844
 21
101.6988734953
  0
LINE
  5
372
100
AcDbEntity
  8
0
100
AcDbLine
 62
7
  6
CONTINUOUS
 10
72.3809891175
 20
99.9679418
 11
73.0688738725
 21
100.3650898778
  0
LINE
  5
373
100
AcDbEntity
  8
0
100
AcDbLine
 62
7
  6
CONTINUOUS
 10
73.6202696213
 20
99.252459054
 11
74.3081543763
 21
99.6496071317
  0
LINE
  5
374
100
AcDbEntity
  8
0
100
AcDbLine
 62
7
  6
CONTINUOUS
 10
41.8899186878
 20
87.2230419683
 11
36.8603646377
 21
84.9043067741
  0
LINE
  5
375
100
AcDbEntity
  8
0
100
AcDbLine
 62
7
  6
CONTINUOUS
 10
41.9006450967
 20
87.0603479608
 11
36.8603646369
 21
84.7366676555
  0
LINE
  5
376
100
AcDbEntity
  8
0
100
AcDbLine
 62
7
  6
CONTINUOUS
 10
45.0315192913
 20
158.2679184112
 11
90.3679771106
 21
132.0934944297
  0
LINE
  5
377
100
AcDbEntity
  8
0
100
AcDbLine
 62
7
  6
CONTINUOUS
 10
151.745069724
 20
102.4744945579
 11
153.3007380017
 21
101.5763493778
  0
LINE
  5
378
100
AcDbEntity
  8
0
100
AcDbLine
 62
7
  6
CONTINUOUS
 10
106.2067992467
 20
194.5320945408
 11
106.2067992467
 21
196.2082460534
  0
LINE
  5
379
100
AcDbEntity
  8
0
100
AcDbLine
 62
7
  6
CONTINUOUS
 10
81.6705274908
 20
69.9370801354
 11
81.4634046808
 21
69.4793129805
  0
LINE
  5
37A
100
AcDbEntity
  8
0
100
AcDbLine
 62
7
  6
CONTINUOUS
 10
73.6202696213
 20
95.9964107162
 11
74.3081543763
 21
96.393558794
  0
LINE
  5
37B
100
AcDbEntity
  8
0
100
AcDbLine
 62
7
  6
CONTINUOUS
 10
74.4608330224
 20
96.2431942459
 11
73.6705535373
 21
95.786928896
  0
LINE
  5
37C
100
AcDbEntity
  8
0
100
AcDbLine
 62
7
  6
CONTINUOUS
 10
76.7921378569
 20
97.1889225557
 11
74.8074586956
 21
96.0430743474
  0
LINE
  5
37D
100
AcDbEntity
  8
0
100
AcDbLine
 62
7
  6
CONTINUOUS
 10
81.6159399774
 20
99.7691260049
 11
80.9634177662
 21
99.3923943794
  0
LINE
  5
37E
100
AcDbEntity
  8
0
100
AcDbLine
 62
7
  6
CONTINUOUS
 10
78.51102935
 20
96.1965425401
 11
72.8623271216
 21
92.9352822551
  0
LINE
  5
37F
100
AcDbEntity
  8
0
100
AcDbLine
 62
7
  6
CONTINUOUS
 10
79.3192557657
 20
95.7299233578
 11
73.6705535373
 21
92.4686630728
  0
LINE
  5
380
100
AcDbEntity
  8
0
100
AcDbLine
 62
7
  6
CONTINUOUS
 10
72.3809891175
 20
91.4441464667
 11
73.0688738725
 21
91.8412945444
  0
LINE
  5
381
100
AcDbEntity
  8
0
100
AcDbLine
 62
7
  6
CONTINUOUS
 10
79.7232713627
 20
95.0506573784
 11
73.6705535373
 21
91.556139972
  0
LINE
  5
382
100
AcDbEntity
  8
0
100
AcDbLine
 62
7
  6
CONTINUOUS
 10
73.6202696213
 20
90.7286637206
 11
74.3081543763
 21
91.1258117983
  0
LINE
  5
383
100
AcDbEntity
  8
0
100
AcDbLine
 62
7
  6
CONTINUOUS
 10
79.7232713627
 20
93.7378911474
 11
74.8074586956
 21
90.8997623222
  0
LINE
  5
384
100
AcDbEntity
  8
0
100
AcDbLine
 62
7
  6
CONTINUOUS
 10
91.0055615771
 20
142.7825794738
 11
45.6373031625
 21
168.9753631222
  0
LINE
  5
385
100
AcDbEntity
  8
0
100
AcDbLine
 62
7
  6
CONTINUOUS
 10
151.0374863439
 20
111.2924362194
 11
151.53245903
 21
111.0066700707
  0
LINE
  5
386
100
AcDbEntity
  8
0
100
AcDbLine
 62
7
  6
CONTINUOUS
 10
46.6064052897
 20
172.108706161
 11
92.0226000898
 21
145.8882470537
  0
LINE
  5
387
100
AcDbEntity
  8
0
100
AcDbLine
 62
7
  6
CONTINUOUS
 10
110.4493786843
 20
202.5769268345
 11
110.4493786843
 21
199.5694282975
  0
LINE
  5
388
100
AcDbEntity
  8
0
100
AcDbLine
 62
7
  6
CONTINUOUS
 10
116.1063349944
 20
196.2082462871
 11
116.1063349944
 21
199.3109554722
  0
LINE
  5
389
100
AcDbEntity
  8
0
100
AcDbLine
 62
7
  6
CONTINUOUS
 10
152.2368090522
 20
190.8387636882
 11
153.1948733853
 21
192.6272711078
  0
LINE
  5
38A
100
AcDbEntity
  8
0
100
AcDbLine
 62
7
  6
CONTINUOUS
 10
79.7232713627
 20
91.4462138126
 11
74.8074586956
 21
88.6080849873
  0
LINE
  5
38B
100
AcDbEntity
  8
0
100
AcDbLine
 62
7
  6
CONTINUOUS
 10
72.3809891175
 20
87.1096617351
 11
73.0688738725
 21
87.5068098129
  0
LINE
  5
38C
100
AcDbEntity
  8
0
100
AcDbLine
 62
7
  6
CONTINUOUS
 10
73.6202696213
 20
87.4726153829
 11
74.3081543763
 21
87.8697634606
  0
LINE
  5
38D
100
AcDbEntity
  8
0
100
AcDbLine
 62
7
  6
CONTINUOUS
 10
73.6202696213
 20
86.394178989
 11
74.3081543763
 21
86.7913270668
  0
LINE
  5
38E
100
AcDbEntity
  8
0
100
AcDbLine
 62
7
  6
CONTINUOUS
 10
73.6202696213
 20
83.1381306513
 11
74.3081543763
 21
83.535278729
  0
LINE
  5
38F
100
AcDbEntity
  8
0
100
AcDbLine
 62
7
  6
CONTINUOUS
 10
74.4608330224
 20
83.3849141809
 11
73.6705535373
 21
82.928648831
  0
LINE
  5
390
100
AcDbEntity
  8
0
100
AcDbLine
 62
7
  6
CONTINUOUS
 10
76.7921378569
 20
84.3306424908
 11
74.8074586956
 21
83.1847942825
  0
LINE
  5
391
100
AcDbEntity
  8
0
100
AcDbLine
 62
7
  6
CONTINUOUS
 10
78.51102935
 20
83.3382624752
 11
72.8623271216
 21
80.0770021902
  0
LINE
  5
392
100
AcDbEntity
  8
0
100
AcDbLine
 62
7
  6
CONTINUOUS
 10
154.9266260806
 20
111.6598183277
 11
151.5268903377
 21
113.6226122697
  0
LINE
  5
393
100
AcDbEntity
  8
0
100
AcDbLine
 62
7
  6
CONTINUOUS
 10
118.227646506
 20
200.5356607265
 11
118.227646506
 21
197.4329787487
  0
LINE
  5
394
100
AcDbEntity
  8
0
100
AcDbLine
 62
7
  6
CONTINUOUS
 10
123.679785008
 20
196.0713623101
 11
123.679785008
 21
196.3289394041
  0
LINE
  5
395
100
AcDbEntity
  8
0
100
AcDbLine
 62
7
  6
CONTINUOUS
 10
88.9537576604
 20
42.8697726222
 11
88.746570358
 21
42.4125465928
  0
LINE
  5
396
100
AcDbEntity
  8
0
100
AcDbLine
 62
7
  6
CONTINUOUS
 10
88.4966093762
 20
42.8454272578
 11
88.6002027978
 21
43.0739366572
  0
LINE
  5
397
100
AcDbEntity
  8
0
100
AcDbLine
 62
7
  6
CONTINUOUS
 10
88.812333949
 20
43.1964099033
 11
88.7087405274
 21
42.967900504
  0
LINE
  5
398
100
AcDbEntity
  8
0
100
AcDbLine
 62
7
  6
CONTINUOUS
 10
79.3192557657
 20
82.8716432928
 11
73.6705535373
 21
79.6103830078
  0
LINE
  5
399
100
AcDbEntity
  8
0
100
AcDbLine
 62
7
  6
CONTINUOUS
 10
72.3809891175
 20
78.5858664017
 11
73.0688738725
 21
78.9830144795
  0
LINE
  5
39A
100
AcDbEntity
  8
0
100
AcDbLine
 62
7
  6
CONTINUOUS
 10
80.0699106921
 20
82.3925084283
 11
73.6705535373
 21
78.6978599064
  0
LINE
  5
39B
100
AcDbEntity
  8
0
100
AcDbLine
 62
7
  6
CONTINUOUS
 10
73.6202696213
 20
77.8703836556
 11
74.3081543763
 21
78.2675317334
  0
LINE
  5
39C
100
AcDbEntity
  8
0
100
AcDbLine
 62
7
  6
CONTINUOUS
 10
80.0699106921
 20
81.0797421974
 11
74.8074586956
 21
78.0414822565
  0
LINE
  5
39D
100
AcDbEntity
  8
0
100
AcDbLine
 62
7
  6
CONTINUOUS
 10
72.257055339
 20
76.2596735269
 11
71.4881474497
 21
75.8157469999
  0
LINE
  5
39E
100
AcDbEntity
  8
0
100
AcDbLine
 62
7
  6
CONTINUOUS
 10
72.1952571749
 20
74.5910038283
 11
72.8971294267
 21
74.9962275429
  0
LINE
  5
39F
100
AcDbEntity
  8
0
100
AcDbLine
 62
7
  6
CONTINUOUS
 10
80.0699106921
 20
78.7880648632
 11
74.8074586956
 21
75.7498049224
  0
LINE
  5
3A0
100
AcDbEntity
  8
0
100
AcDbLine
 62
7
  6
CONTINUOUS
 10
73.6202696213
 20
74.6143353179
 11
74.3081543763
 21
75.0114833957
  0
LINE
  5
3A1
100
AcDbEntity
  8
0
100
AcDbLine
 62
7
  6
CONTINUOUS
 10
129.2585762867
 20
182.899597456
 11
129.2585762867
 21
181.2236476731
  0
LINE
  5
3A2
100
AcDbEntity
  8
0
100
AcDbLine
 62
7
  6
CONTINUOUS
 10
151.0374863439
 20
110.720899163
 11
151.53245903
 21
111.0066700707
  0
LINE
  5
3A3
100
AcDbEntity
  8
0
100
AcDbLine
 62
7
  6
CONTINUOUS
 10
81.6705336004
 20
69.9370695534
 11
80.9634177657
 21
69.5288184728
  0
LINE
  5
3A4
100
AcDbEntity
  8
0
100
AcDbLine
 62
7
  6
CONTINUOUS
 10
133.5011526112
 20
189.2682800343
 11
133.5011526112
 21
186.2607761403
  0
LINE
  5
3A5
100
AcDbEntity
  8
0
100
AcDbLine
 62
7
  6
CONTINUOUS
 10
139.1581120341
 20
182.8995976898
 11
139.1581120341
 21
186.0023068749
  0
LINE
  5
3A6
100
AcDbEntity
  8
0
100
AcDbLine
 62
7
  6
CONTINUOUS
 10
152.7345355532
 20
103.0457595107
 11
150.0692981137
 21
101.5069931428
  0
LINE
  5
3A7
100
AcDbEntity
  8
0
100
AcDbLine
 62
7
  6
CONTINUOUS
 10
69.0132616449
 20
54.627467434
 11
68.8011304937
 21
54.5049941878
  0
LINE
  5
3A8
100
AcDbEntity
  8
0
100
AcDbLine
 62
7
  6
CONTINUOUS
 10
69.5082402188
 20
53.2802510162
 11
69.72037137
 21
53.4027242623
  0
LINE
  5
3A9
100
AcDbEntity
  8
0
100
AcDbLine
 62
7
  6
CONTINUOUS
 10
155.4215301346
 20
102.8007819777
 11
153.3007380016
 21
101.5763493778
  0
LINE
  5
3AA
100
AcDbEntity
  8
0
100
AcDbLine
 62
7
  6
CONTINUOUS
 10
141.2794235458
 20
187.2270121291
 11
141.2794235458
 21
184.1243301514
  0
LINE
  5
3AB
100
AcDbEntity
  8
0
100
AcDbLine
 62
7
  6
CONTINUOUS
 10
65.9019806614
 20
52.0962691725
 11
53.9013129021
 21
46.7774785556
  0
LINE
  5
3AC
100
AcDbEntity
  8
0
100
AcDbLine
 62
7
  6
CONTINUOUS
 10
150.5931137851
 20
193.685744397
 11
150.2474795692
 21
193.604346128
  0
LINE
  5
3AD
100
AcDbEntity
  8
0
100
AcDbLine
 62
7
  6
CONTINUOUS
 10
152.7345355532
 20
103.0457595107
 11
153.3007380017
 21
101.5763493778
  0
LINE
  5
3AE
100
AcDbEntity
  8
0
100
AcDbLine
 62
7
  6
CONTINUOUS
 10
146.7315620477
 20
182.7627137128
 11
146.7315620477
 21
183.0202908067
  0
LINE
  5
3AF
100
AcDbEntity
  8
0
100
AcDbLine
 62
7
  6
CONTINUOUS
 10
151.0374863439
 20
110.720899163
 11
151.0374863439
 21
179.9603041356
  0
LINE
  5
3B0
100
AcDbEntity
  8
0
100
AcDbLine
 62
7
  6
CONTINUOUS
 10
136.9651175742
 20
64.8738500919
 11
150.0692981137
 21
101.5069931428
  0
LINE
  5
3B1
100
AcDbEntity
  8
0
100
AcDbLine
 62
7
  6
CONTINUOUS
 10
135.6224641228
 20
190.4929852886
 11
130.9684550459
 21
190.0772359177
  0
LINE
  5
3B2
100
AcDbEntity
  8
0
100
AcDbLine
 62
7
  6
CONTINUOUS
 10
132.2412419527
 20
190.8120753948
 11
132.8573202023
 21
190.867110557
  0
LINE
  5
3B3
100
AcDbEntity
  8
0
100
AcDbLine
 62
7
  6
CONTINUOUS
 10
136.487199922
 20
191.1913729692
 11
136.8952918405
 21
191.2278284113
  0
LINE
  5
3B4
100
AcDbEntity
  8
0
100
AcDbLine
 62
7
  6
CONTINUOUS
 10
132.9987409697
 20
190.9487593881
 11
136.6264991534
 21
191.2728322804
  0
LINE
  5
3B5
100
AcDbEntity
  8
0
100
AcDbLine
 62
7
  6
CONTINUOUS
 10
155.4215301347
 20
105.4135897122
 11
154.9266260805
 21
111.6598183277
  0
LINE
  5
3B6
100
AcDbEntity
  8
0
100
AcDbLine
 62
7
  6
CONTINUOUS
 10
155.4215301346
 20
105.4135897126
 11
155.4215301346
 21
102.8007819778
  0
LINE
  5
3B7
100
AcDbEntity
  8
0
100
AcDbLine
 62
7
  6
CONTINUOUS
 10
88.812333949
 20
43.1967263074
 11
88.6002027978
 21
43.0742530612
  0
LINE
  5
3B8
100
AcDbEntity
  8
0
100
AcDbLine
 62
7
  6
CONTINUOUS
 10
88.4966147847
 20
42.84541789
 11
88.7087459358
 21
42.9678911362
  0
LINE
  5
3B9
100
AcDbEntity
  8
0
100
AcDbLine
 62
7
  6
CONTINUOUS
 10
88.4587790864
 20
42.5843442675
 11
88.2466479352
 21
42.4618710214
  0
LINE
  5
3BA
100
AcDbEntity
  8
0
100
AcDbLine
 62
7
  6
CONTINUOUS
 10
127.1956994981
 20
206.9129947384
 11
127.5413351519
 21
206.994393346
  0
LINE
  5
3BB
100
AcDbEntity
  8
0
100
AcDbLine
 62
7
  6
CONTINUOUS
 10
105.5704371894
 20
196.5756415469
 11
106.2067992467
 21
196.2082460534
  0
LINE
  5
3BC
100
AcDbEntity
  8
0
100
AcDbLine
 62
7
  6
CONTINUOUS
 10
110.4494575978
 20
193.7588015262
 11
111.0858196553
 21
193.3914060326
  0
LINE
  5
3BD
100
AcDbEntity
  8
0
100
AcDbLine
 62
7
  6
CONTINUOUS
 10
128.6222142292
 20
183.2669929496
 11
129.2585762867
 21
182.899597456
  0
LINE
  5
3BE
100
AcDbEntity
  8
0
100
AcDbLine
 62
7
  6
CONTINUOUS
 10
133.5012346378
 20
180.4501529287
 11
134.1375966951
 21
180.0827574352
  0
LINE
  5
3BF
100
AcDbEntity
  8
0
100
AcDbLine
 62
7
  6
CONTINUOUS
 10
122.881655583
 20
194.7460461419
 11
118.227646506
 21
200.5356607265
  0
LINE
  5
3C0
100
AcDbEntity
  8
0
100
AcDbLine
 62
7
  6
CONTINUOUS
 10
90.3679771106
 20
37.9711390896
 11
136.9651175742
 21
64.8738500919
  0
LINE
  5
3C1
100
AcDbEntity
  8
0
100
AcDbLine
 62
7
  6
CONTINUOUS
 10
112.570690196
 20
203.801634164
 11
107.9166780061
 21
203.385884515
  0
LINE
  5
3C2
100
AcDbEntity
  8
0
100
AcDbLine
 62
7
  6
CONTINUOUS
 10
109.1894649129
 20
204.1207239921
 11
109.8055431625
 21
204.1757591543
  0
LINE
  5
3C3
100
AcDbEntity
  8
0
100
AcDbLine
 62
7
  6
CONTINUOUS
 10
113.4354229412
 20
204.500021572
 11
113.8435148006
 21
204.5364770088
  0
LINE
  5
3C4
100
AcDbEntity
  8
0
100
AcDbLine
 62
7
  6
CONTINUOUS
 10
109.9469639299
 20
204.2574079854
 11
113.5747221135
 21
204.5814808777
  0
LINE
  5
3C5
100
AcDbEntity
  8
0
100
AcDbLine
 62
7
  6
CONTINUOUS
 10
150.5931137851
 20
193.685744397
 11
152.6210384782
 21
193.621188255
  0
LINE
  5
3C6
100
AcDbEntity
  8
0
100
AcDbLine
 62
7
  6
CONTINUOUS
 10
139.1581120341
 20
182.8995976898
 11
139.0873235556
 21
182.9404665123
  0
LINE
  5
3C7
100
AcDbEntity
  8
0
100
AcDbLine
 62
7
  6
CONTINUOUS
 10
116.1063349944
 20
196.2082462871
 11
116.0355465158
 21
196.2491151097
  0
LINE
  5
3C8
100
AcDbEntity
  8
0
100
AcDbLine
 62
7
  6
CONTINUOUS
 10
145.9334326227
 20
181.4373975445
 11
141.2794235458
 21
184.1243301514
  0
LINE
  5
3C9
100
AcDbEntity
  8
0
100
AcDbLine
 62
7
  6
CONTINUOUS
 10
133.5011526112
 20
188.6150153764
 11
130.9684550458
 21
190.0772359177
  0
LINE
  5
3CA
100
AcDbEntity
  8
0
100
AcDbLine
 62
7
  6
CONTINUOUS
 10
122.8816555829
 20
194.7460461419
 11
118.227646506
 21
197.4329787487
  0
LINE
  5
3CB
100
AcDbEntity
  8
0
100
AcDbLine
 62
7
  6
CONTINUOUS
 10
110.4493786843
 20
201.9236621766
 11
107.9166780061
 21
203.385884515
  0
LINE
  5
3CC
100
AcDbEntity
  8
0
100
AcDbLine
 62
7
  6
CONTINUOUS
 10
119.500392602
 20
201.2705509725
 11
119.9094606856
 21
200.7616678775
  0
LINE
  5
3CD
100
AcDbEntity
  8
0
100
AcDbLine
 62
7
  6
CONTINUOUS
 10
123.5383642405
 20
196.2472905742
 11
124.1544424901
 21
195.4808856188
  0
LINE
  5
3CE
100
AcDbEntity
  8
0
100
AcDbLine
 62
7
  6
CONTINUOUS
 10
120.0520268243
 20
200.8418918602
 11
123.679785008
 21
196.3289394052
  0
LINE
  5
3CF
100
AcDbEntity
  8
0
100
AcDbLine
 62
7
  6
CONTINUOUS
 10
129.569259845
 20
206.929837204
 11
127.5413351519
 21
206.994393346
  0
LINE
  5
3D0
100
AcDbEntity
  8
0
100
AcDbLine
 62
7
  6
CONTINUOUS
 10
110.4493786843
 20
202.5769268345
 11
116.1063349944
 21
199.3109554722
  0
LINE
  5
3D1
100
AcDbEntity
  8
0
100
AcDbLine
 62
7
  6
CONTINUOUS
 10
133.5011526112
 20
189.2682800343
 11
139.1581120341
 21
186.0023068749
  0
LINE
  5
3D2
100
AcDbEntity
  8
0
100
AcDbLine
 62
7
  6
CONTINUOUS
 10
151.0374863439
 20
179.9603041356
 11
147.2062195297
 21
182.1722370215
  0
LINE
  5
3D3
100
AcDbEntity
  8
0
100
AcDbLine
 62
7
  6
CONTINUOUS
 10
132.2412419528
 20
190.8120753947
 11
124.1544424899
 21
195.4808856189
  0
LINE
  5
3D4
100
AcDbEntity
  8
0
100
AcDbLine
 62
7
  6
CONTINUOUS
 10
109.1894649131
 20
204.120723992
 11
105.3581980988
 21
206.3326568779
  0
LINE
  5
3D5
100
AcDbEntity
  8
0
100
AcDbLine
 62
7
  6
CONTINUOUS
 10
142.5521696418
 20
187.9619023751
 11
142.0784959427
 21
188.2353718261
  0
LINE
  5
3D6
100
AcDbEntity
  8
0
100
AcDbLine
 62
7
  6
CONTINUOUS
 10
137.3689655399
 20
190.9543589602
 11
136.8952918407
 21
191.2278284112
  0
LINE
  5
3D7
100
AcDbEntity
  8
0
100
AcDbLine
 62
7
  6
CONTINUOUS
 10
119.5003926021
 20
201.2705509725
 11
119.0267189029
 21
201.5440204235
  0
LINE
  5
3D8
100
AcDbEntity
  8
0
100
AcDbLine
 62
7
  6
CONTINUOUS
 10
114.3171885001
 20
204.2630075576
 11
113.843514801
 21
204.5364770086
  0
LINE
  5
3D9
100
AcDbEntity
  8
0
100
AcDbLine
 62
7
  6
CONTINUOUS
 10
114.4586092675
 20
204.3446563884
 11
119.1681396703
 21
201.6256692543
  0
LINE
  5
3DA
100
AcDbEntity
  8
0
100
AcDbLine
 62
7
  6
CONTINUOUS
 10
137.5103863073
 20
191.036007791
 11
142.2199167101
 21
188.3170206569
  0
LINE
  5
3DB
100
AcDbEntity
  8
0
100
AcDbLine
 62
7
  6
CONTINUOUS
 10
145.9334326227
 20
181.4373975445
 11
141.2794235458
 21
187.2270121291
  0
LINE
  5
3DC
100
AcDbEntity
  8
0
100
AcDbLine
 62
7
  6
CONTINUOUS
 10
142.5521696413
 20
187.9619023754
 11
142.9612377258
 21
187.4530192793
  0
LINE
  5
3DD
100
AcDbEntity
  8
0
100
AcDbLine
 62
7
  6
CONTINUOUS
 10
146.5901412803
 20
182.9386419768
 11
147.2062195299
 21
182.1722370214
  0
LINE
  5
3DE
100
AcDbEntity
  8
0
100
AcDbLine
 62
7
  6
CONTINUOUS
 10
143.103803864
 20
187.5332432629
 11
146.7315620477
 21
183.0202908079
  0
ARC
  5
3DF
100
AcDbEntity
  8
0
100
AcDbCircle
 62
7
  6
CONTINUOUS
 10
1573.2869461694
 20
2991.1324813744
 40
3267.1606095189
100
AcDbArc
 50
241.7740127123
 51
241.8881549256
  0
ARC
  5
3E0
100
AcDbEntity
  8
0
100
AcDbCircle
 62
7
  6
CONTINUOUS
 10
1103.9117125452
 20
-156.6185696278
 40
1107.2290343908
100
AcDbArc
 50
162.728984321
 51
162.8987034757
  0
ARC
  5
3E1
100
AcDbEntity
  8
0
100
AcDbCircle
 62
7
  6
CONTINUOUS
 10
201.3649145357
 20
655.0160709985
 40
572.8548388104
100
AcDbArc
 50
253.1742722886
 51
253.3884905934
  0
ARC
  5
3E2
100
AcDbEntity
  8
0
100
AcDbCircle
 62
7
  6
CONTINUOUS
 10
201.9899238732
 20
654.5728918059
 40
570.6236198055
100
AcDbArc
 50
253.2771582886
 51
253.5086457286
  0
ARC
  5
3E3
100
AcDbEntity
  8
0
100
AcDbCircle
 62
7
  6
CONTINUOUS
 10
198.2829182714
 20
642.4778139187
 40
557.9731286771
100
AcDbArc
 50
252.2397629651
 51
252.8570053134
  0
ARC
  5
3E4
100
AcDbEntity
  8
0
100
AcDbCircle
 62
7
  6
CONTINUOUS
 10
59.1150522681
 20
103.4717482187
 40
18.4242288089
100
AcDbArc
 50
200.4866617197
 51
200.7851824607
  0
ARC
  5
3E5
100
AcDbEntity
  8
0
100
AcDbCircle
 62
7
  6
CONTINUOUS
 10
59.0661612133
 20
103.4533280945
 40
18.3719830867
100
AcDbArc
 50
200.2278632402
 51
200.4862133438
  0
ARC
  5
3E6
100
AcDbEntity
  8
0
100
AcDbCircle
 62
7
  6
CONTINUOUS
 10
59.0498877005
 20
103.4462807848
 40
18.3493548507
100
AcDbArc
 50
200.4809938411
 51
200.7852757163
  0
ARC
  5
3E7
100
AcDbEntity
  8
0
100
AcDbCircle
 62
7
  6
CONTINUOUS
 10
55.905676347
 20
103.2581284318
 40
15.3658754469
100
AcDbArc
 50
202.0881143462
 51
203.6215015283
  0
ARC
  5
3E8
100
AcDbEntity
  8
0
100
AcDbCircle
 62
7
  6
CONTINUOUS
 10
138.1531160051
 20
184.3950814711
 40
5.3859485442
100
AcDbArc
 50
219.3621682534
 51
227.1899578095
  0
ARC
  5
3E9
100
AcDbEntity
  8
0
100
AcDbCircle
 62
7
  6
CONTINUOUS
 10
137.9001759194
 20
184.1288237206
 40
5.0187306495
100
AcDbArc
 50
227.2426880527
 51
229.6468798643
  0
ARC
  5
3EA
100
AcDbEntity
  8
0
100
AcDbCircle
 62
7
  6
CONTINUOUS
 10
44.4704025092
 20
103.2833838337
 40
3.5255563191
100
AcDbArc
 50
138.5649525559
 51
142.6560316005
  0
ARC
  5
3EB
100
AcDbEntity
  8
0
100
AcDbCircle
 62
7
  6
CONTINUOUS
 10
140.4541495827
 20
185.4739553983
 40
3.3524815134
100
AcDbArc
 50
45.0051101267
 51
49.8651437371
  0
ARC
  5
3EC
100
AcDbEntity
  8
0
100
AcDbCircle
 62
7
  6
CONTINUOUS
 10
117.4023725428
 20
198.7826039956
 40
3.3524815135
100
AcDbArc
 50
45.0051101268
 51
49.8651437362
  0
ARC
  5
3ED
100
AcDbEntity
  8
0
100
AcDbCircle
 62
7
  6
CONTINUOUS
 10
140.6290060216
 20
185.6800606496
 40
3.0821975887
100
AcDbArc
 50
49.8805680058
 51
51.9939353648
  0
ARC
  5
3EE
100
AcDbEntity
  8
0
100
AcDbCircle
 62
7
  6
CONTINUOUS
 10
117.5772289818
 20
198.9887092469
 40
3.0821975887
100
AcDbArc
 50
49.8805680049
 51
51.9939353648
  0
ARC
  5
3EF
100
AcDbEntity
  8
0
100
AcDbCircle
 62
7
  6
CONTINUOUS
 10
44.0507505284
 20
103.7801055352
 40
2.8837795673
100
AcDbArc
 50
138.5302528998
 51
140.4464606574
  0
ARC
  5
3F0
100
AcDbEntity
  8
0
100
AcDbCircle
 62
7
  6
CONTINUOUS
 10
44.0624627948
 20
115.466157099
 40
2.164758806
100
AcDbArc
 50
178.8167265588
 51
179.9353436552
  0
ARC
  5
3F1
100
AcDbEntity
  8
0
100
AcDbCircle
 62
7
  6
CONTINUOUS
 10
39.7712936415
 20
87.0578481723
 40
2.1293529225
100
AcDbArc
 50
0.0672633264
 51
1.2451374551
  0
ARC
  5
3F2
100
AcDbEntity
  8
0
100
AcDbCircle
 62
7
  6
CONTINUOUS
 10
43.7965747158
 20
87.2275513783
 40
1.8988695443
100
AcDbArc
 50
180.0277198462
 51
180.8828036843
  0
ARC
  5
3F3
100
AcDbEntity
  8
0
100
AcDbCircle
 62
7
  6
CONTINUOUS
 10
73.0876571514
 20
75.9060303875
 40
1.5985633965
100
AcDbArc
 50
217.1917343513
 51
221.5577645451
  0
ARC
  5
3F4
100
AcDbEntity
  8
0
100
AcDbCircle
 62
7
  6
CONTINUOUS
 10
110.9622193036
 20
198.4097829104
 40
1.2606335276
100
AcDbArc
 50
115.2074514062
 51
119.9961548555
  0
ARC
  5
3F5
100
AcDbEntity
  8
0
100
AcDbCircle
 62
7
  6
CONTINUOUS
 10
134.010996384
 20
185.1057970654
 40
1.2551582578
100
AcDbArc
 50
115.3505114841
 51
119.9838580976
  0
ARC
  5
3F6
100
AcDbEntity
  8
0
100
AcDbCircle
 62
7
  6
CONTINUOUS
 10
80.8016569042
 20
99.7999880695
 40
0.8688708439
100
AcDbArc
 50
355.3496128783
 51
0.044047981
  0
ARC
  5
3F7
100
AcDbEntity
  8
0
100
AcDbCircle
 62
7
  6
CONTINUOUS
 10
88.7756220201
 20
42.8943952781
 40
0.406249381
100
AcDbArc
 50
271.2180765597
 51
278.048679595
  0
ARC
  5
3F8
100
AcDbEntity
  8
0
100
AcDbCircle
 62
7
  6
CONTINUOUS
 10
69.4400680874
 20
130.2406836848
 40
0.4061652817
100
AcDbArc
 50
141.958972521
 51
148.7902032639
  0
SPLINE
  5
3F9
100
AcDbEntity
  8
0
100
AcDbSpline
 62
7
  6
CONTINUOUS
 70
0
 71
3
 72
11
 73
7
 74
0
 42
0.0000001
 43
0.0000001
 44
0.0000000001
 40
0.0
 40
0.0
 40
0.0
 40
0.0
 40
0.2809794299
 40
0.5557131989
 40
0.7995930823
 40
1.0
 40
1.0
 40
1.0
 40
1.0
 10
129.9600224725
 20
206.6909974667
 30
0.0
 10
130.0085484475
 20
206.6323705736
 30
0.0
 10
130.0913620686
 20
206.5050353273
 30
0.0
 10
130.1693998743
 20
206.3010787334
 30
0.0
 10
130.1943131386
 20
206.1060184439
 30
0.0
 10
130.1687122883
 20
205.9838002389
 30
0.0
 10
130.1430514416
 20
205.9359677084
 30
0.0
  0
SPLINE
  5
3FA
100
AcDbEntity
  8
0
100
AcDbSpline
 62
7
  6
CONTINUOUS
 70
0
 71
3
 72
9
 73
5
 74
0
 42
0.0000001
 43
0.0000001
 44
0.0000000001
 40
0.0
 40
0.0
 40
0.0
 40
0.0
 40
0.2584927487
 40
1.0
 40
1.0
 40
1.0
 40
1.0
 10
146.4149810943
 20
187.5753874303
 30
0.0
 10
146.4305634758
 20
187.572327
 30
0.0
 10
146.4911160278
 20
187.5619609874
 30
0.0
 10
146.552789713
 20
187.5577291791
 30
0.0
 10
146.5983312474
 20
187.5587635184
 30
0.0
  0
SPLINE
  5
3FB
100
AcDbEntity
  8
0
100
AcDbSpline
 62
7
  6
CONTINUOUS
 70
0
 71
3
 72
9
 73
5
 74
0
 42
0.0000001
 43
0.0000001
 44
0.0000000001
 40
0.0
 40
0.0
 40
0.0
 40
0.0
 40
0.2603676206
 40
1.0
 40
1.0
 40
1.0
 40
1.0
 10
146.5983312474
 20
187.5587635184
 30
0.0
 10
146.6257352397
 20
187.5593859179
 30
0.0
 10
146.7307392898
 20
187.5674248856
 30
0.0
 10
146.8340759898
 20
187.6014531603
 30
0.0
 10
146.9015285267
 20
187.6403563962
 30
0.0
  0
SPLINE
  5
3FC
100
AcDbEntity
  8
0
100
AcDbSpline
 62
7
  6
CONTINUOUS
 70
0
 71
3
 72
9
 73
5
 74
0
 42
0.0000001
 43
0.0000001
 44
0.0000000001
 40
0.0
 40
0.0
 40
0.0
 40
0.0
 40
0.4440048467
 40
1.0
 40
1.0
 40
1.0
 40
1.0
 10
152.6210614858
 20
193.6211204011
 30
0.0
 10
152.6901860645
 20
193.6190002523
 30
0.0
 10
152.8421847202
 20
193.557433242
 30
0.0
 10
152.956577269
 20
193.4490645447
 30
0.0
 10
153.011795807
 20
193.3823521397
 30
0.0
  0
SPLINE
  5
3FD
100
AcDbEntity
  8
0
100
AcDbSpline
 62
7
  6
CONTINUOUS
 70
0
 71
3
 72
9
 73
5
 74
0
 42
0.0000001
 43
0.0000001
 44
0.0000000001
 40
0.0
 40
0.0
 40
0.0
 40
0.0
 40
0.2441405528
 40
1.0
 40
1.0
 40
1.0
 40
1.0
 10
145.1555559258
 20
190.664487674
 30
0.0
 10
145.1332871146
 20
190.651644142
 30
0.0
 10
145.0455034137
 20
190.5930899408
 30
0.0
 10
144.9747412317
 20
190.5106796442
 30
0.0
 10
144.9333324515
 20
190.4427107694
 30
0.0
  0
SPLINE
  5
3FE
100
AcDbEntity
  8
0
100
AcDbSpline
 62
7
  6
CONTINUOUS
 70
0
 71
3
 72
9
 73
5
 74
0
 42
0.0000001
 43
0.0000001
 44
0.0000000001
 40
0.0
 40
0.0
 40
0.0
 40
0.0
 40
0.2421764679
 40
1.0
 40
1.0
 40
1.0
 40
1.0
 10
144.9333324515
 20
190.4427107694
 30
0.0
 10
144.9255910725
 20
190.4300039759
 30
0.0
 10
144.895185791
 20
190.3765902122
 30
0.0
 10
144.8710088896
 20
190.3197099973
 30
0.0
 10
144.8559542876
 20
190.2756506121
 30
0.0
  0
SPLINE
  5
3FF
100
AcDbEntity
  8
0
100
AcDbSpline
 62
7
  6
CONTINUOUS
 70
0
 71
3
 72
9
 73
5
 74
0
 42
0.0000001
 43
0.0000001
 44
0.0000000001
 40
0.0
 40
0.0
 40
0.0
 40
0.0
 40
0.2558187244
 40
1.0
 40
1.0
 40
1.0
 40
1.0
 10
45.6373031624
 20
168.9753631222
 30
0.0
 10
45.5416144513
 20
168.0656660507
 30
0.0
 10
45.2089525677
 20
164.5054910019
 30
0.0
 10
45.0453859636
 20
160.9288999047
 30
0.0
 10
45.0316648931
 20
158.268010395
 30
0.0
  0
SPLINE
  5
400
100
AcDbEntity
  8
0
100
AcDbSpline
 62
7
  6
CONTINUOUS
 70
0
 71
3
 72
19
 73
15
 74
0
 42
0.0000001
 43
0.0000001
 44
0.0000000001
 40
0.0
 40
0.0
 40
0.0
 40
0.0
 40
0.2505472566
 40
0.3758263219
 40
0.5011099177
 40
0.626384832
 40
0.6890143878
 40
0.7516444697
 40
0.7829767448
 40
0.8142984093
 40
0.8455486211
 40
0.8766861587
 40
0.9385883912
 40
1.0
 40
1.0
 40
1.0
 40
1.0
 10
105.3581980989
 20
206.3326568779
 30
0.0
 10
100.4402103997
 20
203.4932723048
 30
0.0
 10
93.0634125291
 20
199.2336308675
 30
0.0
 10
83.2268355054
 20
193.5552054139
 30
0.0
 10
75.848814564
 20
189.2971725833
 30
0.0
 10
69.7012041196
 20
185.7479782517
 30
0.0
 10
64.7839309711
 20
182.9079327537
 30
0.0
 10
61.7113333478
 20
181.1313393332
 30
0.0
 10
59.2507899679
 20
179.7138621463
 30
0.0
 10
57.4066078161
 20
178.6512985815
 30
0.0
 10
55.5708329636
 20
177.5829988123
 30
0.0
 10
53.1456240207
 20
176.1496379688
 30
0.0
 10
50.1504718896
 20
174.3371458544
 30
0.0
 10
47.7813575552
 20
172.8540001344
 30
0.0
 10
46.6054545545
 20
172.1092064966
 30
0.0
  0
SPLINE
  5
401
100
AcDbEntity
  8
0
100
AcDbSpline
 62
7
  6
CONTINUOUS
 70
0
 71
3
 72
12
 73
8
 74
0
 42
0.0000001
 43
0.0000001
 44
0.0000000001
 40
0.0
 40
0.0
 40
0.0
 40
0.0
 40
0.2460765489
 40
0.4943983761
 40
0.7453611951
 40
0.8721098486
 40
1.0
 40
1.0
 40
1.0
 40
1.0
 10
95.0875932093
 20
184.8895650537
 30
0.0
 10
93.6862388668
 20
184.0803764721
 30
0.0
 10
90.8583097644
 20
182.4760347178
 30
0.0
 10
86.5581748672
 20
180.1233053054
 30
0.0
 10
82.9118487549
 20
178.2114438947
 30
0.0
 10
79.9397221919
 20
176.7209665146
 30
0.0
 10
78.4317210385
 20
175.9927430312
 30
0.0
 10
77.6703184026
 20
175.635588372
 30
0.0
  0
SPLINE
  5
402
100
AcDbEntity
  8
0
100
AcDbSpline
 62
7
  6
CONTINUOUS
 70
0
 71
3
 72
11
 73
7
 74
0
 42
0.0000001
 43
0.0000001
 44
0.0000000001
 40
0.0
 40
0.0
 40
0.0
 40
0.0
 40
0.2460624938
 40
0.4943741499
 40
0.7453315385
 40
1.0
 40
1.0
 40
1.0
 40
1.0
 10
118.1405972075
 20
171.5817550827
 30
0.0
 10
116.7361458034
 20
170.7718632868
 30
0.0
 10
113.9035764413
 20
169.163339107
 30
0.0
 10
109.5949645785
 20
166.8066342543
 30
0.0
 10
105.1950145479
 20
164.5004620653
 30
0.0
 10
102.20778949
 20
163.0240885339
 30
0.0
 10
100.688446436
 20
162.3119958274
 30
0.0
  0
SPLINE
  5
403
100
AcDbEntity
  8
0
100
AcDbSpline
 62
7
  6
CONTINUOUS
 70
0
 71
3
 72
11
 73
7
 74
0
 42
0.0000001
 43
0.0000001
 44
0.0000000001
 40
0.0
 40
0.0
 40
0.0
 40
0.0
 40
0.1853593905
 40
0.4042043109
 40
0.6771009081
 40
1.0
 40
1.0
 40
1.0
 40
1.0
 10
32.8437671545
 20
103.291906535
 30
0.0
 10
32.8689434708
 20
103.3064427885
 30
0.0
 10
32.9348834301
 20
103.3206951879
 30
0.0
 10
33.038752704
 20
103.2861110304
 30
0.0
 10
33.1411462046
 20
103.2075671125
 30
0.0
 10
33.2027128665
 20
103.1367017281
 30
0.0
 10
33.2337209102
 20
103.0966616249
 30
0.0
  0
SPLINE
  5
404
100
AcDbEntity
  8
0
100
AcDbSpline
 62
7
  6
CONTINUOUS
 70
0
 71
3
 72
10
 73
6
 74
0
 42
0.0000001
 43
0.0000001
 44
0.0000000001
 40
0.0
 40
0.0
 40
0.0
 40
0.0
 40
0.2281301194
 40
0.4774391342
 40
1.0
 40
1.0
 40
1.0
 40
1.0
 10
129.2585762867
 20
181.2236476731
 30
0.0
 10
129.258568856
 20
181.003784599
 30
0.0
 10
129.3110799997
 20
180.5430012298
 30
0.0
 10
129.5815963002
 20
179.6154808442
 30
0.0
 10
129.950855617
 20
178.952882339
 30
0.0
 10
130.2575421336
 20
178.5534068464
 30
0.0
  0
SPLINE
  5
405
100
AcDbEntity
  8
0
100
AcDbSpline
 62
7
  6
CONTINUOUS
 70
0
 71
3
 72
9
 73
5
 74
0
 42
0.0000001
 43
0.0000001
 44
0.0000000001
 40
0.0
 40
0.0
 40
0.0
 40
0.0
 40
0.4880657242
 40
1.0
 40
1.0
 40
1.0
 40
1.0
 10
26.8055503229
 20
113.0411759061
 30
0.0
 10
27.021992323
 20
112.9711540416
 30
0.0
 10
27.4543280073
 20
112.7939648227
 30
0.0
 10
27.8718461744
 20
112.586329543
 30
0.0
 10
28.0818868008
 20
112.4731106094
 30
0.0
  0
SPLINE
  5
406
100
AcDbEntity
  8
0
100
AcDbSpline
 62
7
  6
CONTINUOUS
 70
0
 71
3
 72
9
 73
5
 74
0
 42
0.0000001
 43
0.0000001
 44
0.0000000001
 40
0.0
 40
0.0
 40
0.0
 40
0.0
 40
0.4499704372
 40
1.0
 40
1.0
 40
1.0
 40
1.0
 10
79.8941572115
 20
123.8410635494
 30
0.0
 10
79.9144206421
 20
123.8527624307
 30
0.0
 10
79.9698133578
 20
123.8608656457
 30
0.0
 10
80.0193960472
 20
123.8404881908
 30
0.0
 10
80.0441662914
 20
123.8261893582
 30
0.0
  0
SPLINE
  5
407
100
AcDbEntity
  8
0
100
AcDbSpline
 62
7
  6
CONTINUOUS
 70
0
 71
3
 72
9
 73
5
 74
0
 42
0.0000001
 43
0.0000001
 44
0.0000000001
 40
0.0
 40
0.0
 40
0.0
 40
0.0
 40
0.242412812
 40
1.0
 40
1.0
 40
1.0
 40
1.0
 10
142.2199167101
 20
188.3170206569
 30
0.0
 10
142.245883632
 20
188.3020163411
 30
0.0
 10
142.3518086294
 20
188.2380651607
 30
0.0
 10
142.452992203
 20
188.1663614315
 30
0.0
 10
142.5268534094
 20
188.1086646247
 30
0.0
  0
SPLINE
  5
408
100
AcDbEntity
  8
0
100
AcDbSpline
 62
7
  6
CONTINUOUS
 70
0
 71
3
 72
9
 73
5
 74
0
 42
0.0000001
 43
0.0000001
 44
0.0000000001
 40
0.0
 40
0.0
 40
0.0
 40
0.0
 40
0.2462014029
 40
1.0
 40
1.0
 40
1.0
 40
1.0
 10
142.8245005582
 20
187.8447292278
 30
0.0
 10
142.8488177461
 20
187.8204764938
 30
0.0
 10
142.9461666553
 20
187.7205519297
 30
0.0
 10
143.0379094273
 20
187.6151875677
 30
0.0
 10
143.103803864
 20
187.5332432629
 30
0.0
  0
SPLINE
  5
409
100
AcDbEntity
  8
0
100
AcDbSpline
 62
7
  6
CONTINUOUS
 70
0
 71
3
 72
9
 73
5
 74
0
 42
0.0000001
 43
0.0000001
 44
0.0000000001
 40
0.0
 40
0.0
 40
0.0
 40
0.0
 40
0.2418060746
 40
1.0
 40
1.0
 40
1.0
 40
1.0
 10
136.6264991534
 20
191.2728322804
 30
0.0
 10
136.6489724325
 20
191.2748252624
 30
0.0
 10
136.7421810458
 20
191.2799309596
 30
0.0
 10
136.8359106352
 20
191.2728291188
 30
0.0
 10
136.9057950541
 20
191.2618439303
 30
0.0
  0
SPLINE
  5
40A
100
AcDbEntity
  8
0
100
AcDbSpline
 62
7
  6
CONTINUOUS
 70
0
 71
3
 72
9
 73
5
 74
0
 42
0.0000001
 43
0.0000001
 44
0.0000000001
 40
0.0
 40
0.0
 40
0.0
 40
0.0
 40
0.2408526116
 40
1.0
 40
1.0
 40
1.0
 40
1.0
 10
136.9057950541
 20
191.2618439303
 30
0.0
 10
136.9302582476
 20
191.2579985411
 30
0.0
 10
137.0313709525
 20
191.239169363
 30
0.0
 10
137.1303276966
 20
191.2094081158
 30
0.0
 10
137.203444853
 20
191.1820930694
 30
0.0
  0
SPLINE
  5
40B
100
AcDbEntity
  8
0
100
AcDbSpline
 62
7
  6
CONTINUOUS
 70
0
 71
3
 72
9
 73
5
 74
0
 42
0.0000001
 43
0.0000001
 44
0.0000000001
 40
0.0
 40
0.0
 40
0.0
 40
0.0
 40
0.2413880589
 40
1.0
 40
1.0
 40
1.0
 40
1.0
 10
137.203444853
 20
191.1820930694
 30
0.0
 10
137.2290839559
 20
191.1725148347
 30
0.0
 10
137.3343777701
 20
191.1303850679
 30
0.0
 10
137.4358839132
 20
191.078996403
 30
0.0
 10
137.5103863073
 20
191.036007791
 30
0.0
  0
SPLINE
  5
40C
100
AcDbEntity
  8
0
100
AcDbSpline
 62
7
  6
CONTINUOUS
 70
0
 71
3
 72
9
 73
5
 74
0
 42
0.0000001
 43
0.0000001
 44
0.0000000001
 40
0.0
 40
0.0
 40
0.0
 40
0.0
 40
0.242412812
 40
1.0
 40
1.0
 40
1.0
 40
1.0
 10
119.1681396703
 20
201.6256692543
 30
0.0
 10
119.1941065922
 20
201.6106649385
 30
0.0
 10
119.3000315895
 20
201.5467137581
 30
0.0
 10
119.4012151632
 20
201.4750100288
 30
0.0
 10
119.4750763696
 20
201.4173132221
 30
0.0
  0
SPLINE
  5
40D
100
AcDbEntity
  8
0
100
AcDbSpline
 62
7
  6
CONTINUOUS
 70
0
 71
3
 72
9
 73
5
 74
0
 42
0.0000001
 43
0.0000001
 44
0.0000000001
 40
0.0
 40
0.0
 40
0.0
 40
0.0
 40
0.2462014029
 40
1.0
 40
1.0
 40
1.0
 40
1.0
 10
119.7727235184
 20
201.1533778252
 30
0.0
 10
119.7970407063
 20
201.1291250911
 30
0.0
 10
119.8943896155
 20
201.029200527
 30
0.0
 10
119.9861323876
 20
200.923836165
 30
0.0
 10
120.0520268243
 20
200.8418918602
 30
0.0
  0
SPLINE
  5
40E
100
AcDbEntity
  8
0
100
AcDbSpline
 62
7
  6
CONTINUOUS
 70
0
 71
3
 72
9
 73
5
 74
0
 42
0.0000001
 43
0.0000001
 44
0.0000000001
 40
0.0
 40
0.0
 40
0.0
 40
0.0
 40
0.2418060746
 40
1.0
 40
1.0
 40
1.0
 40
1.0
 10
113.5747221135
 20
204.5814808777
 30
0.0
 10
113.5971953926
 20
204.5834738597
 30
0.0
 10
113.690404006
 20
204.5885795569
 30
0.0
 10
113.7841335954
 20
204.5814777162
 30
0.0
 10
113.8540180144
 20
204.5704925277
 30
0.0
  0
SPLINE
  5
40F
100
AcDbEntity
  8
0
100
AcDbSpline
 62
7
  6
CONTINUOUS
 70
0
 71
3
 72
9
 73
5
 74
0
 42
0.0000001
 43
0.0000001
 44
0.0000000001
 40
0.0
 40
0.0
 40
0.0
 40
0.0
 40
0.2408526116
 40
1.0
 40
1.0
 40
1.0
 40
1.0
 10
113.8540180144
 20
204.5704925277
 30
0.0
 10
113.8784812078
 20
204.5666471385
 30
0.0
 10
113.9795939127
 20
204.5478179604
 30
0.0
 10
114.0785506568
 20
204.5180567131
 30
0.0
 10
114.1516678133
 20
204.4907416668
 30
0.0
  0
SPLINE
  5
410
100
AcDbEntity
  8
0
100
AcDbSpline
 62
7
  6
CONTINUOUS
 70
0
 71
3
 72
9
 73
5
 74
0
 42
0.0000001
 43
0.0000001
 44
0.0000000001
 40
0.0
 40
0.0
 40
0.0
 40
0.0
 40
0.2413880589
 40
1.0
 40
1.0
 40
1.0
 40
1.0
 10
114.1516678133
 20
204.4907416668
 30
0.0
 10
114.1773069161
 20
204.4811634321
 30
0.0
 10
114.2826007303
 20
204.4390336652
 30
0.0
 10
114.3841068734
 20
204.3876450004
 30
0.0
 10
114.4586092675
 20
204.3446563884
 30
0.0
  0
SPLINE
  5
411
100
AcDbEntity
  8
0
100
AcDbSpline
 62
7
  6
CONTINUOUS
 70
0
 71
3
 72
10
 73
6
 74
0
 42
0.0000001
 43
0.0000001
 44
0.0000000001
 40
0.0
 40
0.0
 40
0.0
 40
0.0
 40
0.2259700855
 40
0.4767986188
 40
1.0
 40
1.0
 40
1.0
 40
1.0
 10
106.2065792748
 20
194.5305975016
 30
0.0
 10
106.2065595237
 20
194.3128293892
 30
0.0
 10
106.2586973728
 20
193.85269425
 30
0.0
 10
106.5293711672
 20
192.9251862293
 30
0.0
 10
106.8996643179
 20
192.2609278305
 30
0.0
 10
107.2064671859
 20
191.8608020746
 30
0.0
  0
SPLINE
  5
412
100
AcDbEntity
  8
0
100
AcDbSpline
 62
7
  6
CONTINUOUS
 70
0
 71
3
 72
9
 73
5
 74
0
 42
0.0000001
 43
0.0000001
 44
0.0000000001
 40
0.0
 40
0.0
 40
0.0
 40
0.0
 40
0.2544841414
 40
1.0
 40
1.0
 40
1.0
 40
1.0
 10
110.937176824
 20
194.2878437025
 30
0.0
 10
110.9778224935
 20
194.2387374389
 30
0.0
 10
111.1406443537
 20
194.0483751455
 30
0.0
 10
111.31578966
 20
193.8684640915
 30
0.0
 10
111.4531127789
 20
193.7419113894
 30
0.0
  0
SPLINE
  5
413
100
AcDbEntity
  8
0
100
AcDbSpline
 62
7
  6
CONTINUOUS
 70
0
 71
3
 72
15
 73
11
 74
0
 42
0.0000001
 43
0.0000001
 44
0.0000000001
 40
0.0
 40
0.0
 40
0.0
 40
0.0
 40
0.0878901341
 40
0.1841872487
 40
0.2939289926
 40
0.4182201
 40
0.5552237839
 40
0.7011422405
 40
0.8512335119
 40
1.0
 40
1.0
 40
1.0
 40
1.0
 10
110.3319758084
 20
199.5015658685
 30
0.0
 10
110.1849919964
 20
199.416706342
 30
0.0
 10
109.9125305267
 20
199.1713654304
 30
0.0
 10
109.653864696
 20
198.6552817047
 30
0.0
 10
109.537235331
 20
198.0216226363
 30
0.0
 10
109.5616013694
 20
197.3012117762
 30
0.0
 10
109.7232705531
 20
196.5283354533
 30
0.0
 10
110.013434809
 20
195.7411763235
 30
0.0
 10
110.4173782964
 20
194.9805147761
 30
0.0
 10
110.7540018341
 20
194.5091474586
 30
0.0
 10
110.937176824
 20
194.2878437025
 30
0.0
  0
SPLINE
  5
414
100
AcDbEntity
  8
0
100
AcDbSpline
 62
7
  6
CONTINUOUS
 70
0
 71
3
 72
15
 73
11
 74
0
 42
0.0000001
 43
0.0000001
 44
0.0000000001
 40
0.0
 40
0.0
 40
0.0
 40
0.0
 40
0.087898499
 40
0.1842058207
 40
0.2939589743
 40
0.4182529922
 40
0.5552527254
 40
0.7011801528
 40
0.8512261319
 40
1.0
 40
1.0
 40
1.0
 40
1.0
 10
133.3837235195
 20
186.1929727667
 30
0.0
 10
133.2367097883
 20
186.1081320362
 30
0.0
 10
132.9642705936
 20
185.8626848844
 30
0.0
 10
132.7056375195
 20
185.3465364154
 30
0.0
 10
132.5890398087
 20
184.7128170503
 30
0.0
 10
132.6134404953
 20
183.9923931181
 30
0.0
 10
132.7750027464
 20
183.2194793783
 30
0.0
 10
133.0653448395
 20
182.4324245156
 30
0.0
 10
133.4693231252
 20
181.6719818671
 30
0.0
 10
133.8049978759
 20
181.1998766438
 30
0.0
 10
133.9889563678
 20
180.9792043896
 30
0.0
  0
SPLINE
  5
415
100
AcDbEntity
  8
0
100
AcDbSpline
 62
7
  6
CONTINUOUS
 70
0
 71
3
 72
9
 73
5
 74
0
 42
0.0000001
 43
0.0000001
 44
0.0000000001
 40
0.0
 40
0.0
 40
0.0
 40
0.0
 40
0.2584927047
 40
1.0
 40
1.0
 40
1.0
 40
1.0
 10
123.3632085446
 20
200.8840227416
 30
0.0
 10
123.3787909211
 20
200.8809623508
 30
0.0
 10
123.4393434597
 20
200.8705964864
 30
0.0
 10
123.5010171141
 20
200.866364814
 30
0.0
 10
123.5465586209
 20
200.8673992407
 30
0.0
  0
SPLINE
  5
416
100
AcDbEntity
  8
0
100
AcDbSpline
 62
7
  6
CONTINUOUS
 70
0
 71
3
 72
9
 73
5
 74
0
 42
0.0000001
 43
0.0000001
 44
0.0000000001
 40
0.0
 40
0.0
 40
0.0
 40
0.0
 40
0.2603675378
 40
1.0
 40
1.0
 40
1.0
 40
1.0
 10
123.5465586209
 20
200.8673992407
 30
0.0
 10
123.5739625938
 20
200.8680216927
 30
0.0
 10
123.6789665931
 20
200.8760608484
 30
0.0
 10
123.7823031982
 20
200.9100891988
 30
0.0
 10
123.8497557193
 20
200.9489924254
 30
0.0
  0
SPLINE
  5
417
100
AcDbEntity
  8
0
100
AcDbSpline
 62
7
  6
CONTINUOUS
 70
0
 71
3
 72
9
 73
5
 74
0
 42
0.0000001
 43
0.0000001
 44
0.0000000001
 40
0.0
 40
0.0
 40
0.0
 40
0.0
 40
0.2441406001
 40
1.0
 40
1.0
 40
1.0
 40
1.0
 10
122.1037758547
 20
203.9731362844
 30
0.0
 10
122.0815070469
 20
203.9602927545
 30
0.0
 10
121.9937233626
 20
203.9017385997
 30
0.0
 10
121.9229611
 20
203.8193284554
 30
0.0
 10
121.8815522061
 20
203.7513596884
 30
0.0
  0
SPLINE
  5
418
100
AcDbEntity
  8
0
100
AcDbSpline
 62
7
  6
CONTINUOUS
 70
0
 71
3
 72
9
 73
5
 74
0
 42
0.0000001
 43
0.0000001
 44
0.0000000001
 40
0.0
 40
0.0
 40
0.0
 40
0.0
 40
0.2421765126
 40
1.0
 40
1.0
 40
1.0
 40
1.0
 10
121.8815522061
 20
203.7513596884
 30
0.0
 10
121.8738108062
 20
203.7386529156
 30
0.0
 10
121.843405437
 20
203.6852392468
 30
0.0
 10
121.8192284207
 20
203.6283591252
 30
0.0
 10
121.8041737227
 20
203.5842998068
 30
0.0
  0
SPLINE
  5
419
100
AcDbEntity
  8
0
100
AcDbSpline
 62
7
  6
CONTINUOUS
 70
0
 71
3
 72
9
 73
5
 74
0
 42
0.0000001
 43
0.0000001
 44
0.0000000001
 40
0.0
 40
0.0
 40
0.0
 40
0.0
 40
0.4440047975
 40
1.0
 40
1.0
 40
1.0
 40
1.0
 10
129.5692828531
 20
206.9297693487
 30
0.0
 10
129.6384083945
 20
206.9276491701
 30
0.0
 10
129.7904091671
 20
206.866081194
 30
0.0
 10
129.9048032235
 20
206.7577108713
 30
0.0
 10
129.9600224725
 20
206.6909974667
 30
0.0
  0
SPLINE
  5
41A
100
AcDbEntity
  8
0
100
AcDbSpline
 62
7
  6
CONTINUOUS
 70
0
 71
3
 72
11
 73
7
 74
0
 42
0.0000001
 43
0.0000001
 44
0.0000000001
 40
0.0
 40
0.0
 40
0.0
 40
0.0
 40
0.2372743828
 40
0.5000198739
 40
0.7627487512
 40
1.0
 40
1.0
 40
1.0
 40
1.0
 10
88.2469593658
 20
119.5885095433
 30
0.0
 10
88.3473029939
 20
119.5305067417
 30
0.0
 10
88.5371439421
 20
119.3705662196
 30
0.0
 10
88.7587122705
 20
119.067612226
 30
0.0
 10
88.9101849816
 20
118.7242133283
 30
0.0
 10
88.953704968
 20
118.4798496394
 30
0.0
 10
88.9537576604
 20
118.3639594042
 30
0.0
  0
SPLINE
  5
41B
100
AcDbEntity
  8
0
100
AcDbSpline
 62
7
  6
CONTINUOUS
 70
0
 71
3
 72
9
 73
5
 74
0
 42
0.0000001
 43
0.0000001
 44
0.0000000001
 40
0.0
 40
0.0
 40
0.0
 40
0.0
 40
0.252396773
 40
1.0
 40
1.0
 40
1.0
 40
1.0
 10
83.0890425593
 20
122.5728327313
 30
0.0
 10
83.1000328989
 20
122.5538219411
 30
0.0
 10
83.1421467044
 20
122.4776866619
 30
0.0
 10
83.1786158092
 20
122.398401335
 30
0.0
 10
83.2021433533
 20
122.3377627797
 30
0.0
  0
SPLINE
  5
41C
100
AcDbEntity
  8
0
100
AcDbSpline
 62
7
  6
CONTINUOUS
 70
0
 71
3
 72
11
 73
7
 74
0
 42
0.0000001
 43
0.0000001
 44
0.0000000001
 40
0.0
 40
0.0
 40
0.0
 40
0.0
 40
0.2372428332
 40
0.4999989079
 40
0.762755577
 40
1.0
 40
1.0
 40
1.0
 40
1.0
 10
81.8826556986
 20
122.5198249279
 30
0.0
 10
81.9328509795
 20
122.4908453245
 30
0.0
 10
82.0278344436
 20
122.4108981591
 30
0.0
 10
82.138695677
 20
122.2594024489
 30
0.0
 10
82.2144651298
 20
122.0876459356
 30
0.0
 10
82.2362105606
 20
121.9654139239
 30
0.0
 10
82.2362105606
 20
121.9074533454
 30
0.0
  0
SPLINE
  5
41D
100
AcDbEntity
  8
0
100
AcDbSpline
 62
7
  6
CONTINUOUS
 70
0
 71
3
 72
9
 73
5
 74
0
 42
0.0000001
 43
0.0000001
 44
0.0000000001
 40
0.0
 40
0.0
 40
0.0
 40
0.0
 40
0.2657846307
 40
1.0
 40
1.0
 40
1.0
 40
1.0
 10
81.0555434089
 20
123.0451344147
 30
0.0
 10
81.0680789701
 20
123.030200748
 30
0.0
 10
81.1172658283
 20
122.9758245474
 30
0.0
 10
81.174882172
 20
122.9284489197
 30
0.0
 10
81.2215273631
 20
122.9015189153
 30
0.0
  0
SPLINE
  5
41E
100
AcDbEntity
  8
0
100
AcDbSpline
 62
7
  6
CONTINUOUS
 70
0
 71
3
 72
9
 73
5
 74
0
 42
0.0000001
 43
0.0000001
 44
0.0000000001
 40
0.0
 40
0.0
 40
0.0
 40
0.0
 40
0.2332124301
 40
1.0
 40
1.0
 40
1.0
 40
1.0
 10
80.3802851196
 20
123.7954505725
 30
0.0
 10
80.395104884
 20
123.7868945711
 30
0.0
 10
80.4566423468
 20
123.7467457024
 30
0.0
 10
80.5100951856
 20
123.6949291781
 30
0.0
 10
80.546269073
 20
123.6518350738
 30
0.0
  0
SPLINE
  5
41F
100
AcDbEntity
  8
0
100
AcDbSpline
 62
7
  6
CONTINUOUS
 70
0
 71
3
 72
9
 73
5
 74
0
 42
0.0000001
 43
0.0000001
 44
0.0000000001
 40
0.0
 40
0.0
 40
0.0
 40
0.0
 40
0.2662820354
 40
1.0
 40
1.0
 40
1.0
 40
1.0
 10
82.9900122011
 20
122.2152895341
 30
0.0
 10
83.005229194
 20
122.1760701213
 30
0.0
 10
83.0565308506
 20
122.0267495146
 30
0.0
 10
83.0847469411
 20
121.8682593892
 30
0.0
 10
83.0847469411
 20
121.7523444349
 30
0.0
  0
SPLINE
  5
420
100
AcDbEntity
  8
0
100
AcDbSpline
 62
7
  6
CONTINUOUS
 70
0
 71
3
 72
11
 73
7
 74
0
 42
0.0000001
 43
0.0000001
 44
0.0000000001
 40
0.0
 40
0.0
 40
0.0
 40
0.0
 40
0.2372689899
 40
0.4999996901
 40
0.762730946
 40
1.0
 40
1.0
 40
1.0
 40
1.0
 10
69.1546853563
 20
54.3005689589
 30
0.0
 10
69.154719738
 20
54.2426523707
 30
0.0
 10
69.1765107937
 20
54.1205399515
 30
0.0
 10
69.2522494574
 20
53.9489605693
 30
0.0
 10
69.3629697356
 20
53.79757752
 30
0.0
 10
69.4578259972
 20
53.7176482612
 30
0.0
 10
69.5079661974
 20
53.6886604275
 30
0.0
  0
SPLINE
  5
421
100
AcDbEntity
  8
0
100
AcDbSpline
 62
7
  6
CONTINUOUS
 70
0
 71
3
 72
9
 73
5
 74
0
 42
0.0000001
 43
0.0000001
 44
0.0000000001
 40
0.0
 40
0.0
 40
0.0
 40
0.0
 40
0.5434812278
 40
1.0
 40
1.0
 40
1.0
 40
1.0
 10
81.6676673944
 20
99.7295439474
 30
0.0
 10
81.6609843673
 20
99.6481942607
 30
0.0
 10
81.6282035374
 20
99.4970125918
 30
0.0
 10
81.5227821768
 20
99.3771702858
 30
0.0
 10
81.4634046814
 20
99.342888887
 30
0.0
  0
SPLINE
  5
422
100
AcDbEntity
  8
0
100
AcDbSpline
 62
7
  6
CONTINUOUS
 70
0
 71
3
 72
11
 73
7
 74
0
 42
0.0000001
 43
0.0000001
 44
0.0000000001
 40
0.0
 40
0.0
 40
0.0
 40
0.0
 40
0.2372428334
 40
0.4999989082
 40
0.7627555772
 40
1.0
 40
1.0
 40
1.0
 40
1.0
 10
80.9634177662
 20
113.4770610755
 30
0.0
 10
81.0638083286
 20
113.4191018684
 30
0.0
 10
81.2537752577
 20
113.2592075366
 30
0.0
 10
81.4754977251
 20
112.9562161143
 30
0.0
 10
81.6270366304
 20
112.6127030857
 30
0.0
 10
81.6705274914
 20
112.3682390613
 30
0.0
 10
81.6705274914
 20
112.2523179038
 30
0.0
  0
SPLINE
  5
423
100
AcDbEntity
  8
0
100
AcDbSpline
 62
7
  6
CONTINUOUS
 70
0
 71
3
 72
11
 73
7
 74
0
 42
0.0000001
 43
0.0000001
 44
0.0000000001
 40
0.0
 40
0.0
 40
0.0
 40
0.0
 40
0.2372428334
 40
0.4999989082
 40
0.7627555772
 40
1.0
 40
1.0
 40
1.0
 40
1.0
 10
80.9634177657
 20
96.6366987219
 30
0.0
 10
81.0638083281
 20
96.5787395149
 30
0.0
 10
81.2537752572
 20
96.4188451831
 30
0.0
 10
81.4754977246
 20
96.1158537608
 30
0.0
 10
81.6270366299
 20
95.7723407321
 30
0.0
 10
81.6705274908
 20
95.5278767077
 30
0.0
 10
81.6705274908
 20
95.4119555502
 30
0.0
  0
SPLINE
  5
424
100
AcDbEntity
  8
0
100
AcDbSpline
 62
7
  6
CONTINUOUS
 70
0
 71
3
 72
9
 73
5
 74
0
 42
0.0000001
 43
0.0000001
 44
0.0000000001
 40
0.0
 40
0.0
 40
0.0
 40
0.0
 40
0.2260322687
 40
1.0
 40
1.0
 40
1.0
 40
1.0
 10
81.3078043943
 20
117.4869305526
 30
0.0
 10
81.3260146563
 20
117.4874729791
 30
0.0
 10
81.4068381387
 20
117.4824225795
 30
0.0
 10
81.4841271804
 20
117.4507954404
 30
0.0
 10
81.5381519041
 20
117.419604464
 30
0.0
  0
SPLINE
  5
425
100
AcDbEntity
  8
0
100
AcDbSpline
 62
7
  6
CONTINUOUS
 70
0
 71
3
 72
9
 73
5
 74
0
 42
0.0000001
 43
0.0000001
 44
0.0000000001
 40
0.0
 40
0.0
 40
0.0
 40
0.0
 40
0.2773402235
 40
1.0
 40
1.0
 40
1.0
 40
1.0
 10
80.6078699716
 20
117.5402746045
 30
0.0
 10
80.6272101107
 20
117.5291086458
 30
0.0
 10
80.6986831889
 20
117.4924508507
 30
0.0
 10
80.7800531679
 20
117.4712159783
 30
0.0
 10
80.8382174893
 20
117.4729485107
 30
0.0
  0
SPLINE
  5
426
100
AcDbEntity
  8
0
100
AcDbSpline
 62
7
  6
CONTINUOUS
 70
0
 71
3
 72
11
 73
7
 74
0
 42
0.0000001
 43
0.0000001
 44
0.0000000001
 40
0.0
 40
0.0
 40
0.0
 40
0.0
 40
0.23724533
 40
0.500001092
 40
0.7627562596
 40
1.0
 40
1.0
 40
1.0
 40
1.0
 10
79.5491894843
 20
118.7230419333
 30
0.0
 10
79.5491914735
 20
118.641897046
 30
0.0
 10
79.5796371581
 20
118.4707734112
 30
0.0
 10
79.6857147535
 20
118.2303157438
 30
0.0
 10
79.8409190426
 20
118.0182221617
 30
0.0
 10
79.9738938283
 20
117.906294918
 30
0.0
 10
80.044166294
 20
117.8657217119
 30
0.0
  0
SPLINE
  5
427
100
AcDbEntity
  8
0
100
AcDbSpline
 62
7
  6
CONTINUOUS
 70
0
 71
3
 72
9
 73
5
 74
0
 42
0.0000001
 43
0.0000001
 44
0.0000000001
 40
0.0
 40
0.0
 40
0.0
 40
0.0
 40
0.550039317
 40
1.0
 40
1.0
 40
1.0
 40
1.0
 10
82.0594290078
 20
117.690220196
 30
0.0
 10
82.0594273178
 20
117.6616148968
 30
0.0
 10
82.0522879026
 20
117.6084791457
 30
0.0
 10
82.0175707938
 20
117.5645509457
 30
0.0
 10
81.9973051707
 20
117.5528507985
 30
0.0
  0
SPLINE
  5
428
100
AcDbEntity
  8
0
100
AcDbSpline
 62
7
  6
CONTINUOUS
 70
0
 71
3
 72
9
 73
5
 74
0
 42
0.0000001
 43
0.0000001
 44
0.0000000001
 40
0.0
 40
0.0
 40
0.0
 40
0.0
 40
0.4772491397
 40
1.0
 40
1.0
 40
1.0
 40
1.0
 10
81.8472816203
 20
122.3687675558
 30
0.0
 10
81.8881244274
 20
122.3451842663
 30
0.0
 10
81.9618946143
 20
122.2756941502
 30
0.0
 10
82.0120930696
 20
122.1889407014
 30
0.0
 10
82.0307773598
 20
122.1407788821
 30
0.0
  0
SPLINE
  5
429
100
AcDbEntity
  8
0
100
AcDbSpline
 62
7
  6
CONTINUOUS
 70
0
 71
3
 72
9
 73
5
 74
0
 42
0.0000001
 43
0.0000001
 44
0.0000000001
 40
0.0
 40
0.0
 40
0.0
 40
0.0
 40
0.266926522
 40
1.0
 40
1.0
 40
1.0
 40
1.0
 10
82.0307773598
 20
122.1407788821
 30
0.0
 10
82.035372459
 20
122.1289342609
 30
0.0
 10
82.0507553272
 20
122.0839267199
 30
0.0
 10
82.0594269465
 20
122.0362111497
 30
0.0
 10
82.0594290078
 20
122.0013195419
 30
0.0
  0
SPLINE
  5
42A
100
AcDbEntity
  8
0
100
AcDbSpline
 62
7
  6
CONTINUOUS
 70
0
 71
3
 72
9
 73
5
 74
0
 42
0.0000001
 43
0.0000001
 44
0.0000000001
 40
0.0
 40
0.0
 40
0.0
 40
0.0
 40
0.2657105737
 40
1.0
 40
1.0
 40
1.0
 40
1.0
 10
81.3696071163
 20
122.6726877204
 30
0.0
 10
81.3770762359
 20
122.6638415993
 30
0.0
 10
81.4063753134
 20
122.6316191385
 30
0.0
 10
81.4406329368
 20
122.6035429328
 30
0.0
 10
81.4683404804
 20
122.5875443756
 30
0.0
  0
SPLINE
  5
42B
100
AcDbEntity
  8
0
100
AcDbSpline
 62
7
  6
CONTINUOUS
 70
0
 71
3
 72
11
 73
7
 74
0
 42
0.0000001
 43
0.0000001
 44
0.0000000001
 40
0.0
 40
0.0
 40
0.0
 40
0.0
 40
0.304818193
 40
0.5874709573
 40
0.8154038039
 40
1.0
 40
1.0
 40
1.0
 40
1.0
 10
35.3572744013
 20
100.2739102987
 30
0.0
 10
35.4052351048
 20
100.2109299795
 30
0.0
 10
35.4815096177
 20
100.0766081824
 30
0.0
 10
35.5414727415
 20
99.8715648717
 30
0.0
 10
35.5318192764
 20
99.684466688
 30
0.0
 10
35.4597925715
 20
99.5926924338
 30
0.0
 10
35.4182748169
 20
99.5687221887
 30
0.0
  0
SPLINE
  5
42C
100
AcDbEntity
  8
0
100
AcDbSpline
 62
7
  6
CONTINUOUS
 70
0
 71
3
 72
11
 73
7
 74
0
 42
0.0000001
 43
0.0000001
 44
0.0000000001
 40
0.0
 40
0.0
 40
0.0
 40
0.0
 40
0.2495160779
 40
0.4993658648
 40
0.7497532978
 40
1.0
 40
1.0
 40
1.0
 40
1.0
 10
36.860364614
 20
107.7783056032
 30
0.0
 10
36.695520517
 20
107.8664821027
 30
0.0
 10
36.3640975881
 20
108.040104476
 30
0.0
 10
35.8682388757
 20
108.3040709575
 30
0.0
 10
35.3731522693
 20
108.5706363688
 30
0.0
 10
35.0423201277
 20
108.7473960229
 30
0.0
 10
34.8770524275
 20
108.8359410919
 30
0.0
  0
SPLINE
  5
42D
100
AcDbEntity
  8
0
100
AcDbSpline
 62
7
  6
CONTINUOUS
 70
0
 71
3
 72
11
 73
7
 74
0
 42
0.0000001
 43
0.0000001
 44
0.0000000001
 40
0.0
 40
0.0
 40
0.0
 40
0.0
 40
0.2505193376
 40
0.5014492352
 40
0.7511036106
 40
1.0
 40
1.0
 40
1.0
 40
1.0
 10
37.5966773328
 20
108.017240776
 30
0.0
 10
37.5352907042
 20
107.9969768106
 30
0.0
 10
37.4122835081
 20
107.9568181464
 30
0.0
 10
37.2286830721
 20
107.8947123697
 30
0.0
 10
37.0446014137
 20
107.8353870095
 30
0.0
 10
36.9213544675
 20
107.7984355277
 30
0.0
 10
36.8603646101
 20
107.7783056015
 30
0.0
  0
LINE
  5
42E
100
AcDbEntity
  8
0
100
AcDbLine
 62
7
  6
CONTINUOUS
 10
40.006540023
 20
108.7993948302
 11
37.5966773328
 21
108.017240776
  0
SPLINE
  5
42F
100
AcDbEntity
  8
0
100
AcDbSpline
 62
7
  6
CONTINUOUS
 70
0
 71
3
 72
9
 73
5
 74
0
 42
0.0000001
 43
0.0000001
 44
0.0000000001
 40
0.0
 40
0.0
 40
0.0
 40
0.0
 40
0.2286460176
 40
1.0
 40
1.0
 40
1.0
 40
1.0
 10
33.9100226995
 20
107.7509964234
 30
0.0
 10
33.8896221454
 20
107.7997853683
 30
0.0
 10
33.8141013941
 20
108.018919419
 30
0.0
 10
33.7896827089
 20
108.2532387463
 30
0.0
 10
33.7896313355
 20
108.4316412217
 30
0.0
  0
SPLINE
  5
430
100
AcDbEntity
  8
0
100
AcDbSpline
 62
7
  6
CONTINUOUS
 70
0
 71
3
 72
9
 73
5
 74
0
 42
0.0000001
 43
0.0000001
 44
0.0000000001
 40
0.0
 40
0.0
 40
0.0
 40
0.0
 40
0.2613243133
 40
1.0
 40
1.0
 40
1.0
 40
1.0
 10
33.8553465625
 20
109.3796132696
 30
0.0
 10
33.8446208766
 20
109.3275280178
 30
0.0
 10
33.8080368458
 20
109.1273628939
 30
0.0
 10
33.7897026041
 20
108.9235574326
 30
0.0
 10
33.7896632823
 20
108.773240794
 30
0.0
  0
SPLINE
  5
431
100
AcDbEntity
  8
0
100
AcDbSpline
 62
7
  6
CONTINUOUS
 70
0
 71
3
 72
11
 73
7
 74
0
 42
0.0000001
 43
0.0000001
 44
0.0000000001
 40
0.0
 40
0.0
 40
0.0
 40
0.0
 40
0.2809737154
 40
0.5557356181
 40
0.7996191287
 40
1.0
 40
1.0
 40
1.0
 40
1.0
 10
153.011795807
 20
193.3823521397
 30
0.0
 10
153.0603206344
 20
193.3237267567
 30
0.0
 10
153.1431349416
 20
193.1963863218
 30
0.0
 10
153.221178059
 20
192.9924227289
 30
0.0
 10
153.2460703386
 20
192.7973613664
 30
0.0
 10
153.2204853921
 20
192.6751482488
 30
0.0
 10
153.1948298626
 20
192.6273211527
 30
0.0
  0
SPLINE
  5
432
100
AcDbEntity
  8
0
100
AcDbSpline
 62
7
  6
CONTINUOUS
 70
0
 71
3
 72
8
 73
4
 74
0
 42
0.0000001
 43
0.0000001
 44
0.0000000001
 40
0.0
 40
0.0
 40
0.0
 40
0.0
 40
1.0
 40
1.0
 40
1.0
 40
1.0
 10
41.9006450677
 20
115.6379325769
 30
0.0
 10
41.9006450677
 20
115.5955671747
 30
0.0
 10
41.8989927043
 20
115.5532178857
 30
0.0
 10
41.8981656135
 20
115.5108605578
 30
0.0
  0
LINE
  5
433
100
AcDbEntity
  8
0
100
AcDbLine
 62
7
  6
CONTINUOUS
 10
41.8979305641
 20
87.198295075
 11
41.9001437702
 21
87.1041190917
  0
LINE
  5
434
100
AcDbEntity
  8
0
100
AcDbLine
 62
7
  6
CONTINUOUS
 10
41.9006450777
 20
105.6969441921
 11
41.8604266074
 21
105.6534862352
  0
SPLINE
  5
435
100
AcDbEntity
  8
0
100
AcDbSpline
 62
7
  6
CONTINUOUS
 70
0
 71
3
 72
11
 73
7
 74
0
 42
0.0000001
 43
0.0000001
 44
0.0000000001
 40
0.0
 40
0.0
 40
0.0
 40
0.0
 40
0.2193623498
 40
0.4563227835
 40
0.7159627612
 40
1.0
 40
1.0
 40
1.0
 40
1.0
 10
154.9266260805
 20
111.6598183277
 30
0.0
 10
154.6776672714
 20
111.7316966545
 30
0.0
 10
154.1371811674
 20
111.8090883524
 30
0.0
 10
153.2890741253
 20
111.7277565494
 30
0.0
 10
152.4017295773
 20
111.4592543578
 30
0.0
 10
151.8230336795
 20
111.1744324214
 30
0.0
 10
151.53245903
 20
111.0066700707
 30
0.0
  0
SPLINE
  5
436
100
AcDbEntity
  8
0
100
AcDbSpline
 62
7
  6
CONTINUOUS
 70
0
 71
3
 72
11
 73
7
 74
0
 42
0.0000001
 43
0.0000001
 44
0.0000000001
 40
0.0
 40
0.0
 40
0.0
 40
0.0
 40
0.2749335642
 40
0.545824786
 40
0.7920211525
 40
1.0
 40
1.0
 40
1.0
 40
1.0
 10
123.2761750442
 20
203.1215817511
 30
0.0
 10
123.3864444554
 20
202.988359225
 30
0.0
 10
123.5776740878
 20
202.6999447441
 30
0.0
 10
123.7680969873
 20
202.2358628691
 30
0.0
 10
123.8478620299
 20
201.7831668207
 30
0.0
 10
123.8160420498
 20
201.491926421
 30
0.0
 10
123.7726466302
 20
201.3685111266
 30
0.0
  0
SPLINE
  5
437
100
AcDbEntity
  8
0
100
AcDbSpline
 62
7
  6
CONTINUOUS
 70
0
 71
3
 72
9
 73
5
 74
0
 42
0.0000001
 43
0.0000001
 44
0.0000000001
 40
0.0
 40
0.0
 40
0.0
 40
0.0
 40
0.265762353
 40
1.0
 40
1.0
 40
1.0
 40
1.0
 10
123.7726466302
 20
201.3685111266
 30
0.0
 10
123.7639252582
 20
201.3437078016
 30
0.0
 10
123.7267332018
 20
201.2520821537
 30
0.0
 10
123.6698165234
 20
201.1676582293
 30
0.0
 10
123.6176981605
 20
201.1170616749
 30
0.0
  0
SPLINE
  5
438
100
AcDbEntity
  8
0
100
AcDbSpline
 62
7
  6
CONTINUOUS
 70
0
 71
3
 72
8
 73
4
 74
0
 42
0.0000001
 43
0.0000001
 44
0.0000000001
 40
0.0
 40
0.0
 40
0.0
 40
0.0
 40
1.0
 40
1.0
 40
1.0
 40
1.0
 10
123.6176981605
 20
201.1170616749
 30
0.0
 10
123.5876868724
 20
201.087926689
 30
0.0
 10
123.5538754094
 20
201.0622319926
 30
0.0
 10
123.5176424688
 20
201.0413346522
 30
0.0
  0
SPLINE
  5
439
100
AcDbEntity
  8
0
100
AcDbSpline
 62
7
  6
CONTINUOUS
 70
0
 71
3
 72
9
 73
5
 74
0
 42
0.0000001
 43
0.0000001
 44
0.0000000001
 40
0.0
 40
0.0
 40
0.0
 40
0.0
 40
0.2063557433
 40
1.0
 40
1.0
 40
1.0
 40
1.0
 10
32.9252975771
 20
103.3105664221
 30
0.0
 10
32.9158986078
 20
103.2931335535
 30
0.0
 10
32.8842491822
 20
103.2010124082
 30
0.0
 10
32.9029605911
 20
103.0999255533
 30
0.0
 10
32.9253958077
 20
103.0271337503
 30
0.0
  0
SPLINE
  5
43A
100
AcDbEntity
  8
0
100
AcDbSpline
 62
7
  6
CONTINUOUS
 70
0
 71
3
 72
8
 73
4
 74
0
 42
0.0000001
 43
0.0000001
 44
0.0000000001
 40
0.0
 40
0.0
 40
0.0
 40
0.0
 40
1.0
 40
1.0
 40
1.0
 40
1.0
 10
32.9253958077
 20
103.0271337503
 30
0.0
 10
32.9453158523
 20
102.962502506
 30
0.0
 10
32.9743676408
 20
102.8999622692
 30
0.0
 10
33.0113933017
 20
102.8433662768
 30
0.0
  0
SPLINE
  5
43B
100
AcDbEntity
  8
0
100
AcDbSpline
 62
7
  6
CONTINUOUS
 70
0
 71
3
 72
9
 73
5
 74
0
 42
0.0000001
 43
0.0000001
 44
0.0000000001
 40
0.0
 40
0.0
 40
0.0
 40
0.0
 40
0.2368260477
 40
1.0
 40
1.0
 40
1.0
 40
1.0
 10
69.507928639
 20
53.2804309028
 30
0.0
 10
69.4890028123
 20
53.2913708199
 30
0.0
 10
69.4107461971
 20
53.3404172063
 30
0.0
 10
69.3389840288
 20
53.3994774949
 30
0.0
 10
69.2880367013
 20
53.4481275367
 30
0.0
  0
SPLINE
  5
43C
100
AcDbEntity
  8
0
100
AcDbSpline
 62
7
  6
CONTINUOUS
 70
0
 71
3
 72
9
 73
5
 74
0
 42
0.0000001
 43
0.0000001
 44
0.0000000001
 40
0.0
 40
0.0
 40
0.0
 40
0.0
 40
0.2426977685
 40
1.0
 40
1.0
 40
1.0
 40
1.0
 10
69.2880367013
 20
53.4481275367
 30
0.0
 10
69.2613137643
 20
53.4736454994
 30
0.0
 10
69.1554457337
 20
53.5831802275
 30
0.0
 10
69.065997343
 20
53.7082632895
 30
0.0
 10
69.0083523602
 20
53.8081144069
 30
0.0
  0
SPLINE
  5
43D
100
AcDbEntity
  8
0
100
AcDbSpline
 62
7
  6
CONTINUOUS
 70
0
 71
3
 72
9
 73
5
 74
0
 42
0.0000001
 43
0.0000001
 44
0.0000000001
 40
0.0
 40
0.0
 40
0.0
 40
0.0
 40
0.5254784015
 40
1.0
 40
1.0
 40
1.0
 40
1.0
 10
69.0083523602
 20
53.8081144069
 30
0.0
 10
68.9441692404
 20
53.9192907126
 30
0.0
 10
68.8446840796
 20
54.1446970729
 30
0.0
 10
68.8011832016
 20
54.3890563961
 30
0.0
 10
68.8011304937
 20
54.5049808289
 30
0.0
  0
SPLINE
  5
43E
100
AcDbEntity
  8
0
100
AcDbSpline
 62
7
  6
CONTINUOUS
 70
0
 71
3
 72
9
 73
5
 74
0
 42
0.0000001
 43
0.0000001
 44
0.0000000001
 40
0.0
 40
0.0
 40
0.0
 40
0.0
 40
0.4545386276
 40
1.0
 40
1.0
 40
1.0
 40
1.0
 10
32.7712867402
 20
100.445638238
 30
0.0
 10
32.7513139972
 20
100.418890217
 30
0.0
 10
32.723800511
 20
100.3474360164
 30
0.0
 10
32.7269006426
 20
100.2726992055
 30
0.0
 10
32.732796225
 20
100.2330757391
 30
0.0
  0
SPLINE
  5
43F
100
AcDbEntity
  8
0
100
AcDbSpline
 62
7
  6
CONTINUOUS
 70
0
 71
3
 72
11
 73
7
 74
0
 42
0.0000001
 43
0.0000001
 44
0.0000000001
 40
0.0
 40
0.0
 40
0.0
 40
0.0
 40
0.2614920922
 40
0.5394636354
 40
0.7945707939
 40
1.0
 40
1.0
 40
1.0
 40
1.0
 10
32.732796225
 20
100.2330757391
 30
0.0
 10
32.7414681282
 20
100.1747929704
 30
0.0
 10
32.7804330865
 20
100.0576230629
 30
0.0
 10
32.8766466881
 20
99.9046009351
 30
0.0
 10
33.0003276868
 20
99.7902581543
 30
0.0
 10
33.1002763944
 20
99.7490192039
 30
0.0
 10
33.1463894754
 20
99.7449619478
 30
0.0
  0
SPLINE
  5
440
100
AcDbEntity
  8
0
100
AcDbSpline
 62
7
  6
CONTINUOUS
 70
0
 71
3
 72
11
 73
7
 74
0
 42
0.0000001
 43
0.0000001
 44
0.0000000001
 40
0.0
 40
0.0
 40
0.0
 40
0.0
 40
0.2004069753
 40
0.4444678493
 40
0.7189624323
 40
1.0
 40
1.0
 40
1.0
 40
1.0
 10
152.2367712735
 20
190.8388061237
 30
0.0
 10
152.3102502417
 20
190.9758440545
 30
0.0
 10
152.3838492752
 20
191.3260486572
 30
0.0
 10
152.3119790912
 20
191.884747082
 30
0.0
 10
152.0888369598
 20
192.4691145771
 30
0.0
 10
151.8514393019
 20
192.8336412682
 30
0.0
 10
151.7124020178
 20
193.0016197165
 30
0.0
  0
SPLINE
  5
441
100
AcDbEntity
  8
0
100
AcDbSpline
 62
7
  6
CONTINUOUS
 70
0
 71
3
 72
9
 73
5
 74
0
 42
0.0000001
 43
0.0000001
 44
0.0000000001
 40
0.0
 40
0.0
 40
0.0
 40
0.0
 40
0.5082575
 40
1.0
 40
1.0
 40
1.0
 40
1.0
 10
137.6041007816
 20
185.5107985332
 30
0.0
 10
137.9259144341
 20
185.1219979346
 30
0.0
 10
138.4661353937
 20
184.2772134482
 30
0.0
 10
138.8032443184
 20
183.3306377574
 30
0.0
 10
138.8999506901
 20
182.852001476
 30
0.0
  0
SPLINE
  5
442
100
AcDbEntity
  8
0
100
AcDbSpline
 62
7
  6
CONTINUOUS
 70
0
 71
3
 72
11
 73
7
 74
0
 42
0.0000001
 43
0.0000001
 44
0.0000000001
 40
0.0
 40
0.0
 40
0.0
 40
0.0
 40
0.2372690527
 40
0.5000003079
 40
0.762731009
 40
1.0
 40
1.0
 40
1.0
 40
1.0
 10
88.4590531001
 20
119.3027531834
 30
0.0
 10
88.5091933001
 20
119.2737653497
 30
0.0
 10
88.6040495627
 20
119.1938360929
 30
0.0
 10
88.7147698437
 20
119.0424530451
 30
0.0
 10
88.7905085085
 20
118.8708736634
 30
0.0
 10
88.8122995696
 20
118.7487612437
 30
0.0
 10
88.812333949
 20
118.6908446551
 30
0.0
  0
SPLINE
  5
443
100
AcDbEntity
  8
0
100
AcDbSpline
 62
7
  6
CONTINUOUS
 70
0
 71
3
 72
9
 73
5
 74
0
 42
0.0000001
 43
0.0000001
 44
0.0000000001
 40
0.0
 40
0.0
 40
0.0
 40
0.0
 40
0.4999918607
 40
1.0
 40
1.0
 40
1.0
 40
1.0
 10
80.0441807604
 20
118.1923143276
 30
0.0
 10
79.9812164639
 20
118.2286709181
 30
0.0
 10
79.8816936998
 20
118.3434556828
 30
0.0
 10
79.8320376696
 20
118.4870362886
 30
0.0
 10
79.8320333746
 20
118.5597456313
 30
0.0
  0
SPLINE
  5
444
100
AcDbEntity
  8
0
100
AcDbSpline
 62
7
  6
CONTINUOUS
 70
0
 71
3
 72
9
 73
5
 74
0
 42
0.0000001
 43
0.0000001
 44
0.0000000001
 40
0.0
 40
0.0
 40
0.0
 40
0.0
 40
0.2260380588
 40
1.0
 40
1.0
 40
1.0
 40
1.0
 10
80.7764147668
 20
117.7977092894
 30
0.0
 10
80.7686101786
 20
117.7974776115
 30
0.0
 10
80.7339719502
 20
117.7996442009
 30
0.0
 10
80.7008483872
 20
117.8131973121
 30
0.0
 10
80.6776944051
 20
117.8265633288
 30
0.0
  0
SPLINE
  5
445
100
AcDbEntity
  8
0
100
AcDbSpline
 62
7
  6
CONTINUOUS
 70
0
 71
3
 72
9
 73
5
 74
0
 42
0.0000001
 43
0.0000001
 44
0.0000000001
 40
0.0
 40
0.0
 40
0.0
 40
0.0
 40
0.2773326021
 40
1.0
 40
1.0
 40
1.0
 40
1.0
 10
81.4683274773
 20
117.7865176708
 30
0.0
 10
81.4600388164
 20
117.7913024364
 30
0.0
 10
81.4294068104
 20
117.8070115036
 30
0.0
 10
81.3945349332
 20
117.816111687
 30
0.0
 10
81.3696071162
 20
117.8153717083
 30
0.0
  0
SPLINE
  5
446
100
AcDbEntity
  8
0
100
AcDbSpline
 62
7
  6
CONTINUOUS
 70
0
 71
3
 72
9
 73
5
 74
0
 42
0.0000001
 43
0.0000001
 44
0.0000000001
 40
0.0
 40
0.0
 40
0.0
 40
0.0
 40
0.2556149092
 40
1.0
 40
1.0
 40
1.0
 40
1.0
 10
91.0055615771
 20
142.7825794735
 30
0.0
 10
90.9048854385
 20
141.8755399197
 30
0.0
 10
90.5547121328
 20
138.3224534883
 30
0.0
 10
90.3824972816
 20
134.7511453173
 30
0.0
 10
90.3680538367
 20
132.093542077
 30
0.0
  0
SPLINE
  5
447
100
AcDbEntity
  8
0
100
AcDbSpline
 62
7
  6
CONTINUOUS
 70
0
 71
3
 72
9
 73
5
 74
0
 42
0.0000001
 43
0.0000001
 44
0.0000000001
 40
0.0
 40
0.0
 40
0.0
 40
0.0
 40
0.2759203298
 40
1.0
 40
1.0
 40
1.0
 40
1.0
 10
88.4587902137
 20
42.5843378433
 30
0.0
 10
88.4859989277
 20
42.5686457396
 30
0.0
 10
88.5871145944
 20
42.5169558692
 30
0.0
 10
88.701852407
 20
42.486409483
 30
0.0
 10
88.7842580065
 20
42.4882376987
 30
0.0
  0
SPLINE
  5
448
100
AcDbEntity
  8
0
100
AcDbSpline
 62
7
  6
CONTINUOUS
 70
0
 71
3
 72
9
 73
5
 74
0
 42
0.0000001
 43
0.0000001
 44
0.0000000001
 40
0.0
 40
0.0
 40
0.0
 40
0.0
 40
0.2349796807
 40
1.0
 40
1.0
 40
1.0
 40
1.0
 10
69.0132616449
 20
54.6274540751
 30
0.0
 10
69.0132736725
 20
54.6010007356
 30
0.0
 10
69.0181869131
 20
54.4884398315
 30
0.0
 10
69.0402713568
 20
54.3769606375
 30
0.0
 10
69.064177959
 20
54.2942213828
 30
0.0
  0
SPLINE
  5
449
100
AcDbEntity
  8
0
100
AcDbSpline
 62
7
  6
CONTINUOUS
 70
0
 71
3
 72
9
 73
5
 74
0
 42
0.0000001
 43
0.0000001
 44
0.0000000001
 40
0.0
 40
0.0
 40
0.0
 40
0.0
 40
0.2445734956
 40
1.0
 40
1.0
 40
1.0
 40
1.0
 10
69.064177959
 20
54.2942213828
 30
0.0
 10
69.0731472933
 20
54.2631790776
 30
0.0
 10
69.1140733081
 20
54.1375095228
 30
0.0
 10
69.1705841128
 20
54.0170220741
 30
0.0
 10
69.2204835114
 20
53.9305876531
 30
0.0
  0
SPLINE
  5
44A
100
AcDbEntity
  8
0
100
AcDbSpline
 62
7
  6
CONTINUOUS
 70
0
 71
3
 72
9
 73
5
 74
0
 42
0.0000001
 43
0.0000001
 44
0.0000000001
 40
0.0
 40
0.0
 40
0.0
 40
0.0
 40
0.2542791575
 40
1.0
 40
1.0
 40
1.0
 40
1.0
 10
69.2204835114
 20
53.9305876531
 30
0.0
 10
69.237275895
 20
53.9015003294
 30
0.0
 10
69.3066502246
 20
53.7890901436
 30
0.0
 10
69.3889048902
 20
53.6844465741
 30
0.0
 10
69.4571800457
 20
53.6134499732
 30
0.0
  0
SPLINE
  5
44B
100
AcDbEntity
  8
0
100
AcDbSpline
 62
7
  6
CONTINUOUS
 70
0
 71
3
 72
9
 73
5
 74
0
 42
0.0000001
 43
0.0000001
 44
0.0000000001
 40
0.0
 40
0.0
 40
0.0
 40
0.0
 40
0.2641513007
 40
1.0
 40
1.0
 40
1.0
 40
1.0
 10
69.4571800457
 20
53.6134499732
 30
0.0
 10
69.4777716952
 20
53.5920375412
 30
0.0
 10
69.5581704007
 20
53.5134406268
 30
0.0
 10
69.6484131664
 20
53.4443188859
 30
0.0
 10
69.7200597902
 20
53.4029041489
 30
0.0
  0
SPLINE
  5
44C
100
AcDbEntity
  8
0
100
AcDbSpline
 62
7
  6
CONTINUOUS
 70
0
 71
3
 72
8
 73
4
 74
0
 42
0.0000001
 43
0.0000001
 44
0.0000000001
 40
0.0
 40
0.0
 40
0.0
 40
0.0
 40
1.0
 40
1.0
 40
1.0
 40
1.0
 10
146.5694152762
 20
187.732698623
 30
0.0
 10
146.6056481699
 20
187.7535959365
 30
0.0
 10
146.6394595809
 20
187.7792906175
 30
0.0
 10
146.6694708056
 20
187.8084255911
 30
0.0
  0
SPLINE
  5
44D
100
AcDbEntity
  8
0
100
AcDbSpline
 62
7
  6
CONTINUOUS
 70
0
 71
3
 72
9
 73
5
 74
0
 42
0.0000001
 43
0.0000001
 44
0.0000000001
 40
0.0
 40
0.0
 40
0.0
 40
0.0
 40
0.2377067342
 40
1.0
 40
1.0
 40
1.0
 40
1.0
 10
146.6694708056
 20
187.8084255911
 30
0.0
 10
146.6863500547
 20
187.8248120092
 30
0.0
 10
146.7527760593
 20
187.8984745183
 30
0.0
 10
146.7993936398
 20
187.98870421
 30
0.0
 10
146.8244184225
 20
188.0598741376
 30
0.0
  0
SPLINE
  5
44E
100
AcDbEntity
  8
0
100
AcDbSpline
 62
7
  6
CONTINUOUS
 70
0
 71
3
 72
11
 73
7
 74
0
 42
0.0000001
 43
0.0000001
 44
0.0000000001
 40
0.0
 40
0.0
 40
0.0
 40
0.0
 40
0.2079788914
 40
0.4541752829
 40
0.7250664917
 40
1.0
 40
1.0
 40
1.0
 40
1.0
 10
146.8244184225
 20
188.0598741376
 30
0.0
 10
146.8678135499
 20
188.1832889181
 30
0.0
 10
146.899633201
 20
188.4745280152
 30
0.0
 10
146.8198683208
 20
188.927221952
 30
0.0
 10
146.6294461333
 20
189.3913015594
 30
0.0
 10
146.43821732
 20
189.6797146005
 30
0.0
 10
146.3279483788
 20
189.8129364241
 30
0.0
  0
SPLINE
  5
44F
100
AcDbEntity
  8
0
100
AcDbSpline
 62
7
  6
CONTINUOUS
 70
0
 71
3
 72
9
 73
5
 74
0
 42
0.0000001
 43
0.0000001
 44
0.0000000001
 40
0.0
 40
0.0
 40
0.0
 40
0.0
 40
0.550039317
 40
1.0
 40
1.0
 40
1.0
 40
1.0
 10
79.8320333746
 20
123.7036941524
 30
0.0
 10
79.8320350645
 20
123.7322994515
 30
0.0
 10
79.8391744798
 20
123.7854352025
 30
0.0
 10
79.8738915884
 20
123.8293634023
 30
0.0
 10
79.8941572115
 20
123.8410635494
 30
0.0
  0
SPLINE
  5
450
100
AcDbEntity
  8
0
100
AcDbSpline
 62
7
  6
CONTINUOUS
 70
0
 71
3
 72
9
 73
5
 74
0
 42
0.0000001
 43
0.0000001
 44
0.0000000001
 40
0.0
 40
0.0
 40
0.0
 40
0.0
 40
0.2569111849
 40
1.0
 40
1.0
 40
1.0
 40
1.0
 10
82.9433202858
 20
114.2323410754
 30
0.0
 10
82.9520008618
 20
114.2273294558
 30
0.0
 10
82.9861045696
 20
114.2083777082
 30
0.0
 10
83.0214827284
 20
114.191688873
 30
0.0
 10
83.048373377
 20
114.1808532972
 30
0.0
  0
SPLINE
  5
451
100
AcDbEntity
  8
0
100
AcDbSpline
 62
7
  6
CONTINUOUS
 70
0
 71
3
 72
11
 73
7
 74
0
 42
0.0000001
 43
0.0000001
 44
0.0000000001
 40
0.0
 40
0.0
 40
0.0
 40
0.0
 40
0.2372444228
 40
0.5000010918
 40
0.7627571666
 40
1.0
 40
1.0
 40
1.0
 40
1.0
 10
77.2864424846
 20
118.3147695287
 30
0.0
 10
77.2864424846
 20
118.1988483712
 30
0.0
 10
77.3299333455
 20
117.9543843468
 30
0.0
 10
77.4814722508
 20
117.6108713181
 30
0.0
 10
77.7031947182
 20
117.3078798958
 30
0.0
 10
77.8931616473
 20
117.147985564
 30
0.0
 10
77.9935522097
 20
117.090026357
 30
0.0
  0
SPLINE
  5
452
100
AcDbEntity
  8
0
100
AcDbSpline
 62
7
  6
CONTINUOUS
 70
0
 71
3
 72
9
 73
5
 74
0
 42
0.0000001
 43
0.0000001
 44
0.0000000001
 40
0.0
 40
0.0
 40
0.0
 40
0.0
 40
0.2776300463
 40
1.0
 40
1.0
 40
1.0
 40
1.0
 10
81.2215273625
 20
116.6144503034
 30
0.0
 10
81.2075850462
 20
116.6224997213
 30
0.0
 10
81.1561077042
 20
116.6488748039
 30
0.0
 10
81.0974038584
 20
116.6640255688
 30
0.0
 10
81.0555434086
 20
116.6624922292
 30
0.0
  0
SPLINE
  5
453
100
AcDbEntity
  8
0
100
AcDbSpline
 62
7
  6
CONTINUOUS
 70
0
 71
3
 72
9
 73
5
 74
0
 42
0.0000001
 43
0.0000001
 44
0.0000000001
 40
0.0
 40
0.0
 40
0.0
 40
0.0
 40
0.2398922548
 40
1.0
 40
1.0
 40
1.0
 40
1.0
 10
77.3027838175
 20
125.9176266834
 30
0.0
 10
77.3000399049
 20
125.9046800579
 30
0.0
 10
77.2901948364
 20
125.8503779904
 30
0.0
 10
77.2864424846
 20
125.7950396297
 30
0.0
 10
77.2864424846
 20
125.7531065487
 30
0.0
  0
SPLINE
  5
454
100
AcDbEntity
  8
0
100
AcDbSpline
 62
7
  6
CONTINUOUS
 70
0
 71
3
 72
9
 73
5
 74
0
 42
0.0000001
 43
0.0000001
 44
0.0000000001
 40
0.0
 40
0.0
 40
0.0
 40
0.0
 40
0.2265679365
 40
1.0
 40
1.0
 40
1.0
 40
1.0
 10
69.0926848029
 20
130.4511476716
 30
0.0
 10
69.079303308
 20
130.4291065951
 30
0.0
 10
69.0291865014
 20
130.3263510039
 30
0.0
 10
69.0133081677
 20
130.2096622973
 30
0.0
 10
69.0132616449
 20
130.1216399064
 30
0.0
  0
SPLINE
  5
455
100
AcDbEntity
  8
0
100
AcDbSpline
 62
7
  6
CONTINUOUS
 70
0
 71
3
 72
11
 73
7
 74
0
 42
0.0000001
 43
0.0000001
 44
0.0000000001
 40
0.0
 40
0.0
 40
0.0
 40
0.0
 40
0.2372428334
 40
0.4999989082
 40
0.7627555772
 40
1.0
 40
1.0
 40
1.0
 40
1.0
 10
79.054216798
 20
117.4574681251
 30
0.0
 10
79.0040215168
 20
117.4864477287
 30
0.0
 10
78.9090380522
 20
117.5663948946
 30
0.0
 10
78.7981768185
 20
117.7178906057
 30
0.0
 10
78.7224073659
 20
117.88964712
 30
0.0
 10
78.7006619354
 20
118.0118791322
 30
0.0
 10
78.7006619354
 20
118.069839711
 30
0.0
  0
SPLINE
  5
456
100
AcDbEntity
  8
0
100
AcDbSpline
 62
7
  6
CONTINUOUS
 70
0
 71
3
 72
9
 73
5
 74
0
 42
0.0000001
 43
0.0000001
 44
0.0000000001
 40
0.0
 40
0.0
 40
0.0
 40
0.0
 40
0.2258468308
 40
1.0
 40
1.0
 40
1.0
 40
1.0
 10
80.5462690738
 20
116.6438376166
 30
0.0
 10
80.5331683334
 20
116.6433577392
 30
0.0
 10
80.4749338639
 20
116.6466737401
 30
0.0
 10
80.419201549
 20
116.6694116399
 30
0.0
 10
80.3802851199
 20
116.6918795425
 30
0.0
  0
SPLINE
  5
457
100
AcDbEntity
  8
0
100
AcDbSpline
 62
7
  6
CONTINUOUS
 70
0
 71
3
 72
11
 73
7
 74
0
 42
0.0000001
 43
0.0000001
 44
0.0000000001
 40
0.0
 40
0.0
 40
0.0
 40
0.0
 40
0.237268991
 40
0.4999996921
 40
0.7627309473
 40
1.0
 40
1.0
 40
1.0
 40
1.0
 10
88.6002027978
 20
118.5683714089
 30
0.0
 10
88.600168416
 20
118.6262879975
 30
0.0
 10
88.5783773585
 20
118.7484004173
 30
0.0
 10
88.5026386922
 20
118.9199797989
 30
0.0
 10
88.3919184116
 20
119.0713628468
 30
0.0
 10
88.2970621489
 20
119.1512921035
 30
0.0
 10
88.2469219489
 20
119.1802799372
 30
0.0
  0
SPLINE
  5
458
100
AcDbEntity
  8
0
100
AcDbSpline
 62
7
  6
CONTINUOUS
 70
0
 71
3
 72
13
 73
9
 74
0
 42
0.0000001
 43
0.0000001
 44
0.0000000001
 40
0.0
 40
0.0
 40
0.0
 40
0.0
 40
0.3045163909
 40
0.5744126576
 40
0.6940410246
 40
0.8035166155
 40
0.9044994573
 40
1.0
 40
1.0
 40
1.0
 40
1.0
 10
113.4861199512
 20
198.20387235
 30
0.0
 10
113.2553746251
 20
198.4826484394
 30
0.0
 10
112.7722140293
 20
198.9713219861
 30
0.0
 10
112.0706087822
 20
199.4241807451
 30
0.0
 10
111.50972145
 20
199.6244187339
 30
0.0
 10
111.1200904829
 20
199.6884447407
 30
0.0
 10
110.7538710862
 20
199.6693619523
 30
0.0
 10
110.5280022124
 20
199.5987064329
 30
0.0
 10
110.4253193138
 20
199.5503684144
 30
0.0
  0
SPLINE
  5
459
100
AcDbEntity
  8
0
100
AcDbSpline
 62
7
  6
CONTINUOUS
 70
0
 71
3
 72
9
 73
5
 74
0
 42
0.0000001
 43
0.0000001
 44
0.0000000001
 40
0.0
 40
0.0
 40
0.0
 40
0.0
 40
0.2798190847
 40
1.0
 40
1.0
 40
1.0
 40
1.0
 10
76.7207594148
 20
125.4265112256
 30
0.0
 10
76.7207594148
 20
125.4609261927
 30
0.0
 10
76.7272649417
 20
125.5833403259
 30
0.0
 10
76.7645585205
 20
125.7076040085
 30
0.0
 10
76.8154941549
 20
125.7800685442
 30
0.0
  0
SPLINE
  5
45A
100
AcDbEntity
  8
0
100
AcDbSpline
 62
7
  6
CONTINUOUS
 70
0
 71
3
 72
11
 73
7
 74
0
 42
0.0000001
 43
0.0000001
 44
0.0000000001
 40
0.0
 40
0.0
 40
0.0
 40
0.0
 40
0.2372428334
 40
0.4999989082
 40
0.7627555772
 40
1.0
 40
1.0
 40
1.0
 40
1.0
 10
77.42786914
 20
116.7634310339
 30
0.0
 10
77.3274785775
 20
116.8213902409
 30
0.0
 10
77.1375116485
 20
116.9812845727
 30
0.0
 10
76.915789181
 20
117.284275995
 30
0.0
 10
76.7642502758
 20
117.6277890237
 30
0.0
 10
76.7207594148
 20
117.8722530481
 30
0.0
 10
76.7207594148
 20
117.9881742056
 30
0.0
  0
SPLINE
  5
45B
100
AcDbEntity
  8
0
100
AcDbSpline
 62
7
  6
CONTINUOUS
 70
0
 71
3
 72
25
 73
21
 74
0
 42
0.0000001
 43
0.0000001
 44
0.0000000001
 40
0.0
 40
0.0
 40
0.0
 40
0.0
 40
0.1270802894
 40
0.2569962665
 40
0.3231731805
 40
0.3903065489
 40
0.458572314
 40
0.5282080264
 40
0.5995880195
 40
0.6361266152
 40
0.6733463582
 40
0.7111264997
 40
0.7476784586
 40
0.7766477758
 40
0.7989901173
 40
0.821105257
 40
0.8443493721
 40
0.8686300591
 40
0.8937501938
 40
1.0
 40
1.0
 40
1.0
 40
1.0
 10
28.081886468
 20
111.0969338161
 30
0.0
 10
27.9454556935
 20
111.1809261662
 30
0.0
 10
27.6727877108
 20
111.3560883946
 30
0.0
 10
27.3383721171
 20
111.5890348529
 30
0.0
 10
27.0726061041
 20
111.7878203072
 30
0.0
 10
26.8731016592
 20
111.9452919688
 30
0.0
 10
26.6752717508
 20
112.111753865
 30
0.0
 10
26.4800836673
 20
112.289381578
 30
0.0
 10
26.3223151154
 20
112.4484333557
 30
0.0
 10
26.2016740265
 20
112.586108406
 30
0.0
 10
26.1151639192
 20
112.69707105
 30
0.0
 10
26.0398098671
 20
112.816428608
 30
0.0
 10
25.9882237038
 20
112.9362720795
 30
0.0
 10
25.98860522
 20
113.0562057781
 30
0.0
 10
26.0601339672
 20
113.1255605942
 30
0.0
 10
26.1433641071
 20
113.1494788079
 30
0.0
 10
26.2311183224
 20
113.156550811
 30
0.0
 10
26.3227858008
 20
113.1522830978
 30
0.0
 10
26.5175162899
 20
113.127110714
 30
0.0
 10
26.6781025982
 20
113.0824069394
 30
0.0
 10
26.8055503229
 20
113.0411759061
 30
0.0
  0
SPLINE
  5
45C
100
AcDbEntity
  8
0
100
AcDbSpline
 62
7
  6
CONTINUOUS
 70
0
 71
3
 72
11
 73
7
 74
0
 42
0.0000001
 43
0.0000001
 44
0.0000000001
 40
0.0
 40
0.0
 40
0.0
 40
0.0
 40
0.3041970125
 40
0.5917598915
 40
0.818188424
 40
1.0
 40
1.0
 40
1.0
 40
1.0
 10
32.8699725343
 20
102.7617174459
 30
0.0
 10
32.8378777566
 20
102.8107762811
 30
0.0
 10
32.7876671668
 20
102.9146045232
 30
0.0
 10
32.7508108058
 20
103.0690214065
 30
0.0
 10
32.7605995259
 20
103.2072130825
 30
0.0
 10
32.8134232195
 20
103.2743866117
 30
0.0
 10
32.8437671545
 20
103.291906535
 30
0.0
  0
SPLINE
  5
45D
100
AcDbEntity
  8
0
100
AcDbSpline
 62
7
  6
CONTINUOUS
 70
0
 71
3
 72
9
 73
5
 74
0
 42
0.0000001
 43
0.0000001
 44
0.0000000001
 40
0.0
 40
0.0
 40
0.0
 40
0.0
 40
0.4912846825
 40
1.0
 40
1.0
 40
1.0
 40
1.0
 10
114.7890958332
 20
195.509174106
 30
0.0
 10
114.6949178006
 20
195.9939057983
 30
0.0
 10
114.3577677896
 20
196.9538937427
 30
0.0
 10
113.8121468172
 20
197.8099814041
 30
0.0
 10
113.4861199512
 20
198.20387235
 30
0.0
  0
SPLINE
  5
45E
100
AcDbEntity
  8
0
100
AcDbSpline
 62
7
  6
CONTINUOUS
 70
0
 71
3
 72
14
 73
10
 74
0
 42
0.0000001
 43
0.0000001
 44
0.0000000001
 40
0.0
 40
0.0
 40
0.0
 40
0.0
 40
0.2370871699
 40
0.3843504051
 40
0.536095531
 40
0.6790864791
 40
0.8043996466
 40
0.9093681712
 40
1.0
 40
1.0
 40
1.0
 40
1.0
 10
33.004968708
 20
99.663313117
 30
0.0
 10
32.9291906778
 20
99.6699804416
 30
0.0
 10
32.8142126893
 20
99.7400989582
 30
0.0
 10
32.7034231153
 20
99.8706152938
 30
0.0
 10
32.6330715172
 20
99.9952843867
 30
0.0
 10
32.5910620717
 20
100.1242024342
 30
0.0
 10
32.5809744098
 20
100.2452205355
 30
0.0
 10
32.6095286432
 20
100.3472659849
 30
0.0
 10
32.6551909238
 20
100.3950850576
 30
0.0
 10
32.6803740975
 20
100.4096260043
 30
0.0
  0
SPLINE
  5
45F
100
AcDbEntity
  8
0
100
AcDbSpline
 62
7
  6
CONTINUOUS
 70
0
 71
3
 72
9
 73
5
 74
0
 42
0.0000001
 43
0.0000001
 44
0.0000000001
 40
0.0
 40
0.0
 40
0.0
 40
0.0
 40
0.2317962749
 40
1.0
 40
1.0
 40
1.0
 40
1.0
 10
72.1952571744
 20
104.4545797354
 30
0.0
 10
72.1635674485
 20
104.4728753933
 30
0.0
 10
72.0315848274
 20
104.5599276541
 30
0.0
 10
71.9180007762
 20
104.6732145537
 30
0.0
 10
71.8420137829
 20
104.7677265817
 30
0.0
  0
SPLINE
  5
460
100
AcDbEntity
  8
0
100
AcDbSpline
 62
7
  6
CONTINUOUS
 70
0
 71
3
 72
9
 73
5
 74
0
 42
0.0000001
 43
0.0000001
 44
0.0000000001
 40
0.0
 40
0.0
 40
0.0
 40
0.0
 40
0.5225620993
 40
1.0
 40
1.0
 40
1.0
 40
1.0
 10
71.8420137829
 20
104.7677265817
 30
0.0
 10
71.7338909674
 20
104.9022088939
 30
0.0
 10
71.5660886559
 20
105.1920151735
 30
0.0
 10
71.4881474493
 20
105.521666211
 30
0.0
 10
71.4881474493
 20
105.6793229071
 30
0.0
  0
SPLINE
  5
461
100
AcDbEntity
  8
0
100
AcDbSpline
 62
7
  6
CONTINUOUS
 70
0
 71
3
 72
9
 73
5
 74
0
 42
0.0000001
 43
0.0000001
 44
0.0000000001
 40
0.0
 40
0.0
 40
0.0
 40
0.0
 40
0.2334176592
 40
1.0
 40
1.0
 40
1.0
 40
1.0
 10
72.1952571749
 20
74.5910038283
 30
0.0
 10
72.1684847538
 20
74.6064605431
 30
0.0
 10
72.0571500987
 20
74.6784582603
 30
0.0
 10
71.9588632411
 20
74.7696487161
 30
0.0
 10
71.8914724651
 20
74.8455837226
 30
0.0
  0
SPLINE
  5
462
100
AcDbEntity
  8
0
100
AcDbSpline
 62
7
  6
CONTINUOUS
 70
0
 71
3
 72
9
 73
5
 74
0
 42
0.0000001
 43
0.0000001
 44
0.0000000001
 40
0.0
 40
0.0
 40
0.0
 40
0.0
 40
0.5234660955
 40
1.0
 40
1.0
 40
1.0
 40
1.0
 10
71.8142141649
 20
74.9397240733
 30
0.0
 10
71.7143621831
 20
75.0711751415
 30
0.0
 10
71.559409155
 20
75.3505071212
 30
0.0
 10
71.4881474497
 20
75.6654719368
 30
0.0
 10
71.4881474497
 20
75.8157470001
 30
0.0
  0
SPLINE
  5
463
100
AcDbEntity
  8
0
100
AcDbSpline
 62
7
  6
CONTINUOUS
 70
0
 71
3
 72
14
 73
10
 74
0
 42
0.0000001
 43
0.0000001
 44
0.0000000001
 40
0.0
 40
0.0
 40
0.0
 40
0.0
 40
0.2781948429
 40
0.4240349509
 40
0.56634425
 40
0.696214212
 40
0.807722757
 40
0.9050120677
 40
1.0
 40
1.0
 40
1.0
 40
1.0
 10
40.0064135267
 20
107.4231031294
 30
0.0
 10
40.1518845101
 20
107.5038852526
 30
0.0
 10
40.353983388
 20
107.6667855327
 30
0.0
 10
40.5601095612
 20
107.9369421814
 30
0.0
 10
40.6733831156
 20
108.1620791673
 30
0.0
 10
40.724140648
 20
108.3889584888
 30
0.0
 10
40.6996068933
 20
108.5958653476
 30
0.0
 10
40.5944802894
 20
108.7532248976
 30
0.0
 10
40.4880673212
 20
108.8079870209
 30
0.0
 10
40.433573382
 20
108.8240598293
 30
0.0
  0
SPLINE
  5
464
100
AcDbEntity
  8
0
100
AcDbSpline
 62
7
  6
CONTINUOUS
 70
0
 71
3
 72
9
 73
5
 74
0
 42
0.0000001
 43
0.0000001
 44
0.0000000001
 40
0.0
 40
0.0
 40
0.0
 40
0.0
 40
0.4499704375
 40
1.0
 40
1.0
 40
1.0
 40
1.0
 10
81.9973051707
 20
117.5528507985
 30
0.0
 10
81.9770417401
 20
117.5411519173
 30
0.0
 10
81.9216490245
 20
117.5330487022
 30
0.0
 10
81.8720663352
 20
117.5534261569
 30
0.0
 10
81.8472960909
 20
117.5677249894
 30
0.0
  0
SPLINE
  5
465
100
AcDbEntity
  8
0
100
AcDbSpline
 62
7
  6
CONTINUOUS
 70
0
 71
3
 72
11
 73
7
 74
0
 42
0.0000001
 43
0.0000001
 44
0.0000000001
 40
0.0
 40
0.0
 40
0.0
 40
0.0
 40
0.2810375887
 40
0.5555321641
 40
0.7995930249
 40
1.0
 40
1.0
 40
1.0
 40
1.0
 10
128.6606286832
 20
206.3102650436
 30
0.0
 10
128.7996664358
 20
206.1422859058
 30
0.0
 10
129.0370648789
 20
205.7777577811
 30
0.0
 10
129.2602077147
 20
205.1933880587
 30
0.0
 10
129.3320780639
 20
204.6346875537
 30
0.0
 10
129.2584787213
 20
204.2844816704
 30
0.0
 10
129.1849994784
 20
204.1474432288
 30
0.0
  0
LINE
  5
466
100
AcDbEntity
  8
0
100
AcDbLine
 62
7
  6
CONTINUOUS
 10
37.596679995
 20
106.0691894392
 11
40.0064135267
 21
107.4231031294
  0
LINE
  5
467
100
AcDbEntity
  8
0
100
AcDbLine
 62
7
  6
CONTINUOUS
 10
36.9686690958
 20
107.6119530448
 11
35.5454189213
 21
106.6853238899
  0
SPLINE
  5
468
100
AcDbEntity
  8
0
100
AcDbSpline
 62
7
  6
CONTINUOUS
 70
0
 71
3
 72
11
 73
7
 74
0
 42
0.0000001
 43
0.0000001
 44
0.0000000001
 40
0.0
 40
0.0
 40
0.0
 40
0.0
 40
0.250860612
 40
0.5011202761
 40
0.7504062357
 40
1.0
 40
1.0
 40
1.0
 40
1.0
 10
36.8603646126
 20
105.6554439052
 30
0.0
 10
36.9220822917
 20
105.6897812832
 30
0.0
 10
37.0437726043
 20
105.7611985531
 30
0.0
 10
37.2277768348
 20
105.8650188199
 30
0.0
 10
37.412723299
 20
105.9664053298
 30
0.0
 10
37.5352726802
 20
106.0350278206
 30
0.0
 10
37.596679995
 20
106.0691894392
 30
0.0
  0
SPLINE
  5
469
100
AcDbEntity
  8
0
100
AcDbSpline
 62
7
  6
CONTINUOUS
 70
0
 71
3
 72
11
 73
7
 74
0
 42
0.0000001
 43
0.0000001
 44
0.0000000001
 40
0.0
 40
0.0
 40
0.0
 40
0.0
 40
0.2497714104
 40
0.4994143064
 40
0.7495520209
 40
1.0
 40
1.0
 40
1.0
 40
1.0
 10
34.8770451903
 20
106.8878927554
 30
0.0
 10
35.0423561079
 20
106.7855806921
 30
0.0
 10
35.3726739082
 20
106.580655309
 30
0.0
 10
35.8693521822
 20
106.2745725427
 30
0.0
 10
36.3651267292
 20
105.9660279261
 30
0.0
 10
36.6946696445
 20
105.7581360129
 30
0.0
 10
36.8603646162
 20
105.6554439078
 30
0.0
  0
SPLINE
  5
46A
100
AcDbEntity
  8
0
100
AcDbSpline
 62
7
  6
CONTINUOUS
 70
0
 71
3
 72
9
 73
5
 74
0
 42
0.0000001
 43
0.0000001
 44
0.0000000001
 40
0.0
 40
0.0
 40
0.0
 40
0.0
 40
0.2625966509
 40
1.0
 40
1.0
 40
1.0
 40
1.0
 10
35.470232785
 20
108.5160075088
 30
0.0
 10
35.4522735791
 20
108.4519730083
 30
0.0
 10
35.3911415134
 20
108.2062412204
 30
0.0
 10
35.3599821809
 20
107.9523168715
 30
0.0
 10
35.3599282195
 20
107.7655620014
 30
0.0
  0
SPLINE
  5
46B
100
AcDbEntity
  8
0
100
AcDbSpline
 62
7
  6
CONTINUOUS
 70
0
 71
3
 72
9
 73
5
 74
0
 42
0.0000001
 43
0.0000001
 44
0.0000000001
 40
0.0
 40
0.0
 40
0.0
 40
0.0
 40
0.263589571
 40
1.0
 40
1.0
 40
1.0
 40
1.0
 10
37.358256122
 20
107.8932001681
 30
0.0
 10
37.3458346826
 20
107.8881746639
 30
0.0
 10
37.2982945629
 20
107.8702058349
 30
0.0
 10
37.2488437489
 20
107.8568850432
 30
0.0
 10
37.2118538012
 20
107.8511275581
 30
0.0
  0
SPLINE
  5
46C
100
AcDbEntity
  8
0
100
AcDbSpline
 62
7
  6
CONTINUOUS
 70
0
 71
3
 72
9
 73
5
 74
0
 42
0.0000001
 43
0.0000001
 44
0.0000000001
 40
0.0
 40
0.0
 40
0.0
 40
0.0
 40
0.2716277589
 40
1.0
 40
1.0
 40
1.0
 40
1.0
 10
35.3598981727
 20
107.4247894244
 30
0.0
 10
35.3599204887
 20
107.3546258525
 30
0.0
 10
35.3718661142
 20
107.0969207521
 30
0.0
 10
35.4371360442
 20
106.8382931219
 30
0.0
 10
35.5241744237
 20
106.6714921061
 30
0.0
  0
SPLINE
  5
46D
100
AcDbEntity
  8
0
100
AcDbSpline
 62
7
  6
CONTINUOUS
 70
0
 71
3
 72
13
 73
9
 74
0
 42
0.0000001
 43
0.0000001
 44
0.0000000001
 40
0.0
 40
0.0
 40
0.0
 40
0.0
 40
0.0955505428
 40
0.1957488254
 40
0.3042316689
 40
0.4231462623
 40
0.6931634421
 40
1.0
 40
1.0
 40
1.0
 40
1.0
 10
111.3981570636
 20
200.1171828233
 30
0.0
 10
111.4993712374
 20
200.1756147679
 30
0.0
 10
111.7249588547
 20
200.2660956919
 30
0.0
 10
112.0984399694
 20
200.3081717334
 30
0.0
 10
112.4993060006
 20
200.2598140124
 30
0.0
 10
113.0807452528
 20
200.0706736969
 30
0.0
 10
113.811864831
 20
199.6123843492
 30
0.0
 10
114.3130281398
 20
199.1085544836
 30
0.0
 10
114.552327447
 20
198.8194438603
 30
0.0
  0
SPLINE
  5
46E
100
AcDbEntity
  8
0
100
AcDbSpline
 62
7
  6
CONTINUOUS
 70
0
 71
3
 72
48
 73
44
 74
0
 42
0.0000001
 43
0.0000001
 44
0.0000000001
 40
0.0
 40
0.0
 40
0.0
 40
0.0
 40
0.0334034942
 40
0.0670278457
 40
0.1009324591
 40
0.1180184598
 40
0.1352273857
 40
0.1525865328
 40
0.1701322733
 40
0.1789858662
 40
0.1879065361
 40
0.1969535142
 40
0.206125557
 40
0.2155189012
 40
0.2202767957
 40
0.2251119026
 40
0.2299505706
 40
0.2345076364
 40
0.2383203857
 40
0.241354656
 40
0.2441637492
 40
0.2470849562
 40
0.2531189521
 40
0.2595154977
 40
0.2660957657
 40
0.2796549987
 40
0.2935896015
 40
0.3077714151
 40
0.3221332117
 40
0.35126234
 40
0.3807878415
 40
0.4105945825
 40
0.4406333025
 40
0.4708527815
 40
0.5012299921
 40
0.5317480379
 40
0.5623906317
 40
0.6239866006
 40
0.6859412291
 40
0.7482156293
 40
0.8107772183
 40
0.8736015417
 40
1.0
 40
1.0
 40
1.0
 40
1.0
 10
77.6703184026
 20
175.635588372
 30
0.0
 10
77.3368145034
 20
175.4791501541
 30
0.0
 10
76.6660114864
 20
175.1686134109
 30
0.0
 10
75.650622921
 20
174.7125565072
 30
0.0
 10
74.7938125018
 20
174.3428299176
 30
0.0
 10
74.0990486057
 20
174.0547673269
 30
0.0
 10
73.5699464225
 20
173.8436663587
 30
0.0
 10
73.0327927208
 20
173.6392556044
 30
0.0
 10
72.5783587265
 20
173.4767291398
 30
0.0
 10
72.2091173512
 20
173.3527483772
 30
0.0
 10
71.9277785747
 20
173.2612844977
 30
0.0
 10
71.639770766
 20
173.1797999229
 30
0.0
 10
71.3452986582
 20
173.1017466018
 30
0.0
 10
71.0920541211
 20
173.0552940066
 30
0.0
 10
70.8848112159
 20
173.0256250156
 30
0.0
 10
70.7266563305
 20
173.0069445568
 30
0.0
 10
70.568730956
 20
173.0104408152
 30
0.0
 10
70.4263759771
 20
173.0479323309
 30
0.0
 10
70.3165173283
 20
173.1146603453
 30
0.0
 10
70.2592674776
 20
173.2131512061
 30
0.0
 10
70.2751666674
 20
173.3127534722
 30
0.0
 10
70.3222403108
 20
173.432837183
 30
0.0
 10
70.3974896297
 20
173.585984635
 30
0.0
 10
70.5263727473
 20
173.7521038154
 30
0.0
 10
70.7132643814
 20
173.9771634797
 30
0.0
 10
70.9748197577
 20
174.2476952791
 30
0.0
 10
71.3098021516
 20
174.5623759862
 30
0.0
 10
71.6615893031
 20
174.8718393602
 30
0.0
 10
72.1485485846
 20
175.2810083213
 30
0.0
 10
72.7789892727
 20
175.7821614246
 30
0.0
 10
73.5567952084
 20
176.3710566994
 30
0.0
 10
74.3519955942
 20
176.9533761991
 30
0.0
 10
75.1615638852
 20
177.5288359843
 30
0.0
 10
75.9820319118
 20
178.0997164164
 30
0.0
 10
76.8120844939
 20
178.6660003861
 30
0.0
 10
77.6505534649
 20
179.2281636222
 30
0.0
 10
78.7803551073
 20
179.9739641434
 30
0.0
 10
80.2078644696
 20
180.8979865999
 30
0.0
 10
81.9391806983
 20
181.9944156238
 30
0.0
 10
83.6892807923
 20
183.0809260788
 30
0.0
 10
85.4561420151
 20
184.1584903653
 30
0.0
 10
87.8370457861
 20
185.5872125214
 30
0.0
 10
89.6375397122
 20
186.6422222841
 30
0.0
 10
90.8447384304
 20
187.3391223625
 30
0.0
  0
SPLINE
  5
46F
100
AcDbEntity
  8
0
100
AcDbSpline
 62
7
  6
CONTINUOUS
 70
0
 71
3
 72
8
 73
4
 74
0
 42
0.0000001
 43
0.0000001
 44
0.0000000001
 40
0.0
 40
0.0
 40
0.0
 40
0.0
 40
1.0
 40
1.0
 40
1.0
 40
1.0
 10
33.9100225466
 20
107.7509963222
 30
0.0
 10
34.4292880871
 20
107.4030802113
 30
0.0
 10
34.9488329407
 20
107.0555805465
 30
0.0
 10
35.4686814201
 20
106.7085360534
 30
0.0
  0
LINE
  5
470
100
AcDbEntity
  8
0
100
AcDbLine
 62
7
  6
CONTINUOUS
 10
34.8770419052
 20
106.8879366082
 11
35.4686784953
 21
106.7085796703
  0
SPLINE
  5
471
100
AcDbEntity
  8
0
100
AcDbSpline
 62
7
  6
CONTINUOUS
 70
0
 71
3
 72
9
 73
5
 74
0
 42
0.0000001
 43
0.0000001
 44
0.0000000001
 40
0.0
 40
0.0
 40
0.0
 40
0.0
 40
0.2498995128
 40
1.0
 40
1.0
 40
1.0
 40
1.0
 10
28.081886468
 20
111.0969338161
 30
0.0
 10
28.5578306512
 20
110.802867754
 30
0.0
 10
30.4620618734
 20
109.6256271733
 30
0.0
 10
32.3652121201
 20
108.4466380989
 30
0.0
 10
33.7921529852
 20
107.5612903482
 30
0.0
  0
SPLINE
  5
472
100
AcDbEntity
  8
0
100
AcDbSpline
 62
7
  6
CONTINUOUS
 70
0
 71
3
 72
10
 73
6
 74
0
 42
0.0000001
 43
0.0000001
 44
0.0000000001
 40
0.0
 40
0.0
 40
0.0
 40
0.0
 40
0.5228463526
 40
0.7739752121
 40
1.0
 40
1.0
 40
1.0
 40
1.0
 10
106.6649616845
 20
191.5458428924
 30
0.0
 10
106.347327415
 20
191.9498998657
 30
0.0
 10
105.9644141823
 20
192.6252000711
 30
0.0
 10
105.6840707921
 20
193.5700466846
 30
0.0
 10
105.6299688923
 20
194.039785198
 30
0.0
 10
105.630089704
 20
194.2619678586
 30
0.0
  0
SPLINE
  5
473
100
AcDbEntity
  8
0
100
AcDbSpline
 62
7
  6
CONTINUOUS
 70
0
 71
3
 72
13
 73
9
 74
0
 42
0.0000001
 43
0.0000001
 44
0.0000000001
 40
0.0
 40
0.0
 40
0.0
 40
0.0
 40
0.0955505483
 40
0.1957488346
 40
0.3042316795
 40
0.4231462718
 40
0.6931634452
 40
1.0
 40
1.0
 40
1.0
 40
1.0
 10
134.4499371346
 20
186.808534213
 30
0.0
 10
134.5511510911
 20
186.866966032
 30
0.0
 10
134.7767382171
 20
186.9574467674
 30
0.0
 10
135.1502185163
 20
186.9995227491
 30
0.0
 10
135.5510836733
 20
186.9511651816
 30
0.0
 10
136.1325216612
 20
186.7620253643
 30
0.0
 10
136.8636396827
 20
186.3037371431
 30
0.0
 10
137.3648019562
 20
185.7999084757
 30
0.0
 10
137.6041007816
 20
185.5107985332
 30
0.0
  0
SPLINE
  5
474
100
AcDbEntity
  8
0
100
AcDbSpline
 62
7
  6
CONTINUOUS
 70
0
 71
3
 72
13
 73
9
 74
0
 42
0.0000001
 43
0.0000001
 44
0.0000000001
 40
0.0
 40
0.0
 40
0.0
 40
0.0
 40
0.0970932564
 40
0.2015429653
 40
0.3145404803
 40
0.4365021959
 40
0.7051657173
 40
1.0
 40
1.0
 40
1.0
 40
1.0
 10
41.6675562723
 20
105.4219815826
 30
0.0
 10
41.5053512694
 20
105.209542382
 30
0.0
 10
41.2169094394
 20
104.7303240485
 30
0.0
 10
40.9158579929
 20
103.9141619457
 30
0.0
 10
40.7354913192
 20
102.9938292652
 30
0.0
 10
40.6566637093
 20
101.6061661869
 30
0.0
 10
40.8909678027
 20
99.71845957
 30
0.0
 10
41.3623737016
 20
98.2321445989
 30
0.0
 10
41.6675538777
 20
97.4800667501
 30
0.0
  0
SPLINE
  5
475
100
AcDbEntity
  8
0
100
AcDbSpline
 62
7
  6
CONTINUOUS
 70
0
 71
3
 72
10
 73
6
 74
0
 42
0.0000001
 43
0.0000001
 44
0.0000000001
 40
0.0
 40
0.0
 40
0.0
 40
0.0
 40
0.239760193
 40
0.4912200318
 40
1.0
 40
1.0
 40
1.0
 40
1.0
 10
137.8499453227
 20
182.1525405537
 30
0.0
 10
137.8056791396
 20
182.3936237099
 30
0.0
 10
137.6770338706
 20
182.881133646
 30
0.0
 10
137.2921402857
 20
183.8300268727
 30
0.0
 10
136.8678329663
 20
184.4931261603
 30
0.0
 10
136.5378932859
 20
184.8952270231
 30
0.0
  0
SPLINE
  5
476
100
AcDbEntity
  8
0
100
AcDbSpline
 62
7
  6
CONTINUOUS
 70
0
 71
3
 72
51
 73
47
 74
0
 42
0.0000001
 43
0.0000001
 44
0.0000000001
 40
0.0
 40
0.0
 40
0.0
 40
0.0
 40
0.0334057511
 40
0.067034798
 40
0.1009469459
 40
0.1180417529
 40
0.1352522737
 40
0.1526071869
 40
0.1701583732
 40
0.1879536942
 40
0.1970458372
 40
0.2061717705
 40
0.2154370791
 40
0.2202364915
 40
0.2250813737
 40
0.229686037
 40
0.2338323299
 40
0.2375079892
 40
0.2406330297
 40
0.2434413227
 40
0.2463518166
 40
0.2494692898
 40
0.2526778503
 40
0.2559251057
 40
0.2591859124
 40
0.2657776281
 40
0.272537154
 40
0.2794396099
 40
0.2863883817
 40
0.2934066549
 40
0.3076204813
 40
0.3220032714
 40
0.3511632532
 40
0.3807043593
 40
0.4105295102
 40
0.4405783497
 40
0.4708120321
 40
0.5012010883
 40
0.5317242997
 40
0.5623677045
 40
0.6239668809
 40
0.6859290279
 40
0.7482092633
 40
0.8107740468
 40
0.8736026526
 40
1.0
 40
1.0
 40
1.0
 40
1.0
 10
100.688446436
 20
162.3119958274
 30
0.0
 10
100.355836622
 20
162.1561067266
 30
0.0
 10
99.6869382862
 20
161.846371822
 30
0.0
 10
98.6741777269
 20
161.3919478293
 30
0.0
 10
97.8195919337
 20
161.023302422
 30
0.0
 10
97.126308236
 20
160.7368334042
 30
0.0
 10
96.5986150689
 20
160.526518699
 30
0.0
 10
96.0632893229
 20
160.3217846426
 30
0.0
 10
95.5169771292
 20
160.1285922025
 30
0.0
 10
95.0538371856
 20
159.9719278411
 30
0.0
 10
94.6711415733
 20
159.8695905345
 30
0.0
 10
94.379490681
 20
159.7911685025
 30
0.0
 10
94.131882211
 20
159.7277640727
 30
0.0
 10
93.9248836247
 20
159.7044406515
 30
0.0
 10
93.7674450915
 20
159.7065680044
 30
0.0
 10
93.6204591108
 20
159.7406661149
 30
0.0
 10
93.4965657277
 20
159.8001555846
 30
0.0
 10
93.3981313361
 20
159.8708807253
 30
0.0
 10
93.3345335649
 20
159.959810244
 30
0.0
 10
93.3255638024
 20
160.0612587574
 30
0.0
 10
93.3628025411
 20
160.1531735769
 30
0.0
 10
93.4195556299
 20
160.2373941015
 30
0.0
 10
93.4825846748
 20
160.321760808
 30
0.0
 10
93.5489423654
 20
160.4054994861
 30
0.0
 10
93.6388513102
 20
160.5180341252
 30
0.0
 10
93.7556835924
 20
160.6585471093
 30
0.0
 10
93.9085658671
 20
160.8206896686
 30
0.0
 10
94.0716429343
 20
160.9780954478
 30
0.0
 10
94.2370402907
 20
161.1371792993
 30
0.0
 10
94.4655799662
 20
161.3464888352
 30
0.0
 10
94.7608464394
 20
161.6038217904
 30
0.0
 10
95.248058218
 20
162.0112610153
 30
0.0
 10
95.8783223305
 20
162.5100566187
 30
0.0
 10
96.6547452834
 20
163.0972741907
 30
0.0
 10
97.4488713734
 20
163.6770474497
 30
0.0
 10
98.2566372276
 20
164.25088165
 30
0.0
 10
99.0756215315
 20
164.8195226998
 30
0.0
 10
99.9039508696
 20
165.3837712331
 30
0.0
 10
100.7403023971
 20
165.9441901269
 30
0.0
 10
101.8669050385
 20
166.6878987501
 30
0.0
 10
103.2904617745
 20
167.6091955554
 30
0.0
 10
105.0171928128
 20
168.7021062021
 30
0.0
 10
106.7625503412
 20
169.7852822998
 30
0.0
 10
108.5244895821
 20
170.8596791909
 30
0.0
 10
110.8986817379
 20
172.2840908824
 30
0.0
 10
112.6943797109
 20
173.3353771487
 30
0.0
 10
113.8976413587
 20
174.0309931068
 30
0.0
  0
SPLINE
  5
477
100
AcDbEntity
  8
0
100
AcDbSpline
 62
7
  6
CONTINUOUS
 70
0
 71
3
 72
12
 73
8
 74
0
 42
0.0000001
 43
0.0000001
 44
0.0000000001
 40
0.0
 40
0.0
 40
0.0
 40
0.0
 40
0.3070981514
 40
0.5775058471
 40
0.8040320436
 40
0.9043453295
 40
1.0
 40
1.0
 40
1.0
 40
1.0
 10
123.5686823056
 20
203.3704459802
 30
0.0
 10
123.4575676812
 20
203.5046896548
 30
0.0
 10
123.2242168542
 20
203.7387872478
 30
0.0
 10
122.834427941
 20
203.9841054731
 30
0.0
 10
122.4962069514
 20
204.0693383936
 30
0.0
 10
122.2555303796
 20
204.042371809
 30
0.0
 10
122.1507954992
 20
204.000254854
 30
0.0
 10
122.1037758547
 20
203.9731362844
 30
0.0
  0
SPLINE
  5
478
100
AcDbEntity
  8
0
100
AcDbSpline
 62
7
  6
CONTINUOUS
 70
0
 71
3
 72
12
 73
8
 74
0
 42
0.0000001
 43
0.0000001
 44
0.0000000001
 40
0.0
 40
0.0
 40
0.0
 40
0.0
 40
0.0956546705
 40
0.1959679564
 40
0.4224941529
 40
0.6929018486
 40
1.0
 40
1.0
 40
1.0
 40
1.0
 10
122.0176882198
 20
203.6393471051
 30
0.0
 10
122.0580823372
 20
203.6626444033
 30
0.0
 10
122.14805905
 20
203.698826668
 30
0.0
 10
122.3548219421
 20
203.7219933975
 30
0.0
 10
122.645384291
 20
203.6487706279
 30
0.0
 10
122.9802481393
 20
203.4380201366
 30
0.0
 10
123.1807175556
 20
203.2369091808
 30
0.0
 10
123.2761750442
 20
203.1215817511
 30
0.0
  0
SPLINE
  5
479
100
AcDbEntity
  8
0
100
AcDbSpline
 62
7
  6
CONTINUOUS
 70
0
 71
3
 72
13
 73
9
 74
0
 42
0.0000001
 43
0.0000001
 44
0.0000000001
 40
0.0
 40
0.0
 40
0.0
 40
0.0
 40
0.304576377
 40
0.5744930517
 40
0.6941061026
 40
0.8035360702
 40
0.9044912404
 40
1.0
 40
1.0
 40
1.0
 40
1.0
 10
136.5378932859
 20
184.8952270231
 30
0.0
 10
136.3062105239
 20
185.1738243395
 30
0.0
 10
135.8234322537
 20
185.6639674054
 30
0.0
 10
135.1203012149
 20
186.1164990904
 30
0.0
 10
134.5587514125
 20
186.3166396584
 30
0.0
 10
134.1686669951
 20
186.3799843411
 30
0.0
 10
133.8021473326
 20
186.3601814408
 30
0.0
 10
133.5762739252
 20
186.2887446662
 30
0.0
 10
133.4735944404
 20
186.2400904151
 30
0.0
  0
SPLINE
  5
47A
100
AcDbEntity
  8
0
100
AcDbSpline
 62
7
  6
CONTINUOUS
 70
0
 71
3
 72
13
 73
9
 74
0
 42
0.0000001
 43
0.0000001
 44
0.0000000001
 40
0.0
 40
0.0
 40
0.0
 40
0.0
 40
0.0880181938
 40
0.1844531842
 40
0.2943645482
 40
0.4188428541
 40
0.7013502851
 40
1.0
 40
1.0
 40
1.0
 40
1.0
 10
123.8497557193
 20
200.9489924254
 30
0.0
 10
123.9180363594
 20
200.9883732694
 30
0.0
 10
124.0445095361
 20
201.1023959397
 30
0.0
 10
124.1647335409
 20
201.3420099187
 30
0.0
 10
124.2188695298
 20
201.6363635965
 30
0.0
 10
124.2027934012
 20
202.1016602467
 30
0.0
 10
124.0157443875
 20
202.715881505
 30
0.0
 10
123.7392151728
 20
203.1644158662
 30
0.0
 10
123.5686823056
 20
203.3704459802
 30
0.0
  0
SPLINE
  5
47B
100
AcDbEntity
  8
0
100
AcDbSpline
 62
7
  6
CONTINUOUS
 70
0
 71
3
 72
10
 73
6
 74
0
 42
0.0000001
 43
0.0000001
 44
0.0000000001
 40
0.0
 40
0.0
 40
0.0
 40
0.0
 40
0.2130051789
 40
0.4529341511
 40
1.0
 40
1.0
 40
1.0
 40
1.0
 10
134.5783121508
 20
182.5416468815
 30
0.0
 10
134.6969304829
 20
182.7242233015
 30
0.0
 10
134.9648377281
 20
183.1023141248
 30
0.0
 10
135.6017896571
 20
183.9021667523
 30
0.0
 10
136.1473669585
 20
184.4949172483
 30
0.0
 10
136.5378255399
 20
184.8952109281
 30
0.0
  0
SPLINE
  5
47C
100
AcDbEntity
  8
0
100
AcDbSpline
 62
7
  6
CONTINUOUS
 70
0
 71
3
 72
11
 73
7
 74
0
 42
0.0000001
 43
0.0000001
 44
0.0000000001
 40
0.0
 40
0.0
 40
0.0
 40
0.0
 40
0.3318194203
 40
0.6080137531
 40
0.82876165
 40
1.0
 40
1.0
 40
1.0
 40
1.0
 10
134.5782263772
 20
182.541637501
 30
0.0
 10
134.4759395403
 20
182.3840774657
 30
0.0
 10
134.2974404012
 20
182.0893176611
 30
0.0
 10
134.0958243917
 20
181.6641453264
 30
0.0
 10
133.984989223
 20
181.3012092366
 30
0.0
 10
133.9720993459
 20
181.0746682739
 30
0.0
 10
133.9889545231
 20
180.9792029675
 30
0.0
  0
SPLINE
  5
47D
100
AcDbEntity
  8
0
100
AcDbSpline
 62
7
  6
CONTINUOUS
 70
0
 71
3
 72
13
 73
9
 74
0
 42
0.0000001
 43
0.0000001
 44
0.0000000001
 40
0.0
 40
0.0
 40
0.0
 40
0.0
 40
0.0880181898
 40
0.1844531805
 40
0.2943645502
 40
0.418842865
 40
0.7013503081
 40
1.0
 40
1.0
 40
1.0
 40
1.0
 10
146.9015285267
 20
187.6403563962
 30
0.0
 10
146.9698089048
 20
187.6797370894
 30
0.0
 10
147.0962815947
 20
187.7937593358
 30
0.0
 10
147.2165051041
 20
188.0333724316
 30
0.0
 10
147.2706408297
 20
188.3277250191
 30
0.0
 10
147.2545646594
 20
188.7930199276
 30
0.0
 10
147.0675162121
 20
189.4072388154
 30
0.0
 10
146.7909879228
 20
189.855771397
 30
0.0
 10
146.6204556402
 20
190.0618006531
 30
0.0
  0
SPLINE
  5
47E
100
AcDbEntity
  8
0
100
AcDbSpline
 62
7
  6
CONTINUOUS
 70
0
 71
3
 72
12
 73
8
 74
0
 42
0.0000001
 43
0.0000001
 44
0.0000000001
 40
0.0
 40
0.0
 40
0.0
 40
0.0
 40
0.3070981433
 40
0.5775058229
 40
0.8040320205
 40
0.9043453159
 40
1.0
 40
1.0
 40
1.0
 40
1.0
 10
146.3279483788
 20
189.8129364241
 30
0.0
 10
146.2324913631
 20
189.9282631659
 30
0.0
 10
146.0320229963
 20
190.129372931
 30
0.0
 10
145.6971609275
 20
190.3401221272
 30
0.0
 10
145.4066001669
 20
190.413344389
 30
0.0
 10
145.1998384123
 20
190.3901777439
 30
0.0
 10
145.1098621907
 20
190.3539956677
 30
0.0
 10
145.0694682909
 20
190.3306984947
 30
0.0
  0
SPLINE
  5
47F
100
AcDbEntity
  8
0
100
AcDbSpline
 62
7
  6
CONTINUOUS
 70
0
 71
3
 72
12
 73
8
 74
0
 42
0.0000001
 43
0.0000001
 44
0.0000000001
 40
0.0
 40
0.0
 40
0.0
 40
0.0
 40
0.3070981443
 40
0.5775058265
 40
0.8040320236
 40
0.9043453179
 40
1.0
 40
1.0
 40
1.0
 40
1.0
 10
146.6204556402
 20
190.0618006531
 30
0.0
 10
146.5093414975
 20
190.1960436469
 30
0.0
 10
146.2759917088
 20
190.4301400406
 30
0.0
 10
145.886204578
 20
190.6754569719
 30
0.0
 10
145.5479851761
 20
190.7606893853
 30
0.0
 10
145.307309742
 20
190.7337228848
 30
0.0
 10
145.2025753527
 20
190.6916061182
 30
0.0
 10
145.1555559258
 20
190.664487674
 30
0.0
  0
SPLINE
  5
480
100
AcDbEntity
  8
0
100
AcDbSpline
 62
7
  6
CONTINUOUS
 70
0
 71
3
 72
10
 73
6
 74
0
 42
0.0000001
 43
0.0000001
 44
0.0000000001
 40
0.0
 40
0.0
 40
0.0
 40
0.0
 40
0.2893478253
 40
0.5567436133
 40
1.0
 40
1.0
 40
1.0
 40
1.0
 10
151.7124015679
 20
193.0016202602
 30
0.0
 10
151.6299314096
 20
193.1012568588
 30
0.0
 10
151.4570306432
 20
193.2825722094
 30
0.0
 10
151.102790817
 20
193.553523619
 30
0.0
 10
150.7911680314
 20
193.6792669907
 30
0.0
 10
150.5931343164
 20
193.6856823085
 30
0.0
  0
SPLINE
  5
481
100
AcDbEntity
  8
0
100
AcDbSpline
 62
7
  6
CONTINUOUS
 70
0
 71
3
 72
9
 73
5
 74
0
 42
0.0000001
 43
0.0000001
 44
0.0000000001
 40
0.0
 40
0.0
 40
0.0
 40
0.0
 40
0.508257401
 40
1.0
 40
1.0
 40
1.0
 40
1.0
 10
114.552327447
 20
198.8194438603
 30
0.0
 10
114.874140599
 20
198.4306437335
 30
0.0
 10
115.4143610998
 20
197.5858603979
 30
0.0
 10
115.7514704948
 20
196.6392862142
 30
0.0
 10
115.8481775781
 20
196.1606505529
 30
0.0
  0
SPLINE
  5
482
100
AcDbEntity
  8
0
100
AcDbSpline
 62
7
  6
CONTINUOUS
 70
0
 71
3
 72
9
 73
5
 74
0
 42
0.0000001
 43
0.0000001
 44
0.0000000001
 40
0.0
 40
0.0
 40
0.0
 40
0.0
 40
0.503882555
 40
1.0
 40
1.0
 40
1.0
 40
1.0
 10
41.5882597435
 20
96.867430535
 30
0.0
 10
41.0128542232
 20
96.742576711
 30
0.0
 10
39.8676368945
 20
96.5096019578
 30
0.0
 10
38.7145891655
 20
96.3173186129
 30
0.0
 10
38.1404358545
 20
96.2371610525
 30
0.0
  0
SPLINE
  5
483
100
AcDbEntity
  8
0
100
AcDbSpline
 62
7
  6
CONTINUOUS
 70
0
 71
3
 72
10
 73
6
 74
0
 42
0.0000001
 43
0.0000001
 44
0.0000000001
 40
0.0
 40
0.0
 40
0.0
 40
0.0
 40
0.4432563574
 40
0.7106521624
 40
1.0
 40
1.0
 40
1.0
 40
1.0
 10
127.5413556831
 20
206.9943312578
 30
0.0
 10
127.7393904588
 20
206.9879159047
 30
0.0
 10
128.0510149104
 20
206.8621717273
 30
0.0
 10
128.405256523
 20
206.5912186803
 30
0.0
 10
128.5781581355
 20
206.4099022375
 30
0.0
 10
128.6606286832
 20
206.3102650436
 30
0.0
  0
ELLIPSE
  5
484
100
AcDbEntity
  8
0
100
AcDbEllipse
 62
7
  6
CONTINUOUS
 10
148.0141953749
 20
106.5058752496
 30
0.0
 11
4.2163597623
 21
6.8016729898
 31
0.0
 40
0.5971363728
 41
0.1605841722
 42
0.2579821207
  0
ELLIPSE
  5
485
100
AcDbEntity
  8
0
100
AcDbEllipse
 62
7
  6
CONTINUOUS
 10
96.7548925116
 20
125.6282855418
 30
0.0
 11
63.9091689203
 21
28.7487510096
 31
0.0
 40
0.1108522463
 41
8.8343890961
 42
8.9621867651
  0
ENDSEC
  0
SECTION
  2
OBJECTS
  0
DICTIONARY
  5
C
100
AcDbDictionary
280
0
281
1
  3
ACAD_GROUP
350
D
  3
ACAD_MLINESTYLE
350
17
  3
ACAD_LAYOUT
350
1A
  3
ACAD_PLOTSETTINGS
350
19
  3
ACAD_PLOTSTYLENAME
350
E
  0
DICTIONARY
  5
D
102
{ACAD_REACTORS
330
C
102
}
100
AcDbDictionary
280
0
281
1
  0
ACDBDICTIONARYWDFLT
  5
E
102
{ACAD_REACTORS
330
C
102
}
100
AcDbDictionary
281
1
  3
Normal
350
F
100
AcDbDictionaryWithDefault
340
F
  0
DICTIONARY
  5
17
102
{ACAD_REACTORS
330
C
102
}
100
AcDbDictionary
280
0
281
1
  3
Standard
350
18
  0
DICTIONARY
  5
19
102
{ACAD_REACTORS
330
C
102
}
100
AcDbDictionary
281
1
  0
DICTIONARY
  5
1A
102
{ACAD_REACTORS
330
C
102
}
100
AcDbDictionary
281
1
  3
Model
350
486
  3
Layout1
350
487
  0
ACDBPLACEHOLDER
  5
F
102
{ACAD_REACTORS
330
E
102
}
  0
MLINESTYLE
  5
18
102
{ACAD_REACTORS
330
17
102
}
100
AcDbMlineStyle
  2
STANDARD
 70
0
  3

 62
256
 51
90.0
 52
90.0
 71
2
 49
0.5
 62
256
  6
BYLAYER
 49
-0.5
 62
256
  6
BYLAYER
  0
LAYOUT
  5
486
102
{ACAD_REACTORS
330
1A
102
}
100
AcDbPlotSettings
  1

  2
none_device
  4

  6

 40
0.0
 41
0.0
 42
0.0
 43
0.0
 44
210.0
 45
297.0
 46
0.0
 47
0.0
 48
0.0
 49
0.0
140
0.0
141
0.0
142
1.0
143
1.0
 70
1024
 72
1
 73
0
 74
0
  7

 75
0
147
1.0
148
0.0
149
0.0
100
AcDbLayout
  1
Model
 70
0
 71
0
 10
0.0
 20
0.0
 11
210.0
 21
297.0
 12
0.0
 22
0.0
 32
0.0
 14
0.0
 24
0.0
 34
0.0
 15
0.0
 25
0.0
 35
0.0
146
0.0
 13
0.0
 23
0.0
 33
0.0
 16
1.0
 26
0.0
 36
0.0
 17
0.0
 27
1.0
 37
0.0
 76
0
330
210
345
0
346
0
  0
LAYOUT
  5
487
102
{ACAD_REACTORS
330
1A
102
}
100
AcDbPlotSettings
  1

  2
none_device
  4

  6

 40
0.0
 41
0.0
 42
0.0
 43
0.0
 44
210.0
 45
297.0
 46
0.0
 47
0.0
 48
0.0
 49
0.0
140
0.0
141
0.0
142
1.0
143
1.0
 70
0
 72
1
 73
0
 74
0
  7

 75
0
147
1.0
148
0.0
149
0.0
100
AcDbLayout
  1
Layout1
 70
0
 71
1
 10
0.0
 20
0.0
 11
210.0
 21
297.0
 12
0.0
 22
0.0
 32
0.0
 14
0.0
 24
0.0
 34
0.0
 15
0.0
 25
0.0
 35
0.0
146
0.0
 13
0.0
 23
0.0
 33
0.0
 16
1.0
 26
0.0
 36
0.0
 17
0.0
 27
1.0
 37
0.0
 76
0
330
211
345
0
346
0
  0
ENDSEC
  0
EOF
