999
DXF file: C:\Users\sesa63760\Dev\_Creo\CAD\MCADID0005714_3D-CAD\mcadid0005714_3d-simplified-ec_6.dxf
999
Pro/ENGINEER 2019471 by Parametric Technology Corporation
  0
SECTION
  2
HEADER
  9
$ACADVER
  1
AC1024
  9
$DWGCODEPAGE
  3
ANSI_1252
  9
$EXTMAX
 10
149.191367647
 20
210.9992199578
 30
0.0
  9
$EXTMIN
 10
0.0
 20
0.0
 30
0.0
  9
$LIMMIN
 10
0.0
 20
0.0
  9
$LIMMAX
 10
149.191367647
 20
210.9992199578
  9
$VIEWCTR
 10
74.5956838235
 20
105.4996099789
  9
$VIEWSIZE
 40
210.9992199578
  9
$CLAYER
  8
0
  9
$LTSCALE
 40
13.7540232269
  9
$CELTYPE
  6
BYLAYER
  9
$DIMSCALE
 40
1.0
  9
$DIMASZ
 40
1.7760877101
  9
$DIMEXO
 40
1.0
  9
$DIMDLI
 40
9.502779684
  9
$DIMEXE
 40
1.0
  9
$DIMCEN
 40
2.2506583462
  9
$DIMLFAC
 40
1.0
  9
$DIMBLK
  1
_FILLED
  9
$DIMALT
 70
0
  9
$DIMALTF
 40
0.0393700787
  9
$DIMTXT
 40
2.4865227941
  9
$DIMTOL
 70
1
  9
$DIMLIM
 70
0
  9
$DIMTFAC
 40
1.0
  9
$DIMTP
 40
0.01
  9
$DIMTM
 40
0.01
  9
$DIMGAP
 40
0.625
  9
$DIMDSEP
 70
46
  9
$AUNITS
 70
0
  9
$PDMODE
 70
3
  9
$PDSIZE
 40
0.3125
  9
$HANDSEED
  5
2B8
  9
$TILEMODE
 70
1
  9
$MEASUREMENT
 70
1
  9
$INSUNITS
 70
4
  0
ENDSEC
  0
SECTION
  2
CLASSES
  0
CLASS
  1
ACDBDICTIONARYWDFLT
  2
AcDbDictionaryWithDefault
  3
AutoCAD 2000
 90
0
 91
1
280
0
281
0
  0
CLASS
  1
ACDBPLACEHOLDER
  2
AcDbPlaceHolder
  3
AutoCAD 2000
 90
0
 91
1
280
0
281
0
  0
CLASS
  1
LAYOUT
  2
AcDbLayout
  3
AutoCAD 2000
 90
0
 91
0
280
0
281
0
  0
ENDSEC
  0
SECTION
  2
TABLES
  0
TABLE
  2
VPORT
  5
8
100
AcDbSymbolTable
 70
2
  0
VPORT
  5
1F4
100
AcDbSymbolTableRecord
100
AcDbViewportTableRecord
  2
*ACTIVE
 70
0
 10
0.0
 20
0.0
 11
1.0
 21
1.0
 12
74.5956838235
 22
105.4996099789
 13
0.0
 23
0.0
 14
1.0
 24
1.0
 15
0.0
 25
0.0
 16
0.0
 26
0.0
 36
1.0
 17
0.0
 27
0.0
 37
0.0
 40
210.9992199578
 41
0.7070707071
 42
50.0
 43
0.0
 44
0.0
 50
0.0
 51
0.0
 71
0
 72
100
 73
1
 74
1
 75
0
 76
0
 77
0
 78
0
  0
ENDTAB
  0
TABLE
  2
LTYPE
  5
5
100
AcDbSymbolTable
 70
6
  0
LTYPE
  5
14
100
AcDbSymbolTableRecord
100
AcDbLinetypeTableRecord
  2
BYBLOCK
 70
0
  3

 72
65
 73
0
 40
0.0
  0
LTYPE
  5
15
100
AcDbSymbolTableRecord
100
AcDbLinetypeTableRecord
  2
BYLAYER
 70
0
  3

 72
65
 73
0
 40
0.0
  0
LTYPE
  5
16
100
AcDbSymbolTableRecord
100
AcDbLinetypeTableRecord
  2
CONTINUOUS
 70
64
  3
Solid line
 72
65
 73
0
 40
0.0
  0
LTYPE
  5
1F5
100
AcDbSymbolTableRecord
100
AcDbLinetypeTableRecord
  2
CENTER
 70
64
  3
____ _ ____ _ ____ _ ____ _ ____ _ ____ _ ____
 72
65
 73
4
 40
0.6
 49
0.375
 74
0
 49
-0.075
 74
0
 49
0.075
 74
0
 49
-0.075
 74
0
  0
LTYPE
  5
1F6
100
AcDbSymbolTableRecord
100
AcDbLinetypeTableRecord
  2
HIDDEN
 70
64
  3
- - - - - - - - - - - - - - - - - - - -
 72
65
 73
2
 40
0.2
 49
0.1
 74
0
 49
-0.1
 74
0
  0
LTYPE
  5
1F7
100
AcDbSymbolTableRecord
100
AcDbLinetypeTableRecord
  2
PHANTOM
 70
64
  3
_____ _ _ _____ _ _ _____ _ _ _____
 72
65
 73
6
 40
0.8
 49
0.45
 74
0
 49
-0.05
 74
0
 49
0.1
 74
0
 49
-0.05
 74
0
 49
0.1
 74
0
 49
-0.05
 74
0
  0
LTYPE
  5
1F8
100
AcDbSymbolTableRecord
100
AcDbLinetypeTableRecord
  2
DOT
 70
64
  3
. . . . . . . . . . . . . . . . . . . .
 72
65
 73
2
 40
0.2
 49
0.1
 74
0
 49
-0.1
 74
0
  0
LTYPE
  5
1F9
100
AcDbSymbolTableRecord
100
AcDbLinetypeTableRecord
  2
DASHED
 70
64
  3
- - - - - - - - - - - - - - - - - - - -
 72
65
 73
2
 40
0.2
 49
0.1
 74
0
 49
-0.1
 74
0
  0
ENDTAB
  0
TABLE
  2
LAYER
  5
2
100
AcDbSymbolTable
 70
36
  0
LAYER
  5
10
100
AcDbSymbolTableRecord
100
AcDbLayerTableRecord
  2
0
 70
0
 62
7
  6
CONTINUOUS
370
-3
390
F
  0
LAYER
  5
1FA
100
AcDbSymbolTableRecord
100
AcDbLayerTableRecord
  2
DEFAULT_1
 70
0
 62
7
  6
CENTER
370
-3
390
F
  0
LAYER
  5
1FB
100
AcDbSymbolTableRecord
100
AcDbLayerTableRecord
  2
DEFAULT_2
 70
0
 62
7
  6
HIDDEN
370
-3
390
F
  0
LAYER
  5
1FC
100
AcDbSymbolTableRecord
100
AcDbLayerTableRecord
  2
DEFAULT_3
 70
0
 62
7
  6
PHANTOM
370
-3
390
F
  0
LAYER
  5
1FD
100
AcDbSymbolTableRecord
100
AcDbLayerTableRecord
  2
00_COMPONENTS
 70
0
 62
7
  6
CONTINUOUS
370
-3
390
F
  0
LAYER
  5
1FE
100
AcDbSymbolTableRecord
100
AcDbLayerTableRecord
  2
01_1_DEFAULT_DATUMS
 70
0
 62
7
  6
CONTINUOUS
370
-3
390
F
  0
LAYER
  5
1FF
100
AcDbSymbolTableRecord
100
AcDbLayerTableRecord
  2
01_PLANES
 70
0
 62
7
  6
CONTINUOUS
370
-3
390
F
  0
LAYER
  5
200
100
AcDbSymbolTableRecord
100
AcDbLayerTableRecord
  2
02_COORD_SYS
 70
0
 62
7
  6
CONTINUOUS
370
-3
390
F
  0
LAYER
  5
201
100
AcDbSymbolTableRecord
100
AcDbLayerTableRecord
  2
03_AXES
 70
0
 62
7
  6
CONTINUOUS
370
-3
390
F
  0
LAYER
  5
202
100
AcDbSymbolTableRecord
100
AcDbLayerTableRecord
  2
04_POINTS
 70
0
 62
7
  6
CONTINUOUS
370
-3
390
F
  0
LAYER
  5
203
100
AcDbSymbolTableRecord
100
AcDbLayerTableRecord
  2
05_CURVES
 70
0
 62
7
  6
CONTINUOUS
370
-3
390
F
  0
LAYER
  5
204
100
AcDbSymbolTableRecord
100
AcDbLayerTableRecord
  2
06_SURFS
 70
0
 62
7
  6
CONTINUOUS
370
-3
390
F
  0
LAYER
  5
205
100
AcDbSymbolTableRecord
100
AcDbLayerTableRecord
  2
07_COSMETICS
 70
0
 62
7
  6
CONTINUOUS
370
-3
390
F
  0
LAYER
  5
206
100
AcDbSymbolTableRecord
100
AcDbLayerTableRecord
  2
10_NOTES
 70
0
 62
7
  6
CONTINUOUS
370
-3
390
F
  0
LAYER
  5
207
100
AcDbSymbolTableRecord
100
AcDbLayerTableRecord
  2
11_NOTES_PUB
 70
0
 62
7
  6
CONTINUOUS
370
-3
390
F
  0
LAYER
  5
208
100
AcDbSymbolTableRecord
100
AcDbLayerTableRecord
  2
13_REF_GTOL
 70
0
 62
7
  6
CONTINUOUS
370
-3
390
F
  0
LAYER
  5
209
100
AcDbSymbolTableRecord
100
AcDbLayerTableRecord
  2
16_MISC
 70
0
 62
7
  6
CONTINUOUS
370
-3
390
F
  0
LAYER
  5
20A
100
AcDbSymbolTableRecord
100
AcDbLayerTableRecord
  2
17_NO_PRINT
 70
0
 62
7
  6
CONTINUOUS
370
-3
390
F
  0
LAYER
  5
20B
100
AcDbSymbolTableRecord
100
AcDbLayerTableRecord
  2
18_DATUM_CAMS_JOINTS
 70
0
 62
7
  6
CONTINUOUS
370
-3
390
F
  0
LAYER
  5
20C
100
AcDbSymbolTableRecord
100
AcDbLayerTableRecord
  2
19_DATUM_FUNCTIONAL
 70
0
 62
7
  6
CONTINUOUS
370
-3
390
F
  0
LAYER
  5
20D
100
AcDbSymbolTableRecord
100
AcDbLayerTableRecord
  2
20_DATUM_KINEMATIC_SCHEME
 70
0
 62
7
  6
CONTINUOUS
370
-3
390
F
  0
ENDTAB
  0
TABLE
  2
STYLE
  5
3
100
AcDbSymbolTable
 70
1
  0
STYLE
  5
11
100
AcDbSymbolTableRecord
100
AcDbTextStyleTableRecord
  2
STANDARD
 70
0
 40
0.0
 41
1.0
 50
0.0
 71
0
 42
0.2
  3
ARIAL.TTF
  4

  0
STYLE
  5
20E
100
AcDbSymbolTableRecord
100
AcDbTextStyleTableRecord
  2
TEXTSTYLE_1
 70
0
 40
0.0
 41
0.8
 50
0.0
 71
0
 42
0.2
  3
gdt
  4

  0
ENDTAB
  0
TABLE
  2
VIEW
  5
6
100
AcDbSymbolTable
 70
0
  0
ENDTAB
  0
TABLE
  2
UCS
  5
7
100
AcDbSymbolTable
 70
0
  0
ENDTAB
  0
TABLE
  2
APPID
  5
9
100
AcDbSymbolTable
 70
1
  0
APPID
  5
20F
100
AcDbSymbolTableRecord
100
AcDbRegAppTableRecord
  2
ACAD
 70
0
  0
ENDTAB
  0
TABLE
  2
BLOCK_RECORD
  5
1
100
AcDbSymbolTable
 70
0
  0
BLOCK_RECORD
  5
210
100
AcDbSymbolTableRecord
100
AcDbBlockTableRecord
  2
*Model_Space
  0
BLOCK_RECORD
  5
211
100
AcDbSymbolTableRecord
100
AcDbBlockTableRecord
  2
*Paper_Space
  0
BLOCK_RECORD
  5
212
100
AcDbSymbolTableRecord
100
AcDbBlockTableRecord
  2
_FILLED
  0
ENDTAB
  0
TABLE
  2
DIMSTYLE
  5
A
100
AcDbSymbolTable
 70
1
100
AcDbDimStyleTable
 71
0
  0
DIMSTYLE
105
213
100
AcDbSymbolTableRecord
100
AcDbDimStyleTableRecord
  2
STANDARD
 70
0
  3

  4

 40
1.0
 41
1.7760877101
 42
1.0
 43
0.38
 44
1.0
 45
0.0
 46
0.0
 47
0.01
 48
0.01
140
2.4865227941
141
0.09
142
0.0
143
25.4
144
1.0
145
0.0
146
1.0
147
0.625
 71
1
 72
0
 73
0
 74
0
 75
0
 76
0
 77
1
 78
8
 79
2
170
0
171
1
172
0
173
0
174
0
175
0
176
0
177
0
178
0
270
2
179
2
271
2
272
2
273
2
274
2
275
0
280
0
281
0
282
0
283
1
284
8
285
0
286
0
287
3
288
0
340
11
278
46
341
212
342
212
343
212
344
212
  0
ENDTAB
  0
ENDSEC
  0
SECTION
  2
BLOCKS
  0
BLOCK
  5
20
100
AcDbEntity
  8
0
100
AcDbBlockBegin
  2
*Model_Space
 70
0
 10
0.0
 20
0.0
 30
0.0
  3
*Model_Space
  1

  0
ENDBLK
  5
21
100
AcDbEntity
  8
0
100
AcDbBlockEnd
  0
BLOCK
  5
1C
100
AcDbEntity
  8
0
100
AcDbBlockBegin
  2
*Paper_Space
 70
0
 10
0.0
 20
0.0
 30
0.0
  3
*Paper_Space
  1

  0
ENDBLK
  5
1D
100
AcDbEntity
  8
0
100
AcDbBlockEnd
  0
BLOCK
  5
214
100
AcDbEntity
  8
0
100
AcDbBlockBegin
  2
_FILLED
 70
64
 10
0.0
 20
0.0
  3
_FILLED
  1

  0
SOLID
  5
215
100
AcDbEntity
  8
0
  6
BYBLOCK
 62
0
100
AcDbTrace
 10
0.0
 20
0.0
 11
-1.0
 21
0.25
 12
-1.0
 22
-0.25
 13
-1.0
 23
-0.25
  0
ENDBLK
  5
216
100
AcDbEntity
  8
0
  6
BYBLOCK
 62
0
100
AcDbBlockEnd
  0
ENDSEC
  0
SECTION
  2
ENTITIES
  0
LINE
  5
217
100
AcDbEntity
  8
0
100
AcDbLine
 62
7
  6
BYLAYER
 10
25.287693717
 20
36.4614183897
 11
25.2874013064
 21
36.4617958679
  0
LINE
  5
218
100
AcDbEntity
  8
0
100
AcDbLine
 62
7
  6
BYLAYER
 10
17.146502274
 20
34.1063914066
 11
19.2340340446
 21
34.1063914066
  0
LINE
  5
219
100
AcDbEntity
  8
0
100
AcDbLine
 62
7
  6
BYLAYER
 10
25.342485702
 20
36.4613685894
 11
25.2876937172
 21
36.4613685894
  0
LINE
  5
21A
100
AcDbEntity
  8
0
100
AcDbLine
 62
7
  6
BYLAYER
 10
28.7726520414
 20
36.4617958679
 11
25.2874013064
 21
36.4617958679
  0
LINE
  5
21B
100
AcDbEntity
  8
0
100
AcDbLine
 62
7
  6
BYLAYER
 10
17.1670715391
 20
37.6063914066
 11
17.2134993087
 21
37.6063914066
  0
LINE
  5
21C
100
AcDbEntity
  8
0
100
AcDbLine
 62
7
  6
BYLAYER
 10
21.8740959443
 20
140.3184549286
 11
16.8743549856
 21
122.881382733
  0
LINE
  5
21D
100
AcDbEntity
  8
0
100
AcDbLine
 62
7
  6
BYLAYER
 10
17.1667776924
 20
122.881382733
 11
22.1666913475
 21
140.3184549394
  0
LINE
  5
21E
100
AcDbEntity
  8
0
100
AcDbLine
 62
7
  6
BYLAYER
 10
22.2137068107
 20
140.3184549411
 11
17.2137931554
 21
122.881382733
  0
LINE
  5
21F
100
AcDbEntity
  8
0
100
AcDbLine
 62
7
  6
BYLAYER
 10
25.3542395681
 20
38.4485383661
 11
28.7844059075
 21
38.4485383661
  0
LINE
  5
220
100
AcDbEntity
  8
0
100
AcDbLine
 62
7
  6
BYLAYER
 10
16.904209375
 20
39.9785070655
 11
17.1462084342
 21
39.9785070655
  0
LINE
  5
221
100
AcDbEntity
  8
0
100
AcDbLine
 62
7
  6
BYLAYER
 10
17.2343624272
 20
39.9785070655
 11
17.4763614863
 21
39.9785070655
  0
LINE
  5
222
100
AcDbEntity
  8
0
100
AcDbLine
 62
7
  6
BYLAYER
 10
17.2134993087
 20
41.6063914066
 11
17.1670715391
 21
41.6063914066
  0
LINE
  5
223
100
AcDbEntity
  8
0
100
AcDbLine
 62
7
  6
BYLAYER
 10
17.4905966997
 20
42.708507507
 11
17.249054759
 21
42.708507507
  0
LINE
  5
224
100
AcDbEntity
  8
0
100
AcDbLine
 62
7
  6
BYLAYER
 10
17.1315161016
 20
42.708507507
 11
16.8899741609
 21
42.708507507
  0
LINE
  5
225
100
AcDbEntity
  8
0
100
AcDbLine
 62
7
  6
BYLAYER
 10
17.4763614863
 20
39.9785070655
 11
125.9683029098
 21
39.3899533521
  0
LINE
  5
226
100
AcDbEntity
  8
0
100
AcDbLine
 62
7
  6
BYLAYER
 10
16.8899741609
 20
42.708507507
 11
16.8899741548
 21
87.581382733
  0
LINE
  5
227
100
AcDbEntity
  8
0
100
AcDbLine
 62
7
  6
BYLAYER
 10
17.113885297
 20
87.581382733
 11
17.1138853012
 21
56.381382733
  0
LINE
  5
228
100
AcDbEntity
  8
0
100
AcDbLine
 62
7
  6
BYLAYER
 10
17.1285776289
 20
89.7050853823
 11
17.1285776288
 21
90.081382733
  0
LINE
  5
229
100
AcDbEntity
  8
0
100
AcDbLine
 62
7
  6
BYLAYER
 10
17.1462084275
 20
89.7050853823
 11
17.146502274
 21
34.1063914066
  0
LINE
  5
22A
100
AcDbEntity
  8
0
100
AcDbLine
 62
7
  6
BYLAYER
 10
17.1670715391
 20
41.6063914066
 11
17.1670715391
 21
37.6063914066
  0
LINE
  5
22B
100
AcDbEntity
  8
0
100
AcDbLine
 62
7
  6
BYLAYER
 10
17.2134993087
 20
37.6063914066
 11
17.2134993087
 21
41.6063914066
  0
LINE
  5
22C
100
AcDbEntity
  8
0
100
AcDbLine
 62
7
  6
BYLAYER
 10
17.2340685737
 20
34.1063914066
 11
17.2340685737
 21
42.708507507
  0
LINE
  5
22D
100
AcDbEntity
  8
0
100
AcDbLine
 62
7
  6
BYLAYER
 10
17.2340685737
 20
56.381382733
 11
17.2343624204
 21
89.7050853823
  0
LINE
  5
22E
100
AcDbEntity
  8
0
100
AcDbLine
 62
7
  6
BYLAYER
 10
17.249054759
 20
42.708507507
 11
17.2490547571
 21
56.381382733
  0
LINE
  5
22F
100
AcDbEntity
  8
0
100
AcDbLine
 62
7
  6
BYLAYER
 10
17.251993219
 20
89.7050853823
 11
17.251993219
 21
90.081382733
  0
LINE
  5
230
100
AcDbEntity
  8
0
100
AcDbLine
 62
7
  6
BYLAYER
 10
17.2666855557
 20
56.381382733
 11
17.2666855515
 21
87.581382733
  0
LINE
  5
231
100
AcDbEntity
  8
0
100
AcDbLine
 62
7
  6
BYLAYER
 10
17.5062158622
 20
90.081382733
 11
17.5062158683
 21
45.0584198565
  0
LINE
  5
232
100
AcDbEntity
  8
0
100
AcDbLine
 62
7
  6
BYLAYER
 10
19.2340340446
 20
39.968971936
 11
19.2340340446
 21
34.1063914066
  0
LINE
  5
233
100
AcDbEntity
  8
0
100
AcDbLine
 62
7
  6
BYLAYER
 10
19.3340323177
 20
91.1063914066
 11
19.3340323177
 21
90.2256815401
  0
LINE
  5
234
100
AcDbEntity
  8
0
100
AcDbLine
 62
7
  6
BYLAYER
 10
19.3516631162
 20
91.1063914066
 11
19.3516631162
 21
90.2270734212
  0
LINE
  5
235
100
AcDbEntity
  8
0
100
AcDbLine
 62
7
  6
BYLAYER
 10
21.3960898359
 20
121.981382733
 11
21.9960794743
 21
125.981382733
  0
LINE
  5
236
100
AcDbEntity
  8
0
100
AcDbLine
 62
7
  6
BYLAYER
 10
17.5062158622
 20
122.881382733
 11
22.5063022103
 21
140.3184549286
  0
LINE
  5
237
100
AcDbEntity
  8
0
100
AcDbLine
 62
7
  6
BYLAYER
 10
21.4562840772
 20
125.981382733
 11
20.5673580302
 21
122.881382733
  0
LINE
  5
238
100
AcDbEntity
  8
0
100
AcDbLine
 62
7
  6
BYLAYER
 10
125.9981572925
 20
47.2920681049
 11
128.3065130746
 21
47.2920681049
  0
LINE
  5
239
100
AcDbEntity
  8
0
100
AcDbLine
 62
7
  6
BYLAYER
 10
125.9981572925
 20
44.469866143
 11
17.5062158683
 21
45.0584198565
  0
LINE
  5
23A
100
AcDbEntity
  8
0
100
AcDbLine
 62
7
  6
BYLAYER
 10
20.4122262457
 20
93.2978880334
 11
21.2339995059
 21
91.1063914066
  0
LINE
  5
23B
100
AcDbEntity
  8
0
100
AcDbLine
 62
7
  6
BYLAYER
 10
25.3243883601
 20
36.8235273246
 11
25.3101625702
 21
37.4485140692
  0
LINE
  5
23C
100
AcDbEntity
  8
0
100
AcDbLine
 62
7
  6
BYLAYER
 10
21.3960898359
 20
119.981382733
 11
21.3960898359
 21
121.981382733
  0
LINE
  5
23D
100
AcDbEntity
  8
0
100
AcDbLine
 62
7
  6
BYLAYER
 10
21.8740959443
 20
171.2514868208
 11
21.8740959443
 21
140.3184549286
  0
LINE
  5
23E
100
AcDbEntity
  8
0
100
AcDbLine
 62
7
  6
BYLAYER
 10
21.8740959443
 20
125.981382733
 11
21.8740959443
 21
125.2465056158
  0
LINE
  5
23F
100
AcDbEntity
  8
0
100
AcDbLine
 62
7
  6
BYLAYER
 10
21.8740959443
 20
119.981382733
 11
21.8740959443
 21
91.1063914066
  0
LINE
  5
240
100
AcDbEntity
  8
0
100
AcDbLine
 62
7
  6
BYLAYER
 10
22.1666913475
 20
140.3184549394
 11
22.1666913475
 21
140.1544897043
  0
LINE
  5
241
100
AcDbEntity
  8
0
100
AcDbLine
 62
7
  6
BYLAYER
 10
22.1960760102
 20
119.981382733
 11
22.1960760102
 21
125.981382733
  0
LINE
  5
242
100
AcDbEntity
  8
0
100
AcDbLine
 62
7
  6
BYLAYER
 10
22.2516130352
 20
91.1063914066
 11
22.2516130352
 21
90.381382733
  0
LINE
  5
243
100
AcDbEntity
  8
0
100
AcDbLine
 62
7
  6
BYLAYER
 10
22.5063022103
 20
171.2514868208
 11
22.5063022103
 21
140.3184549286
  0
LINE
  5
244
100
AcDbEntity
  8
0
100
AcDbLine
 62
7
  6
BYLAYER
 10
22.5063022103
 20
125.981382733
 11
22.5063022103
 21
90.381382733
  0
LINE
  5
245
100
AcDbEntity
  8
0
100
AcDbLine
 62
7
  6
BYLAYER
 10
25.2660855723
 20
38.4485383661
 11
25.2660855723
 21
39.9344563384
  0
LINE
  5
246
100
AcDbEntity
  8
0
100
AcDbLine
 62
7
  6
BYLAYER
 10
25.3542395681
 20
39.9344563384
 11
25.3542395681
 21
38.4485383661
  0
LINE
  5
247
100
AcDbEntity
  8
0
100
AcDbLine
 62
7
  6
BYLAYER
 10
125.9981572925
 20
53.2920681049
 11
128.3065130746
 21
53.2920681049
  0
LINE
  5
248
100
AcDbEntity
  8
0
100
AcDbLine
 62
7
  6
BYLAYER
 10
17.4905966979
 20
56.381382733
 11
17.2666855557
 21
56.381382733
  0
LINE
  5
249
100
AcDbEntity
  8
0
100
AcDbLine
 62
7
  6
BYLAYER
 10
17.1138853012
 20
56.381382733
 11
17.1315160998
 21
56.381382733
  0
LINE
  5
24A
100
AcDbEntity
  8
0
100
AcDbLine
 62
7
  6
BYLAYER
 10
28.7844059075
 20
39.9158475197
 11
28.7844059075
 21
38.4485383661
  0
LINE
  5
24B
100
AcDbEntity
  8
0
100
AcDbLine
 62
7
  6
BYLAYER
 10
130.0777256466
 20
66.9863914847
 11
125.9981572925
 21
66.9863914791
  0
LINE
  5
24C
100
AcDbEntity
  8
0
100
AcDbLine
 62
7
  6
BYLAYER
 10
125.9981572925
 20
67.3863914791
 11
130.0800764192
 21
67.3863914847
  0
LINE
  5
24D
100
AcDbEntity
  8
0
100
AcDbLine
 62
7
  6
BYLAYER
 10
20.324659946
 20
93.2978880334
 11
17.6033789396
 21
90.0890533698
  0
LINE
  5
24E
100
AcDbEntity
  8
0
100
AcDbLine
 62
7
  6
BYLAYER
 10
17.2343624204
 20
89.6539226371
 11
17.146502274
 21
89.5503211778
  0
LINE
  5
24F
100
AcDbEntity
  8
0
100
AcDbLine
 62
7
  6
BYLAYER
 10
17.6972285523
 20
90.0964624218
 11
20.4122262457
 21
93.2978880334
  0
LINE
  5
250
100
AcDbEntity
  8
0
100
AcDbLine
 62
7
  6
BYLAYER
 10
134.1196359229
 20
167.9563914066
 11
133.779121719
 21
167.7597920442
  0
LINE
  5
251
100
AcDbEntity
  8
0
100
AcDbLine
 62
7
  6
BYLAYER
 10
130.0800764005
 20
81.0863914847
 11
125.9981572925
 21
81.0863914791
  0
LINE
  5
252
100
AcDbEntity
  8
0
100
AcDbLine
 62
7
  6
BYLAYER
 10
125.9981572925
 20
81.4863914791
 11
130.0777256268
 21
81.4863914847
  0
LINE
  5
253
100
AcDbEntity
  8
0
100
AcDbLine
 62
7
  6
BYLAYER
 10
125.9981572925
 20
81.7913914792
 11
130.0333547832
 21
81.7913914847
  0
LINE
  5
254
100
AcDbEntity
  8
0
100
AcDbLine
 62
7
  6
BYLAYER
 10
16.8899741548
 20
87.581382733
 11
17.113885297
 21
87.581382733
  0
LINE
  5
255
100
AcDbEntity
  8
0
100
AcDbLine
 62
7
  6
BYLAYER
 10
17.2666855515
 20
87.581382733
 11
17.4905966937
 21
87.581382733
  0
LINE
  5
256
100
AcDbEntity
  8
0
100
AcDbLine
 62
7
  6
BYLAYER
 10
17.146502274
 20
89.5503211778
 11
17.2340685737
 21
89.5503211778
  0
LINE
  5
257
100
AcDbEntity
  8
0
100
AcDbLine
 62
7
  6
BYLAYER
 10
130.0777256157
 20
89.5963914847
 11
125.9981572925
 21
89.5963914791
  0
LINE
  5
258
100
AcDbEntity
  8
0
100
AcDbLine
 62
7
  6
BYLAYER
 10
17.251993219
 20
89.7050853823
 11
17.1462084275
 21
89.7050853823
  0
LINE
  5
259
100
AcDbEntity
  8
0
100
AcDbLine
 62
7
  6
BYLAYER
 10
125.9981572925
 20
89.9963914791
 11
130.0800763883
 21
89.9963914847
  0
LINE
  5
25A
100
AcDbEntity
  8
0
100
AcDbLine
 62
7
  6
BYLAYER
 10
16.8743549856
 20
90.081382733
 11
17.1285776288
 21
90.081382733
  0
LINE
  5
25B
100
AcDbEntity
  8
0
100
AcDbLine
 62
7
  6
BYLAYER
 10
17.251993219
 20
90.081382733
 11
17.5062158622
 21
90.081382733
  0
LINE
  5
25C
100
AcDbEntity
  8
0
100
AcDbLine
 62
7
  6
BYLAYER
 10
22.5063022103
 20
90.381382733
 11
21.3062814868
 21
90.381382733
  0
LINE
  5
25D
100
AcDbEntity
  8
0
100
AcDbLine
 62
7
  6
BYLAYER
 10
22.2516130352
 20
91.1063914066
 11
19.3340323177
 21
91.1063914066
  0
LINE
  5
25E
100
AcDbEntity
  8
0
100
AcDbLine
 62
7
  6
BYLAYER
 10
20.324659946
 20
93.2978880334
 11
20.4122262457
 21
93.2978880334
  0
LINE
  5
25F
100
AcDbEntity
  8
0
100
AcDbLine
 62
7
  6
BYLAYER
 10
17.5062158622
 20
90.081382733
 11
21.3062814868
 21
90.381382733
  0
LINE
  5
260
100
AcDbEntity
  8
0
100
AcDbLine
 62
7
  6
BYLAYER
 10
17.1285776288
 20
90.081382733
 11
17.6304775854
 21
90.121007098
  0
LINE
  5
261
100
AcDbEntity
  8
0
100
AcDbLine
 62
7
  6
BYLAYER
 10
130.0800763696
 20
103.6963914847
 11
125.9981572925
 21
103.6963914791
  0
LINE
  5
262
100
AcDbEntity
  8
0
100
AcDbLine
 62
7
  6
BYLAYER
 10
125.9981572925
 20
104.0963914791
 11
130.0777255959
 21
104.0963914847
  0
LINE
  5
263
100
AcDbEntity
  8
0
100
AcDbLine
 62
7
  6
BYLAYER
 10
125.9981572925
 20
104.4013914792
 11
130.0333547524
 21
104.4013914847
  0
LINE
  5
264
100
AcDbEntity
  8
0
100
AcDbLine
 62
7
  6
BYLAYER
 10
130.0777255849
 20
112.1963914847
 11
125.9981572925
 21
112.1963914792
  0
LINE
  5
265
100
AcDbEntity
  8
0
100
AcDbLine
 62
7
  6
BYLAYER
 10
125.9981572925
 20
112.5963914792
 11
130.0800763575
 21
112.5963914847
  0
LINE
  5
266
100
AcDbEntity
  8
0
100
AcDbLine
 62
7
  6
BYLAYER
 10
22.1960760102
 20
119.981382733
 11
21.3960898359
 21
119.981382733
  0
LINE
  5
267
100
AcDbEntity
  8
0
100
AcDbLine
 62
7
  6
BYLAYER
 10
21.3843359698
 20
121.981382733
 11
21.3960898359
 21
121.981382733
  0
LINE
  5
268
100
AcDbEntity
  8
0
100
AcDbLine
 62
7
  6
BYLAYER
 10
16.8743549856
 20
122.881382733
 11
20.5673580302
 21
122.881382733
  0
LINE
  5
269
100
AcDbEntity
  8
0
100
AcDbLine
 62
7
  6
BYLAYER
 10
21.4562840772
 20
125.981382733
 11
22.5063022103
 21
125.981382733
  0
LINE
  5
26A
100
AcDbEntity
  8
0
100
AcDbLine
 62
7
  6
BYLAYER
 10
130.0800763388
 20
126.2963914847
 11
125.9981572925
 21
126.2963914792
  0
LINE
  5
26B
100
AcDbEntity
  8
0
100
AcDbLine
 62
7
  6
BYLAYER
 10
125.9981572925
 20
126.6963914792
 11
130.0777255651
 21
126.6963914847
  0
LINE
  5
26C
100
AcDbEntity
  8
0
100
AcDbLine
 62
7
  6
BYLAYER
 10
125.9981572925
 20
127.0013914792
 11
130.0333547215
 21
127.0013914847
  0
LINE
  5
26D
100
AcDbEntity
  8
0
100
AcDbLine
 62
7
  6
BYLAYER
 10
133.1206360343
 20
131.7663914066
 11
125.9981572925
 21
131.7663914066
  0
LINE
  5
26E
100
AcDbEntity
  8
0
100
AcDbLine
 62
7
  6
BYLAYER
 10
130.077725554
 20
134.8063914847
 11
125.9981572925
 21
134.8063914792
  0
LINE
  5
26F
100
AcDbEntity
  8
0
100
AcDbLine
 62
7
  6
BYLAYER
 10
125.9981572925
 20
135.2063914792
 11
130.0800763266
 21
135.2063914847
  0
LINE
  5
270
100
AcDbEntity
  8
0
100
AcDbLine
 62
7
  6
BYLAYER
 10
130.0800763248
 20
136.5663914066
 11
134.8155992489
 21
136.5663914066
  0
LINE
  5
271
100
AcDbEntity
  8
0
100
AcDbLine
 62
7
  6
BYLAYER
 10
22.2137068122
 20
140.3184549407
 11
22.5063022103
 21
140.3184549286
  0
LINE
  5
272
100
AcDbEntity
  8
0
100
AcDbLine
 62
7
  6
BYLAYER
 10
21.8740959443
 20
140.3184549286
 11
22.1666913488
 21
140.318454939
  0
LINE
  5
273
100
AcDbEntity
  8
0
100
AcDbLine
 62
7
  6
BYLAYER
 10
130.0800763111
 20
146.5663914066
 11
134.8155992489
 21
146.5663914066
  0
LINE
  5
274
100
AcDbEntity
  8
0
100
AcDbLine
 62
7
  6
BYLAYER
 10
130.080076308
 20
148.9063914847
 11
125.9981572925
 21
148.9063914792
  0
LINE
  5
275
100
AcDbEntity
  8
0
100
AcDbLine
 62
7
  6
BYLAYER
 10
125.9981572925
 20
149.3063914792
 11
130.0777255343
 21
149.3063914847
  0
LINE
  5
276
100
AcDbEntity
  8
0
100
AcDbLine
 62
7
  6
BYLAYER
 10
125.9981572925
 20
44.469866143
 11
125.9981572925
 21
171.8129157603
  0
LINE
  5
277
100
AcDbEntity
  8
0
100
AcDbLine
 62
7
  6
BYLAYER
 10
130.0333546907
 20
149.6113914847
 11
125.9981572925
 21
149.6113914792
  0
LINE
  5
278
100
AcDbEntity
  8
0
100
AcDbLine
 62
7
  6
BYLAYER
 10
133.1206360343
 20
151.3663914066
 11
125.9981572925
 21
151.3663914066
  0
LINE
  5
279
100
AcDbEntity
  8
0
100
AcDbLine
 62
7
  6
BYLAYER
 10
134.8996224528
 20
153.7063914066
 11
125.9981572925
 21
153.7063914066
  0
LINE
  5
27A
100
AcDbEntity
  8
0
100
AcDbLine
 62
7
  6
BYLAYER
 10
132.7236383314
 20
154.5513914066
 11
125.9981572925
 21
154.5513914066
  0
LINE
  5
27B
100
AcDbEntity
  8
0
100
AcDbLine
 62
7
  6
BYLAYER
 10
125.9981572925
 20
155.5513914065
 11
132.7295152642
 21
155.5513914065
  0
LINE
  5
27C
100
AcDbEntity
  8
0
100
AcDbLine
 62
7
  6
BYLAYER
 10
130.0333546907
 20
149.6113914847
 11
130.0333546911
 21
149.3063914847
  0
LINE
  5
27D
100
AcDbEntity
  8
0
100
AcDbLine
 62
7
  6
BYLAYER
 10
130.0333547836
 20
81.4863914847
 11
130.0333547832
 21
81.7913914847
  0
LINE
  5
27E
100
AcDbEntity
  8
0
100
AcDbLine
 62
7
  6
BYLAYER
 10
130.0333547528
 20
104.0963914847
 11
130.0333547524
 21
104.4013914847
  0
LINE
  5
27F
100
AcDbEntity
  8
0
100
AcDbLine
 62
7
  6
BYLAYER
 10
130.033354722
 20
126.6963914847
 11
130.0333547215
 21
127.0013914847
  0
LINE
  5
280
100
AcDbEntity
  8
0
100
AcDbLine
 62
7
  6
BYLAYER
 10
130.080076308
 20
148.9063914847
 11
130.0800763266
 21
135.2063914847
  0
LINE
  5
281
100
AcDbEntity
  8
0
100
AcDbLine
 62
7
  6
BYLAYER
 10
130.0800764192
 20
67.3863914847
 11
130.0800764005
 21
81.0863914847
  0
LINE
  5
282
100
AcDbEntity
  8
0
100
AcDbLine
 62
7
  6
BYLAYER
 10
130.0800763883
 20
89.9963914847
 11
130.0800763696
 21
103.6963914847
  0
LINE
  5
283
100
AcDbEntity
  8
0
100
AcDbLine
 62
7
  6
BYLAYER
 10
130.0800763575
 20
112.5963914847
 11
130.0800763388
 21
126.2963914847
  0
LINE
  5
284
100
AcDbEntity
  8
0
100
AcDbLine
 62
7
  6
BYLAYER
 10
132.7295152642
 20
159.3513914066
 11
125.9981572925
 21
159.3513914066
  0
LINE
  5
285
100
AcDbEntity
  8
0
100
AcDbLine
 62
7
  6
BYLAYER
 10
125.9981572925
 20
160.3513914066
 11
132.7236383314
 21
160.3513914066
  0
LINE
  5
286
100
AcDbEntity
  8
0
100
AcDbLine
 62
7
  6
BYLAYER
 10
134.0868907812
 20
168.7063914066
 11
134.1196359229
 21
167.9563914066
  0
LINE
  5
287
100
AcDbEntity
  8
0
100
AcDbLine
 62
7
  6
BYLAYER
 10
132.7295152642
 20
159.3513914066
 11
132.7295152642
 21
155.5513914065
  0
LINE
  5
288
100
AcDbEntity
  8
0
100
AcDbLine
 62
7
  6
BYLAYER
 10
133.1206360343
 20
151.3663914066
 11
133.1206360343
 21
146.5663914066
  0
LINE
  5
289
100
AcDbEntity
  8
0
100
AcDbLine
 62
7
  6
BYLAYER
 10
133.1206360343
 20
136.5663914066
 11
133.1206360343
 21
131.7663914066
  0
LINE
  5
28A
100
AcDbEntity
  8
0
100
AcDbLine
 62
7
  6
BYLAYER
 10
133.3361944186
 20
146.5663914066
 11
133.3361944186
 21
136.5663914066
  0
LINE
  5
28B
100
AcDbEntity
  8
0
100
AcDbLine
 62
7
  6
BYLAYER
 10
134.8155992489
 20
146.5663914066
 11
134.8155992489
 21
136.5663914066
  0
LINE
  5
28C
100
AcDbEntity
  8
0
100
AcDbLine
 62
7
  6
BYLAYER
 10
134.8996224528
 20
163.1063914066
 11
134.8996224528
 21
153.7063914066
  0
LINE
  5
28D
100
AcDbEntity
  8
0
100
AcDbLine
 62
7
  6
BYLAYER
 10
134.5996276336
 20
163.1063914066
 11
134.8996224528
 21
163.1063914066
  0
LINE
  5
28E
100
AcDbEntity
  8
0
100
AcDbLine
 62
7
  6
BYLAYER
 10
22.5063022103
 20
171.2514868208
 11
125.9981572925
 21
171.8129157603
  0
LINE
  5
28F
100
AcDbEntity
  8
0
100
AcDbLine
 62
7
  6
BYLAYER
 10
125.9981572925
 20
168.7063914066
 11
134.0868907812
 21
168.7063914066
  0
LINE
  5
290
100
AcDbEntity
  8
0
100
AcDbLine
 62
7
  6
BYLAYER
 10
133.779121719
 20
167.7597920442
 11
134.5996276336
 21
163.1063914066
  0
LINE
  5
291
100
AcDbEntity
  8
0
100
AcDbLine
 62
7
  6
BYLAYER
 10
125.9683029098
 20
176.8928285512
 11
22.4764478276
 21
176.3313996117
  0
LINE
  5
292
100
AcDbEntity
  8
0
100
AcDbLine
 62
7
  6
BYLAYER
 10
21.903950327
 20
176.3313996117
 11
22.4764478276
 21
176.3313996117
  0
ARC
  5
293
100
AcDbEntity
  8
0
100
AcDbCircle
 62
7
  6
BYLAYER
 10
65.4087945458
 20
103.6971821641
 40
64.6712818286
100
AcDbArc
 50
359.9992994944
 51
0.1384938296
  0
ARC
  5
294
100
AcDbEntity
  8
0
100
AcDbCircle
 62
7
  6
BYLAYER
 10
65.4087945884
 20
81.0871821641
 40
64.6712818169
100
AcDbArc
 50
359.9992994944
 51
0.1384938296
  0
ARC
  5
295
100
AcDbEntity
  8
0
100
AcDbCircle
 62
7
  6
BYLAYER
 10
65.4087945397
 20
126.2971821642
 40
64.6712818039
100
AcDbArc
 50
359.9992994944
 51
0.1384938296
  0
ARC
  5
296
100
AcDbEntity
  8
0
100
AcDbCircle
 62
7
  6
BYLAYER
 10
65.4087945113
 20
148.9071821642
 40
64.6712818015
100
AcDbArc
 50
359.9992994944
 51
0.1384938296
  0
ARC
  5
297
100
AcDbEntity
  8
0
100
AcDbCircle
 62
7
  6
BYLAYER
 10
68.1868493097
 20
112.5922600701
 40
61.8932271856
100
AcDbArc
 50
359.8583842006
 51
0.0038245319
  0
ARC
  5
298
100
AcDbEntity
  8
0
100
AcDbCircle
 62
7
  6
BYLAYER
 10
68.1868493252
 20
135.20226007
 40
61.8932271393
100
AcDbArc
 50
359.8583842005
 51
0.003824532
  0
ARC
  5
299
100
AcDbEntity
  8
0
100
AcDbCircle
 62
7
  6
BYLAYER
 10
68.1868494004
 20
89.99226007
 40
61.8932271258
100
AcDbArc
 50
359.8583842005
 51
0.003824532
  0
ARC
  5
29A
100
AcDbEntity
  8
0
100
AcDbCircle
 62
7
  6
BYLAYER
 10
68.1868494447
 20
67.38226007
 40
61.8932271124
100
AcDbArc
 50
359.8583842005
 51
0.003824532
  0
ARC
  5
29B
100
AcDbEntity
  8
0
100
AcDbCircle
 62
7
  6
BYLAYER
 10
130.6542809719
 20
144.0663880915
 40
1.9999846449
100
AcDbArc
 50
272.0589017509
 51
87.940922299
  0
ARC
  5
29C
100
AcDbEntity
  8
0
100
AcDbCircle
 62
7
  6
BYLAYER
 10
130.6542809719
 20
139.0663880915
 40
1.9999846449
100
AcDbArc
 50
272.0589017509
 51
87.940922299
  0
ARC
  5
29D
100
AcDbEntity
  8
0
100
AcDbCircle
 62
7
  6
BYLAYER
 10
130.7262304717
 20
144.066402095
 40
1.9999744813
100
AcDbArc
 50
250.7188236995
 51
109.2774033304
  0
ARC
  5
29E
100
AcDbEntity
  8
0
100
AcDbCircle
 62
7
  6
BYLAYER
 10
130.7262304717
 20
139.066402095
 40
1.9999744813
100
AcDbArc
 50
250.7188239095
 51
109.2774031205
  0
SPLINE
  5
29F
100
AcDbEntity
  8
0
100
AcDbSpline
 62
7
  6
BYLAYER
 70
0
 71
3
 72
35
 73
31
 74
0
 42
0.0000001
 43
0.0000001
 44
0.0000000001
 40
0.0
 40
0.0
 40
0.0
 40
0.0
 40
0.1950779175
 40
0.2902577942
 40
0.3826458527
 40
0.4713523051
 40
0.5555177816
 40
0.6343330819
 40
0.7070410801
 40
0.7729402332
 40
0.8313945201
 40
0.8576529296
 40
0.8818440521
 40
0.9039107688
 40
0.9238016799
 40
0.9414661523
 40
0.9568626102
 40
0.9699561213
 40
0.9756284305
 40
0.9807125513
 40
0.9852061118
 40
0.9891069851
 40
0.9924130895
 40
0.9951224289
 40
0.997233191
 40
0.9987444787
 40
0.999275934
 40
0.9996588872
 40
0.9998957932
 40
1.0
 40
1.0
 40
1.0
 40
1.0
 10
128.3241438732
 20
50.2920681049
 30
0.0
 10
128.3241438732
 20
50.4871648505
 30
0.0
 10
128.3239793568
 20
50.7774507002
 30
0.0
 10
128.3234191052
 20
51.1601330909
 30
0.0
 10
128.3228411278
 20
51.4364335594
 30
0.0
 10
128.3221081024
 20
51.7017181571
 30
0.0
 10
128.321227225
 20
51.9534281622
 30
0.0
 10
128.3202073568
 20
52.1891375086
 30
0.0
 10
128.3190592345
 20
52.4065779541
 30
0.0
 10
128.3177945609
 20
52.6036544001
 30
0.0
 10
128.3166172447
 20
52.7542762604
 30
0.0
 10
128.315611031
 20
52.8631859593
 30
0.0
 10
128.3148623243
 20
52.9357053587
 30
0.0
 10
128.3140944794
 20
53.0018560592
 30
0.0
 10
128.3133097496
 20
53.0614787777
 30
0.0
 10
128.3125104254
 20
53.1144297432
 30
0.0
 10
128.311698844
 20
53.1605815511
 30
0.0
 10
128.3109858883
 20
53.1947398039
 30
0.0
 10
128.3103993627
 20
53.218584846
 30
0.0
 10
128.3099789629
 20
53.2338305801
 30
0.0
 10
128.309557377
 20
53.2473037581
 30
0.0
 10
128.3091350956
 20
53.258998232
 30
0.0
 10
128.3087133969
 20
53.268905551
 30
0.0
 10
128.3082929037
 20
53.2770248099
 30
0.0
 10
128.3078790627
 20
53.2833358696
 30
0.0
 10
128.3075069366
 20
53.2874897967
 30
0.0
 10
128.3072007186
 20
53.2898754942
 30
0.0
 10
128.3069809917
 20
53.2910429744
 30
0.0
 10
128.3068202713
 20
53.291680316
 30
0.0
 10
128.3066172914
 20
53.2920621734
 30
0.0
 10
128.3065130746
 20
53.2920621799
 30
0.0
  0
SPLINE
  5
2A0
100
AcDbEntity
  8
0
100
AcDbSpline
 62
7
  6
BYLAYER
 70
0
 71
3
 72
35
 73
31
 74
0
 42
0.0000001
 43
0.0000001
 44
0.0000000001
 40
0.0
 40
0.0
 40
0.0
 40
0.0
 40
0.0001042003
 40
0.0003410989
 40
0.0007240472
 40
0.0012555017
 40
0.0027668067
 40
0.0048775875
 40
0.0075869187
 40
0.0108930003
 40
0.0147938486
 40
0.0192873943
 40
0.0243715229
 40
0.0300438471
 40
0.0431373222
 40
0.0585337334
 40
0.0761982224
 40
0.0960891025
 40
0.1181557672
 40
0.1423468792
 40
0.1686052197
 40
0.2270593043
 40
0.2929580875
 40
0.3656657507
 40
0.4444807735
 40
0.5286461914
 40
0.6173528491
 40
0.7097411196
 40
0.80492142
 40
1.0
 40
1.0
 40
1.0
 40
1.0
 10
128.3065130746
 20
47.2920740299
 30
0.0
 10
128.3066172849
 20
47.2920740234
 30
0.0
 10
128.3068202827
 20
47.292455866
 30
0.0
 10
128.306980987
 20
47.2930931865
 30
0.0
 10
128.3072007216
 20
47.2942606555
 30
0.0
 10
128.3075069354
 20
47.2966463631
 30
0.0
 10
128.3078790611
 20
47.3008003272
 30
0.0
 10
128.3082928987
 20
47.3071114141
 30
0.0
 10
128.3087133941
 20
47.3152306608
 30
0.0
 10
128.3091350928
 20
47.3251379238
 30
0.0
 10
128.3095573744
 20
47.3368323352
 30
0.0
 10
128.3099789603
 20
47.3503054811
 30
0.0
 10
128.3103993588
 20
47.3655512233
 30
0.0
 10
128.3109858813
 20
47.3893962523
 30
0.0
 10
128.3116988394
 20
47.4235544375
 30
0.0
 10
128.3125104221
 20
47.4697061793
 30
0.0
 10
128.3133097423
 20
47.5226570838
 30
0.0
 10
128.3140944734
 20
47.582279736
 30
0.0
 10
128.3148623196
 20
47.6484303432
 30
0.0
 10
128.3156110229
 20
47.7209496115
 30
0.0
 10
128.316617237
 20
47.8298590289
 30
0.0
 10
128.3177945476
 20
47.9804802483
 30
0.0
 10
128.3190592209
 20
48.1775557875
 30
0.0
 10
128.3202073386
 20
48.394995251
 30
0.0
 10
128.3212272075
 20
48.6307039268
 30
0.0
 10
128.3221080898
 20
48.8824138018
 30
0.0
 10
128.3228411165
 20
49.147698759
 30
0.0
 10
128.3234191004
 20
49.4240000693
 30
0.0
 10
128.3239793552
 20
49.8066837594
 30
0.0
 10
128.3241438732
 20
50.0969706963
 30
0.0
 10
128.3241438732
 20
50.2920681049
 30
0.0
  0
SPLINE
  5
2A1
100
AcDbEntity
  8
0
100
AcDbSpline
 62
7
  6
BYLAYER
 70
0
 71
3
 72
26
 73
22
 74
0
 42
0.0000001
 43
0.0000001
 44
0.0000000001
 40
0.0
 40
0.0
 40
0.0
 40
0.0
 40
0.1950114082
 40
0.3826784555
 40
0.5555079217
 40
0.6343226531
 40
0.7070423948
 40
0.7729341649
 40
0.8313918921
 40
0.881842622
 40
0.9237919559
 40
0.9414609155
 40
0.9568653518
 40
0.9699599949
 40
0.980711089
 40
0.9891020838
 40
0.9951182878
 40
0.9972317106
 40
0.9987470557
 40
0.9996649339
 40
1.0
 40
1.0
 40
1.0
 40
1.0
 10
132.7295152643
 20
159.3513914067
 30
0.0
 10
132.7295152643
 20
159.4164010705
 30
0.0
 10
132.7294426682
 20
159.5439720707
 30
0.0
 10
132.7291193599
 20
159.7291578319
 30
0.0
 10
132.7286707262
 20
159.8756074917
 30
0.0
 10
132.7282029944
 20
159.9837375533
 30
0.0
 10
132.7278204759
 20
160.05621851
 30
0.0
 10
132.7273986996
 20
160.12191283
 30
0.0
 10
132.7269431793
 20
160.1801831075
 30
0.0
 10
132.7264586509
 20
160.2304711603
 30
0.0
 10
132.7260148364
 20
160.2671617909
 30
0.0
 10
132.7256375428
 20
160.2921683631
 30
0.0
 10
132.7253674246
 20
160.3075577656
 30
0.0
 10
132.7250931367
 20
160.3206364972
 30
0.0
 10
132.7248207227
 20
160.3313879645
 30
0.0
 10
132.7245403153
 20
160.3397488502
 30
0.0
 10
132.724309455
 20
160.3452959664
 30
0.0
 10
132.7240852202
 20
160.3484443207
 30
0.0
 10
132.7239745048
 20
160.3500539461
 30
0.0
 10
132.7238078415
 20
160.3507896272
 30
0.0
 10
132.7237500302
 20
160.3513914066
 30
0.0
 10
132.7236383314
 20
160.3513914066
 30
0.0
  0
SPLINE
  5
2A2
100
AcDbEntity
  8
0
100
AcDbSpline
 62
7
  6
BYLAYER
 70
0
 71
3
 72
26
 73
22
 74
0
 42
0.0000001
 43
0.0000001
 44
0.0000000001
 40
0.0
 40
0.0
 40
0.0
 40
0.0
 40
0.0003350655
 40
0.0012529421
 40
0.0027682846
 40
0.0048817043
 40
0.0108979006
 40
0.0192888877
 40
0.0300399752
 40
0.0431346121
 40
0.0585390367
 40
0.0762079813
 40
0.1181572882
 40
0.1686080022
 40
0.2270657033
 40
0.2929574614
 40
0.3656771978
 40
0.4444919172
 40
0.6173213956
 40
0.8049885362
 40
1.0
 40
1.0
 40
1.0
 40
1.0
 10
132.7236383314
 20
154.5513914066
 30
0.0
 10
132.72375003
 20
154.5513914066
 30
0.0
 10
132.7238078417
 20
154.5519931847
 30
0.0
 10
132.7239745047
 20
154.5527288648
 30
0.0
 10
132.7240852202
 20
154.5543384874
 30
0.0
 10
132.7243094548
 20
154.5574868374
 30
0.0
 10
132.7245403152
 20
154.5630339472
 30
0.0
 10
132.7248207224
 20
154.5713948257
 30
0.0
 10
132.7250931362
 20
154.5821462861
 30
0.0
 10
132.7253674239
 20
154.5952250095
 30
0.0
 10
132.725637542
 20
154.6106144011
 30
0.0
 10
132.7260148356
 20
154.6356209554
 30
0.0
 10
132.72645865
 20
154.6723115667
 30
0.0
 10
132.7269431783
 20
154.7225995966
 30
0.0
 10
132.7273986989
 20
154.780869856
 30
0.0
 10
132.7278204751
 20
154.8465641616
 30
0.0
 10
132.7282029936
 20
154.9190451085
 30
0.0
 10
132.7286707258
 20
155.0271751683
 30
0.0
 10
132.7291193597
 20
155.1736248593
 30
0.0
 10
132.7294426681
 20
155.3588106743
 30
0.0
 10
132.7295152643
 20
155.4863817242
 30
0.0
 10
132.7295152643
 20
155.5513914065
 30
0.0
  0
SPLINE
  5
2A3
100
AcDbEntity
  8
0
100
AcDbSpline
 62
7
  6
BYLAYER
 70
0
 71
3
 72
21
 73
17
 74
0
 42
0.0000001
 43
0.0000001
 44
0.0000000001
 40
0.0
 40
0.0
 40
0.0
 40
0.0
 40
0.0011574593
 40
0.0044758179
 40
0.0099708758
 40
0.0176340825
 40
0.0394186054
 40
0.0697319513
 40
0.1084635193
 40
0.1553930983
 40
0.2102322959
 40
0.2726915408
 40
0.4192360725
 40
0.5918267368
 40
0.7867573954
 40
1.0
 40
1.0
 40
1.0
 40
1.0
 10
130.0777256466
 20
66.9863914847
 30
0.0
 10
130.0778193711
 20
66.9863914847
 30
0.0
 10
130.0777904486
 20
66.9869449852
 30
0.0
 10
130.0779483489
 20
66.9875652445
 30
0.0
 10
130.0779805341
 20
66.9890001965
 30
0.0
 10
130.0781333592
 20
66.9917647558
 30
0.0
 10
130.0782542668
 20
66.996648001
 30
0.0
 10
130.0784250559
 20
67.003979043
 30
0.0
 10
130.0785789214
 20
67.0133772458
 30
0.0
 10
130.0787353045
 20
67.0247500795
 30
0.0
 10
130.078885164
 20
67.038048527
 30
0.0
 10
130.0790893896
 20
67.0594116519
 30
0.0
 10
130.079317848
 20
67.0903104651
 30
0.0
 10
130.0795499548
 20
67.1319358937
 30
0.0
 10
130.0797451991
 20
67.1789625314
 30
0.0
 10
130.0798441489
 20
67.2120139574
 30
0.0
 10
130.0798875008
 20
67.2292810899
 30
0.0
  0
SPLINE
  5
2A4
100
AcDbEntity
  8
0
100
AcDbSpline
 62
7
  6
BYLAYER
 70
0
 71
3
 72
21
 73
17
 74
0
 42
0.0000001
 43
0.0000001
 44
0.0000000001
 40
0.0
 40
0.0
 40
0.0
 40
0.0
 40
0.2132429806
 40
0.4081737977
 40
0.5807644382
 40
0.7273089398
 40
0.7897681203
 40
0.8446072247
 40
0.8915367168
 40
0.9302682341
 40
0.9605815256
 40
0.9823659872
 40
0.9900291664
 40
0.995524202
 40
0.9988425457
 40
1.0
 40
1.0
 40
1.0
 40
1.0
 10
130.0798874771
 20
81.2435037089
 30
0.0
 10
130.0798441248
 20
81.2607707418
 30
0.0
 10
130.0797451743
 20
81.2938219622
 30
0.0
 10
130.0795499296
 20
81.3408482872
 30
0.0
 10
130.0793178225
 20
81.3824734107
 30
0.0
 10
130.0790893644
 20
81.4133719817
 30
0.0
 10
130.0788851393
 20
81.4347349305
 30
0.0
 10
130.0787352803
 20
81.448033258
 30
0.0
 10
130.0785788976
 20
81.4594059874
 30
0.0
 10
130.0784250329
 20
81.4688041039
 30
0.0
 10
130.0782542449
 20
81.4761350773
 30
0.0
 10
130.0781333375
 20
81.4810182739
 30
0.0
 10
130.0779805135
 20
81.4837828037
 30
0.0
 10
130.0779483276
 20
81.4852177389
 30
0.0
 10
130.0777904296
 20
81.4858379914
 30
0.0
 10
130.0778193502
 20
81.4863914847
 30
0.0
 10
130.0777256268
 20
81.4863914847
 30
0.0
  0
SPLINE
  5
2A5
100
AcDbEntity
  8
0
100
AcDbSpline
 62
7
  6
BYLAYER
 70
0
 71
3
 72
21
 73
17
 74
0
 42
0.0000001
 43
0.0000001
 44
0.0000000001
 40
0.0
 40
0.0
 40
0.0
 40
0.0
 40
0.0011574593
 40
0.0044758179
 40
0.0099708758
 40
0.0176340825
 40
0.0394186054
 40
0.0697319513
 40
0.1084635193
 40
0.1553930983
 40
0.2102322959
 40
0.2726915408
 40
0.4192360725
 40
0.5918267368
 40
0.7867573954
 40
1.0
 40
1.0
 40
1.0
 40
1.0
 10
130.0777256157
 20
89.5963914847
 30
0.0
 10
130.0778193403
 20
89.5963914847
 30
0.0
 10
130.0777904178
 20
89.5969449852
 30
0.0
 10
130.0779483181
 20
89.5975652445
 30
0.0
 10
130.0779805033
 20
89.5990001965
 30
0.0
 10
130.0781333284
 20
89.6017647558
 30
0.0
 10
130.078254236
 20
89.606648001
 30
0.0
 10
130.078425025
 20
89.613979043
 30
0.0
 10
130.0785788905
 20
89.6233772458
 30
0.0
 10
130.0787352737
 20
89.6347500795
 30
0.0
 10
130.0788851331
 20
89.648048527
 30
0.0
 10
130.0790893587
 20
89.6694116519
 30
0.0
 10
130.0793178172
 20
89.7003104651
 30
0.0
 10
130.0795499239
 20
89.7419358937
 30
0.0
 10
130.0797451682
 20
89.7889625314
 30
0.0
 10
130.0798441181
 20
89.8220139574
 30
0.0
 10
130.0798874699
 20
89.8392810899
 30
0.0
  0
SPLINE
  5
2A6
100
AcDbEntity
  8
0
100
AcDbSpline
 62
7
  6
BYLAYER
 70
0
 71
3
 72
21
 73
17
 74
0
 42
0.0000001
 43
0.0000001
 44
0.0000000001
 40
0.0
 40
0.0
 40
0.0
 40
0.0
 40
0.2132429806
 40
0.4081737977
 40
0.5807644382
 40
0.7273089398
 40
0.7897681203
 40
0.8446072247
 40
0.8915367168
 40
0.9302682341
 40
0.9605815256
 40
0.9823659872
 40
0.9900291664
 40
0.995524202
 40
0.9988425457
 40
1.0
 40
1.0
 40
1.0
 40
1.0
 10
130.0798874462
 20
103.8535037089
 30
0.0
 10
130.079844094
 20
103.8707707418
 30
0.0
 10
130.0797451434
 20
103.9038219622
 30
0.0
 10
130.0795498988
 20
103.9508482872
 30
0.0
 10
130.0793177916
 20
103.9924734107
 30
0.0
 10
130.0790893336
 20
104.0233719817
 30
0.0
 10
130.0788851084
 20
104.0447349305
 30
0.0
 10
130.0787352494
 20
104.058033258
 30
0.0
 10
130.0785788668
 20
104.0694059874
 30
0.0
 10
130.0784250021
 20
104.0788041039
 30
0.0
 10
130.078254214
 20
104.0861350773
 30
0.0
 10
130.0781333066
 20
104.0910182739
 30
0.0
 10
130.0779804827
 20
104.0937828037
 30
0.0
 10
130.0779482968
 20
104.0952177389
 30
0.0
 10
130.0777903987
 20
104.0958379914
 30
0.0
 10
130.0778193194
 20
104.0963914847
 30
0.0
 10
130.0777255959
 20
104.0963914847
 30
0.0
  0
SPLINE
  5
2A7
100
AcDbEntity
  8
0
100
AcDbSpline
 62
7
  6
BYLAYER
 70
0
 71
3
 72
21
 73
17
 74
0
 42
0.0000001
 43
0.0000001
 44
0.0000000001
 40
0.0
 40
0.0
 40
0.0
 40
0.0
 40
0.0011574593
 40
0.0044758179
 40
0.0099708758
 40
0.0176340825
 40
0.0394186054
 40
0.0697319513
 40
0.1084635193
 40
0.1553930983
 40
0.2102322959
 40
0.2726915408
 40
0.4192360725
 40
0.5918267368
 40
0.7867573954
 40
1.0
 40
1.0
 40
1.0
 40
1.0
 10
130.0777255849
 20
112.1963914847
 30
0.0
 10
130.0778193094
 20
112.1963914847
 30
0.0
 10
130.077790387
 20
112.1969449852
 30
0.0
 10
130.0779482873
 20
112.1975652445
 30
0.0
 10
130.0779804725
 20
112.1990001965
 30
0.0
 10
130.0781332975
 20
112.2017647558
 30
0.0
 10
130.0782542052
 20
112.206648001
 30
0.0
 10
130.0784249942
 20
112.213979043
 30
0.0
 10
130.0785788597
 20
112.2233772458
 30
0.0
 10
130.0787352429
 20
112.2347500795
 30
0.0
 10
130.0788851023
 20
112.248048527
 30
0.0
 10
130.0790893279
 20
112.2694116519
 30
0.0
 10
130.0793177863
 20
112.3003104651
 30
0.0
 10
130.0795498931
 20
112.3419358937
 30
0.0
 10
130.0797451374
 20
112.3889625314
 30
0.0
 10
130.0798440873
 20
112.4220139574
 30
0.0
 10
130.0798874391
 20
112.4392810899
 30
0.0
  0
SPLINE
  5
2A8
100
AcDbEntity
  8
0
100
AcDbSpline
 62
7
  6
BYLAYER
 70
0
 71
3
 72
21
 73
17
 74
0
 42
0.0000001
 43
0.0000001
 44
0.0000000001
 40
0.0
 40
0.0
 40
0.0
 40
0.0
 40
0.2132429806
 40
0.4081737977
 40
0.5807644382
 40
0.7273089398
 40
0.7897681203
 40
0.8446072247
 40
0.8915367168
 40
0.9302682341
 40
0.9605815256
 40
0.9823659872
 40
0.9900291664
 40
0.995524202
 40
0.9988425457
 40
1.0
 40
1.0
 40
1.0
 40
1.0
 10
130.0798874154
 20
126.4535037089
 30
0.0
 10
130.0798440632
 20
126.4707707418
 30
0.0
 10
130.0797451126
 20
126.5038219622
 30
0.0
 10
130.0795498679
 20
126.5508482872
 30
0.0
 10
130.0793177608
 20
126.5924734107
 30
0.0
 10
130.0790893028
 20
126.6233719817
 30
0.0
 10
130.0788850776
 20
126.6447349305
 30
0.0
 10
130.0787352186
 20
126.658033258
 30
0.0
 10
130.0785788359
 20
126.6694059874
 30
0.0
 10
130.0784249712
 20
126.6788041039
 30
0.0
 10
130.0782541832
 20
126.6861350773
 30
0.0
 10
130.0781332758
 20
126.6910182739
 30
0.0
 10
130.0779804519
 20
126.6937828037
 30
0.0
 10
130.077948266
 20
126.695217739
 30
0.0
 10
130.0777903679
 20
126.6958379914
 30
0.0
 10
130.0778192885
 20
126.6963914847
 30
0.0
 10
130.0777255651
 20
126.6963914847
 30
0.0
  0
SPLINE
  5
2A9
100
AcDbEntity
  8
0
100
AcDbSpline
 62
7
  6
BYLAYER
 70
0
 71
3
 72
21
 73
17
 74
0
 42
0.0000001
 43
0.0000001
 44
0.0000000001
 40
0.0
 40
0.0
 40
0.0
 40
0.0
 40
0.0011574593
 40
0.0044758179
 40
0.0099708758
 40
0.0176340825
 40
0.0394186054
 40
0.0697319513
 40
0.1084635193
 40
0.1553930983
 40
0.2102322959
 40
0.2726915408
 40
0.4192360725
 40
0.5918267368
 40
0.7867573954
 40
1.0
 40
1.0
 40
1.0
 40
1.0
 10
130.077725554
 20
134.8063914847
 30
0.0
 10
130.0778192786
 20
134.8063914847
 30
0.0
 10
130.0777903561
 20
134.8069449852
 30
0.0
 10
130.0779482564
 20
134.8075652445
 30
0.0
 10
130.0779804416
 20
134.8090001965
 30
0.0
 10
130.0781332667
 20
134.8117647558
 30
0.0
 10
130.0782541743
 20
134.816648001
 30
0.0
 10
130.0784249634
 20
134.823979043
 30
0.0
 10
130.0785788289
 20
134.8333772458
 30
0.0
 10
130.078735212
 20
134.8447500795
 30
0.0
 10
130.0788850715
 20
134.858048527
 30
0.0
 10
130.0790892971
 20
134.8794116519
 30
0.0
 10
130.0793177555
 20
134.9103104651
 30
0.0
 10
130.0795498622
 20
134.9519358937
 30
0.0
 10
130.0797451066
 20
134.9989625314
 30
0.0
 10
130.0798440564
 20
135.0320139574
 30
0.0
 10
130.0798874083
 20
135.0492810899
 30
0.0
  0
SPLINE
  5
2AA
100
AcDbEntity
  8
0
100
AcDbSpline
 62
7
  6
BYLAYER
 70
0
 71
3
 72
21
 73
17
 74
0
 42
0.0000001
 43
0.0000001
 44
0.0000000001
 40
0.0
 40
0.0
 40
0.0
 40
0.0
 40
0.2132429806
 40
0.4081737977
 40
0.5807644382
 40
0.7273089398
 40
0.7897681203
 40
0.8446072248
 40
0.8915367168
 40
0.9302682341
 40
0.9605815256
 40
0.9823659872
 40
0.9900291664
 40
0.995524202
 40
0.9988425457
 40
1.0
 40
1.0
 40
1.0
 40
1.0
 10
130.0798873846
 20
149.0635037089
 30
0.0
 10
130.0798440323
 20
149.0807707418
 30
0.0
 10
130.0797450818
 20
149.1138219622
 30
0.0
 10
130.0795498371
 20
149.1608482872
 30
0.0
 10
130.07931773
 20
149.2024734107
 30
0.0
 10
130.0790892719
 20
149.2333719817
 30
0.0
 10
130.0788850468
 20
149.2547349305
 30
0.0
 10
130.0787351878
 20
149.268033258
 30
0.0
 10
130.0785788051
 20
149.2794059874
 30
0.0
 10
130.0784249404
 20
149.2888041039
 30
0.0
 10
130.0782541524
 20
149.2961350773
 30
0.0
 10
130.078133245
 20
149.3010182739
 30
0.0
 10
130.077980421
 20
149.3037828037
 30
0.0
 10
130.0779482351
 20
149.305217739
 30
0.0
 10
130.0777903371
 20
149.3058379914
 30
0.0
 10
130.0778192577
 20
149.3063914847
 30
0.0
 10
130.0777255343
 20
149.3063914847
 30
0.0
  0
SPLINE
  5
2AB
100
AcDbEntity
  8
0
100
AcDbSpline
 62
7
  6
BYLAYER
 70
0
 71
3
 72
22
 73
18
 74
0
 42
0.0000001
 43
0.0000001
 44
0.0000000001
 40
0.0
 40
0.0
 40
0.0
 40
0.0
 40
0.0012435792
 40
0.0048717433
 40
0.010883581
 40
0.0192629679
 40
0.0299920527
 40
0.043052512
 40
0.0760708728
 40
0.1179743598
 40
0.1683391874
 40
0.2267320844
 40
0.2925841959
 40
0.443963246
 40
0.6167970034
 40
0.8047335411
 40
1.0
 40
1.0
 40
1.0
 40
1.0
 10
25.2778394384
 20
36.4617958679
 30
0.0
 10
25.2770158151
 20
36.4617958679
 30
0.0
 10
25.2776781268
 20
36.4668360058
 30
0.0
 10
25.2761729155
 20
36.4722840536
 30
0.0
 10
25.2762158433
 20
36.4851929838
 30
0.0
 10
25.27541795
 20
36.5013881662
 30
0.0
 10
25.2749670418
 20
36.5228536238
 30
0.0
 10
25.274130812
 20
36.5603903516
 30
0.0
 10
25.273240686
 20
36.6187053939
 30
0.0
 10
25.272216298
 20
36.7016547018
 30
0.0
 10
25.2712550391
 20
36.8014409142
 30
0.0
 10
25.2703445891
 20
36.9170789952
 30
0.0
 10
25.2691681734
 20
37.0996222888
 30
0.0
 10
25.2679514672
 20
37.3579592235
 30
0.0
 10
25.2668989931
 20
37.697154745
 30
0.0
 10
25.2662451866
 20
38.0654176633
 30
0.0
 10
25.2660906272
 20
38.319213273
 30
0.0
 10
25.2660855723
 20
38.4485383661
 30
0.0
  0
SPLINE
  5
2AC
100
AcDbEntity
  8
0
100
AcDbSpline
 62
7
  6
BYLAYER
 70
0
 71
3
 72
22
 73
18
 74
0
 42
0.0000001
 43
0.0000001
 44
0.0000000001
 40
0.0
 40
0.0
 40
0.0
 40
0.0
 40
0.0012435792
 40
0.0048717433
 40
0.010883581
 40
0.0192629679
 40
0.0299920527
 40
0.043052512
 40
0.0760708728
 40
0.1179743598
 40
0.1683391874
 40
0.2267320844
 40
0.2925841959
 40
0.443963246
 40
0.6167970034
 40
0.8047335411
 40
1.0
 40
1.0
 40
1.0
 40
1.0
 10
28.7726520414
 20
36.4617958679
 30
0.0
 10
28.7734756646
 20
36.4617958679
 30
0.0
 10
28.772813353
 20
36.4668360058
 30
0.0
 10
28.7743185643
 20
36.4722840536
 30
0.0
 10
28.7742756365
 20
36.4851929838
 30
0.0
 10
28.7750735298
 20
36.5013881662
 30
0.0
 10
28.775524438
 20
36.5228536238
 30
0.0
 10
28.7763606678
 20
36.5603903516
 30
0.0
 10
28.7772507938
 20
36.6187053939
 30
0.0
 10
28.7782751818
 20
36.7016547018
 30
0.0
 10
28.7792364407
 20
36.8014409142
 30
0.0
 10
28.7801468907
 20
36.9170789952
 30
0.0
 10
28.7813233064
 20
37.0996222888
 30
0.0
 10
28.7825400126
 20
37.3579592235
 30
0.0
 10
28.7835924867
 20
37.697154745
 30
0.0
 10
28.7842462932
 20
38.0654176632
 30
0.0
 10
28.7844008526
 20
38.3192132729
 30
0.0
 10
28.7844059075
 20
38.448538366
 30
0.0
  0
SPLINE
  5
2AD
100
AcDbEntity
  8
0
100
AcDbSpline
 62
7
  6
BYLAYER
 70
0
 71
3
 72
13
 73
9
 74
0
 42
0.0000001
 43
0.0000001
 44
0.0000000001
 40
0.0
 40
0.0
 40
0.0
 40
0.0
 40
0.4201756313
 40
0.7298135403
 40
0.8415228558
 40
0.9239500043
 40
0.9768025776
 40
1.0
 40
1.0
 40
1.0
 40
1.0
 10
25.2959367803
 20
36.8235273242
 30
0.0
 10
25.2953984055
 20
36.7728413013
 30
0.0
 10
25.2943021372
 20
36.6848192329
 30
0.0
 10
25.2927706651
 20
36.5832714155
 30
0.0
 10
25.2911357905
 20
36.5225706676
 30
0.0
 10
25.2904595079
 20
36.4926923867
 30
0.0
 10
25.2889817096
 20
36.4737838466
 30
0.0
 10
25.2889099274
 20
36.4644043561
 30
0.0
 10
25.287973867
 20
36.4617670737
 30
0.0
  0
LINE
  5
2AE
100
AcDbEntity
  8
0
100
AcDbLine
 62
7
  6
BYLAYER
 10
25.287973867
 20
36.4617670737
 11
25.287693717
 21
36.4613705855
  0
SPLINE
  5
2AF
100
AcDbEntity
  8
0
100
AcDbSpline
 62
7
  6
BYLAYER
 70
0
 71
3
 72
22
 73
18
 74
0
 42
0.0000001
 43
0.0000001
 44
0.0000000001
 40
0.0
 40
0.0
 40
0.0
 40
0.0
 40
0.1952665691
 40
0.3832033436
 40
0.5560371579
 40
0.7074161474
 40
0.7732682107
 40
0.8316610872
 40
0.8820258566
 40
0.9239292703
 40
0.9569475893
 40
0.970008031
 40
0.9807370942
 40
0.9891164587
 40
0.9951282763
 40
0.9987564261
 40
1.0
 40
1.0
 40
1.0
 40
1.0
 10
25.3542395681
 20
38.4485383661
 30
0.0
 10
25.3542345132
 20
38.3192132
 30
0.0
 10
25.3540799527
 20
38.0654173605
 30
0.0
 10
25.3534261465
 20
37.6971541746
 30
0.0
 10
25.3523736701
 20
37.3579584986
 30
0.0
 10
25.3511569638
 20
37.0996215982
 30
0.0
 10
25.3499805464
 20
36.9170783902
 30
0.0
 10
25.349070097
 20
36.8014403933
 30
0.0
 10
25.3481088382
 20
36.7016542816
 30
0.0
 10
25.3470844499
 20
36.6187050884
 30
0.0
 10
25.3461943253
 20
36.5603901341
 30
0.0
 10
25.345358097
 20
36.5228534598
 30
0.0
 10
25.344907189
 20
36.5013880434
 30
0.0
 10
25.3441092976
 20
36.4851929022
 30
0.0
 10
25.344152222
 20
36.472284013
 30
0.0
 10
25.3426470184
 20
36.466835984
 30
0.0
 10
25.3433093218
 20
36.4617958679
 30
0.0
 10
25.342485702
 20
36.4617958679
 30
0.0
  0
ELLIPSE
  5
2B0
100
AcDbEntity
  8
0
100
AcDbEllipse
 62
7
  6
BYLAYER
 10
125.968301958
 20
44.4700281041
 30
0.0
 11
-0.0000009519
 21
5.080074752
 31
0.0
 40
0.0058769479
 41
-3.1415926547
 42
-1.5708282095
  0
ELLIPSE
  5
2B1
100
AcDbEntity
  8
0
100
AcDbEllipse
 62
7
  6
BYLAYER
 10
125.968301958
 20
171.8127537993
 30
0.0
 11
0.0000009519
 21
5.080074752
 31
0.0
 40
0.0058769479
 41
-1.5707644441
 42
0.0000000011
  0
ELLIPSE
  5
2B2
100
AcDbEntity
  8
0
100
AcDbEllipse
 62
7
  6
BYLAYER
 10
21.9039512788
 20
171.2513248597
 30
0.0
 11
-0.0000009519
 21
5.080074752
 31
0.0
 40
0.0058769479
 41
-0.0000000012
 42
1.5707644441
  0
ELLIPSE
  5
2B3
100
AcDbEntity
  8
0
100
AcDbEllipse
 62
7
  6
BYLAYER
 10
16.9042103262
 20
45.0585818175
 30
0.0
 11
0.0000009512
 21
5.080074752
 31
0.0
 40
0.0058769479
 41
-4.7123570977
 42
-3.1415926525
  0
ELLIPSE
  5
2B4
100
AcDbEntity
  8
0
100
AcDbEllipse
 62
7
  6
BYLAYER
 10
22.4764468758
 20
171.2513248597
 30
0.0
 11
0.0000009519
 21
5.080074752
 31
0.0
 40
0.0058769479
 41
-1.5707644441
 42
0.0000000011
  0
ELLIPSE
  5
2B5
100
AcDbEntity
  8
0
100
AcDbEllipse
 62
7
  6
BYLAYER
 10
17.4763605338
 20
45.0585818175
 30
0.0
 11
-0.0000009526
 21
5.080074752
 31
0.0
 40
0.0058769479
 41
-3.1415926547
 42
-1.5708282095
  0
ENDSEC
  0
SECTION
  2
OBJECTS
  0
DICTIONARY
  5
C
100
AcDbDictionary
280
0
281
1
  3
ACAD_GROUP
350
D
  3
ACAD_MLINESTYLE
350
17
  3
ACAD_LAYOUT
350
1A
  3
ACAD_PLOTSETTINGS
350
19
  3
ACAD_PLOTSTYLENAME
350
E
  0
DICTIONARY
  5
D
102
{ACAD_REACTORS
330
C
102
}
100
AcDbDictionary
280
0
281
1
  0
ACDBDICTIONARYWDFLT
  5
E
102
{ACAD_REACTORS
330
C
102
}
100
AcDbDictionary
281
1
  3
Normal
350
F
100
AcDbDictionaryWithDefault
340
F
  0
DICTIONARY
  5
17
102
{ACAD_REACTORS
330
C
102
}
100
AcDbDictionary
280
0
281
1
  3
Standard
350
18
  0
DICTIONARY
  5
19
102
{ACAD_REACTORS
330
C
102
}
100
AcDbDictionary
281
1
  0
DICTIONARY
  5
1A
102
{ACAD_REACTORS
330
C
102
}
100
AcDbDictionary
281
1
  3
Model
350
2B6
  3
Layout1
350
2B7
  0
ACDBPLACEHOLDER
  5
F
102
{ACAD_REACTORS
330
E
102
}
  0
MLINESTYLE
  5
18
102
{ACAD_REACTORS
330
17
102
}
100
AcDbMlineStyle
  2
STANDARD
 70
0
  3

 62
256
 51
90.0
 52
90.0
 71
2
 49
0.5
 62
256
  6
BYLAYER
 49
-0.5
 62
256
  6
BYLAYER
  0
LAYOUT
  5
2B6
102
{ACAD_REACTORS
330
1A
102
}
100
AcDbPlotSettings
  1

  2
none_device
  4

  6

 40
0.0
 41
0.0
 42
0.0
 43
0.0
 44
210.0
 45
297.0
 46
0.0
 47
0.0
 48
0.0
 49
0.0
140
0.0
141
0.0
142
1.0
143
1.0
 70
1024
 72
1
 73
0
 74
0
  7

 75
0
147
1.0
148
0.0
149
0.0
100
AcDbLayout
  1
Model
 70
0
 71
0
 10
0.0
 20
0.0
 11
210.0
 21
297.0
 12
0.0
 22
0.0
 32
0.0
 14
0.0
 24
0.0
 34
0.0
 15
0.0
 25
0.0
 35
0.0
146
0.0
 13
0.0
 23
0.0
 33
0.0
 16
1.0
 26
0.0
 36
0.0
 17
0.0
 27
1.0
 37
0.0
 76
0
330
210
345
0
346
0
  0
LAYOUT
  5
2B7
102
{ACAD_REACTORS
330
1A
102
}
100
AcDbPlotSettings
  1

  2
none_device
  4

  6

 40
0.0
 41
0.0
 42
0.0
 43
0.0
 44
210.0
 45
297.0
 46
0.0
 47
0.0
 48
0.0
 49
0.0
140
0.0
141
0.0
142
1.0
143
1.0
 70
0
 72
1
 73
0
 74
0
  7

 75
0
147
1.0
148
0.0
149
0.0
100
AcDbLayout
  1
Layout1
 70
0
 71
1
 10
0.0
 20
0.0
 11
210.0
 21
297.0
 12
0.0
 22
0.0
 32
0.0
 14
0.0
 24
0.0
 34
0.0
 15
0.0
 25
0.0
 35
0.0
146
0.0
 13
0.0
 23
0.0
 33
0.0
 16
1.0
 26
0.0
 36
0.0
 17
0.0
 27
1.0
 37
0.0
 76
0
330
211
345
0
346
0
  0
ENDSEC
  0
EOF
