999
DXF file: C:\Users\sesa63760\Dev\_Creo\CAD\MCADID0004040_3D-CAD\drw0001_1.dxf
999
Pro/ENGINEER 2019471 by Parametric Technology Corporation
  0
SECTION
  2
HEADER
  9
$ACADVER
  1
AC1024
  9
$DWGCODEPAGE
  3
ANSI_1252
  9
$EXTMAX
 10
76.668128618
 20
108.4306390455
 30
0.0
  9
$EXTMIN
 10
0.0
 20
0.0
 30
0.0
  9
$LIMMIN
 10
0.0
 20
0.0
  9
$LIMMAX
 10
76.668128618
 20
108.4306390455
  9
$VIEWCTR
 10
38.334064309
 20
54.2153195227
  9
$VIEWSIZE
 40
108.4306390455
  9
$CLAYER
  8
0
  9
$LTSCALE
 40
7.0680712859
  9
$CELTYPE
  6
BYLAYER
  9
$DIMSCALE
 40
1.0
  9
$DIMASZ
 40
0.9127158169
  9
$DIMEXO
 40
1.0
  9
$DIMDLI
 40
4.8833947066
  9
$DIMEXE
 40
1.0
  9
$DIMCEN
 40
1.1565934832
  9
$DIMLFAC
 40
1.0
  9
$DIMBLK
  1
_FILLED
  9
$DIMALT
 70
0
  9
$DIMALTF
 40
0.0393700787
  9
$DIMTXT
 40
1.2778021436
  9
$DIMTOL
 70
1
  9
$DIMLIM
 70
0
  9
$DIMTFAC
 40
1.0
  9
$DIMTP
 40
0.01
  9
$DIMTM
 40
0.01
  9
$DIMGAP
 40
0.625
  9
$DIMDSEP
 70
46
  9
$AUNITS
 70
0
  9
$PDMODE
 70
3
  9
$PDSIZE
 40
0.3125
  9
$HANDSEED
  5
384
  9
$TILEMODE
 70
1
  9
$MEASUREMENT
 70
1
  9
$INSUNITS
 70
4
  0
ENDSEC
  0
SECTION
  2
CLASSES
  0
CLASS
  1
ACDBDICTIONARYWDFLT
  2
AcDbDictionaryWithDefault
  3
AutoCAD 2000
 90
0
 91
1
280
0
281
0
  0
CLASS
  1
ACDBPLACEHOLDER
  2
AcDbPlaceHolder
  3
AutoCAD 2000
 90
0
 91
1
280
0
281
0
  0
CLASS
  1
LAYOUT
  2
AcDbLayout
  3
AutoCAD 2000
 90
0
 91
0
280
0
281
0
  0
ENDSEC
  0
SECTION
  2
TABLES
  0
TABLE
  2
VPORT
  5
8
100
AcDbSymbolTable
 70
2
  0
VPORT
  5
1F4
100
AcDbSymbolTableRecord
100
AcDbViewportTableRecord
  2
*ACTIVE
 70
0
 10
0.0
 20
0.0
 11
1.0
 21
1.0
 12
38.334064309
 22
54.2153195227
 13
0.0
 23
0.0
 14
1.0
 24
1.0
 15
0.0
 25
0.0
 16
0.0
 26
0.0
 36
1.0
 17
0.0
 27
0.0
 37
0.0
 40
108.4306390455
 41
0.7070707071
 42
50.0
 43
0.0
 44
0.0
 50
0.0
 51
0.0
 71
0
 72
100
 73
1
 74
1
 75
0
 76
0
 77
0
 78
0
  0
ENDTAB
  0
TABLE
  2
LTYPE
  5
5
100
AcDbSymbolTable
 70
6
  0
LTYPE
  5
14
100
AcDbSymbolTableRecord
100
AcDbLinetypeTableRecord
  2
BYBLOCK
 70
0
  3

 72
65
 73
0
 40
0.0
  0
LTYPE
  5
15
100
AcDbSymbolTableRecord
100
AcDbLinetypeTableRecord
  2
BYLAYER
 70
0
  3

 72
65
 73
0
 40
0.0
  0
LTYPE
  5
16
100
AcDbSymbolTableRecord
100
AcDbLinetypeTableRecord
  2
CONTINUOUS
 70
64
  3
Solid line
 72
65
 73
0
 40
0.0
  0
LTYPE
  5
1F5
100
AcDbSymbolTableRecord
100
AcDbLinetypeTableRecord
  2
CENTER
 70
64
  3
____ _ ____ _ ____ _ ____ _ ____ _ ____ _ ____
 72
65
 73
4
 40
0.6
 49
0.375
 74
0
 49
-0.075
 74
0
 49
0.075
 74
0
 49
-0.075
 74
0
  0
LTYPE
  5
1F6
100
AcDbSymbolTableRecord
100
AcDbLinetypeTableRecord
  2
HIDDEN
 70
64
  3
- - - - - - - - - - - - - - - - - - - -
 72
65
 73
2
 40
0.2
 49
0.1
 74
0
 49
-0.1
 74
0
  0
LTYPE
  5
1F7
100
AcDbSymbolTableRecord
100
AcDbLinetypeTableRecord
  2
PHANTOM
 70
64
  3
_____ _ _ _____ _ _ _____ _ _ _____
 72
65
 73
6
 40
0.8
 49
0.45
 74
0
 49
-0.05
 74
0
 49
0.1
 74
0
 49
-0.05
 74
0
 49
0.1
 74
0
 49
-0.05
 74
0
  0
LTYPE
  5
1F8
100
AcDbSymbolTableRecord
100
AcDbLinetypeTableRecord
  2
DOT
 70
64
  3
. . . . . . . . . . . . . . . . . . . .
 72
65
 73
2
 40
0.2
 49
0.1
 74
0
 49
-0.1
 74
0
  0
LTYPE
  5
1F9
100
AcDbSymbolTableRecord
100
AcDbLinetypeTableRecord
  2
DASHED
 70
64
  3
- - - - - - - - - - - - - - - - - - - -
 72
65
 73
2
 40
0.2
 49
0.1
 74
0
 49
-0.1
 74
0
  0
ENDTAB
  0
TABLE
  2
LAYER
  5
2
100
AcDbSymbolTable
 70
36
  0
LAYER
  5
10
100
AcDbSymbolTableRecord
100
AcDbLayerTableRecord
  2
0
 70
0
 62
7
  6
CONTINUOUS
370
-3
390
F
  0
LAYER
  5
1FA
100
AcDbSymbolTableRecord
100
AcDbLayerTableRecord
  2
DEFAULT_1
 70
0
 62
7
  6
CENTER
370
-3
390
F
  0
LAYER
  5
1FB
100
AcDbSymbolTableRecord
100
AcDbLayerTableRecord
  2
DEFAULT_2
 70
0
 62
7
  6
HIDDEN
370
-3
390
F
  0
LAYER
  5
1FC
100
AcDbSymbolTableRecord
100
AcDbLayerTableRecord
  2
DEFAULT_3
 70
0
 62
7
  6
PHANTOM
370
-3
390
F
  0
LAYER
  5
1FD
100
AcDbSymbolTableRecord
100
AcDbLayerTableRecord
  2
00_COMPONENTS
 70
0
 62
7
  6
CONTINUOUS
370
-3
390
F
  0
LAYER
  5
1FE
100
AcDbSymbolTableRecord
100
AcDbLayerTableRecord
  2
01_1_DEFAULT_DATUMS
 70
0
 62
7
  6
CONTINUOUS
370
-3
390
F
  0
LAYER
  5
1FF
100
AcDbSymbolTableRecord
100
AcDbLayerTableRecord
  2
01_PLANES
 70
0
 62
7
  6
CONTINUOUS
370
-3
390
F
  0
LAYER
  5
200
100
AcDbSymbolTableRecord
100
AcDbLayerTableRecord
  2
02_COORD_SYS
 70
0
 62
7
  6
CONTINUOUS
370
-3
390
F
  0
LAYER
  5
201
100
AcDbSymbolTableRecord
100
AcDbLayerTableRecord
  2
03_AXES
 70
0
 62
7
  6
CONTINUOUS
370
-3
390
F
  0
LAYER
  5
202
100
AcDbSymbolTableRecord
100
AcDbLayerTableRecord
  2
04_POINTS
 70
0
 62
7
  6
CONTINUOUS
370
-3
390
F
  0
LAYER
  5
203
100
AcDbSymbolTableRecord
100
AcDbLayerTableRecord
  2
05_CURVES
 70
0
 62
7
  6
CONTINUOUS
370
-3
390
F
  0
LAYER
  5
204
100
AcDbSymbolTableRecord
100
AcDbLayerTableRecord
  2
06_SURFS
 70
0
 62
7
  6
CONTINUOUS
370
-3
390
F
  0
LAYER
  5
205
100
AcDbSymbolTableRecord
100
AcDbLayerTableRecord
  2
07_COSMETICS
 70
0
 62
7
  6
CONTINUOUS
370
-3
390
F
  0
LAYER
  5
206
100
AcDbSymbolTableRecord
100
AcDbLayerTableRecord
  2
10_NOTES
 70
0
 62
7
  6
CONTINUOUS
370
-3
390
F
  0
LAYER
  5
207
100
AcDbSymbolTableRecord
100
AcDbLayerTableRecord
  2
11_NOTES_PUB
 70
0
 62
7
  6
CONTINUOUS
370
-3
390
F
  0
LAYER
  5
208
100
AcDbSymbolTableRecord
100
AcDbLayerTableRecord
  2
13_REF_GTOL
 70
0
 62
7
  6
CONTINUOUS
370
-3
390
F
  0
LAYER
  5
209
100
AcDbSymbolTableRecord
100
AcDbLayerTableRecord
  2
16_MISC
 70
0
 62
7
  6
CONTINUOUS
370
-3
390
F
  0
LAYER
  5
20A
100
AcDbSymbolTableRecord
100
AcDbLayerTableRecord
  2
17_NO_PRINT
 70
0
 62
7
  6
CONTINUOUS
370
-3
390
F
  0
LAYER
  5
20B
100
AcDbSymbolTableRecord
100
AcDbLayerTableRecord
  2
18_DATUM_CAMS_JOINTS
 70
0
 62
7
  6
CONTINUOUS
370
-3
390
F
  0
LAYER
  5
20C
100
AcDbSymbolTableRecord
100
AcDbLayerTableRecord
  2
19_DATUM_FUNCTIONAL
 70
0
 62
7
  6
CONTINUOUS
370
-3
390
F
  0
LAYER
  5
20D
100
AcDbSymbolTableRecord
100
AcDbLayerTableRecord
  2
20_DATUM_KINEMATIC_SCHEME
 70
0
 62
7
  6
CONTINUOUS
370
-3
390
F
  0
ENDTAB
  0
TABLE
  2
STYLE
  5
3
100
AcDbSymbolTable
 70
1
  0
STYLE
  5
11
100
AcDbSymbolTableRecord
100
AcDbTextStyleTableRecord
  2
STANDARD
 70
0
 40
0.0
 41
1.0
 50
0.0
 71
0
 42
0.2
  3
ARIAL.TTF
  4

  0
STYLE
  5
20E
100
AcDbSymbolTableRecord
100
AcDbTextStyleTableRecord
  2
TEXTSTYLE_1
 70
0
 40
0.0
 41
0.8
 50
0.0
 71
0
 42
0.2
  3
gdt
  4

  0
ENDTAB
  0
TABLE
  2
VIEW
  5
6
100
AcDbSymbolTable
 70
0
  0
ENDTAB
  0
TABLE
  2
UCS
  5
7
100
AcDbSymbolTable
 70
0
  0
ENDTAB
  0
TABLE
  2
APPID
  5
9
100
AcDbSymbolTable
 70
1
  0
APPID
  5
20F
100
AcDbSymbolTableRecord
100
AcDbRegAppTableRecord
  2
ACAD
 70
0
  0
ENDTAB
  0
TABLE
  2
BLOCK_RECORD
  5
1
100
AcDbSymbolTable
 70
0
  0
BLOCK_RECORD
  5
210
100
AcDbSymbolTableRecord
100
AcDbBlockTableRecord
  2
*Model_Space
  0
BLOCK_RECORD
  5
211
100
AcDbSymbolTableRecord
100
AcDbBlockTableRecord
  2
*Paper_Space
  0
BLOCK_RECORD
  5
212
100
AcDbSymbolTableRecord
100
AcDbBlockTableRecord
  2
_FILLED
  0
ENDTAB
  0
TABLE
  2
DIMSTYLE
  5
A
100
AcDbSymbolTable
 70
1
100
AcDbDimStyleTable
 71
0
  0
DIMSTYLE
105
213
100
AcDbSymbolTableRecord
100
AcDbDimStyleTableRecord
  2
STANDARD
 70
0
  3

  4

 40
1.0
 41
0.9127158169
 42
1.0
 43
0.38
 44
1.0
 45
0.0
 46
0.0
 47
0.01
 48
0.01
140
1.2778021436
141
0.09
142
0.0
143
25.4
144
1.0
145
0.0
146
1.0
147
0.625
 71
1
 72
0
 73
0
 74
0
 75
0
 76
0
 77
1
 78
8
 79
2
170
0
171
1
172
0
173
0
174
0
175
0
176
0
177
0
178
0
270
2
179
2
271
2
272
2
273
2
274
2
275
0
280
0
281
0
282
0
283
1
284
8
285
0
286
0
287
3
288
0
340
11
278
46
341
212
342
212
343
212
344
212
  0
ENDTAB
  0
ENDSEC
  0
SECTION
  2
BLOCKS
  0
BLOCK
  5
20
100
AcDbEntity
  8
0
100
AcDbBlockBegin
  2
*Model_Space
 70
0
 10
0.0
 20
0.0
 30
0.0
  3
*Model_Space
  1

  0
ENDBLK
  5
21
100
AcDbEntity
  8
0
100
AcDbBlockEnd
  0
BLOCK
  5
1C
100
AcDbEntity
  8
0
100
AcDbBlockBegin
  2
*Paper_Space
 70
0
 10
0.0
 20
0.0
 30
0.0
  3
*Paper_Space
  1

  0
ENDBLK
  5
1D
100
AcDbEntity
  8
0
100
AcDbBlockEnd
  0
BLOCK
  5
214
100
AcDbEntity
  8
0
100
AcDbBlockBegin
  2
_FILLED
 70
64
 10
0.0
 20
0.0
  3
_FILLED
  1

  0
SOLID
  5
215
100
AcDbEntity
  8
0
  6
BYBLOCK
 62
0
100
AcDbTrace
 10
0.0
 20
0.0
 11
-1.0
 21
0.25
 12
-1.0
 22
-0.25
 13
-1.0
 23
-0.25
  0
ENDBLK
  5
216
100
AcDbEntity
  8
0
  6
BYBLOCK
 62
0
100
AcDbBlockEnd
  0
ENDSEC
  0
SECTION
  2
ENTITIES
  0
LINE
  5
217
100
AcDbEntity
  8
0
100
AcDbLine
 62
7
  6
BYLAYER
 10
14.3429625105
 20
35.2673652017
 11
14.6211623927
 21
34.785511546
  0
LINE
  5
218
100
AcDbEntity
  8
0
100
AcDbLine
 62
7
  6
BYLAYER
 10
15.1643036389
 20
35.2304190846
 11
14.9429650085
 21
35.6137867099
  0
LINE
  5
219
100
AcDbEntity
  8
0
100
AcDbLine
 62
7
  6
BYLAYER
 10
22.2591687992
 20
37.6792378062
 11
22.2478871139
 21
37.6857262619
  0
LINE
  5
21A
100
AcDbEntity
  8
0
100
AcDbLine
 62
7
  6
BYLAYER
 10
22.2612152265
 20
37.7604913687
 11
22.2500792574
 21
37.7670723255
  0
LINE
  5
21B
100
AcDbEntity
  8
0
100
AcDbLine
 62
7
  6
BYLAYER
 10
18.7016599003
 20
46.2512081433
 11
18.2420541758
 21
46.5165692192
  0
LINE
  5
21C
100
AcDbEntity
  8
0
100
AcDbLine
 62
7
  6
BYLAYER
 10
22.4846000559
 20
39.6989244801
 11
22.4846038831
 21
39.168213709
  0
LINE
  5
21D
100
AcDbEntity
  8
0
100
AcDbLine
 62
7
  6
BYLAYER
 10
41.2939799214
 20
70.2319664309
 11
39.7840034928
 21
69.3601863373
  0
LINE
  5
21E
100
AcDbEntity
  8
0
100
AcDbLine
 62
7
  6
BYLAYER
 10
44.7337303534
 20
72.2178954143
 11
46.2437067708
 21
73.0896755016
  0
LINE
  5
21F
100
AcDbEntity
  8
0
100
AcDbLine
 62
7
  6
BYLAYER
 10
9.6547646332
 20
42.5266467724
 11
10.4459914273
 21
43.2460794908
  0
LINE
  5
220
100
AcDbEntity
  8
0
100
AcDbLine
 62
7
  6
BYLAYER
 10
10.758651415
 20
43.47480002
 11
10.4459914273
 21
43.2460794908
  0
LINE
  5
221
100
AcDbEntity
  8
0
100
AcDbLine
 62
7
  6
BYLAYER
 10
49.1669216373
 20
70.9352677159
 11
47.6569452211
 21
70.0634876294
  0
LINE
  5
222
100
AcDbEntity
  8
0
100
AcDbLine
 62
7
  6
BYLAYER
 10
52.6066720705
 20
72.9211967001
 11
54.1166484978
 21
73.792976793
  0
LINE
  5
223
100
AcDbEntity
  8
0
100
AcDbLine
 62
7
  6
BYLAYER
 10
49.6387134329
 20
70.7236257587
 11
48.1649534027
 21
69.8727550876
  0
LINE
  5
224
100
AcDbEntity
  8
0
100
AcDbLine
 62
7
  6
BYLAYER
 10
53.1146802513
 20
72.7304641578
 11
54.5884402969
 21
73.5813348378
  0
LINE
  5
225
100
AcDbEntity
  8
0
100
AcDbLine
 62
7
  6
BYLAYER
 10
42.9057738483
 20
66.2494896976
 11
23.217157097
 21
54.8823293691
  0
LINE
  5
226
100
AcDbEntity
  8
0
100
AcDbLine
 62
7
  6
BYLAYER
 10
58.9473472788
 20
74.6450170406
 11
55.4932780602
 21
72.6508211511
  0
LINE
  5
227
100
AcDbEntity
  8
0
100
AcDbLine
 62
7
  6
BYLAYER
 10
22.9479191986
 20
53.2257772641
 11
18.4931650242
 21
50.6538390947
  0
LINE
  5
228
100
AcDbEntity
  8
0
100
AcDbLine
 62
7
  6
BYLAYER
 10
59.3904918748
 20
72.8104075866
 11
62.4310383749
 21
74.5658574482
  0
LINE
  5
229
100
AcDbEntity
  8
0
100
AcDbLine
 62
7
  6
BYLAYER
 10
15.241958963
 20
46.8137776188
 11
11.3528878583
 21
44.5684347725
  0
LINE
  5
22A
100
AcDbEntity
  8
0
100
AcDbLine
 62
7
  6
BYLAYER
 10
19.5267389964
 20
48.537027528
 11
16.8971999763
 21
47.0188715291
  0
LINE
  5
22B
100
AcDbEntity
  8
0
100
AcDbLine
 62
7
  6
BYLAYER
 10
11.2182689091
 20
43.74015872
 11
10.758651415
 21
43.47480002
  0
LINE
  5
22C
100
AcDbEntity
  8
0
100
AcDbLine
 62
7
  6
BYLAYER
 10
63.7136192486
 20
73.8253757875
 11
60.6730727485
 21
72.0699259258
  0
LINE
  5
22D
100
AcDbEntity
  8
0
100
AcDbLine
 62
7
  6
BYLAYER
 10
57.7524736791
 20
63.4282388526
 11
57.8466330284
 21
63.4573056858
  0
LINE
  5
22E
100
AcDbEntity
  8
0
100
AcDbLine
 62
7
  6
BYLAYER
 10
58.4971818578
 20
63.2385208244
 11
58.2258790874
 21
63.1547701144
  0
LINE
  5
22F
100
AcDbEntity
  8
0
100
AcDbLine
 62
7
  6
BYLAYER
 10
58.2770941551
 20
62.5610095407
 11
58.1829348059
 21
62.5319427075
  0
LINE
  5
230
100
AcDbEntity
  8
0
100
AcDbLine
 62
7
  6
BYLAYER
 10
13.2823639335
 20
41.2299034861
 11
12.3174246685
 21
40.6727988672
  0
LINE
  5
231
100
AcDbEntity
  8
0
100
AcDbLine
 62
7
  6
BYLAYER
 10
14.0097590188
 20
40.4951639124
 11
12.81742243
 21
39.806772171
  0
LINE
  5
232
100
AcDbEntity
  8
0
100
AcDbLine
 62
7
  6
BYLAYER
 10
57.0811451896
 20
64.6187595115
 11
57.1650683433
 21
64.6672139523
  0
LINE
  5
233
100
AcDbEntity
  8
0
100
AcDbLine
 62
7
  6
BYLAYER
 10
57.8414987154
 20
64.4804009251
 11
57.5996896513
 21
64.3407884052
  0
LINE
  5
234
100
AcDbEntity
  8
0
100
AcDbLine
 62
7
  6
BYLAYER
 10
57.665070425
 20
63.8011897504
 11
57.5811472713
 21
63.7527353096
  0
LINE
  5
235
100
AcDbEntity
  8
0
100
AcDbLine
 62
7
  6
BYLAYER
 10
15.1398494121
 20
38.5056133904
 11
13.9614547795
 21
37.8252709931
  0
LINE
  5
236
100
AcDbEntity
  8
0
100
AcDbLine
 62
7
  6
BYLAYER
 10
56.324797001
 20
65.7503139271
 11
56.3970480108
 21
65.8173269066
  0
LINE
  5
237
100
AcDbEntity
  8
0
100
AcDbLine
 62
7
  6
BYLAYER
 10
57.0938353857
 20
65.6691747215
 11
56.8856574481
 21
65.4760892008
  0
LINE
  5
238
100
AcDbEntity
  8
0
100
AcDbLine
 62
7
  6
BYLAYER
 10
56.9580358732
 20
64.9963925621
 11
56.8857848634
 21
64.9293795826
  0
LINE
  5
239
100
AcDbEntity
  8
0
100
AcDbLine
 62
7
  6
BYLAYER
 10
15.4200418933
 20
37.512682814
 11
14.461452541
 21
36.9592442969
  0
LINE
  5
23A
100
AcDbEntity
  8
0
100
AcDbLine
 62
7
  6
BYLAYER
 10
14.3429651026
 20
35.9601919735
 11
15.5533767917
 21
36.6590193166
  0
LINE
  5
23B
100
AcDbEntity
  8
0
100
AcDbLine
 62
7
  6
BYLAYER
 10
57.7566051434
 20
60.6249208642
 11
56.2828450981
 21
59.7740501843
  0
LINE
  5
23C
100
AcDbEntity
  8
0
100
AcDbLine
 62
7
  6
BYLAYER
 10
61.2325719621
 20
62.6317592634
 11
62.706331992
 21
63.4826299344
  0
LINE
  5
23D
100
AcDbEntity
  8
0
100
AcDbLine
 62
7
  6
BYLAYER
 10
14.9429650086
 20
35.6137867099
 11
15.4356853237
 21
35.8982572184
  0
LINE
  5
23E
100
AcDbEntity
  8
0
100
AcDbLine
 62
7
  6
BYLAYER
 10
57.9584257841
 20
59.9985849138
 11
56.448449453
 21
59.1268048764
  0
LINE
  5
23F
100
AcDbEntity
  8
0
100
AcDbLine
 62
7
  6
BYLAYER
 10
61.3981763125
 20
61.984513953
 11
62.9081526444
 21
62.8562939908
  0
LINE
  5
240
100
AcDbEntity
  8
0
100
AcDbLine
 62
7
  6
BYLAYER
 10
10.545479316
 20
41.9660872076
 11
11.0936585579
 21
42.1472801876
  0
LINE
  5
241
100
AcDbEntity
  8
0
100
AcDbLine
 62
7
  6
BYLAYER
 10
58.7836351678
 20
61.2970717601
 11
58.6808507156
 21
61.2878898762
  0
LINE
  5
242
100
AcDbEntity
  8
0
100
AcDbLine
 62
7
  6
BYLAYER
 10
55.4963704406
 20
66.8035408895
 11
55.5557130717
 21
66.887965797
  0
LINE
  5
243
100
AcDbEntity
  8
0
100
AcDbLine
 62
7
  6
BYLAYER
 10
56.2669845956
 20
66.7845019644
 11
56.0959997667
 21
66.5412471897
  0
LINE
  5
244
100
AcDbEntity
  8
0
100
AcDbLine
 62
7
  6
BYLAYER
 10
56.168088057
 20
66.1261677242
 11
56.1087454259
 21
66.0417428167
  0
LINE
  5
245
100
AcDbEntity
  8
0
100
AcDbLine
 62
7
  6
BYLAYER
 10
24.8767150451
 20
39.2705418792
 11
22.2469429431
 21
37.7522513112
  0
LINE
  5
246
100
AcDbEntity
  8
0
100
AcDbLine
 62
7
  6
BYLAYER
 10
16.5682449578
 20
34.4736730712
 11
16.1086274636
 21
34.2083143712
  0
LINE
  5
247
100
AcDbEntity
  8
0
100
AcDbLine
 62
7
  6
BYLAYER
 10
21.2419321017
 20
36.421457265
 11
17.352860997
 21
34.1761144188
  0
LINE
  5
248
100
AcDbEntity
  8
0
100
AcDbLine
 62
7
  6
BYLAYER
 10
12.390646118
 20
40.6954016255
 11
12.3174246685
 21
40.6727988672
  0
LINE
  5
249
100
AcDbEntity
  8
0
100
AcDbLine
 62
7
  6
BYLAYER
 10
59.0496658925
 20
61.9647833324
 11
58.7535114814
 21
61.9383274299
  0
LINE
  5
24A
100
AcDbEntity
  8
0
100
AcDbLine
 62
7
  6
BYLAYER
 10
58.3272958531
 20
62.1991220889
 11
58.4300803052
 21
62.2083039729
  0
LINE
  5
24B
100
AcDbEntity
  8
0
100
AcDbLine
 62
7
  6
BYLAYER
 10
54.6100401165
 20
67.7604193935
 11
54.6554590001
 21
67.8608116955
  0
LINE
  5
24C
100
AcDbEntity
  8
0
100
AcDbLine
 62
7
  6
BYLAYER
 10
55.3750939913
 20
67.8072990955
 11
55.2442278689
 21
67.5180372233
  0
LINE
  5
24D
100
AcDbEntity
  8
0
100
AcDbLine
 62
7
  6
BYLAYER
 10
55.3087432024
 20
67.1711844705
 11
55.2633243188
 21
67.0707921686
  0
LINE
  5
24E
100
AcDbEntity
  8
0
100
AcDbLine
 62
7
  6
BYLAYER
 10
30.6478847267
 20
39.8889661434
 11
26.1931305522
 21
37.3170279741
  0
LINE
  5
24F
100
AcDbEntity
  8
0
100
AcDbLine
 62
7
  6
BYLAYER
 10
67.1973103446
 20
60.3555765542
 11
63.2843298361
 21
58.0964296895
  0
LINE
  5
250
100
AcDbEntity
  8
0
100
AcDbLine
 62
7
  6
BYLAYER
 10
51.9058107555
 20
50.6610537377
 11
32.2171168051
 21
39.2938488385
  0
LINE
  5
251
100
AcDbEntity
  8
0
100
AcDbLine
 62
7
  6
BYLAYER
 10
15.7542188726
 20
34.0519049758
 11
16.1086274636
 21
34.2083143712
  0
LINE
  5
252
100
AcDbEntity
  8
0
100
AcDbLine
 62
7
  6
BYLAYER
 10
59.1760264059
 20
60.0310027346
 11
59.0663755213
 21
60.0418629044
  0
LINE
  5
253
100
AcDbEntity
  8
0
100
AcDbLine
 62
7
  6
BYLAYER
 10
59.4894976645
 20
60.6809824505
 11
59.1735588968
 21
60.7122740236
  0
LINE
  5
254
100
AcDbEntity
  8
0
100
AcDbLine
 62
7
  6
BYLAYER
 10
58.7957763446
 20
60.952439749
 11
58.9054272292
 21
60.9415795792
  0
LINE
  5
255
100
AcDbEntity
  8
0
100
AcDbLine
 62
7
  6
BYLAYER
 10
59.4475539466
 20
58.7844652561
 11
59.3329127866
 21
58.8151816592
  0
LINE
  5
256
100
AcDbEntity
  8
0
100
AcDbLine
 62
7
  6
BYLAYER
 10
52.7250608737
 20
69.3215698862
 11
52.740552409
 21
69.4484999412
  0
LINE
  5
257
100
AcDbEntity
  8
0
100
AcDbLine
 62
7
  6
BYLAYER
 10
53.6809713864
 20
68.6045769826
 11
53.7116893926
 21
68.7192189389
  0
LINE
  5
258
100
AcDbEntity
  8
0
100
AcDbLine
 62
7
  6
BYLAYER
 10
54.4334240684
 20
68.7200657722
 11
54.3449158081
 21
68.3897461535
  0
LINE
  5
259
100
AcDbEntity
  8
0
100
AcDbLine
 62
7
  6
BYLAYER
 10
54.3947049382
 20
68.1135622748
 11
54.3639869319
 21
67.9989203185
  0
LINE
  5
25A
100
AcDbEntity
  8
0
100
AcDbLine
 62
7
  6
BYLAYER
 10
14.7355567824
 20
33.7264040971
 11
15.7542188726
 21
34.0519049758
  0
LINE
  5
25B
100
AcDbEntity
  8
0
100
AcDbLine
 62
7
  6
BYLAYER
 10
59.8091515303
 20
59.409084368
 11
59.4788342059
 21
59.4975880089
  0
LINE
  5
25C
100
AcDbEntity
  8
0
100
AcDbLine
 62
7
  6
BYLAYER
 10
59.1498993227
 20
59.7095229134
 11
59.2645404828
 21
59.6788065103
  0
LINE
  5
25D
100
AcDbEntity
  8
0
100
AcDbLine
 62
7
  6
BYLAYER
 10
59.5935718783
 20
57.5787879266
 11
59.475901985
 21
57.6288349967
  0
LINE
  5
25E
100
AcDbEntity
  8
0
100
AcDbLine
 62
7
  6
BYLAYER
 10
60.0031581236
 20
58.1708516135
 11
59.6641140635
 21
58.3150530006
  0
LINE
  5
25F
100
AcDbEntity
  8
0
100
AcDbLine
 62
7
  6
BYLAYER
 10
59.383605645
 20
58.4916382337
 11
59.5012755384
 21
58.4415911636
  0
LINE
  5
260
100
AcDbEntity
  8
0
100
AcDbLine
 62
7
  6
BYLAYER
 10
59.6115817938
 20
56.4346002194
 11
59.4928965316
 21
56.5031216373
  0
LINE
  5
261
100
AcDbEntity
  8
0
100
AcDbLine
 62
7
  6
BYLAYER
 10
50.7983174927
 20
70.327375579
 11
50.7828259573
 21
70.4721933135
  0
LINE
  5
262
100
AcDbEntity
  8
0
100
AcDbLine
 62
7
  6
BYLAYER
 10
51.4838862608
 20
70.1740200667
 11
51.4993777961
 21
70.0292023322
  0
LINE
  5
263
100
AcDbEntity
  8
0
100
AcDbLine
 62
7
  6
BYLAYER
 10
51.7586644723
 20
70.0361765024
 11
51.7586644723
 21
69.8991301572
  0
LINE
  5
264
100
AcDbEntity
  8
0
100
AcDbLine
 62
7
  6
BYLAYER
 10
52.4657741975
 20
69.4908894027
 11
52.4657712535
 21
70.1551868737
  0
LINE
  5
265
100
AcDbEntity
  8
0
100
AcDbLine
 62
7
  6
BYLAYER
 10
53.4580870602
 20
69.5071843038
 11
53.4134510629
 21
69.1414587987
  0
LINE
  5
266
100
AcDbEntity
  8
0
100
AcDbLine
 62
7
  6
BYLAYER
 10
53.4416127125
 20
68.9371767915
 11
53.4261211771
 21
68.8102467365
  0
LINE
  5
267
100
AcDbEntity
  8
0
100
AcDbLine
 62
7
  6
BYLAYER
 10
58.5440625012
 20
52.477557037
 11
58.5374982687
 21
52.4720022408
  0
LINE
  5
268
100
AcDbEntity
  8
0
100
AcDbLine
 62
7
  6
BYLAYER
 10
58.4867956714
 20
52.5641821569
 11
58.4800346838
 21
52.559075006
  0
LINE
  5
269
100
AcDbEntity
  8
0
100
AcDbLine
 62
7
  6
BYLAYER
 10
57.9584257841
 20
49.5012979632
 11
56.4484494522
 21
48.6295179253
  0
LINE
  5
26A
100
AcDbEntity
  8
0
100
AcDbLine
 62
7
  6
BYLAYER
 10
61.3981763125
 20
51.4872270023
 11
62.9081526436
 21
52.3590070397
  0
LINE
  5
26B
100
AcDbEntity
  8
0
100
AcDbLine
 62
7
  6
BYLAYER
 10
57.7566051435
 20
49.0661807713
 11
56.2828451015
 21
48.2153100933
  0
LINE
  5
26C
100
AcDbEntity
  8
0
100
AcDbLine
 62
7
  6
BYLAYER
 10
61.232571962
 20
51.0730191705
 11
62.7063320075
 21
51.9238898505
  0
LINE
  5
26D
100
AcDbEntity
  8
0
100
AcDbLine
 62
7
  6
BYLAYER
 10
59.4928965316
 20
57.3196240545
 11
60.0681979377
 21
56.9874706928
  0
LINE
  5
26E
100
AcDbEntity
  8
0
100
AcDbLine
 62
7
  6
BYLAYER
 10
59.5012755384
 20
55.3714795034
 11
59.383605645
 21
55.4573028487
  0
LINE
  5
26F
100
AcDbEntity
  8
0
100
AcDbLine
 62
7
  6
BYLAYER
 10
59.475901985
 20
56.2135338633
 11
59.5935718783
 21
56.127710518
  0
LINE
  5
270
100
AcDbEntity
  8
0
100
AcDbLine
 62
7
  6
BYLAYER
 10
59.2645404828
 20
54.4076160689
 11
59.1498993227
 21
54.5092728803
  0
LINE
  5
271
100
AcDbEntity
  8
0
100
AcDbLine
 62
7
  6
BYLAYER
 10
59.3329127866
 20
55.19229317
 11
59.4475539466
 21
55.0906363585
  0
LINE
  5
272
100
AcDbEntity
  8
0
100
AcDbLine
 62
7
  6
BYLAYER
 10
58.9054272292
 20
53.5595018863
 11
58.7957763446
 21
53.6752527877
  0
LINE
  5
273
100
AcDbEntity
  8
0
100
AcDbLine
 62
7
  6
BYLAYER
 10
59.0663755213
 20
54.2733756859
 11
59.1760264059
 21
54.1576247846
  0
LINE
  5
274
100
AcDbEntity
  8
0
100
AcDbLine
 62
7
  6
BYLAYER
 10
58.4300803052
 20
52.8416484246
 11
58.3272958531
 21
52.9695128859
  0
LINE
  5
275
100
AcDbEntity
  8
0
100
AcDbLine
 62
7
  6
BYLAYER
 10
58.6808507156
 20
53.4725043441
 11
58.7836351678
 21
53.3446398828
  0
LINE
  5
276
100
AcDbEntity
  8
0
100
AcDbLine
 62
7
  6
BYLAYER
 10
49.5689796697
 20
70.797425471
 11
49.5834662396
 21
70.7486775949
  0
LINE
  5
277
100
AcDbEntity
  8
0
100
AcDbLine
 62
7
  6
BYLAYER
 10
49.8604517379
 20
70.5989787539
 11
49.8297337316
 21
70.7490900061
  0
LINE
  5
278
100
AcDbEntity
  8
0
100
AcDbLine
 62
7
  6
BYLAYER
 10
50.5127492772
 20
70.5660860939
 11
50.5434672834
 21
70.4159748417
  0
LINE
  5
279
100
AcDbEntity
  8
0
100
AcDbLine
 62
7
  6
BYLAYER
 10
55.8536581724
 20
51.3327255874
 11
55.8557425799
 21
51.3498043576
  0
LINE
  5
27A
100
AcDbEntity
  8
0
100
AcDbLine
 62
7
  6
BYLAYER
 10
55.8536581724
 20
51.3327255874
 11
55.8577428594
 21
51.3480352289
  0
LINE
  5
27B
100
AcDbEntity
  8
0
100
AcDbLine
 62
7
  6
BYLAYER
 10
58.1997544669
 20
52.7787688417
 11
58.2770941551
 21
52.6655920504
  0
ARC
  5
27C
100
AcDbEntity
  8
0
100
AcDbCircle
 62
7
  6
BYLAYER
 10
8.0115265076
 20
45.5129531406
 40
57.571095465
100
AcDbArc
 50
17.5327469461
 51
18.1876524506
  0
ARC
  5
27D
100
AcDbEntity
  8
0
100
AcDbCircle
 62
7
  6
BYLAYER
 10
3.1015974564
 20
42.6680674988
 40
57.5292833959
100
AcDbArc
 50
17.5325093163
 51
18.1878908081
  0
ARC
  5
27E
100
AcDbEntity
  8
0
100
AcDbCircle
 62
7
  6
BYLAYER
 10
7.4597243219
 20
35.39234447
 40
8.7932703501
100
AcDbArc
 50
22.4896932315
 51
37.5055953733
  0
ARC
  5
27F
100
AcDbEntity
  8
0
100
AcDbCircle
 62
7
  6
BYLAYER
 10
7.8351855407
 20
35.6697271308
 40
8.3265357611
100
AcDbArc
 50
37.5644249059
 51
39.6055200756
  0
ARC
  5
280
100
AcDbEntity
  8
0
100
AcDbCircle
 62
7
  6
BYLAYER
 10
25.6345104728
 20
43.7221440494
 40
6.8624106649
100
AcDbArc
 50
240.5998911138
 51
241.2355777529
  0
ARC
  5
281
100
AcDbEntity
  8
0
100
AcDbCircle
 62
7
  6
BYLAYER
 10
10.7393691077
 20
38.5055643907
 40
3.7594481386
100
AcDbArc
 50
60.6153201532
 51
61.8690809778
  0
ARC
  5
282
100
AcDbEntity
  8
0
100
AcDbCircle
 62
7
  6
BYLAYER
 10
14.2246473365
 20
36.1870748365
 40
1.4565726371
100
AcDbArc
 50
285.7966927366
 51
288.4525360803
  0
ARC
  5
283
100
AcDbEntity
  8
0
100
AcDbCircle
 62
7
  6
BYLAYER
 10
14.2330492019
 20
36.1615911114
 40
1.4297397811
100
AcDbArc
 50
288.4563907693
 51
291.4975160362
  0
ARC
  5
284
100
AcDbEntity
  8
0
100
AcDbCircle
 62
7
  6
BYLAYER
 10
14.0037954189
 20
35.9759415744
 40
1.3832212903
100
AcDbArc
 50
297.1880606238
 51
300.0025583881
  0
ARC
  5
285
100
AcDbEntity
  8
0
100
AcDbCircle
 62
7
  6
BYLAYER
 10
14.2114536602
 20
37.392257645
 40
0.5
100
AcDbArc
 50
119.9998519061
 51
299.9998519061
  0
ARC
  5
286
100
AcDbEntity
  8
0
100
AcDbCircle
 62
7
  6
BYLAYER
 10
12.5674235493
 20
40.2397855191
 40
0.5
100
AcDbArc
 50
119.9998519061
 51
299.9998519061
  0
ARC
  5
287
100
AcDbEntity
  8
0
100
AcDbCircle
 62
7
  6
BYLAYER
 10
24.1309571231
 20
47.0470800165
 40
7.2911266829
100
AcDbArc
 50
180.009933847
 51
180.1544292975
  0
ARC
  5
288
100
AcDbEntity
  8
0
100
AcDbCircle
 62
7
  6
BYLAYER
 10
23.8377849109
 20
46.9660226051
 40
6.9393704209
100
AcDbArc
 50
179.2517715453
 51
179.5078286465
  0
ARC
  5
289
100
AcDbEntity
  8
0
100
AcDbCircle
 62
7
  6
BYLAYER
 10
36.8155458502
 20
34.5937136394
 40
42.8475248261
100
AcDbArc
 50
65.4936582416
 51
66.1851131238
  0
ARC
  5
28A
100
AcDbEntity
  8
0
100
AcDbCircle
 62
7
  6
BYLAYER
 10
31.9051101526
 20
31.8235950877
 40
42.7515271249
100
AcDbArc
 50
65.4928804063
 51
66.1858879424
  0
ARC
  5
28B
100
AcDbEntity
  8
0
100
AcDbCircle
 62
7
  6
BYLAYER
 10
41.5569952353
 20
55.080420234
 40
18.317165718
100
AcDbArc
 50
31.5590862753
 51
32.7754923155
  0
ARC
  5
28C
100
AcDbEntity
  8
0
100
AcDbCircle
 62
7
  6
BYLAYER
 10
41.5715902935
 20
55.084342789
 40
18.3025551138
100
AcDbArc
 50
27.2242987738
 51
28.4416768038
  0
ARC
  5
28D
100
AcDbEntity
  8
0
100
AcDbCircle
 62
7
  6
BYLAYER
 10
41.725459417
 20
55.17383305
 40
18.0277675077
100
AcDbArc
 50
27.2498616959
 51
28.4161138817
  0
ARC
  5
28E
100
AcDbEntity
  8
0
100
AcDbCircle
 62
7
  6
BYLAYER
 10
41.7355384697
 20
55.1840907181
 40
18.0139007669
100
AcDbArc
 50
31.5837147482
 51
32.7508638426
  0
ARC
  5
28F
100
AcDbEntity
  8
0
100
AcDbCircle
 62
7
  6
BYLAYER
 10
42.053162487
 20
55.4227400227
 40
17.7142453525
100
AcDbArc
 50
35.9297253795
 51
37.1732475156
  0
ARC
  5
290
100
AcDbEntity
  8
0
100
AcDbCircle
 62
7
  6
BYLAYER
 10
42.1420662811
 20
55.3529044857
 40
17.6718958513
100
AcDbArc
 50
22.8255513391
 51
24.0720564284
  0
ARC
  5
291
100
AcDbEntity
  8
0
100
AcDbCircle
 62
7
  6
BYLAYER
 10
42.2618638111
 20
55.4284545608
 40
17.4338763754
100
AcDbArc
 50
22.8526609221
 51
24.0449468454
  0
ARC
  5
292
100
AcDbEntity
  8
0
100
AcDbCircle
 62
7
  6
BYLAYER
 10
42.2448024092
 20
55.5378724867
 40
17.3936829878
100
AcDbArc
 50
35.9539672181
 51
37.149005677
  0
ARC
  5
293
100
AcDbEntity
  8
0
100
AcDbCircle
 62
7
  6
BYLAYER
 10
42.9559703501
 20
56.1501379915
 40
16.5545903795
100
AcDbArc
 50
40.4384976541
 51
41.7390910013
  0
ARC
  5
294
100
AcDbEntity
  8
0
100
AcDbCircle
 62
7
  6
BYLAYER
 10
43.2468598325
 20
55.7755441429
 40
16.4887432828
100
AcDbArc
 50
18.258627233
 51
19.5644195866
  0
ARC
  5
295
100
AcDbEntity
  8
0
100
AcDbCircle
 62
7
  6
BYLAYER
 10
43.3265588871
 20
55.8400785853
 40
16.2921123681
100
AcDbArc
 50
18.2880020057
 51
19.5350448139
  0
ARC
  5
296
100
AcDbEntity
  8
0
100
AcDbCircle
 62
7
  6
BYLAYER
 10
43.1484451694
 20
56.271246204
 40
16.2296176741
100
AcDbArc
 50
40.4628742184
 51
41.714714437
  0
ARC
  5
297
100
AcDbEntity
  8
0
100
AcDbCircle
 62
7
  6
BYLAYER
 10
44.1186347314
 20
57.2512140161
 40
14.9528669019
100
AcDbArc
 50
45.1971772266
 51
46.5887020483
  0
ARC
  5
298
100
AcDbEntity
  8
0
100
AcDbCircle
 62
7
  6
BYLAYER
 10
44.7998913531
 20
56.2307666972
 40
14.8699378949
100
AcDbArc
 50
13.4077750226
 51
14.8070680571
  0
ARC
  5
299
100
AcDbEntity
  8
0
100
AcDbCircle
 62
7
  6
BYLAYER
 10
44.8375442519
 20
56.2892025002
 40
14.7153694959
100
AcDbArc
 50
13.4402867514
 51
14.7745563283
  0
ARC
  5
29A
100
AcDbEntity
  8
0
100
AcDbCircle
 62
7
  6
BYLAYER
 10
44.3005756317
 20
57.3706729461
 40
14.6366625023
100
AcDbArc
 50
45.2222207687
 51
46.5636585062
  0
ARC
  5
29B
100
AcDbEntity
  8
0
100
AcDbCircle
 62
7
  6
BYLAYER
 10
49.4200114247
 20
59.7785031475
 40
14.3396591281
100
AcDbArc
 50
39.3704507368
 51
39.6147435618
  0
ARC
  5
29C
100
AcDbEntity
  8
0
100
AcDbCircle
 62
7
  6
BYLAYER
 10
45.3742154914
 20
58.6643678454
 40
13.0619103337
100
AcDbArc
 50
50.3345065746
 51
51.8568995571
  0
ARC
  5
29D
100
AcDbEntity
  8
0
100
AcDbCircle
 62
7
  6
BYLAYER
 10
46.6622648443
 20
56.6056176117
 40
12.9696181319
100
AcDbArc
 50
8.1381018359
 51
9.6713391318
  0
ARC
  5
29E
100
AcDbEntity
  8
0
100
AcDbCircle
 62
7
  6
BYLAYER
 10
46.660125345
 20
56.6638634057
 40
12.8540931912
100
AcDbArc
 50
8.1748230772
 51
9.6346178905
  0
ARC
  5
29F
100
AcDbEntity
  8
0
100
AcDbCircle
 62
7
  6
BYLAYER
 10
45.5365705849
 20
58.7733895014
 40
12.766499587
100
AcDbArc
 50
50.3608023322
 51
51.8306037995
  0
ARC
  5
2A0
100
AcDbEntity
  8
0
100
AcDbCircle
 62
7
  6
BYLAYER
 10
48.6617446369
 20
56.8136260607
 40
10.9585728778
100
AcDbArc
 50
2.2879095886
 51
4.0038284949
  0
ARC
  5
2A1
100
AcDbEntity
  8
0
100
AcDbCircle
 62
7
  6
BYLAYER
 10
48.6257881755
 20
56.8774292606
 40
10.8761013354
100
AcDbArc
 50
2.3301438626
 51
3.9615942209
  0
ARC
  5
2A2
100
AcDbEntity
  8
0
100
AcDbCircle
 62
7
  6
BYLAYER
 10
50.6170724496
 20
56.8084724272
 40
9.0022763105
100
AcDbArc
 50
355.6630907535
 51
357.6197728682
  0
ARC
  5
2A3
100
AcDbEntity
  8
0
100
AcDbCircle
 62
7
  6
BYLAYER
 10
50.5559897692
 20
56.8822941774
 40
8.9449468581
100
AcDbArc
 50
355.7123355965
 51
357.5705280253
  0
ARC
  5
2A4
100
AcDbEntity
  8
0
100
AcDbCircle
 62
7
  6
BYLAYER
 10
52.3634552801
 20
56.5912907467
 40
7.2412994351
100
AcDbArc
 50
348.0396048732
 51
350.3021737841
  0
ARC
  5
2A5
100
AcDbEntity
  8
0
100
AcDbCircle
 62
7
  6
BYLAYER
 10
52.2872743017
 20
56.6773842209
 40
7.2004525614
100
AcDbArc
 50
348.0973359725
 51
350.2444426848
  0
ARC
  5
2A6
100
AcDbEntity
  8
0
100
AcDbCircle
 62
7
  6
BYLAYER
 10
53.7753798947
 20
56.2104900824
 40
5.7776499263
100
AcDbArc
 50
339.187465041
 51
341.8176181786
  0
ARC
  5
2A7
100
AcDbEntity
  8
0
100
AcDbCircle
 62
7
  6
BYLAYER
 10
53.6939265934
 20
56.3083266084
 40
5.7449310475
100
AcDbArc
 50
339.2545503035
 51
341.7505329161
  0
ARC
  5
2A8
100
AcDbEntity
  8
0
100
AcDbCircle
 62
7
  6
BYLAYER
 10
54.7833195269
 20
55.754122124
 40
4.6699175472
100
AcDbArc
 50
328.9384762149
 51
331.9690534604
  0
ARC
  5
2A9
100
AcDbEntity
  8
0
100
AcDbCircle
 62
7
  6
BYLAYER
 10
54.7047523315
 20
55.860256452
 40
4.6379649081
100
AcDbArc
 50
329.0140711542
 51
331.8934585211
  0
ARC
  5
2AA
100
AcDbEntity
  8
0
100
AcDbCircle
 62
7
  6
BYLAYER
 10
59.4620640272
 20
59.7574409905
 40
4.2051625291
100
AcDbArc
 50
333.173564127
 51
333.7420517804
  0
ARC
  5
2AB
100
AcDbEntity
  8
0
100
AcDbCircle
 62
7
  6
BYLAYER
 10
55.3818304132
 20
55.3359614702
 40
3.9387085413
100
AcDbArc
 50
317.3139306739
 51
320.7073235547
  0
ARC
  5
2AC
100
AcDbEntity
  8
0
100
AcDbCircle
 62
7
  6
BYLAYER
 10
55.3056819413
 20
55.4492153244
 40
3.9088457139
100
AcDbArc
 50
317.7960558778
 51
320.6258159624
  0
ARC
  5
2AD
100
AcDbEntity
  8
0
100
AcDbCircle
 62
7
  6
BYLAYER
 10
55.6811893666
 20
55.9090352336
 40
3.8675929304
100
AcDbArc
 50
320.5474505559
 51
320.9120991212
  0
ARC
  5
2AE
100
AcDbEntity
  8
0
100
AcDbCircle
 62
7
  6
BYLAYER
 10
56.171811122
 20
55.2733894182
 40
3.6666395778
100
AcDbArc
 50
304.3713935718
 51
310.1800852617
  0
ARC
  5
2AF
100
AcDbEntity
  8
0
100
AcDbCircle
 62
7
  6
BYLAYER
 10
10.5755226439
 20
71.2145714701
 40
52.1210682583
100
AcDbArc
 50
334.8530566688
 51
335.3803229971
  0
ARC
  5
2B0
100
AcDbEntity
  8
0
100
AcDbCircle
 62
7
  6
BYLAYER
 10
15.934302051
 20
73.8825491947
 40
51.6701606969
100
AcDbArc
 50
334.8507563129
 51
335.3826239405
  0
ARC
  5
2B1
100
AcDbEntity
  8
0
100
AcDbCircle
 62
7
  6
BYLAYER
 10
55.7428906035
 20
63.4155538198
 40
13.1450159481
100
AcDbArc
 50
39.4875272586
 51
39.6148181901
  0
ARC
  5
2B2
100
AcDbEntity
  8
0
100
AcDbCircle
 62
7
  6
BYLAYER
 10
46.560859354
 20
60.2853630014
 40
11.0522253339
100
AcDbArc
 50
56.0039576452
 51
57.7053217361
  0
ARC
  5
2B3
100
AcDbEntity
  8
0
100
AcDbCircle
 62
7
  6
BYLAYER
 10
46.6979526913
 20
60.3751735102
 40
10.7872165621
100
AcDbArc
 50
56.0321992333
 51
57.6770801481
  0
ARC
  5
2B4
100
AcDbEntity
  8
0
100
AcDbCircle
 62
7
  6
BYLAYER
 10
47.5459393156
 20
61.9812982574
 40
9.0900009235
100
AcDbArc
 50
62.3902996935
 51
64.328078943
  0
ARC
  5
2B5
100
AcDbEntity
  8
0
100
AcDbCircle
 62
7
  6
BYLAYER
 10
47.6560091981
 20
62.0443397394
 40
8.8616879208
100
AcDbArc
 50
62.4213717097
 51
64.2970069267
  0
ARC
  5
2B6
100
AcDbEntity
  8
0
100
AcDbCircle
 62
7
  6
BYLAYER
 10
55.1308150716
 20
60.5596269804
 40
8.6486581127
100
AcDbArc
 50
0.0040953994
 51
1.0214422886
  0
ARC
  5
2B7
100
AcDbEntity
  8
0
100
AcDbCircle
 62
7
  6
BYLAYER
 10
53.1136076423
 20
64.1317965981
 40
8.6037556831
100
AcDbArc
 50
58.9189182949
 51
59.9986497327
  0
ARC
  5
2B8
100
AcDbEntity
  8
0
100
AcDbCircle
 62
7
  6
BYLAYER
 10
48.2454241132
 20
63.608892108
 40
7.3173295373
100
AcDbArc
 50
69.7103574347
 51
71.9493921994
  0
ARC
  5
2B9
100
AcDbEntity
  8
0
100
AcDbCircle
 62
7
  6
BYLAYER
 10
48.3305643285
 20
63.6398686708
 40
7.1282925254
100
AcDbArc
 50
69.7454632448
 51
71.9142863894
  0
ARC
  5
2BA
100
AcDbEntity
  8
0
100
AcDbCircle
 62
7
  6
BYLAYER
 10
48.6254607655
 20
64.984177032
 40
5.8893543768
100
AcDbArc
 50
78.2007628145
 51
79.9269051862
  0
ARC
  5
2BB
100
AcDbEntity
  8
0
100
AcDbCircle
 62
7
  6
BYLAYER
 10
48.6820612972
 20
64.9327075775
 40
5.7875066372
100
AcDbArc
 50
78.2518964167
 51
79.5044772481
  0
ARC
  5
2BC
100
AcDbEntity
  8
0
100
AcDbCircle
 62
7
  6
BYLAYER
 10
48.6598072569
 20
65.1727874972
 40
5.6976439703
100
AcDbArc
 50
79.9352341536
 51
80.8180681006
  0
ARC
  5
2BD
100
AcDbEntity
  8
0
100
AcDbCircle
 62
7
  6
BYLAYER
 10
49.0341054742
 20
67.953385457
 40
4.6104749173
100
AcDbArc
 50
140.9570448509
 51
142.181967702
  0
ARC
  5
2BE
100
AcDbEntity
  8
0
100
AcDbCircle
 62
7
  6
BYLAYER
 10
49.0263142704
 20
67.654663152
 40
3.6484284313
100
AcDbArc
 50
109.4717801155
 51
116.2658466879
  0
ARC
  5
2BF
100
AcDbEntity
  8
0
100
AcDbCircle
 62
7
  6
BYLAYER
 10
107.0713195701
 20
3.346134747
 40
92.893995752
100
AcDbArc
 50
132.1490490649
 51
132.3891640244
  0
ARC
  5
2C0
100
AcDbEntity
  8
0
100
AcDbCircle
 62
7
  6
BYLAYER
 10
101.649323529
 20
1.0080042965
 40
92.1918576253
100
AcDbArc
 50
132.1481342925
 51
132.390077991
  0
ARC
  5
2C1
100
AcDbEntity
  8
0
100
AcDbCircle
 62
7
  6
BYLAYER
 10
95.2726178353
 20
32.8670256097
 40
41.9019356908
100
AcDbArc
 50
157.9029996409
 51
158.5129709709
  0
ARC
  5
2C2
100
AcDbEntity
  8
0
100
AcDbCircle
 62
7
  6
BYLAYER
 10
100.0355479655
 20
35.7994181193
 40
41.7007654102
100
AcDbArc
 50
157.9015286756
 51
158.5144426154
  0
ARC
  5
2C3
100
AcDbEntity
  8
0
100
AcDbCircle
 62
7
  6
BYLAYER
 10
105.250231918
 20
104.7654580347
 40
80.9754334647
100
AcDbArc
 50
224.4341394849
 51
224.6637836352
  0
ARC
  5
2C4
100
AcDbEntity
  8
0
100
AcDbCircle
 62
7
  6
BYLAYER
 10
115.2038122659
 20
64.4895741731
 40
71.1510055893
100
AcDbArc
 50
173.9763821641
 51
175.0510417061
  0
ARC
  5
2C5
100
AcDbEntity
  8
0
100
AcDbCircle
 62
7
  6
BYLAYER
 10
114.7437243836
 20
74.3870576283
 40
60.259558523
100
AcDbArc
 50
194.0342027103
 51
194.6694419378
  0
ARC
  5
2C6
100
AcDbEntity
  8
0
100
AcDbCircle
 62
7
  6
BYLAYER
 10
119.4796825139
 20
77.1900714009
 40
60.0389068848
100
AcDbArc
 50
194.0330350469
 51
194.6706088952
  0
ARC
  5
2C7
100
AcDbEntity
  8
0
100
AcDbCircle
 62
7
  6
BYLAYER
 10
79.4049740547
 20
92.8584683093
 40
55.083802322
100
AcDbArc
 50
234.8051614096
 51
235.4492323148
  0
ARC
  5
2C8
100
AcDbEntity
  8
0
100
AcDbCircle
 62
7
  6
BYLAYER
 10
70.3248139373
 20
119.3408338841
 40
49.6861677684
100
AcDbArc
 50
249.1083962141
 51
249.7341391626
  0
ARC
  5
2C9
100
AcDbEntity
  8
0
100
AcDbCircle
 62
7
  6
BYLAYER
 10
65.2621616884
 20
116.1823493742
 40
49.3648969968
100
AcDbArc
 50
249.1063586372
 51
249.7361740003
  0
SPLINE
  5
2CA
100
AcDbEntity
  8
0
100
AcDbSpline
 62
7
  6
BYLAYER
 70
0
 71
3
 72
11
 73
7
 74
0
 42
0.0000001
 43
0.0000001
 44
0.0000000001
 40
0.0
 40
0.0
 40
0.0
 40
0.0
 40
0.228309529
 40
0.4746527558
 40
0.7339519869
 40
1.0
 40
1.0
 40
1.0
 40
1.0
 10
14.2186979245
 20
35.6855204085
 30
0.0
 10
14.2186979245
 20
35.6519829203
 30
0.0
 10
14.2248406628
 20
35.5821943124
 30
0.0
 10
14.2493306313
 20
35.4769069786
 30
0.0
 10
14.2885533733
 20
35.3702719171
 30
0.0
 10
14.3234218911
 20
35.3012103595
 30
0.0
 10
14.3429625105
 20
35.2673652017
 30
0.0
  0
SPLINE
  5
2CB
100
AcDbEntity
  8
0
100
AcDbSpline
 62
7
  6
BYLAYER
 70
0
 71
3
 72
13
 73
9
 74
0
 42
0.0000001
 43
0.0000001
 44
0.0000000001
 40
0.0
 40
0.0
 40
0.0
 40
0.0
 40
0.1080952705
 40
0.2182359347
 40
0.3322523725
 40
0.4516777295
 40
0.7106405884
 40
1.0
 40
1.0
 40
1.0
 40
1.0
 10
14.3429675004
 20
35.9601877965
 30
0.0
 10
14.3331295049
 20
35.9545097379
 30
0.0
 10
14.3142128423
 20
35.9413141865
 30
0.0
 10
14.2892319005
 20
35.9167110272
 30
0.0
 10
14.2677301644
 20
35.8875296044
 30
0.0
 10
14.2433594405
 20
35.8417049287
 30
0.0
 10
14.2232840936
 20
35.773719153
 30
0.0
 10
14.2186979245
 20
35.7159271855
 30
0.0
 10
14.2186979245
 20
35.6855204085
 30
0.0
  0
SPLINE
  5
2CC
100
AcDbEntity
  8
0
100
AcDbSpline
 62
7
  6
BYLAYER
 70
0
 71
3
 72
17
 73
13
 74
0
 42
0.0000001
 43
0.0000001
 44
0.0000000001
 40
0.0
 40
0.0
 40
0.0
 40
0.0
 40
0.123176212
 40
0.2580069421
 40
0.3991468888
 40
0.5402826833
 40
0.6751203023
 40
0.738507518
 40
0.7984468584
 40
0.8545863843
 40
0.9068106777
 40
1.0
 40
1.0
 40
1.0
 40
1.0
 10
12.9209784118
 20
40.0356651418
 30
0.0
 10
12.9209784118
 20
40.0734206659
 30
0.0
 10
12.911633996
 20
40.1525943543
 30
0.0
 10
12.8759652223
 20
40.2701324384
 30
0.0
 10
12.8202073723
 20
40.3857435617
 30
0.0
 10
12.7479947923
 20
40.491797187
 30
0.0
 10
12.6765253152
 20
40.5681168372
 30
0.0
 10
12.6149846015
 20
40.6180360361
 30
0.0
 10
12.5689447451
 20
40.6483146896
 30
0.0
 10
12.5227867891
 20
40.6717024841
 30
0.0
 10
12.4645116718
 20
40.6923542086
 30
0.0
 10
12.4190968753
 20
40.6979431728
 30
0.0
 10
12.390646118
 20
40.6954016255
 30
0.0
  0
SPLINE
  5
2CD
100
AcDbEntity
  8
0
100
AcDbSpline
 62
7
  6
BYLAYER
 70
0
 71
3
 72
17
 73
13
 74
0
 42
0.0000001
 43
0.0000001
 44
0.0000000001
 40
0.0
 40
0.0
 40
0.0
 40
0.0
 40
0.155090582
 40
0.306303981
 40
0.4499049339
 40
0.5830148503
 40
0.7037103576
 40
0.7593128465
 40
0.8118710137
 40
0.9089861531
 40
0.9549173835
 40
1.0
 40
1.0
 40
1.0
 40
1.0
 10
14.9429650085
 20
35.6137867099
 30
0.0
 10
14.9234269026
 20
35.6476275142
 30
0.0
 10
14.8810427801
 20
35.7123567279
 30
0.0
 10
14.8083220222
 20
35.7996420158
 30
0.0
 10
14.7293425567
 20
35.8735072513
 30
0.0
 10
14.6470640734
 20
35.9311980012
 30
0.0
 10
14.5762096758
 20
35.9649233877
 30
0.0
 10
14.5207264079
 20
35.9810859917
 30
0.0
 10
14.4696556822
 20
35.9896870896
 30
0.0
 10
14.4195504913
 20
35.9883429204
 30
0.0
 10
14.3736933054
 20
35.9756471938
 30
0.0
 10
14.3528053797
 20
35.9658657881
 30
0.0
 10
14.3429675004
 20
35.9601877965
 30
0.0
  0
SPLINE
  5
2CE
100
AcDbEntity
  8
0
100
AcDbSpline
 62
7
  6
BYLAYER
 70
0
 71
3
 72
12
 73
8
 74
0
 42
0.0000001
 43
0.0000001
 44
0.0000000001
 40
0.0
 40
0.0
 40
0.0
 40
0.0
 40
0.1081588022
 40
0.2183521463
 40
0.4513532897
 40
0.710426048
 40
1.0
 40
1.0
 40
1.0
 40
1.0
 10
14.461452945
 20
36.9592435972
 30
0.0
 10
14.4696503122
 20
36.9639766039
 30
0.0
 10
14.4854112393
 20
36.9749761152
 30
0.0
 10
14.5136815408
 20
37.0027889434
 30
0.0
 10
14.5416872223
 20
37.0484378623
 30
0.0
 10
14.5611667622
 20
37.1146081921
 30
0.0
 10
14.5650085228
 20
37.1627948982
 30
0.0
 10
14.5650085228
 20
37.1881372678
 30
0.0
  0
SPLINE
  5
2CF
100
AcDbEntity
  8
0
100
AcDbSpline
 62
7
  6
BYLAYER
 70
0
 71
3
 72
20
 73
16
 74
0
 42
0.0000001
 43
0.0000001
 44
0.0000000001
 40
0.0
 40
0.0
 40
0.0
 40
0.0
 40
0.0623905849
 40
0.128806762
 40
0.2702975723
 40
0.4173613603
 40
0.5616147669
 40
0.6302508569
 40
0.6953778332
 40
0.756360748
 40
0.8128308048
 40
0.8647637883
 40
0.9125655836
 40
0.9571671477
 40
1.0
 40
1.0
 40
1.0
 40
1.0
 10
14.5650085228
 20
37.1881372678
 30
0.0
 10
14.5650085228
 20
37.2088705767
 30
0.0
 10
14.5621889505
 20
37.2517051021
 30
0.0
 10
14.5464505271
 20
37.340275597
 30
0.0
 10
14.5084066587
 20
37.4527285093
 30
0.0
 10
14.4396732681
 20
37.5797498192
 30
0.0
 10
14.3656303363
 20
37.6745825365
 30
0.0
 10
14.2989944604
 20
37.7387628854
 30
0.0
 10
14.2479371275
 20
37.7787405344
 30
0.0
 10
14.1960486278
 20
37.8104814232
 30
0.0
 10
14.1443860226
 20
37.8333126128
 30
0.0
 10
14.0939775727
 20
37.846712591
 30
0.0
 10
14.0458105954
 20
37.8502480613
 30
0.0
 10
14.0009543189
 20
37.8436845253
 30
0.0
 10
13.973784009
 20
37.8323841139
 30
0.0
 10
13.9614557416
 20
37.8252693264
 30
0.0
  0
SPLINE
  5
2D0
100
AcDbEntity
  8
0
100
AcDbSpline
 62
7
  6
BYLAYER
 70
0
 71
3
 72
13
 73
9
 74
0
 42
0.0000001
 43
0.0000001
 44
0.0000000001
 40
0.0
 40
0.0
 40
0.0
 40
0.0
 40
0.1080983532
 40
0.2182408668
 40
0.3322555564
 40
0.4516815527
 40
0.7106547151
 40
1.0
 40
1.0
 40
1.0
 40
1.0
 10
12.8174214679
 20
39.8067738377
 30
0.0
 10
12.8256202047
 20
39.8115054247
 30
0.0
 10
12.841382632
 20
39.822504726
 30
0.0
 10
12.8622010873
 20
39.8430063781
 30
0.0
 10
12.8801201408
 20
39.8673239138
 30
0.0
 10
12.9004276677
 20
39.9055129439
 30
0.0
 10
12.9171560686
 20
39.9621676754
 30
0.0
 10
12.9209784118
 20
40.0103273488
 30
0.0
 10
12.9209784118
 20
40.0356651418
 30
0.0
  0
SPLINE
  5
2D1
100
AcDbEntity
  8
0
100
AcDbSpline
 62
7
  6
BYLAYER
 70
0
 71
3
 72
11
 73
7
 74
0
 42
0.0000001
 43
0.0000001
 44
0.0000000001
 40
0.0
 40
0.0
 40
0.0
 40
0.0
 40
0.224337825
 40
0.4643547528
 40
0.7225623719
 40
1.0
 40
1.0
 40
1.0
 40
1.0
 10
11.0936585579
 20
42.1472801876
 30
0.0
 10
11.2032223447
 20
42.1611041843
 30
0.0
 10
11.4333544663
 20
42.1664212506
 30
0.0
 10
11.7863480197
 20
42.1119518643
 30
0.0
 10
12.1517552093
 20
41.9969505463
 30
0.0
 10
12.3914624458
 20
41.885306093
 30
0.0
 10
12.5119031994
 20
41.8209185499
 30
0.0
  0
SPLINE
  5
2D2
100
AcDbEntity
  8
0
100
AcDbSpline
 62
7
  6
BYLAYER
 70
0
 71
3
 72
18
 73
14
 74
0
 42
0.0000001
 43
0.0000001
 44
0.0000000001
 40
0.0
 40
0.0
 40
0.0
 40
0.0
 40
0.1533851077
 40
0.3005426473
 40
0.439825289
 40
0.5700232868
 40
0.690498116
 40
0.7471399245
 40
0.8014707821
 40
0.8536539021
 40
0.9039236195
 40
0.9525823236
 40
1.0
 40
1.0
 40
1.0
 40
1.0
 10
10.7784286669
 20
35.6438007278
 30
0.0
 10
10.9295648899
 20
35.4612047639
 30
0.0
 10
11.2414144503
 20
35.1160233041
 30
0.0
 10
11.7431800863
 20
34.6560125821
 30
0.0
 10
12.2612498557
 20
34.2715072281
 30
0.0
 10
12.7850262644
 20
33.9705264675
 30
0.0
 10
13.2267548723
 20
33.7909198752
 30
0.0
 10
13.5724023785
 20
33.6975251185
 30
0.0
 10
13.8209535642
 20
33.6531378886
 30
0.0
 10
14.0628102992
 20
33.6332735097
 30
0.0
 10
14.2967255914
 20
33.6380815509
 30
0.0
 10
14.521407069
 20
33.667608348
 30
0.0
 10
14.6657538469
 20
33.7041095865
 30
0.0
 10
14.7355539315
 20
33.7264099885
 30
0.0
  0
SPLINE
  5
2D3
100
AcDbEntity
  8
0
100
AcDbSpline
 62
7
  6
BYLAYER
 70
0
 71
3
 72
15
 73
11
 74
0
 42
0.0000001
 43
0.0000001
 44
0.0000000001
 40
0.0
 40
0.0
 40
0.0
 40
0.0
 40
0.1293639713
 40
0.2605080747
 40
0.3918428679
 40
0.5218300582
 40
0.6489494114
 40
0.7718020663
 40
0.8891495794
 40
1.0
 40
1.0
 40
1.0
 40
1.0
 10
13.9721322325
 20
40.550396925
 30
0.0
 10
14.0924316233
 20
40.4050566301
 30
0.0
 10
14.3227432427
 20
40.1022884201
 30
0.0
 10
14.632508059
 20
39.6214088735
 30
0.0
 10
14.9048403154
 20
39.1173081814
 30
0.0
 10
15.1349238589
 20
38.5989826809
 30
0.0
 10
15.3186851715
 20
38.075537301
 30
0.0
 10
15.4528905797
 20
37.5561806881
 30
0.0
 10
15.5351554585
 20
37.0501083916
 30
0.0
 10
15.5549686222
 20
36.7171026193
 30
0.0
 10
15.5549741569
 20
36.5554349984
 30
0.0
  0
SPLINE
  5
2D4
100
AcDbEntity
  8
0
100
AcDbSpline
 62
7
  6
BYLAYER
 70
0
 71
3
 72
25
 73
21
 74
0
 42
0.0000001
 43
0.0000001
 44
0.0000000001
 40
0.0
 40
0.0
 40
0.0
 40
0.0
 40
0.0738349045
 40
0.1486554319
 40
0.2237746906
 40
0.2985353351
 40
0.3722688072
 40
0.4443428188
 40
0.514170076
 40
0.5812323035
 40
0.6451030624
 40
0.705473684
 40
0.762183872
 40
0.8152568976
 40
0.8649372989
 40
0.91172307
 40
0.9342834923
 40
0.9564274416
 40
0.9782862005
 40
1.0
 40
1.0
 40
1.0
 40
1.0
 10
24.0154115862
 20
46.6902104344
 30
0.0
 10
24.1449940818
 20
46.5336547112
 30
0.0
 10
24.394735842
 20
46.2090549109
 30
0.0
 10
24.736537761
 20
45.6961389033
 30
0.0
 10
25.0445721326
 20
45.1592899007
 30
0.0
 10
25.3147312074
 20
44.6057482924
 30
0.0
 10
25.5434113408
 20
44.0428351723
 30
0.0
 10
25.7275699215
 20
43.4780571361
 30
0.0
 10
25.8647541472
 20
42.918906588
 30
0.0
 10
25.9531346713
 20
42.3727848938
 30
0.0
 10
25.9915124589
 20
41.8468851682
 30
0.0
 10
25.9793074752
 20
41.3480914891
 30
0.0
 10
25.9165410538
 20
40.8829063732
 30
0.0
 10
25.8037465425
 20
40.4573654648
 30
0.0
 10
25.6420683319
 20
40.077174318
 30
0.0
 10
25.4655564015
 20
39.7990177596
 30
0.0
 10
25.3023977592
 20
39.6067786098
 30
0.0
 10
25.1709295442
 20
39.4787486346
 30
0.0
 10
25.0293818552
 20
39.365682971
 30
0.0
 10
24.9284728184
 20
39.3004273005
 30
0.0
 10
24.8767136424
 20
39.2705443086
 30
0.0
  0
SPLINE
  5
2D5
100
AcDbEntity
  8
0
100
AcDbSpline
 62
7
  6
BYLAYER
 70
0
 71
3
 72
23
 73
19
 74
0
 42
0.0000001
 43
0.0000001
 44
0.0000000001
 40
0.0
 40
0.0
 40
0.0
 40
0.0
 40
0.0437751914
 40
0.0895057313
 40
0.1378467115
 40
0.1892418616
 40
0.2439316868
 40
0.3019760172
 40
0.363280116
 40
0.4276229499
 40
0.4946816504
 40
0.5640510182
 40
0.6352606178
 40
0.7077953959
 40
0.7811061789
 40
0.8546191553
 40
0.9277848901
 40
1.0
 40
1.0
 40
1.0
 40
1.0
 10
9.6547700911
 20
42.5266387309
 30
0.0
 10
9.5734521252
 20
42.452696916
 30
0.0
 10
9.4209365335
 20
42.2857550632
 30
0.0
 10
9.2334246602
 20
41.9931597294
 30
0.0
 10
9.0850450891
 20
41.6580151049
 30
0.0
 10
8.9772243304
 20
41.2844991741
 30
0.0
 10
8.9108611035
 20
40.8769094337
 30
0.0
 10
8.886539696
 20
40.4398944239
 30
0.0
 10
8.9044077656
 20
39.9784218035
 30
0.0
 10
8.9641924923
 20
39.4977567971
 30
0.0
 10
9.0651820288
 20
39.0034092934
 30
0.0
 10
9.2062047982
 20
38.501075662
 30
0.0
 10
9.3856077124
 20
37.9965531096
 30
0.0
 10
9.6013173478
 20
37.4956819919
 30
0.0
 10
9.8508349713
 20
37.0042865053
 30
0.0
 10
10.1312709257
 20
36.528011907
 30
0.0
 10
10.439360289
 20
36.0724822209
 30
0.0
 10
10.6628179908
 20
35.783476329
 30
0.0
 10
10.7784286669
 20
35.6438007278
 30
0.0
  0
SPLINE
  5
2D6
100
AcDbEntity
  8
0
100
AcDbSpline
 62
7
  6
BYLAYER
 70
0
 71
3
 72
13
 73
9
 74
0
 42
0.0000001
 43
0.0000001
 44
0.0000000001
 40
0.0
 40
0.0
 40
0.0
 40
0.0
 40
0.1169571383
 40
0.2347659386
 40
0.3542482635
 40
0.4761677546
 40
0.7297102452
 40
1.0
 40
1.0
 40
1.0
 40
1.0
 10
11.3528878584
 20
44.5684347723
 30
0.0
 10
11.2922331822
 20
44.5334159427
 30
0.0
 10
11.1740985616
 20
44.4566396762
 30
0.0
 10
11.0089637071
 20
44.322907458
 30
0.0
 10
10.8562380619
 20
44.1708942012
 30
0.0
 10
10.6675128675
 20
43.9418151009
 30
0.0
 10
10.465641451
 20
43.6093882803
 30
0.0
 10
10.3493944192
 20
43.3164972092
 30
0.0
 10
10.3003975535
 20
43.162232696
 30
0.0
  0
SPLINE
  5
2D7
100
AcDbEntity
  8
0
100
AcDbSpline
 62
7
  6
BYLAYER
 70
0
 71
3
 72
11
 73
7
 74
0
 42
0.0000001
 43
0.0000001
 44
0.0000000001
 40
0.0
 40
0.0
 40
0.0
 40
0.0
 40
0.2325810675
 40
0.4780121557
 40
0.7345771936
 40
1.0
 40
1.0
 40
1.0
 40
1.0
 10
12.514482317
 20
41.8217508853
 30
0.0
 10
12.6449728643
 20
41.7464124409
 30
0.0
 10
12.9046976053
 20
41.576584998
 30
0.0
 10
13.2767745558
 20
41.278896108
 30
0.0
 10
13.63699272
 20
40.935407263
 30
0.0
 10
13.8624904114
 20
40.682861225
 30
0.0
 10
13.9721322325
 20
40.550396925
 30
0.0
  0
SPLINE
  5
2D8
100
AcDbEntity
  8
0
100
AcDbSpline
 62
7
  6
BYLAYER
 70
0
 71
3
 72
15
 73
11
 74
0
 42
0.0000001
 43
0.0000001
 44
0.0000000001
 40
0.0
 40
0.0
 40
0.0
 40
0.0
 40
0.1080127572
 40
0.21806165
 40
0.3319990073
 40
0.4513576276
 40
0.5772777375
 40
0.7105000912
 40
0.8513948522
 40
1.0
 40
1.0
 40
1.0
 40
1.0
 10
15.2419589631
 20
46.8137776186
 30
0.0
 10
15.3403337794
 20
46.8705740792
 30
0.0
 10
15.5492043159
 20
46.9683768724
 30
0.0
 10
15.8871619436
 20
47.0618259549
 30
0.0
 10
16.2474325253
 20
47.1020151069
 30
0.0
 10
16.6261826722
 20
47.0888290331
 30
0.0
 10
17.0197604838
 20
47.0227926049
 30
0.0
 10
17.4244837985
 20
46.9048011162
 30
0.0
 10
17.8365699723
 20
46.7361479504
 30
0.0
 10
18.1067100741
 20
46.5947077885
 30
0.0
 10
18.2420541757
 20
46.5165647522
 30
0.0
  0
SPLINE
  5
2D9
100
AcDbEntity
  8
0
100
AcDbSpline
 62
7
  6
BYLAYER
 70
0
 71
3
 72
15
 73
11
 74
0
 42
0.0000001
 43
0.0000001
 44
0.0000000001
 40
0.0
 40
0.0
 40
0.0
 40
0.0
 40
0.1473794026
 40
0.2873211288
 40
0.4199499796
 40
0.5456876255
 40
0.6652942059
 40
0.779873534
 40
0.8908707873
 40
1.0
 40
1.0
 40
1.0
 40
1.0
 10
15.5528853415
 20
36.551224989
 30
0.0
 10
15.5495198126
 20
36.4502926666
 30
0.0
 10
15.534900909
 20
36.2536573595
 30
0.0
 10
15.487028555
 20
35.9694599662
 30
0.0
 10
15.4140963478
 20
35.7058902946
 30
0.0
 10
15.3165981661
 20
35.4652617344
 30
0.0
 10
15.1952708152
 20
35.2496921644
 30
0.0
 10
15.0509512801
 20
35.0612101425
 30
0.0
 10
14.8849192296
 20
34.9016965211
 30
0.0
 10
14.7602175925
 20
34.8154601377
 30
0.0
 10
14.6954595525
 20
34.7780676811
 30
0.0
  0
SPLINE
  5
2DA
100
AcDbEntity
  8
0
100
AcDbSpline
 62
7
  6
BYLAYER
 70
0
 71
3
 72
19
 73
15
 74
0
 42
0.0000001
 43
0.0000001
 44
0.0000000001
 40
0.0
 40
0.0
 40
0.0
 40
0.0
 40
0.0475014699
 40
0.0956069661
 40
0.1448829555
 40
0.1958290816
 40
0.2488552416
 40
0.3042777962
 40
0.3623131501
 40
0.4230903546
 40
0.5528820163
 40
0.6933041247
 40
0.8430014678
 40
1.0
 40
1.0
 40
1.0
 40
1.0
 10
19.5267428239
 20
48.5370208873
 30
0.0
 10
19.5984754663
 20
48.5784317298
 30
0.0
 10
19.7488865904
 20
48.6517858771
 30
0.0
 10
19.9897511749
 20
48.7304011332
 30
0.0
 10
20.2447989452
 20
48.7775410676
 30
0.0
 10
20.5122211707
 20
48.7929097796
 30
0.0
 10
20.7902527173
 20
48.7766081622
 30
0.0
 10
21.077088273
 20
48.7287856108
 30
0.0
 10
21.370937518
 20
48.649898891
 30
0.0
 10
21.7784512717
 20
48.5007145359
 30
0.0
 10
22.2940515677
 20
48.2361395758
 30
0.0
 10
22.8959460866
 20
47.8160250496
 30
0.0
 10
23.4798610666
 20
47.2970835122
 30
0.0
 10
23.8408580732
 20
46.9010981112
 30
0.0
 10
24.0154115862
 20
46.6902104344
 30
0.0
  0
SPLINE
  5
2DB
100
AcDbEntity
  8
0
100
AcDbSpline
 62
7
  6
BYLAYER
 70
0
 71
3
 72
13
 73
9
 74
0
 42
0.0000001
 43
0.0000001
 44
0.0000000001
 40
0.0
 40
0.0
 40
0.0
 40
0.0
 40
0.2702944645
 40
0.5238380229
 40
0.6457568477
 40
0.7652378421
 40
0.8830448745
 40
1.0
 40
1.0
 40
1.0
 40
1.0
 10
15.6085163499
 20
33.9678050645
 30
0.0
 10
15.7666375588
 20
33.9330844153
 30
0.0
 10
16.0784635515
 20
33.887276325
 30
0.0
 10
16.467357997
 20
33.8958618133
 30
0.0
 10
16.7601598178
 20
33.9447545755
 30
0.0
 10
16.9682047612
 20
34.0010123228
 30
0.0
 10
17.1666200376
 20
34.0771629922
 30
0.0
 10
17.2921973013
 20
34.141090382
 30
0.0
 10
17.3528609969
 20
34.1761144189
 30
0.0
  0
SPLINE
  5
2DC
100
AcDbEntity
  8
0
100
AcDbSpline
 62
7
  6
BYLAYER
 70
0
 71
3
 72
15
 73
11
 74
0
 42
0.0000001
 43
0.0000001
 44
0.0000000001
 40
0.0
 40
0.0
 40
0.0
 40
0.0
 40
0.1486058177
 40
0.2895003741
 40
0.4227225657
 40
0.5486426469
 40
0.6680011788
 40
0.7819384642
 40
0.8919873012
 40
1.0
 40
1.0
 40
1.0
 40
1.0
 10
22.4845992725
 20
39.1682163708
 30
0.0
 10
22.4846003736
 20
39.0119326971
 30
0.0
 10
22.4720208129
 20
38.7072638888
 30
0.0
 10
22.4120324153
 20
38.2660602141
 30
0.0
 10
22.3118521383
 20
37.856564767
 30
0.0
 10
22.1722508507
 20
37.4826990143
 30
0.0
 10
21.9942933227
 20
37.1480999057
 30
0.0
 10
21.7793517435
 20
36.856192343
 30
0.0
 10
21.5294426175
 20
36.6102382168
 30
0.0
 10
21.3403068778
 20
36.4782537027
 30
0.0
 10
21.2419321016
 20
36.4214572652
 30
0.0
  0
SPLINE
  5
2DD
100
AcDbEntity
  8
0
100
AcDbSpline
 62
7
  6
BYLAYER
 70
0
 71
3
 72
20
 73
16
 74
0
 42
0.0000001
 43
0.0000001
 44
0.0000000001
 40
0.0
 40
0.0
 40
0.0
 40
0.0
 40
0.1569845649
 40
0.3066679108
 40
0.4470781863
 40
0.5133922939
 40
0.5769483255
 40
0.6377200177
 40
0.6957502417
 40
0.7511674945
 40
0.8041892992
 40
0.8551303242
 40
0.9044021422
 40
0.9525029533
 40
1.0
 40
1.0
 40
1.0
 40
1.0
 10
16.3869131927
 20
42.497238032
 30
0.0
 10
16.1911520374
 20
42.7337478251
 30
0.0
 10
15.786270819
 20
43.1778609802
 30
0.0
 10
15.1315199974
 20
43.7597770055
 30
0.0
 10
14.5582243946
 20
44.1599263204
 30
0.0
 10
14.095437719
 20
44.4161686458
 30
0.0
 10
13.7564403695
 20
44.5722883633
 30
0.0
 10
13.4211356328
 20
44.6950233331
 30
0.0
 10
13.0915945603
 20
44.78349805
 30
0.0
 10
12.7699063064
 20
44.8371202824
 30
0.0
 10
12.4580966538
 20
44.8554189508
 30
0.0
 10
12.1581856168
 20
44.8381600422
 30
0.0
 10
11.8721462407
 20
44.7853198319
 30
0.0
 10
11.6020282446
 20
44.6971237981
 30
0.0
 10
11.4333335753
 20
44.6148799111
 30
0.0
 10
11.3528878584
 20
44.5684347723
 30
0.0
  0
SPLINE
  5
2DE
100
AcDbEntity
  8
0
100
AcDbSpline
 62
7
  6
BYLAYER
 70
0
 71
3
 72
11
 73
7
 74
0
 42
0.0000001
 43
0.0000001
 44
0.0000000001
 40
0.0
 40
0.0
 40
0.0
 40
0.0
 40
0.2224605835
 40
0.4617902292
 40
0.7206799047
 40
1.0
 40
1.0
 40
1.0
 40
1.0
 10
10.9324070257
 20
42.2224967128
 30
0.0
 10
11.0544346676
 20
42.2378933121
 30
0.0
 10
11.3117738953
 20
42.2418656883
 30
0.0
 10
11.7061837512
 20
42.1734663498
 30
0.0
 10
12.1142099135
 20
42.0333235405
 30
0.0
 10
12.3807402342
 20
41.8989665969
 30
0.0
 10
12.514482317
 20
41.8217508853
 30
0.0
  0
SPLINE
  5
2DF
100
AcDbEntity
  8
0
100
AcDbSpline
 62
7
  6
BYLAYER
 70
0
 71
3
 72
19
 73
15
 74
0
 42
0.0000001
 43
0.0000001
 44
0.0000000001
 40
0.0
 40
0.0
 40
0.0
 40
0.0
 40
0.1569986078
 40
0.3066953435
 40
0.4471181793
 40
0.5769104817
 40
0.6376876102
 40
0.6957230253
 40
0.7511452353
 40
0.8041717831
 40
0.855117365
 40
0.9043935906
 40
0.9524987045
 40
1.0
 40
1.0
 40
1.0
 40
1.0
 10
15.2473240047
 20
41.6279829264
 30
0.0
 10
15.072770308
 20
41.8388708252
 30
0.0
 10
14.7117740486
 20
42.2348560946
 30
0.0
 10
14.1278578257
 20
42.7537974448
 30
0.0
 10
13.5259622503
 20
43.1739133009
 30
0.0
 10
13.0103599719
 20
43.4384904473
 30
0.0
 10
12.6028451987
 20
43.5876752
 30
0.0
 10
12.3089966783
 20
43.6665646807
 30
0.0
 10
12.0221599183
 20
43.7143779568
 30
0.0
 10
11.7441291601
 20
43.7306942397
 30
0.0
 10
11.4767086077
 20
43.7153050536
 30
0.0
 10
11.2216567995
 20
43.6681891975
 30
0.0
 10
10.9808015945
 20
43.5895477345
 30
0.0
 10
10.8303821793
 20
43.5162136019
 30
0.0
 10
10.758651415
 20
43.4748000198
 30
0.0
  0
SPLINE
  5
2E0
100
AcDbEntity
  8
0
100
AcDbSpline
 62
7
  6
BYLAYER
 70
0
 71
3
 72
14
 73
10
 74
0
 42
0.0000001
 43
0.0000001
 44
0.0000000001
 40
0.0
 40
0.0
 40
0.0
 40
0.0
 40
0.1453015966
 40
0.2844524794
 40
0.543780744
 40
0.6647828738
 40
0.7805914055
 40
0.8919940685
 40
1.0
 40
1.0
 40
1.0
 40
1.0
 10
9.4738326328
 20
40.06627504
 30
0.0
 10
9.4738326328
 20
40.1597733269
 30
0.0
 10
9.480174728
 20
40.3429287169
 30
0.0
 10
9.5190044509
 20
40.6908500363
 30
0.0
 10
9.5970010834
 20
41.0182716742
 30
0.0
 10
9.7182174798
 20
41.3141908569
 30
0.0
 10
9.8258937442
 20
41.5112873119
 30
0.0
 10
9.9516967217
 20
41.6871631797
 30
0.0
 10
10.0483942352
 20
41.7907218053
 30
0.0
 10
10.0992247694
 20
41.8381182119
 30
0.0
  0
SPLINE
  5
2E1
100
AcDbEntity
  8
0
100
AcDbSpline
 62
7
  6
BYLAYER
 70
0
 71
3
 72
11
 73
7
 74
0
 42
0.0000001
 43
0.0000001
 44
0.0000000001
 40
0.0
 40
0.0
 40
0.0
 40
0.0
 40
0.2485532177
 40
0.4952903941
 40
0.7444947395
 40
1.0
 40
1.0
 40
1.0
 40
1.0
 10
10.0992247694
 20
41.8381182119
 30
0.0
 10
10.1557072596
 20
41.8907847265
 30
0.0
 10
10.2765883202
 20
41.9872410102
 30
0.0
 10
10.4790752755
 20
42.1010857063
 30
0.0
 10
10.6991776994
 20
42.1817815062
 30
0.0
 10
10.853644286
 20
42.2125589781
 30
0.0
 10
10.9324070257
 20
42.2224967128
 30
0.0
  0
SPLINE
  5
2E2
100
AcDbEntity
  8
0
100
AcDbSpline
 62
7
  6
BYLAYER
 70
0
 71
3
 72
19
 73
15
 74
0
 42
0.0000001
 43
0.0000001
 44
0.0000000001
 40
0.0
 40
0.0
 40
0.0
 40
0.0
 40
0.0475012955
 40
0.0956064094
 40
0.144882635
 40
0.1958282169
 40
0.2488547647
 40
0.3042769747
 40
0.3623123898
 40
0.4230895183
 40
0.5528818207
 40
0.6933046565
 40
0.8430013922
 40
1.0
 40
1.0
 40
1.0
 40
1.0
 10
11.2182689092
 20
43.7401587198
 30
0.0
 10
11.2899996735
 20
43.7815723019
 30
0.0
 10
11.4404190887
 20
43.8549064345
 30
0.0
 10
11.6812742937
 20
43.9335478975
 30
0.0
 10
11.9363261019
 20
43.9806637537
 30
0.0
 10
12.2037466543
 20
43.9960529397
 30
0.0
 10
12.4817774125
 20
43.9797366568
 30
0.0
 10
12.7686141725
 20
43.9319233807
 30
0.0
 10
13.0624626929
 20
43.8530339
 30
0.0
 10
13.469977466
 20
43.7038491474
 30
0.0
 10
13.9855797445
 20
43.4392720009
 30
0.0
 10
14.5874753199
 20
43.0191561448
 30
0.0
 10
15.1713915428
 20
42.5002147946
 30
0.0
 10
15.5323878022
 20
42.1042295252
 30
0.0
 10
15.7069414989
 20
41.8933416264
 30
0.0
  0
SPLINE
  5
2E3
100
AcDbEntity
  8
0
100
AcDbSpline
 62
7
  6
BYLAYER
 70
0
 71
3
 72
25
 73
21
 74
0
 42
0.0000001
 43
0.0000001
 44
0.0000000001
 40
0.0
 40
0.0
 40
0.0
 40
0.0
 40
0.0738348592
 40
0.1486552526
 40
0.2237743416
 40
0.298535045
 40
0.3722688279
 40
0.4443427879
 40
0.5141699332
 40
0.5812321399
 40
0.6451029718
 40
0.7054737089
 40
0.7621839594
 40
0.8152569717
 40
0.8649373359
 40
0.9117230787
 40
0.9342834905
 40
0.9564274359
 40
0.9782861929
 40
1.0
 40
1.0
 40
1.0
 40
1.0
 10
15.7069414989
 20
41.8933416264
 30
0.0
 10
15.8365239647
 20
41.7367859393
 30
0.0
 10
16.0862655635
 20
41.4121864395
 30
0.0
 10
16.4280671292
 20
40.8992710767
 30
0.0
 10
16.7361016666
 20
40.3624226709
 30
0.0
 10
17.0062610784
 20
39.8088803525
 30
0.0
 10
17.2349420243
 20
39.2459663666
 30
0.0
 10
17.4191008637
 20
38.6811877445
 30
0.0
 10
17.5562852229
 20
38.1220375314
 30
0.0
 10
17.6446660008
 20
37.5759158281
 30
0.0
 10
17.6830440128
 20
37.0500154548
 30
0.0
 10
17.6708392202
 20
36.5512208825
 30
0.0
 10
17.6080726796
 20
36.0860351385
 30
0.0
 10
17.4952780985
 20
35.6604940374
 30
0.0
 10
17.3335998807
 20
35.2803029719
 30
0.0
 10
17.1570880648
 20
35.0021464183
 30
0.0
 10
16.9939292628
 20
34.8099074387
 30
0.0
 10
16.8624611362
 20
34.6818773379
 30
0.0
 10
16.7209132714
 20
34.5688117602
 30
0.0
 10
16.6200041534
 20
34.5035561169
 30
0.0
 10
16.5682449578
 20
34.4736730714
 30
0.0
  0
SPLINE
  5
2E4
100
AcDbEntity
  8
0
100
AcDbSpline
 62
7
  6
BYLAYER
 70
0
 71
3
 72
11
 73
7
 74
0
 42
0.0000001
 43
0.0000001
 44
0.0000000001
 40
0.0
 40
0.0
 40
0.0
 40
0.0
 40
0.2325800134
 40
0.4780150728
 40
0.7345715043
 40
1.0
 40
1.0
 40
1.0
 40
1.0
 10
18.2420541757
 20
46.5165647522
 30
0.0
 10
18.4241318908
 20
46.4114393324
 30
0.0
 10
18.786546282
 20
46.1744776229
 30
0.0
 10
19.3057138082
 20
45.7590927264
 30
0.0
 10
19.8083487834
 20
45.2798097002
 30
0.0
 10
20.122992341
 20
44.9274188554
 30
0.0
 10
20.2759842973
 20
44.7425808783
 30
0.0
  0
SPLINE
  5
2E5
100
AcDbEntity
  8
0
100
AcDbSpline
 62
7
  6
BYLAYER
 70
0
 71
3
 72
19
 73
15
 74
0
 42
0.0000001
 43
0.0000001
 44
0.0000000001
 40
0.0
 40
0.0
 40
0.0
 40
0.0
 40
0.0473819944
 40
0.0955392098
 40
0.1449939484
 40
0.196195859
 40
0.2495131681
 40
0.3052193849
 40
0.3635039112
 40
0.4244675606
 40
0.554404788
 40
0.6946182675
 40
0.843785428
 40
1.0
 40
1.0
 40
1.0
 40
1.0
 10
14.6358066263
 20
34.7455501848
 30
0.0
 10
14.5797514963
 20
34.7167566164
 30
0.0
 10
14.4625948589
 20
34.6663890965
 30
0.0
 10
14.2763650317
 20
34.6143446643
 30
0.0
 10
14.0799966463
 20
34.5857646007
 30
0.0
 10
13.8748213032
 20
34.5806944291
 30
0.0
 10
13.6621175432
 20
34.5991452672
 30
0.0
 10
13.4431881355
 20
34.6408623697
 30
0.0
 10
13.2193598993
 20
34.7055960484
 30
0.0
 10
12.9096398912
 20
34.8244689915
 30
0.0
 10
12.518574541
 20
35.0306090745
 30
0.0
 10
12.0623357099
 20
35.3536008472
 30
0.0
 10
11.6199095744
 20
35.7495977378
 30
0.0
 10
11.346068862
 20
36.0505922759
 30
0.0
 10
11.2135932141
 20
36.2106433751
 30
0.0
  0
SPLINE
  5
2E6
100
AcDbEntity
  8
0
100
AcDbSpline
 62
7
  6
BYLAYER
 70
0
 71
3
 72
13
 73
9
 74
0
 42
0.0000001
 43
0.0000001
 44
0.0000000001
 40
0.0
 40
0.0
 40
0.0
 40
0.0
 40
0.2825335684
 40
0.5417884261
 40
0.6632013216
 40
0.7795913101
 40
0.8915860822
 40
1.0
 40
1.0
 40
1.0
 40
1.0
 10
15.5549741569
 20
36.5554349984
 30
0.0
 10
15.5549800681
 20
36.3827714381
 30
0.0
 10
15.5339855577
 20
36.0511060362
 30
0.0
 10
15.4455364523
 20
35.6533507458
 30
0.0
 10
15.3379650772
 20
35.3687907972
 30
0.0
 10
15.2422208976
 20
35.1771963696
 30
0.0
 10
15.1302181758
 20
35.004004465
 30
0.0
 10
15.043883664
 20
34.9000893508
 30
0.0
 10
14.9983835825
 20
34.8519291252
 30
0.0
  0
SPLINE
  5
2E7
100
AcDbEntity
  8
0
100
AcDbSpline
 62
7
  6
BYLAYER
 70
0
 71
3
 72
11
 73
7
 74
0
 42
0.0000001
 43
0.0000001
 44
0.0000000001
 40
0.0
 40
0.0
 40
0.0
 40
0.0
 40
0.2524961383
 40
0.5014892261
 40
0.7497264035
 40
1.0
 40
1.0
 40
1.0
 40
1.0
 10
14.9983835825
 20
34.8519291252
 30
0.0
 10
14.9549053812
 20
34.805908988
 30
0.0
 10
14.8628488447
 20
34.7196807847
 30
0.0
 10
14.7098906912
 20
34.6095212751
 30
0.0
 10
14.5443735303
 20
34.5204848918
 30
0.0
 10
14.427157526
 20
34.4759283664
 30
0.0
 10
14.3672207196
 20
34.4573398191
 30
0.0
  0
SPLINE
  5
2E8
100
AcDbEntity
  8
0
100
AcDbSpline
 62
7
  6
BYLAYER
 70
0
 71
3
 72
17
 73
13
 74
0
 42
0.0000001
 43
0.0000001
 44
0.0000000001
 40
0.0
 40
0.0
 40
0.0
 40
0.0
 40
0.0474415263
 40
0.0961445635
 40
0.1464692135
 40
0.1987137437
 40
0.3096955039
 40
0.4302441247
 40
0.5604585322
 40
0.6996940568
 40
0.8467576349
 40
1.0
 40
1.0
 40
1.0
 40
1.0
 10
14.3672207196
 20
34.4573398191
 30
0.0
 10
14.3086223212
 20
34.43916636
 30
0.0
 10
14.1874987439
 20
34.4095853215
 30
0.0
 10
13.9991482354
 20
34.3862356264
 30
0.0
 10
13.8031669073
 20
34.3834254788
 30
0.0
 10
13.5276553734
 20
34.4075804339
 30
0.0
 10
13.1683959966
 20
34.4919833377
 30
0.0
 10
12.7341139606
 20
34.6700457293
 30
0.0
 10
12.2961398521
 20
34.9227995595
 30
0.0
 10
11.86313529
 20
35.2449646521
 30
0.0
 10
11.4437463223
 20
35.6299402949
 30
0.0
 10
11.1830373898
 20
35.9186193463
 30
0.0
 10
11.0566766693
 20
36.0712826661
 30
0.0
  0
SPLINE
  5
2E9
100
AcDbEntity
  8
0
100
AcDbSpline
 62
7
  6
BYLAYER
 70
0
 71
3
 72
15
 73
11
 74
0
 42
0.0000001
 43
0.0000001
 44
0.0000000001
 40
0.0
 40
0.0
 40
0.0
 40
0.0
 40
0.1293701092
 40
0.2605070034
 40
0.3918462069
 40
0.521833703
 40
0.6489540356
 40
0.7718041401
 40
0.8891501374
 40
1.0
 40
1.0
 40
1.0
 40
1.0
 10
20.2759842973
 20
44.7425808783
 30
0.0
 10
20.4438518794
 20
44.5397708415
 30
0.0
 10
20.7652210101
 20
44.1173090722
 30
0.0
 10
21.1974451628
 20
43.4463027622
 30
0.0
 10
21.5774531722
 20
42.7429173365
 30
0.0
 10
21.8984952054
 20
42.0196572957
 30
0.0
 10
22.1549053343
 20
41.2892710052
 30
0.0
 10
22.3421600151
 20
40.564591103
 30
0.0
 10
22.4569389393
 20
39.8584527667
 30
0.0
 10
22.4845976832
 20
39.3937979659
 30
0.0
 10
22.4845992725
 20
39.1682163708
 30
0.0
  0
SPLINE
  5
2EA
100
AcDbEntity
  8
0
100
AcDbSpline
 62
7
  6
BYLAYER
 70
0
 71
3
 72
22
 73
18
 74
0
 42
0.0000001
 43
0.0000001
 44
0.0000000001
 40
0.0
 40
0.0
 40
0.0
 40
0.0
 40
0.0503681556
 40
0.1003766637
 40
0.1506530322
 40
0.2018085484
 40
0.2544029145
 40
0.3089158224
 40
0.3657350834
 40
0.4251459437
 40
0.4873408037
 40
0.5524177223
 40
0.6203987099
 40
0.6912301979
 40
0.7648009619
 40
0.8409430112
 40
1.0
 40
1.0
 40
1.0
 40
1.0
 10
14.7355539315
 20
33.7264099885
 30
0.0
 10
14.8106502832
 20
33.7504024928
 30
0.0
 10
14.9573321997
 20
33.8082575648
 30
0.0
 10
15.1633606214
 20
33.9244219089
 30
0.0
 10
15.3524475335
 20
34.0685961979
 30
0.0
 10
15.5232849481
 20
34.2396857443
 30
0.0
 10
15.6747596237
 20
34.436498402
 30
0.0
 10
15.8060069701
 20
34.6576329762
 30
0.0
 10
15.9162282246
 20
34.9016451739
 30
0.0
 10
16.0048765137
 20
35.1669357714
 30
0.0
 10
16.071408796
 20
35.4518486938
 30
0.0
 10
16.1155261297
 20
35.7545931279
 30
0.0
 10
16.1369372685
 20
36.0732951496
 30
0.0
 10
16.1355836779
 20
36.4059687831
 30
0.0
 10
16.1114508575
 20
36.7505633602
 30
0.0
 10
16.0482383912
 20
37.2299128256
 30
0.0
 10
15.9683622306
 20
37.590271743
 30
0.0
 10
15.9023890102
 20
37.8303261642
 30
0.0
  0
SPLINE
  5
2EB
100
AcDbEntity
  8
0
100
AcDbSpline
 62
7
  6
BYLAYER
 70
0
 71
3
 72
9
 73
5
 74
0
 42
0.0000001
 43
0.0000001
 44
0.0000000001
 40
0.0
 40
0.0
 40
0.0
 40
0.0
 40
0.245843174
 40
1.0
 40
1.0
 40
1.0
 40
1.0
 10
15.9023890102
 20
37.8303261642
 30
0.0
 10
15.8811268744
 20
37.9076919448
 30
0.0
 10
15.7895354433
 20
38.22096961
 30
0.0
 10
15.678096497
 20
38.5283852196
 30
0.0
 10
15.5842087728
 20
38.7559040029
 30
0.0
  0
SPLINE
  5
2EC
100
AcDbEntity
  8
0
100
AcDbSpline
 62
7
  6
BYLAYER
 70
0
 71
3
 72
25
 73
21
 74
0
 42
0.0000001
 43
0.0000001
 44
0.0000000001
 40
0.0
 40
0.0
 40
0.0
 40
0.0
 40
0.0217138071
 40
0.0435725641
 40
0.0657165095
 40
0.0882769213
 40
0.1350626641
 40
0.1847430283
 40
0.2378160406
 40
0.2945262911
 40
0.3548970282
 40
0.4187678601
 40
0.4858300668
 40
0.5556572121
 40
0.6277311721
 40
0.701464955
 40
0.7762256584
 40
0.8513447474
 40
0.9261651408
 40
1.0
 40
1.0
 40
1.0
 40
1.0
 10
16.1086274636
 20
34.2083143714
 30
0.0
 10
16.1603866592
 20
34.2381974169
 30
0.0
 10
16.2612957772
 20
34.3034530602
 30
0.0
 10
16.402843642
 20
34.4165186379
 30
0.0
 10
16.5343117686
 20
34.5445487387
 30
0.0
 10
16.6974705706
 20
34.7367877183
 30
0.0
 10
16.8739823865
 20
35.0149442719
 30
0.0
 10
17.0356606043
 20
35.3951353374
 30
0.0
 10
17.1484551854
 20
35.8206764385
 30
0.0
 10
17.211221726
 20
36.2858621824
 30
0.0
 10
17.2234265186
 20
36.7846567548
 30
0.0
 10
17.1850485066
 20
37.3105571281
 30
0.0
 10
17.0966677287
 20
37.8566788314
 30
0.0
 10
16.9594833695
 20
38.4158290445
 30
0.0
 10
16.7753245301
 20
38.9806076666
 30
0.0
 10
16.5466435842
 20
39.5435216525
 30
0.0
 10
16.2764841724
 20
40.0970639709
 30
0.0
 10
15.968449635
 20
40.6339123767
 30
0.0
 10
15.6266480694
 20
41.1468277395
 30
0.0
 10
15.3769064705
 20
41.4714272393
 30
0.0
 10
15.2473240047
 20
41.6279829264
 30
0.0
  0
SPLINE
  5
2ED
100
AcDbEntity
  8
0
100
AcDbSpline
 62
7
  6
BYLAYER
 70
0
 71
3
 72
22
 73
18
 74
0
 42
0.0000001
 43
0.0000001
 44
0.0000000001
 40
0.0
 40
0.0
 40
0.0
 40
0.0
 40
0.1600170443
 40
0.2370669579
 40
0.311687175
 40
0.3836164228
 40
0.452633371
 40
0.5185951593
 40
0.5814376656
 40
0.6411907496
 40
0.6979927181
 40
0.7521020583
 40
0.8039097243
 40
0.8539335728
 40
0.9028077343
 40
0.9512473617
 40
1.0
 40
1.0
 40
1.0
 40
1.0
 10
14.250380235
 20
40.9778788634
 30
0.0
 10
14.0674472922
 20
41.1988901891
 30
0.0
 10
13.7788975595
 20
41.5125919679
 30
0.0
 10
13.3655127943
 20
41.8890058216
 30
0.0
 10
13.0526870411
 20
42.1401844348
 30
0.0
 10
12.7356827911
 20
42.3618139407
 30
0.0
 10
12.4168635387
 20
42.5521589794
 30
0.0
 10
12.0986861641
 20
42.709770615
 30
0.0
 10
11.7835334839
 20
42.8333858349
 30
0.0
 10
11.4737840564
 20
42.9220198254
 30
0.0
 10
11.171765776
 20
42.9749102925
 30
0.0
 10
10.8797671965
 20
42.991487601
 30
0.0
 10
10.6000570545
 20
42.9715001122
 30
0.0
 10
10.3349071931
 20
42.9148632651
 30
0.0
 10
10.0865564542
 20
42.8219058475
 30
0.0
 10
9.8572581778
 20
42.693359
 30
0.0
 10
9.7194415098
 20
42.5854439657
 30
0.0
 10
9.6547700911
 20
42.5266387309
 30
0.0
  0
SPLINE
  5
2EE
100
AcDbEntity
  8
0
100
AcDbSpline
 62
7
  6
BYLAYER
 70
0
 71
3
 72
15
 73
11
 74
0
 42
0.0000001
 43
0.0000001
 44
0.0000000001
 40
0.0
 40
0.0
 40
0.0
 40
0.0
 40
0.1293672771
 40
0.2605099173
 40
0.3918460899
 40
0.52183356
 40
0.6489544628
 40
0.7718007184
 40
0.8891544134
 40
1.0
 40
1.0
 40
1.0
 40
1.0
 10
11.0566766693
 20
36.0712826661
 30
0.0
 10
10.9363733702
 20
36.2166276829
 30
0.0
 10
10.7060577905
 20
36.5193996465
 30
0.0
 10
10.3962908275
 20
37.0002881401
 30
0.0
 10
10.1239565075
 20
37.5043924559
 30
0.0
 10
9.8938711938
 20
38.0227269157
 30
0.0
 10
9.7101191984
 20
38.5461721957
 30
0.0
 10
9.5759061299
 20
39.0655331225
 30
0.0
 10
9.4936590893
 20
39.571603915
 30
0.0
 10
9.4738326328
 20
39.904613348
 30
0.0
 10
9.4738326328
 20
40.06627504
 30
0.0
  0
SPLINE
  5
2EF
100
AcDbEntity
  8
0
100
AcDbSpline
 62
7
  6
BYLAYER
 70
0
 71
3
 72
11
 73
7
 74
0
 42
0.0000001
 43
0.0000001
 44
0.0000000001
 40
0.0
 40
0.0
 40
0.0
 40
0.0
 40
0.2654284957
 40
0.5219849272
 40
0.7674199866
 40
1.0
 40
1.0
 40
1.0
 40
1.0
 10
20.515247592
 20
44.6694018727
 30
0.0
 10
20.3788297643
 20
44.8342157356
 30
0.0
 10
20.0982725921
 20
45.1484309056
 30
0.0
 10
19.6500897392
 20
45.5757916039
 30
0.0
 10
19.1871653616
 20
45.94617647
 30
0.0
 10
18.8640125295
 20
46.1574673276
 30
0.0
 10
18.7016599002
 20
46.2512041603
 30
0.0
  0
SPLINE
  5
2F0
100
AcDbEntity
  8
0
100
AcDbSpline
 62
7
  6
BYLAYER
 70
0
 71
3
 72
25
 73
21
 74
0
 42
0.0000001
 43
0.0000001
 44
0.0000000001
 40
0.0
 40
0.0
 40
0.0
 40
0.0
 40
0.0738331974
 40
0.1486565019
 40
0.22377478
 40
0.2985358001
 40
0.3722699087
 40
0.4443437482
 40
0.5141710638
 40
0.5812336136
 40
0.6451047087
 40
0.7054751991
 40
0.7621851924
 40
0.8152584112
 40
0.8649391158
 40
0.9117248679
 40
0.9342854402
 40
0.9564297021
 40
0.9782879282
 40
1.0
 40
1.0
 40
1.0
 40
1.0
 10
11.2135932141
 20
36.2106433751
 30
0.0
 10
11.113078239
 20
36.3320810318
 30
0.0
 10
10.9193537384
 20
36.5838766752
 30
0.0
 10
10.6542145202
 20
36.9817444317
 30
0.0
 10
10.4152708906
 20
37.3981836656
 30
0.0
 10
10.2057063697
 20
37.8275657225
 30
0.0
 10
10.0283196627
 20
38.2642204871
 30
0.0
 10
9.8854706556
 20
38.7023215911
 30
0.0
 10
9.7790553708
 20
39.13605539
 30
0.0
 10
9.7104957564
 20
39.5596837351
 30
0.0
 10
9.6807247918
 20
39.967626016
 30
0.0
 10
9.6901985176
 20
40.3545408888
 30
0.0
 10
9.7388906671
 20
40.7153844949
 30
0.0
 10
9.8263839101
 20
41.0454779233
 30
0.0
 10
9.95179393
 20
41.3403954687
 30
0.0
 10
10.0887155813
 20
41.5561628023
 30
0.0
 10
10.2152854829
 20
41.7052784151
 30
0.0
 10
10.3172719367
 20
41.8045835203
 30
0.0
 10
10.4270554295
 20
41.8923014308
 30
0.0
 10
10.5053328632
 20
41.9429087648
 30
0.0
 10
10.5454793602
 20
41.9660871312
 30
0.0
  0
SPLINE
  5
2F1
100
AcDbEntity
  8
0
100
AcDbSpline
 62
7
  6
BYLAYER
 70
0
 71
3
 72
25
 73
21
 74
0
 42
0.0000001
 43
0.0000001
 44
0.0000000001
 40
0.0
 40
0.0
 40
0.0
 40
0.0
 40
0.0217138071
 40
0.0435725641
 40
0.0657165095
 40
0.0882769213
 40
0.1350626641
 40
0.1847430283
 40
0.2378160406
 40
0.2945262911
 40
0.3548970282
 40
0.4187678601
 40
0.4858300668
 40
0.5556572121
 40
0.6277311721
 40
0.701464955
 40
0.7762256584
 40
0.8513447474
 40
0.9261651408
 40
1.0
 40
1.0
 40
1.0
 40
1.0
 10
17.3528609969
 20
34.1761144189
 30
0.0
 10
17.410908693
 20
34.2096281149
 30
0.0
 10
17.5240777973
 20
34.2828120139
 30
0.0
 10
17.6828230662
 20
34.4096145309
 30
0.0
 10
17.8302639559
 20
34.5531996907
 30
0.0
 10
18.0132457899
 20
34.768794808
 30
0.0
 10
18.2112029666
 20
35.0807460831
 30
0.0
 10
18.3925243324
 20
35.5071285865
 30
0.0
 10
18.519022928
 20
35.9843709428
 30
0.0
 10
18.5894153099
 20
36.5060745809
 30
0.0
 10
18.6031029278
 20
37.065470363
 30
0.0
 10
18.5600621667
 20
37.6552651741
 30
0.0
 10
18.4609435372
 20
38.2677381124
 30
0.0
 10
18.3070919195
 20
38.8948224636
 30
0.0
 10
18.1005586417
 20
39.5282190491
 30
0.0
 10
17.8440940294
 20
40.1595244538
 30
0.0
 10
17.5411115115
 20
40.7803195773
 30
0.0
 10
17.1956522173
 20
41.3823925557
 30
0.0
 10
16.8123233586
 20
41.9576247384
 30
0.0
 10
16.5322393225
 20
42.3216615606
 30
0.0
 10
16.3869131927
 20
42.497238032
 30
0.0
  0
SPLINE
  5
2F2
100
AcDbEntity
  8
0
100
AcDbSpline
 62
7
  6
BYLAYER
 70
0
 71
3
 72
15
 73
11
 74
0
 42
0.0000001
 43
0.0000001
 44
0.0000000001
 40
0.0
 40
0.0
 40
0.0
 40
0.0
 40
0.1108498626
 40
0.2281958599
 40
0.3510459644
 40
0.478166297
 40
0.6081537931
 40
0.7394929966
 40
0.8706298908
 40
1.0
 40
1.0
 40
1.0
 40
1.0
 10
22.4845959449
 20
39.6989268535
 30
0.0
 10
22.4845945277
 20
39.9000704425
 30
0.0
 10
22.4599321478
 20
40.3143876399
 30
0.0
 10
22.357587607
 20
40.9440276564
 30
0.0
 10
22.1906188499
 20
41.5902005692
 30
0.0
 10
21.961986485
 20
42.2414616782
 30
0.0
 10
21.6757240054
 20
42.8863685479
 30
0.0
 10
21.3368835303
 20
43.5135538858
 30
0.0
 10
20.9514836609
 20
44.1118678456
 30
0.0
 10
20.6649295193
 20
44.4885629233
 30
0.0
 10
20.515247592
 20
44.6694018727
 30
0.0
  0
SPLINE
  5
2F3
100
AcDbEntity
  8
0
100
AcDbSpline
 62
7
  6
BYLAYER
 70
0
 71
3
 72
21
 73
17
 74
0
 42
0.0000001
 43
0.0000001
 44
0.0000000001
 40
0.0
 40
0.0
 40
0.0
 40
0.0
 40
0.0489847353
 40
0.0984662296
 40
0.1489459977
 40
0.2008609546
 40
0.2545890357
 40
0.3104393515
 40
0.3686395351
 40
0.4293374766
 40
0.4926017209
 40
0.5584327174
 40
0.6267652932
 40
0.6974771457
 40
0.8452495683
 40
1.0
 40
1.0
 40
1.0
 40
1.0
 10
58.9473472788
 20
74.6450170406
 30
0.0
 10
59.0626329374
 20
74.7115768493
 30
0.0
 10
59.3040188474
 20
74.8293838976
 30
0.0
 10
59.6897542289
 20
74.9558709775
 30
0.0
 10
60.0966198046
 20
75.0318226934
 30
0.0
 10
60.5211561063
 20
75.0572548215
 30
0.0
 10
60.9602417379
 20
75.0325834932
 30
0.0
 10
61.410952367
 20
74.9586237665
 30
0.0
 10
61.8705569796
 20
74.8364090314
 30
0.0
 10
62.3363663131
 20
74.6670745207
 30
0.0
 10
62.805738337
 20
74.4520145332
 30
0.0
 10
63.2759630127
 20
74.192718518
 30
0.0
 10
63.744342105
 20
73.8909448188
 30
0.0
 10
64.3717984345
 20
73.427769131
 30
0.0
 10
65.1321564709
 20
72.7530246394
 30
0.0
 10
65.6872493885
 20
72.144448787
 30
0.0
 10
65.9554004341
 20
71.8204807955
 30
0.0
  0
SPLINE
  5
2F4
100
AcDbEntity
  8
0
100
AcDbSpline
 62
7
  6
BYLAYER
 70
0
 71
3
 72
9
 73
5
 74
0
 42
0.0000001
 43
0.0000001
 44
0.0000000001
 40
0.0
 40
0.0
 40
0.0
 40
0.0
 40
0.486248423
 40
1.0
 40
1.0
 40
1.0
 40
1.0
 10
59.3904918748
 20
72.8104075866
 30
0.0
 10
59.6096721633
 20
72.7118581564
 30
0.0
 10
60.0494992872
 20
72.4843218332
 30
0.0
 10
60.4655554707
 20
72.2162353946
 30
0.0
 10
60.6730727485
 20
72.0699259258
 30
0.0
  0
SPLINE
  5
2F5
100
AcDbEntity
  8
0
100
AcDbSpline
 62
7
  6
BYLAYER
 70
0
 71
3
 72
26
 73
22
 74
0
 42
0.0000001
 43
0.0000001
 44
0.0000000001
 40
0.0
 40
0.0
 40
0.0
 40
0.0
 40
0.0731581961
 40
0.1472658335
 40
0.2216568105
 40
0.2956950245
 40
0.3687335564
 40
0.4401634897
 40
0.509425775
 40
0.5760354679
 40
0.6396056736
 40
0.6998738135
 40
0.7567308908
 40
0.8102519623
 40
0.8607205976
 40
0.884980472
 40
0.9086866255
 40
0.9319320097
 40
0.9548203841
 40
0.9774683488
 40
1.0
 40
1.0
 40
1.0
 40
1.0
 10
65.9554004341
 20
71.8204807955
 30
0.0
 10
66.1540056246
 20
71.5805349674
 30
0.0
 10
66.5366516206
 20
71.0830828478
 30
0.0
 10
67.0600896744
 20
70.2970129073
 30
0.0
 10
67.5314983115
 20
69.474312231
 30
0.0
 10
67.944668126
 20
68.625939893
 30
0.0
 10
68.2941362235
 20
67.7629520836
 30
0.0
 10
68.5752709087
 20
66.8966481529
 30
0.0
 10
68.7843119068
 20
66.0382461947
 30
0.0
 10
68.9183948611
 20
65.1987481974
 30
0.0
 10
68.9755200343
 20
64.3887549501
 30
0.0
 10
68.9544990121
 20
63.6183517945
 30
0.0
 10
68.8547999609
 20
62.8969843196
 30
0.0
 10
68.676582413
 20
62.2337391671
 30
0.0
 10
68.4600846452
 20
61.7298680103
 30
0.0
 10
68.2482332942
 20
61.3677535186
 30
0.0
 10
68.0729314526
 20
61.1198860274
 30
0.0
 10
67.8797398449
 20
60.8932956478
 30
0.0
 10
67.6692519035
 20
60.6890383676
 30
0.0
 10
67.4422653569
 20
60.5081454286
 30
0.0
 10
67.2803886291
 20
60.4035415378
 30
0.0
 10
67.1973103446
 20
60.3555765542
 30
0.0
  0
SPLINE
  5
2F6
100
AcDbEntity
  8
0
100
AcDbSpline
 62
7
  6
BYLAYER
 70
0
 71
3
 72
11
 73
7
 74
0
 42
0.0000001
 43
0.0000001
 44
0.0000000001
 40
0.0
 40
0.0
 40
0.0
 40
0.0
 40
0.2377564994
 40
0.4845290977
 40
0.7390851844
 40
1.0
 40
1.0
 40
1.0
 40
1.0
 10
63.7136192486
 20
73.8253757875
 30
0.0
 10
63.9058476342
 20
73.6898457087
 30
0.0
 10
64.2870040074
 20
73.3983721231
 30
0.0
 10
64.8357407111
 20
72.9143978592
 30
0.0
 10
65.3677741493
 20
72.3793401304
 30
0.0
 10
65.7045538708
 20
71.9959575279
 30
0.0
 10
65.8691321136
 20
71.7971215224
 30
0.0
  0
SPLINE
  5
2F7
100
AcDbEntity
  8
0
100
AcDbSpline
 62
7
  6
BYLAYER
 70
0
 71
3
 72
17
 73
13
 74
0
 42
0.0000001
 43
0.0000001
 44
0.0000000001
 40
0.0
 40
0.0
 40
0.0
 40
0.0
 40
0.03106998
 40
0.0651407571
 40
0.133495119
 40
0.2002302604
 40
0.2655100544
 40
0.3929530747
 40
0.5175427176
 40
0.6401354874
 40
0.7612205528
 40
1.0
 40
1.0
 40
1.0
 40
1.0
 10
62.4310383749
 20
74.5658574482
 30
0.0
 10
62.4340019531
 20
74.5675684607
 30
0.0
 10
62.4410328985
 20
74.5696687315
 30
0.0
 10
62.4557118378
 20
74.5707811687
 30
0.0
 10
62.4743674031
 20
74.5690790904
 30
0.0
 10
62.4960615867
 20
74.5650320217
 30
0.0
 10
62.5238215584
 20
74.5581859086
 30
0.0
 10
62.5572514651
 20
74.5479277268
 30
0.0
 10
62.5961449722
 20
74.534130527
 30
0.0
 10
62.6339517607
 20
74.5194260396
 30
0.0
 10
62.6830327284
 20
74.4990549901
 30
0.0
 10
62.7192332416
 20
74.4828959136
 30
0.0
 10
62.7431146111
 20
74.4718812203
 30
0.0
  0
SPLINE
  5
2F8
100
AcDbEntity
  8
0
100
AcDbSpline
 62
7
  6
BYLAYER
 70
0
 71
3
 72
30
 73
26
 74
0
 42
0.0000001
 43
0.0000001
 44
0.0000000001
 40
0.0
 40
0.0
 40
0.0
 40
0.0
 40
0.1343923069
 40
0.2662906504
 40
0.3963172988
 40
0.524634404
 40
0.5881086841
 40
0.6510525425
 40
0.7133645245
 40
0.7748803598
 40
0.8052602292
 40
0.8353213481
 40
0.8649875433
 40
0.8941429608
 40
0.9084751087
 40
0.9225986557
 40
0.936463407
 40
0.9499951355
 40
0.9630781429
 40
0.9694005848
 40
0.9755374251
 40
0.9814614629
 40
0.987193565
 40
0.9930164778
 40
1.0
 40
1.0
 40
1.0
 40
1.0
 10
62.7431146111
 20
74.4718812203
 30
0.0
 10
62.7916050576
 20
74.4495161966
 30
0.0
 10
62.8865974191
 20
74.4028352578
 30
0.0
 10
63.0257283933
 20
74.3290469043
 30
0.0
 10
63.1609419119
 20
74.2531202204
 30
0.0
 10
63.2710355306
 20
74.1880531166
 30
0.0
 10
63.3571890743
 20
74.1349217132
 30
0.0
 10
63.4204463523
 20
74.0946409475
 30
0.0
 10
63.4823495299
 20
74.0537016392
 30
0.0
 10
63.5327111302
 20
74.0187866327
 30
0.0
 10
63.5718975633
 20
73.9902761688
 30
0.0
 10
63.6004543446
 20
73.9686757037
 30
0.0
 10
63.6281165812
 20
73.9467137188
 30
0.0
 10
63.6503181612
 20
73.9279406266
 30
0.0
 10
63.6672952327
 20
73.9125818008
 30
0.0
 10
63.6794467937
 20
73.9009545737
 30
0.0
 10
63.6909526921
 20
73.8891240788
 30
0.0
 10
63.7015907467
 20
73.8770516793
 30
0.0
 10
63.7095377502
 20
73.8666247143
 30
0.0
 10
63.7149320986
 20
73.8580185619
 30
0.0
 10
63.7182785558
 20
73.8515114826
 30
0.0
 10
63.7207022865
 20
73.8448419345
 30
0.0
 10
63.7217500913
 20
73.8379009017
 30
0.0
 10
63.7200485016
 20
73.8304211307
 30
0.0
 10
63.7160223352
 20
73.8267632019
 30
0.0
 10
63.7136192486
 20
73.8253757875
 30
0.0
  0
SPLINE
  5
2F9
100
AcDbEntity
  8
0
100
AcDbSpline
 62
7
  6
BYLAYER
 70
0
 71
3
 72
15
 73
11
 74
0
 42
0.0000001
 43
0.0000001
 44
0.0000000001
 40
0.0
 40
0.0
 40
0.0
 40
0.0
 40
0.1112955833
 40
0.2241503153
 40
0.3400192117
 40
0.4601674152
 40
0.585606486
 40
0.7170967035
 40
0.855170273
 40
1.0
 40
1.0
 40
1.0
 40
1.0
 10
58.9473475689
 20
74.6450165382
 30
0.0
 10
59.0635761112
 20
74.7121239279
 30
0.0
 10
59.3079873228
 20
74.8302035655
 30
0.0
 10
59.7003304412
 20
74.9537736547
 30
0.0
 10
60.1165123875
 20
75.023582153
 30
0.0
 10
60.5532402
 20
75.0392796281
 30
0.0
 10
61.0073440209
 20
75.0010673528
 30
0.0
 10
61.4756505009
 20
74.9093693346
 30
0.0
 10
61.9548027099
 20
74.7650017776
 30
0.0
 10
62.2717498436
 20
74.6374779123
 30
0.0
 10
62.4310383749
 20
74.5658574482
 30
0.0
  0
SPLINE
  5
2FA
100
AcDbEntity
  8
0
100
AcDbSpline
 62
7
  6
BYLAYER
 70
0
 71
3
 72
26
 73
22
 74
0
 42
0.0000001
 43
0.0000001
 44
0.0000000001
 40
0.0
 40
0.0
 40
0.0
 40
0.0
 40
0.0738984525
 40
0.1487570872
 40
0.2238975617
 40
0.2986626059
 40
0.3723871746
 40
0.4444416187
 40
0.514242091
 40
0.5812737942
 40
0.6451135313
 40
0.7054557222
 40
0.7621428117
 40
0.8152000526
 40
0.8648730113
 40
0.8886065873
 40
0.911703277
 40
0.9342669787
 40
0.9564155081
 40
0.9782800156
 40
1.0
 40
1.0
 40
1.0
 40
1.0
 10
65.8877279834
 20
71.7746039339
 30
0.0
 10
66.0867378062
 20
71.5330788401
 30
0.0
 10
66.4702066954
 20
71.0325144324
 30
0.0
 10
66.9948736252
 20
70.2419100593
 30
0.0
 10
67.4674887984
 20
69.414853949
 30
0.0
 10
67.8817740424
 20
68.5624323833
 30
0.0
 10
68.2322258564
 20
67.695887281
 30
0.0
 10
68.5142014449
 20
66.8267279875
 30
0.0
 10
68.7239542225
 20
65.9664387504
 30
0.0
 10
68.8586993838
 20
65.1263630907
 30
0.0
 10
68.9166122043
 20
64.3175182274
 30
0.0
 10
68.8968302292
 20
63.5504644827
 30
0.0
 10
68.7993645247
 20
62.835115708
 30
0.0
 10
68.6251690555
 20
62.1808776075
 30
0.0
 10
68.4140514776
 20
61.6861413222
 30
0.0
 10
68.2082161463
 20
61.3325813177
 30
0.0
 10
68.0387803731
 20
61.0919854096
 30
0.0
 10
67.8525805542
 20
60.8728325138
 30
0.0
 10
67.6501599857
 20
60.6759312033
 30
0.0
 10
67.4322845619
 20
60.5019707452
 30
0.0
 10
67.2769692125
 20
60.4015672508
 30
0.0
 10
67.197308532
 20
60.3555796937
 30
0.0
  0
SPLINE
  5
2FB
100
AcDbEntity
  8
0
100
AcDbSpline
 62
7
  6
BYLAYER
 70
0
 71
3
 72
11
 73
7
 74
0
 42
0.0000001
 43
0.0000001
 44
0.0000000001
 40
0.0
 40
0.0
 40
0.0
 40
0.0
 40
0.243891102
 40
0.4915600725
 40
0.7434918934
 40
1.0
 40
1.0
 40
1.0
 40
1.0
 10
62.9081526436
 20
62.8562939904
 30
0.0
 10
62.9561731729
 20
62.4457679865
 30
0.0
 10
63.043020478
 20
61.617149601
 30
0.0
 10
63.1401453555
 20
60.3607228408
 30
0.0
 10
63.2004522495
 20
59.0805581708
 30
0.0
 10
63.2138202368
 20
58.2188337709
 30
0.0
 10
63.2138202368
 20
57.7841265712
 30
0.0
  0
SPLINE
  5
2FC
100
AcDbEntity
  8
0
100
AcDbSpline
 62
7
  6
BYLAYER
 70
0
 71
3
 72
10
 73
6
 74
0
 42
0.0000001
 43
0.0000001
 44
0.0000000001
 40
0.0
 40
0.0
 40
0.0
 40
0.0
 40
0.2518572546
 40
0.5024568776
 40
1.0
 40
1.0
 40
1.0
 40
1.0
 10
58.9711613152
 20
68.7189127817
 30
0.0
 10
59.3096185008
 20
68.2978710702
 30
0.0
 10
59.9719802094
 20
67.4474465072
 30
0.0
 10
61.2385412084
 20
65.7161148906
 30
0.0
 10
62.1315555745
 20
64.3818081538
 30
0.0
 10
62.706331992
 20
63.4826299344
 30
0.0
  0
SPLINE
  5
2FD
100
AcDbEntity
  8
0
100
AcDbSpline
 62
7
  6
BYLAYER
 70
0
 71
3
 72
10
 73
6
 74
0
 42
0.0000001
 43
0.0000001
 44
0.0000000001
 40
0.0
 40
0.0
 40
0.0
 40
0.0
 40
0.2442468591
 40
0.4926262507
 40
1.0
 40
1.0
 40
1.0
 40
1.0
 10
63.2138202368
 20
57.7841265712
 30
0.0
 10
63.2138202335
 20
57.3415657445
 30
0.0
 10
63.19973282
 20
56.4488975061
 30
0.0
 10
63.1179801328
 20
54.6386132579
 30
0.0
 10
63.0023941744
 20
53.2734950372
 30
0.0
 10
62.9081526436
 20
52.3590070397
 30
0.0
  0
SPLINE
  5
2FE
100
AcDbEntity
  8
0
100
AcDbSpline
 62
7
  6
BYLAYER
 70
0
 71
3
 72
9
 73
5
 74
0
 42
0.0000001
 43
0.0000001
 44
0.0000000001
 40
0.0
 40
0.0
 40
0.0
 40
0.0
 40
0.488765291
 40
1.0
 40
1.0
 40
1.0
 40
1.0
 10
58.0420476334
 20
50.6438288278
 30
0.0
 10
58.5633108625
 20
50.7021369566
 30
0.0
 10
59.6282393451
 20
50.8355608092
 30
0.0
 10
60.6902423509
 20
50.9901319359
 30
0.0
 10
61.232571962
 20
51.0730191704
 30
0.0
  0
SPLINE
  5
2FF
100
AcDbEntity
  8
0
100
AcDbSpline
 62
7
  6
BYLAYER
 70
0
 71
3
 72
10
 73
6
 74
0
 42
0.0000001
 43
0.0000001
 44
0.0000000001
 40
0.0
 40
0.0
 40
0.0
 40
0.0
 40
0.5016857911
 40
0.7513585162
 40
1.0
 40
1.0
 40
1.0
 40
1.0
 10
54.588440281
 20
73.5813348287
 30
0.0
 10
55.3601143565
 20
72.8042603405
 30
0.0
 10
56.4934934992
 20
71.6175911098
 30
0.0
 10
57.936452928
 20
69.9792980416
 30
0.0
 10
58.6311072803
 20
69.1419436084
 30
0.0
 10
58.9711613152
 20
68.7189127817
 30
0.0
  0
SPLINE
  5
300
100
AcDbEntity
  8
0
100
AcDbSpline
 62
7
  6
BYLAYER
 70
0
 71
3
 72
9
 73
5
 74
0
 42
0.0000001
 43
0.0000001
 44
0.0000000001
 40
0.0
 40
0.0
 40
0.0
 40
0.0
 40
0.5215745171
 40
1.0
 40
1.0
 40
1.0
 40
1.0
 10
50.4858445465
 20
73.6178019546
 30
0.0
 10
51.1154579176
 20
73.6740462564
 30
0.0
 10
52.3248995784
 20
73.7583135863
 30
0.0
 10
53.5368321286
 20
73.7895937911
 30
0.0
 10
54.1166484978
 20
73.792976793
 30
0.0
  0
SPLINE
  5
301
100
AcDbEntity
  8
0
100
AcDbSpline
 62
7
  6
BYLAYER
 70
0
 71
3
 72
9
 73
5
 74
0
 42
0.0000001
 43
0.0000001
 44
0.0000000001
 40
0.0
 40
0.0
 40
0.0
 40
0.0
 40
0.5170222739
 40
1.0
 40
1.0
 40
1.0
 40
1.0
 10
46.2437067819
 20
73.089675508
 30
0.0
 10
46.9722125229
 20
73.2000739093
 30
0.0
 10
48.3834128748
 20
73.3998539292
 30
0.0
 10
49.8002692511
 20
73.5565585513
 30
0.0
 10
50.4858445465
 20
73.6178019546
 30
0.0
  0
SPLINE
  5
302
100
AcDbEntity
  8
0
100
AcDbSpline
 62
7
  6
BYLAYER
 70
0
 71
3
 72
9
 73
5
 74
0
 42
0.0000001
 43
0.0000001
 44
0.0000000001
 40
0.0
 40
0.0
 40
0.0
 40
0.0
 40
0.4948395905
 40
1.0
 40
1.0
 40
1.0
 40
1.0
 10
47.8101378714
 20
71.094422589
 30
0.0
 10
47.9401164676
 20
71.1404475396
 30
0.0
 10
48.2081439888
 20
71.2188996976
 30
0.0
 10
48.4829454781
 20
71.2683239555
 30
0.0
 10
48.6225614344
 20
71.2862538246
 30
0.0
  0
SPLINE
  5
303
100
AcDbEntity
  8
0
100
AcDbSpline
 62
7
  6
BYLAYER
 70
0
 71
3
 72
25
 73
21
 74
0
 42
0.0000001
 43
0.0000001
 44
0.0000000001
 40
0.0
 40
0.0
 40
0.0
 40
0.0
 40
0.0220114265
 40
0.044737398
 40
0.0682806086
 40
0.0927185121
 40
0.1444450052
 40
0.2001497054
 40
0.259734973
 40
0.3228744129
 40
0.3890644984
 40
0.4576683486
 40
0.5279533727
 40
0.5991244088
 40
0.6703547039
 40
0.7408149421
 40
0.8097042818
 40
0.8762778423
 40
0.9398867515
 40
1.0
 40
1.0
 40
1.0
 40
1.0
 10
48.6225614344
 20
71.2862538246
 30
0.0
 10
48.7685266148
 20
71.3049990788
 30
0.0
 10
49.0673824508
 20
71.3275449582
 30
0.0
 10
49.5244140816
 20
71.3174279337
 30
0.0
 10
49.9947462931
 20
71.2639483803
 30
0.0
 10
50.6490363612
 20
71.1328736031
 30
0.0
 10
51.4900130385
 20
70.8567855899
 30
0.0
 10
52.4973779491
 20
70.3687483955
 30
0.0
 10
53.5055521991
 20
69.7265647175
 30
0.0
 10
54.4974459942
 20
68.9414601328
 30
0.0
 10
55.4563163373
 20
68.0269354718
 30
0.0
 10
56.3657250564
 20
66.9987486577
 30
0.0
 10
57.210011616
 20
65.8746450675
 30
0.0
 10
57.9745830145
 20
64.6740648562
 30
0.0
 10
58.6461988485
 20
63.4177935108
 30
0.0
 10
59.2132408692
 20
62.1275773378
 30
0.0
 10
59.6658758569
 20
60.8257480441
 30
0.0
 10
59.9963143918
 20
59.5346829628
 30
0.0
 10
60.1987648089
 20
58.2768049719
 30
0.0
 10
60.2475126012
 20
57.4491469096
 30
0.0
 10
60.2475126012
 20
57.0472419675
 30
0.0
  0
SPLINE
  5
304
100
AcDbEntity
  8
0
100
AcDbSpline
 62
7
  6
BYLAYER
 70
0
 71
3
 72
15
 73
11
 74
0
 42
0.0000001
 43
0.0000001
 44
0.0000000001
 40
0.0
 40
0.0
 40
0.0
 40
0.0
 40
0.1108410465
 40
0.2280578197
 40
0.3507094003
 40
0.4776259689
 40
0.6074737799
 40
0.7388131745
 40
0.8701524765
 40
1.0
 40
1.0
 40
1.0
 40
1.0
 10
61.0925087227
 20
56.5593942658
 30
0.0
 10
61.0925087227
 20
57.0003287643
 30
0.0
 10
61.0396942715
 20
57.9080759014
 30
0.0
 10
60.8200982789
 20
59.2877813418
 30
0.0
 10
60.4615750945
 20
60.7040642465
 30
0.0
 10
59.9702053973
 20
62.1329122299
 30
0.0
 10
59.3542958004
 20
63.5503171208
 30
0.0
 10
58.6242343628
 20
64.9323430452
 30
0.0
 10
57.7924491382
 20
66.255519688
 30
0.0
 10
57.1734782632
 20
67.0915861029
 30
0.0
 10
56.8498503993
 20
67.4941807846
 30
0.0
  0
SPLINE
  5
305
100
AcDbEntity
  8
0
100
AcDbSpline
 62
7
  6
BYLAYER
 70
0
 71
3
 72
17
 73
13
 74
0
 42
0.0000001
 43
0.0000001
 44
0.0000000001
 40
0.0
 40
0.0
 40
0.0
 40
0.0
 40
0.0547196718
 40
0.1092905516
 40
0.1640333789
 40
0.2192590179
 40
0.3322254391
 40
0.4504194263
 40
0.5754669589
 40
0.7084399771
 40
0.8499273122
 40
1.0
 40
1.0
 40
1.0
 40
1.0
 10
58.1127989567
 20
50.8241224055
 30
0.0
 10
58.2286909494
 20
50.8713241114
 30
0.0
 10
58.4559585782
 20
50.9763447718
 30
0.0
 10
58.7806994886
 20
51.1651552685
 30
0.0
 10
59.0873334827
 20
51.3842179782
 30
0.0
 10
59.4735259004
 20
51.7179845871
 30
0.0
 10
59.9083048913
 20
52.2127152888
 30
0.0
 10
60.337622228
 20
52.9089448523
 30
0.0
 10
60.674950322
 20
53.7035806617
 30
0.0
 10
60.9172056273
 20
54.5869862766
 30
0.0
 10
61.0622479385
 20
55.5488731652
 30
0.0
 10
61.0925087131
 20
56.2162003615
 30
0.0
 10
61.0925087227
 20
56.5593942658
 30
0.0
  0
SPLINE
  5
306
100
AcDbEntity
  8
0
100
AcDbSpline
 62
7
  6
BYLAYER
 70
0
 71
3
 72
15
 73
11
 74
0
 42
0.0000001
 43
0.0000001
 44
0.0000000001
 40
0.0
 40
0.0
 40
0.0
 40
0.0
 40
0.1289736278
 40
0.2552347871
 40
0.3794646244
 40
0.5024842551
 40
0.6251806657
 40
0.7484374005
 40
0.8731075244
 40
1.0
 40
1.0
 40
1.0
 40
1.0
 10
48.3645336701
 20
72.393069873
 30
0.0
 10
48.2196524195
 20
72.3801274874
 30
0.0
 10
47.9338991297
 20
72.3414873175
 30
0.0
 10
47.5166070935
 20
72.243578229
 30
0.0
 10
47.117474275
 20
72.1066031509
 30
0.0
 10
46.7381243195
 20
71.9311150444
 30
0.0
 10
46.3799912417
 20
71.7177330165
 30
0.0
 10
46.044392275
 20
71.4672970605
 30
0.0
 10
45.7326291796
 20
71.1807980406
 30
0.0
 10
45.5434189621
 20
70.9686847902
 30
0.0
 10
45.453269773
 20
70.8575367347
 30
0.0
  0
SPLINE
  5
307
100
AcDbEntity
  8
0
100
AcDbSpline
 62
7
  6
BYLAYER
 70
0
 71
3
 72
15
 73
11
 74
0
 42
0.0000001
 43
0.0000001
 44
0.0000000001
 40
0.0
 40
0.0
 40
0.0
 40
0.0
 40
0.1491363323
 40
0.2932607276
 40
0.4309986235
 40
0.5612444634
 40
0.6832502652
 40
0.7967301516
 40
0.9019803556
 40
1.0
 40
1.0
 40
1.0
 40
1.0
 10
56.8498503993
 20
67.4941807846
 30
0.0
 10
56.5335290332
 20
67.8876865946
 30
0.0
 10
55.8810687174
 20
68.6376674119
 30
0.0
 10
54.8338757753
 20
69.6562039058
 30
0.0
 10
53.7486711305
 20
70.5363108457
 30
0.0
 10
52.643518148
 20
71.2630908879
 30
0.0
 10
51.536542113
 20
71.8242698141
 30
0.0
 10
50.445386709
 20
72.2100021646
 30
0.0
 10
49.3879933733
 20
72.4128699257
 30
0.0
 10
48.6950506076
 20
72.4225955773
 30
0.0
 10
48.3645336701
 20
72.393069873
 30
0.0
  0
SPLINE
  5
308
100
AcDbEntity
  8
0
100
AcDbSpline
 62
7
  6
BYLAYER
 70
0
 71
3
 72
10
 73
6
 74
0
 42
0.0000001
 43
0.0000001
 44
0.0000000001
 40
0.0
 40
0.0
 40
0.0
 40
0.0
 40
0.2723292994
 40
0.5297736699
 40
1.0
 40
1.0
 40
1.0
 40
1.0
 10
60.2475126012
 20
57.0472419675
 30
0.0
 10
60.2475126012
 20
56.7504072713
 30
0.0
 10
60.2222432268
 20
56.1722656566
 30
0.0
 10
60.0668118501
 20
55.0928478747
 30
0.0
 10
59.8245902699
 20
54.3259193627
 30
0.0
 10
59.5994079352
 20
53.8654961546
 30
0.0
  0
SPLINE
  5
309
100
AcDbEntity
  8
0
100
AcDbSpline
 62
7
  6
BYLAYER
 70
0
 71
3
 72
10
 73
6
 74
0
 42
0.0000001
 43
0.0000001
 44
0.0000000001
 40
0.0
 40
0.0
 40
0.0
 40
0.0
 40
0.5131960811
 40
0.7591559101
 40
1.0
 40
1.0
 40
1.0
 40
1.0
 10
59.5994079352
 20
53.8654961546
 30
0.0
 10
59.4675644538
 20
53.5959199519
 30
0.0
 10
59.2361263756
 20
53.2126530127
 30
0.0
 10
58.8582559211
 20
52.7653384088
 30
0.0
 10
58.6514636039
 20
52.5686554456
 30
0.0
 10
58.5440625012
 20
52.477557037
 30
0.0
  0
SPLINE
  5
30A
100
AcDbEntity
  8
0
100
AcDbSpline
 62
7
  6
BYLAYER
 70
0
 71
3
 72
10
 73
6
 74
0
 42
0.0000001
 43
0.0000001
 44
0.0000000001
 40
0.0
 40
0.0
 40
0.0
 40
0.0
 40
0.2442468944
 40
0.4926263264
 40
1.0
 40
1.0
 40
1.0
 40
1.0
 10
61.0925087203
 20
56.5593941068
 30
0.0
 10
61.0925087203
 20
57.00195502
 30
0.0
 10
61.1065965587
 20
57.8946234399
 30
0.0
 10
61.1883498473
 20
59.7049077383
 30
0.0
 10
61.3039347908
 20
61.0700260453
 30
0.0
 10
61.3981763125
 20
61.984513953
 30
0.0
  0
SPLINE
  5
30B
100
AcDbEntity
  8
0
100
AcDbSpline
 62
7
  6
BYLAYER
 70
0
 71
3
 72
10
 73
6
 74
0
 42
0.0000001
 43
0.0000001
 44
0.0000000001
 40
0.0
 40
0.0
 40
0.0
 40
0.0
 40
0.5016857909
 40
0.7513585161
 40
1.0
 40
1.0
 40
1.0
 40
1.0
 10
61.2325719621
 20
62.6317592634
 30
0.0
 10
60.4608979086
 20
63.4088337267
 30
0.0
 10
59.3275190158
 20
64.5955030969
 30
0.0
 10
57.8845590866
 20
66.233795678
 30
0.0
 10
57.1899058221
 20
67.0711509441
 30
0.0
 10
56.8498510619
 20
67.4941811672
 30
0.0
  0
SPLINE
  5
30C
100
AcDbEntity
  8
0
100
AcDbSpline
 62
7
  6
BYLAYER
 70
0
 71
3
 72
10
 73
6
 74
0
 42
0.0000001
 43
0.0000001
 44
0.0000000001
 40
0.0
 40
0.0
 40
0.0
 40
0.0
 40
0.2518572498
 40
0.5024569055
 40
1.0
 40
1.0
 40
1.0
 40
1.0
 10
56.8498510619
 20
67.4941811672
 30
0.0
 10
56.5113943325
 20
67.9152232547
 30
0.0
 10
55.8490324266
 20
68.7656477542
 30
0.0
 10
54.5824700106
 20
70.4969784458
 30
0.0
 10
53.6894566537
 20
71.8312859583
 30
0.0
 10
53.1146802513
 20
72.7304641578
 30
0.0
  0
SPLINE
  5
30D
100
AcDbEntity
  8
0
100
AcDbSpline
 62
7
  6
BYLAYER
 70
0
 71
3
 72
9
 73
5
 74
0
 42
0.0000001
 43
0.0000001
 44
0.0000000001
 40
0.0
 40
0.0
 40
0.0
 40
0.0
 40
0.5170222735
 40
1.0
 40
1.0
 40
1.0
 40
1.0
 10
52.6066720705
 20
72.9211967001
 30
0.0
 10
51.8781663397
 20
72.8107982973
 30
0.0
 10
50.4669660051
 20
72.6110182842
 30
0.0
 10
49.0501096473
 20
72.4543136613
 30
0.0
 10
48.3645343602
 20
72.3930702581
 30
0.0
  0
SPLINE
  5
30E
100
AcDbEntity
  8
0
100
AcDbSpline
 62
7
  6
BYLAYER
 70
0
 71
3
 72
9
 73
5
 74
0
 42
0.0000001
 43
0.0000001
 44
0.0000000001
 40
0.0
 40
0.0
 40
0.0
 40
0.0
 40
0.5215745175
 40
1.0
 40
1.0
 40
1.0
 40
1.0
 10
48.3645343602
 20
72.3930702581
 30
0.0
 10
47.734920979
 20
72.3368259546
 30
0.0
 10
46.5254792998
 20
72.2525586244
 30
0.0
 10
45.313546731
 20
72.2212784119
 30
0.0
 10
44.7337303533
 20
72.2178954144
 30
0.0
  0
SPLINE
  5
30F
100
AcDbEntity
  8
0
100
AcDbSpline
 62
7
  6
BYLAYER
 70
0
 71
3
 72
9
 73
5
 74
0
 42
0.0000001
 43
0.0000001
 44
0.0000000001
 40
0.0
 40
0.0
 40
0.0
 40
0.0
 40
0.2474418816
 40
1.0
 40
1.0
 40
1.0
 40
1.0
 10
58.2611512044
 20
53.0297817314
 30
0.0
 10
58.2973886441
 20
53.0617611343
 30
0.0
 10
58.4411814503
 20
53.1939876128
 30
0.0
 10
58.574152017
 20
53.3379177135
 30
0.0
 10
58.6675554969
 20
53.4514159767
 30
0.0
  0
SPLINE
  5
310
100
AcDbEntity
  8
0
100
AcDbSpline
 62
7
  6
BYLAYER
 70
0
 71
3
 72
11
 73
7
 74
0
 42
0.0000001
 43
0.0000001
 44
0.0000000001
 40
0.0
 40
0.0
 40
0.0
 40
0.0
 40
0.2438910728
 40
0.4915610339
 40
0.7434919019
 40
1.0
 40
1.0
 40
1.0
 40
1.0
 10
61.3981763125
 20
51.4872270023
 30
0.0
 10
61.3501557941
 20
51.897752912
 30
0.0
 10
61.2633036039
 20
52.726372478
 30
0.0
 10
61.166198601
 20
53.9828005273
 30
0.0
 10
61.1058721076
 20
55.2629640521
 30
0.0
 10
61.0925087235
 20
56.1246869693
 30
0.0
 10
61.0925087203
 20
56.5593941068
 30
0.0
  0
SPLINE
  5
311
100
AcDbEntity
  8
0
100
AcDbSpline
 62
7
  6
BYLAYER
 70
0
 71
3
 72
10
 73
6
 74
0
 42
0.0000001
 43
0.0000001
 44
0.0000000001
 40
0.0
 40
0.0
 40
0.0
 40
0.0
 40
0.5065063677
 40
0.7550831462
 40
1.0
 40
1.0
 40
1.0
 40
1.0
 10
39.4959242052
 20
69.0983381546
 30
0.0
 10
39.407222084
 20
68.2565174892
 30
0.0
 10
39.2954617647
 20
66.9991182622
 30
0.0
 10
39.2052044501
 20
65.3302089072
 30
0.0
 10
39.1820353156
 20
64.5056757968
 30
0.0
 10
39.1763302911
 20
64.0964068525
 30
0.0
  0
SPLINE
  5
312
100
AcDbEntity
  8
0
100
AcDbSpline
 62
7
  6
BYLAYER
 70
0
 71
3
 72
9
 73
5
 74
0
 42
0.0000001
 43
0.0000001
 44
0.0000000001
 40
0.0
 40
0.0
 40
0.0
 40
0.0
 40
0.4778397149
 40
1.0
 40
1.0
 40
1.0
 40
1.0
 10
48.164953391
 20
47.4901270703
 30
0.0
 10
48.7606860953
 20
47.4922035586
 30
0.0
 10
50.0074808244
 20
47.5219261566
 30
0.0
 10
51.2517141661
 20
47.6078646127
 30
0.0
 10
51.9001241465
 20
47.6657880701
 30
0.0
  0
SPLINE
  5
313
100
AcDbEntity
  8
0
100
AcDbSpline
 62
7
  6
BYLAYER
 70
0
 71
3
 72
9
 73
5
 74
0
 42
0.0000001
 43
0.0000001
 44
0.0000000001
 40
0.0
 40
0.0
 40
0.0
 40
0.0
 40
0.5170222739
 40
1.0
 40
1.0
 40
1.0
 40
1.0
 10
41.2939799214
 20
70.2319664309
 30
0.0
 10
42.022485662
 20
70.3423648352
 30
0.0
 10
43.4336860146
 20
70.5421448506
 30
0.0
 10
44.8505423907
 20
70.6988494742
 30
0.0
 10
45.5361176861
 20
70.7600928775
 30
0.0
  0
SPLINE
  5
314
100
AcDbEntity
  8
0
100
AcDbSpline
 62
7
  6
BYLAYER
 70
0
 71
3
 72
9
 73
5
 74
0
 42
0.0000001
 43
0.0000001
 44
0.0000000001
 40
0.0
 40
0.0
 40
0.0
 40
0.0
 40
0.5215745171
 40
1.0
 40
1.0
 40
1.0
 40
1.0
 10
45.5361176861
 20
70.7600928775
 30
0.0
 10
46.1657310572
 20
70.8163371793
 30
0.0
 10
47.375172718
 20
70.9006045068
 30
0.0
 10
48.5871052681
 20
70.9318847184
 30
0.0
 10
49.1669216373
 20
70.9352677159
 30
0.0
  0
SPLINE
  5
315
100
AcDbEntity
  8
0
100
AcDbSpline
 62
7
  6
BYLAYER
 70
0
 71
3
 72
10
 73
6
 74
0
 42
0.0000001
 43
0.0000001
 44
0.0000000001
 40
0.0
 40
0.0
 40
0.0
 40
0.0
 40
0.501685791
 40
0.7513585161
 40
1.0
 40
1.0
 40
1.0
 40
1.0
 10
49.6387134329
 20
70.7236257587
 30
0.0
 10
50.4103874967
 20
69.946551285
 30
0.0
 10
51.5437664043
 20
68.7598818985
 30
0.0
 10
52.9867263513
 20
67.1215892941
 30
0.0
 10
53.6813796238
 20
66.2842340159
 30
0.0
 10
54.0214343878
 20
65.8612037866
 30
0.0
  0
SPLINE
  5
316
100
AcDbEntity
  8
0
100
AcDbSpline
 62
7
  6
BYLAYER
 70
0
 71
3
 72
10
 73
6
 74
0
 42
0.0000001
 43
0.0000001
 44
0.0000000001
 40
0.0
 40
0.0
 40
0.0
 40
0.0
 40
0.2518572497
 40
0.5024569054
 40
1.0
 40
1.0
 40
1.0
 40
1.0
 10
54.0214343878
 20
65.8612037866
 30
0.0
 10
54.3598911119
 20
65.4401617042
 30
0.0
 10
55.0222530084
 20
64.5897372161
 30
0.0
 10
56.2888154038
 20
62.8584065456
 30
0.0
 10
57.1818287487
 20
61.5240990515
 30
0.0
 10
57.7566051434
 20
60.6249208642
 30
0.0
  0
SPLINE
  5
317
100
AcDbEntity
  8
0
100
AcDbSpline
 62
7
  6
BYLAYER
 70
0
 71
3
 72
11
 73
7
 74
0
 42
0.0000001
 43
0.0000001
 44
0.0000000001
 40
0.0
 40
0.0
 40
0.0
 40
0.0
 40
0.2438908876
 40
0.4915601392
 40
0.7434918212
 40
1.0
 40
1.0
 40
1.0
 40
1.0
 10
57.9584257841
 20
59.9985849138
 30
0.0
 10
58.0064462718
 20
59.5880592661
 30
0.0
 10
58.0932975884
 20
58.7594411402
 30
0.0
 10
58.1904161378
 20
57.5030139931
 30
0.0
 10
58.2507272137
 20
56.2228491859
 30
0.0
 10
58.2640933763
 20
55.3611248211
 30
0.0
 10
58.2640933763
 20
54.9264174941
 30
0.0
  0
SPLINE
  5
318
100
AcDbEntity
  8
0
100
AcDbSpline
 62
7
  6
BYLAYER
 70
0
 71
3
 72
9
 73
5
 74
0
 42
0.0000001
 43
0.0000001
 44
0.0000000001
 40
0.0
 40
0.0
 40
0.0
 40
0.0
 40
0.4826225359
 40
1.0
 40
1.0
 40
1.0
 40
1.0
 10
51.9001241465
 20
47.6657880701
 30
0.0
 10
52.6079790257
 20
47.7290217331
 30
0.0
 10
54.0718663943
 20
47.8919413061
 30
0.0
 10
55.5297389827
 20
48.1002087199
 30
0.0
 10
56.2828451015
 20
48.2153100933
 30
0.0
  0
SPLINE
  5
319
100
AcDbEntity
  8
0
100
AcDbSpline
 62
7
  6
BYLAYER
 70
0
 71
3
 72
10
 73
6
 74
0
 42
0.0000001
 43
0.0000001
 44
0.0000000001
 40
0.0
 40
0.0
 40
0.0
 40
0.0
 40
0.2442469381
 40
0.4926271089
 40
1.0
 40
1.0
 40
1.0
 40
1.0
 10
58.2640933763
 20
54.9264174941
 30
0.0
 10
58.264093373
 20
54.4838565512
 30
0.0
 10
58.2500074501
 20
53.5911866907
 30
0.0
 10
58.1682375003
 20
51.780903421
 30
0.0
 10
58.0526671499
 20
50.4157843583
 30
0.0
 10
57.9584257841
 20
49.5012979632
 30
0.0
  0
SPLINE
  5
31A
100
AcDbEntity
  8
0
100
AcDbSpline
 62
7
  6
BYLAYER
 70
0
 71
3
 72
15
 73
11
 74
0
 42
0.0000001
 43
0.0000001
 44
0.0000000001
 40
0.0
 40
0.0
 40
0.0
 40
0.0
 40
0.1491363323
 40
0.2932607276
 40
0.4309986235
 40
0.5612444634
 40
0.6832502652
 40
0.7967301516
 40
0.9019803556
 40
1.0
 40
1.0
 40
1.0
 40
1.0
 10
51.9001235388
 20
64.6364717075
 30
0.0
 10
51.5838033543
 20
65.0299784673
 30
0.0
 10
50.9313413266
 20
65.7799579086
 30
0.0
 10
49.8841490483
 20
66.7984949359
 30
0.0
 10
48.798944237
 20
67.678601742
 30
0.0
 10
47.6937912956
 20
68.4053818172
 30
0.0
 10
46.5868152506
 20
68.9665607354
 30
0.0
 10
45.495659849
 20
69.3522930879
 30
0.0
 10
44.4382665126
 20
69.5551608485
 30
0.0
 10
43.7453237471
 20
69.5648865001
 30
0.0
 10
43.4148068096
 20
69.5353607959
 30
0.0
  0
SPLINE
  5
31B
100
AcDbEntity
  8
0
100
AcDbSpline
 62
7
  6
BYLAYER
 70
0
 71
3
 72
20
 73
16
 74
0
 42
0.0000001
 43
0.0000001
 44
0.0000000001
 40
0.0
 40
0.0
 40
0.0
 40
0.0
 40
0.0593673995
 40
0.1174681758
 40
0.1746295936
 40
0.2312464455
 40
0.2877430758
 40
0.3445405733
 40
0.4020449078
 40
0.460638918
 40
0.5206695807
 40
0.5824400092
 40
0.712055738
 40
0.8510135929
 40
1.0
 40
1.0
 40
1.0
 40
1.0
 10
43.4148068096
 20
69.5353607959
 30
0.0
 10
43.2672454607
 20
69.5221789945
 30
0.0
 10
42.9762645916
 20
69.482583627
 30
0.0
 10
42.5515982626
 20
69.3817233906
 30
0.0
 10
42.1458384015
 20
69.2403197801
 30
0.0
 10
41.7606948891
 20
69.0589733644
 30
0.0
 10
41.3976850585
 20
68.8383381218
 30
0.0
 10
41.0581964305
 20
68.5793444639
 30
0.0
 10
40.7435827316
 20
68.2829955765
 30
0.0
 10
40.4550354432
 20
67.9505172686
 30
0.0
 10
40.1935993812
 20
67.5832154063
 30
0.0
 10
39.8774424284
 20
67.0404441963
 30
0.0
 10
39.5572951791
 20
66.2764619837
 30
0.0
 10
39.3013930935
 20
65.2631912611
 30
0.0
 10
39.2166677007
 20
64.5475598197
 30
0.0
 10
39.1931809256
 20
64.1765128488
 30
0.0
  0
SPLINE
  5
31C
100
AcDbEntity
  8
0
100
AcDbSpline
 62
7
  6
BYLAYER
 70
0
 71
3
 72
11
 73
7
 74
0
 42
0.0000001
 43
0.0000001
 44
0.0000000001
 40
0.0
 40
0.0
 40
0.0
 40
0.0
 40
0.2744645873
 40
0.5318276116
 40
0.7730164765
 40
1.0
 40
1.0
 40
1.0
 40
1.0
 10
48.2541697743
 20
48.4823118074
 30
0.0
 10
48.5639963665
 20
48.3286563953
 30
0.0
 10
49.1801883541
 20
48.0611966687
 30
0.0
 10
50.1159071143
 20
47.7815247532
 30
0.0
 10
51.0221629221
 20
47.6402251686
 30
0.0
 10
51.6152499286
 20
47.6403392748
 30
0.0
 10
51.9001234839
 20
47.6657876876
 30
0.0
  0
SPLINE
  5
31D
100
AcDbEntity
  8
0
100
AcDbSpline
 62
7
  6
BYLAYER
 70
0
 71
3
 72
9
 73
5
 74
0
 42
0.0000001
 43
0.0000001
 44
0.0000000001
 40
0.0
 40
0.0
 40
0.0
 40
0.0
 40
0.5170222735
 40
1.0
 40
1.0
 40
1.0
 40
1.0
 10
47.65694521
 20
70.063487623
 30
0.0
 10
46.9284394787
 20
69.9530892231
 30
0.0
 10
45.5172391448
 20
69.7533092057
 30
0.0
 10
44.1003827867
 20
69.5966045842
 30
0.0
 10
43.4148074996
 20
69.535361181
 30
0.0
  0
SPLINE
  5
31E
100
AcDbEntity
  8
0
100
AcDbSpline
 62
7
  6
BYLAYER
 70
0
 71
3
 72
10
 73
6
 74
0
 42
0.0000001
 43
0.0000001
 44
0.0000000001
 40
0.0
 40
0.0
 40
0.0
 40
0.0
 40
0.2518572546
 40
0.5024568777
 40
1.0
 40
1.0
 40
1.0
 40
1.0
 10
51.9001242427
 20
64.6364720374
 30
0.0
 10
51.5616670415
 20
65.0575137642
 30
0.0
 10
50.8993053105
 20
65.9079383653
 30
0.0
 10
49.6327442414
 20
67.6392700379
 30
0.0
 10
48.7397298433
 20
68.9735768321
 30
0.0
 10
48.1649534027
 20
69.8727550876
 30
0.0
  0
SPLINE
  5
31F
100
AcDbEntity
  8
0
100
AcDbSpline
 62
7
  6
BYLAYER
 70
0
 71
3
 72
15
 73
11
 74
0
 42
0.0000001
 43
0.0000001
 44
0.0000000001
 40
0.0
 40
0.0
 40
0.0
 40
0.0
 40
0.1229786501
 40
0.2423714907
 40
0.3602463095
 40
0.4788812393
 40
0.6004493361
 40
0.7268721972
 40
0.8596900089
 40
1.0
 40
1.0
 40
1.0
 40
1.0
 10
51.9001234839
 20
47.6657876876
 30
0.0
 10
52.1356872565
 20
47.6868308098
 30
0.0
 10
52.5978360897
 20
47.7626998458
 30
0.0
 10
53.2572793233
 20
47.9849488577
 30
0.0
 10
53.86253315
 20
48.3117016125
 30
0.0
 10
54.4065631832
 20
48.7391990018
 30
0.0
 10
54.8836135988
 20
49.2624769002
 30
0.0
 10
55.2891713875
 20
49.8754967865
 30
0.0
 10
55.6197784012
 20
50.5715648906
 30
0.0
 10
55.7838178637
 20
51.0720886743
 30
0.0
 10
55.8536581724
 20
51.3327255874
 30
0.0
  0
SPLINE
  5
320
100
AcDbEntity
  8
0
100
AcDbSpline
 62
7
  6
BYLAYER
 70
0
 71
3
 72
9
 73
5
 74
0
 42
0.0000001
 43
0.0000001
 44
0.0000000001
 40
0.0
 40
0.0
 40
0.0
 40
0.0
 40
0.4820362504
 40
1.0
 40
1.0
 40
1.0
 40
1.0
 10
55.8577428594
 20
51.3480352289
 30
0.0
 10
55.9557536579
 20
51.7169801909
 30
0.0
 10
56.0999575585
 20
52.498698734
 30
0.0
 10
56.1427818508
 20
53.2914915357
 30
0.0
 10
56.1427818622
 20
53.7016851887
 30
0.0
  0
SPLINE
  5
321
100
AcDbEntity
  8
0
100
AcDbSpline
 62
7
  6
BYLAYER
 70
0
 71
3
 72
15
 73
11
 74
0
 42
0.0000001
 43
0.0000001
 44
0.0000000001
 40
0.0
 40
0.0
 40
0.0
 40
0.0
 40
0.1108410465
 40
0.2280578197
 40
0.3507094003
 40
0.4776259689
 40
0.6074737799
 40
0.7388131745
 40
0.8701524765
 40
1.0
 40
1.0
 40
1.0
 40
1.0
 10
56.1427818622
 20
53.7016851887
 30
0.0
 10
56.1427818622
 20
54.1426196872
 30
0.0
 10
56.0899674107
 20
55.050366824
 30
0.0
 10
55.8703714195
 20
56.4300722655
 30
0.0
 10
55.5118482298
 20
57.846355166
 30
0.0
 10
55.0204785534
 20
59.2752031662
 30
0.0
 10
54.404568876
 20
60.6926079923
 30
0.0
 10
53.6745077435
 20
62.074634162
 30
0.0
 10
52.8427213823
 20
63.3978098911
 30
0.0
 10
52.2237533092
 20
64.2338785583
 30
0.0
 10
51.9001235388
 20
64.6364717075
 30
0.0
  0
SPLINE
  5
322
100
AcDbEntity
  8
0
100
AcDbSpline
 62
7
  6
BYLAYER
 70
0
 71
3
 72
11
 73
7
 74
0
 42
0.0000001
 43
0.0000001
 44
0.0000000001
 40
0.0
 40
0.0
 40
0.0
 40
0.0
 40
0.2438911898
 40
0.4915600479
 40
0.7434917661
 40
1.0
 40
1.0
 40
1.0
 40
1.0
 10
56.448449453
 20
48.6295179258
 30
0.0
 10
56.4004289092
 20
49.0400440534
 30
0.0
 10
56.313583033
 20
49.8686624951
 30
0.0
 10
56.2164565649
 20
51.1250888066
 30
0.0
 10
56.1561480873
 20
52.4052532191
 30
0.0
 10
56.142781863
 20
53.2669776398
 30
0.0
 10
56.1427818598
 20
53.7016850297
 30
0.0
  0
SPLINE
  5
323
100
AcDbEntity
  8
0
100
AcDbSpline
 62
7
  6
BYLAYER
 70
0
 71
3
 72
9
 73
5
 74
0
 42
0.0000001
 43
0.0000001
 44
0.0000000001
 40
0.0
 40
0.0
 40
0.0
 40
0.0
 40
0.5215745175
 40
1.0
 40
1.0
 40
1.0
 40
1.0
 10
43.4148074996
 20
69.535361181
 30
0.0
 10
42.7851941185
 20
69.4791168775
 30
0.0
 10
41.5757524393
 20
69.3948495449
 30
0.0
 10
40.3638198705
 20
69.3635693393
 30
0.0
 10
39.7840034928
 20
69.3601863373
 30
0.0
  0
SPLINE
  5
324
100
AcDbEntity
  8
0
100
AcDbSpline
 62
7
  6
BYLAYER
 70
0
 71
3
 72
10
 73
6
 74
0
 42
0.0000001
 43
0.0000001
 44
0.0000000001
 40
0.0
 40
0.0
 40
0.0
 40
0.0
 40
0.501685791
 40
0.7513585161
 40
1.0
 40
1.0
 40
1.0
 40
1.0
 10
56.2828451139
 20
59.7740501934
 30
0.0
 10
55.5111710692
 20
60.5511246506
 30
0.0
 10
54.3777919707
 20
61.737793833
 30
0.0
 10
52.9348325947
 20
63.376086832
 30
0.0
 10
52.2401782663
 20
64.213441229
 30
0.0
 10
51.9001242427
 20
64.6364720374
 30
0.0
  0
SPLINE
  5
325
100
AcDbEntity
  8
0
100
AcDbSpline
 62
7
  6
BYLAYER
 70
0
 71
3
 72
10
 73
6
 74
0
 42
0.0000001
 43
0.0000001
 44
0.0000000001
 40
0.0
 40
0.0
 40
0.0
 40
0.0
 40
0.2442469629
 40
0.4926262652
 40
1.0
 40
1.0
 40
1.0
 40
1.0
 10
56.1427818598
 20
53.7016850297
 30
0.0
 10
56.1427818598
 20
54.1442460672
 30
0.0
 10
56.1568710848
 20
55.0369143415
 30
0.0
 10
56.2386211546
 20
56.8471987751
 30
0.0
 10
56.35420792
 20
58.2123168581
 30
0.0
 10
56.448449453
 20
59.1268048764
 30
0.0
  0
SPLINE
  5
326
100
AcDbEntity
  8
0
100
AcDbSpline
 62
7
  6
BYLAYER
 70
0
 71
3
 72
9
 73
5
 74
0
 42
0.0000001
 43
0.0000001
 44
0.0000000001
 40
0.0
 40
0.0
 40
0.0
 40
0.0
 40
0.2383619436
 40
1.0
 40
1.0
 40
1.0
 40
1.0
 10
55.9637267063
 20
72.2272595168
 30
0.0
 10
56.0845388979
 20
72.190190192
 30
0.0
 10
56.5862916429
 20
72.0181807569
 30
0.0
 10
57.0659644783
 20
71.7846628812
 30
0.0
 10
57.4156610791
 20
71.5827662049
 30
0.0
  0
SPLINE
  5
327
100
AcDbEntity
  8
0
100
AcDbSpline
 62
7
  6
BYLAYER
 70
0
 71
3
 72
15
 73
11
 74
0
 42
0.0000001
 43
0.0000001
 44
0.0000000001
 40
0.0
 40
0.0
 40
0.0
 40
0.0
 40
0.1293603973
 40
0.2605107605
 40
0.3918434105
 40
0.5218320398
 40
0.6489510339
 40
0.7718024627
 40
0.8891496342
 40
1.0
 40
1.0
 40
1.0
 40
1.0
 10
60.5401757368
 20
68.8992721039
 30
0.0
 10
60.7863627767
 20
68.6018400326
 30
0.0
 10
61.2576965332
 20
67.9822114125
 30
0.0
 10
61.8916452465
 20
66.9980926211
 30
0.0
 10
62.4489756738
 20
65.9664267256
 30
0.0
 10
62.9198495679
 20
64.905675051
 30
0.0
 10
63.295921859
 20
63.8344403978
 30
0.0
 10
63.5705630039
 20
62.7715742825
 30
0.0
 10
63.7388995432
 20
61.7358958821
 30
0.0
 10
63.7794665115
 20
61.054397925
 30
0.0
 10
63.7794668576
 20
60.723543772
 30
0.0
  0
SPLINE
  5
328
100
AcDbEntity
  8
0
100
AcDbSpline
 62
7
  6
BYLAYER
 70
0
 71
3
 72
12
 73
8
 74
0
 42
0.0000001
 43
0.0000001
 44
0.0000000001
 40
0.0
 40
0.0
 40
0.0
 40
0.0
 40
0.2733009418
 40
0.5275881504
 40
0.7675045799
 40
0.8842522248
 40
1.0
 40
1.0
 40
1.0
 40
1.0
 10
29.3326752847
 20
39.0475951619
 30
0.0
 10
29.5935761655
 20
38.9760303642
 30
0.0
 10
30.1085991215
 20
38.8742645676
 30
0.0
 10
30.8724416402
 20
38.859683276
 30
0.0
 10
31.4720854013
 20
38.9711412824
 30
0.0
 10
31.9117395166
 20
39.1328737477
 30
0.0
 10
32.117881625
 20
39.2365740026
 30
0.0
 10
32.2171124937
 20
39.2938563064
 30
0.0
  0
SPLINE
  5
329
100
AcDbEntity
  8
0
100
AcDbSpline
 62
7
  6
BYLAYER
 70
0
 71
3
 72
14
 73
10
 74
0
 42
0.0000001
 43
0.0000001
 44
0.0000000001
 40
0.0
 40
0.0
 40
0.0
 40
0.0
 40
0.2847525541
 40
0.4168484932
 40
0.5424637007
 40
0.662370119
 40
0.7776493776
 40
0.889649946
 40
1.0
 40
1.0
 40
1.0
 40
1.0
 10
16.8398305498
 20
47.0458158931
 30
0.0
 10
16.8397625496
 20
47.4400139062
 30
0.0
 10
16.8862152098
 20
48.019919626
 30
0.0
 10
17.065580607
 20
48.7504710514
 30
0.0
 10
17.2495387244
 20
49.2412856863
 30
0.0
 10
17.4854708045
 20
49.6833181217
 30
0.0
 10
17.7720727599
 20
50.0714999066
 30
0.0
 10
18.1069677669
 20
50.400376985
 30
0.0
 10
18.3608678283
 20
50.577457729
 30
0.0
 10
18.4931650242
 20
50.6538390947
 30
0.0
  0
SPLINE
  5
32A
100
AcDbEntity
  8
0
100
AcDbSpline
 62
7
  6
BYLAYER
 70
0
 71
3
 72
14
 73
10
 74
0
 42
0.0000001
 43
0.0000001
 44
0.0000000001
 40
0.0
 40
0.0
 40
0.0
 40
0.0
 40
0.1104334995
 40
0.2225080439
 40
0.337840192
 40
0.4577653323
 40
0.5833689737
 40
0.7154191444
 40
1.0
 40
1.0
 40
1.0
 40
1.0
 10
26.1931305522
 20
37.3170279741
 30
0.0
 10
26.0613700709
 20
37.2409564788
 30
0.0
 10
25.7822763695
 20
37.1100503767
 30
0.0
 10
25.3320417983
 20
36.9845616172
 30
0.0
 10
24.8547711164
 20
36.9299198332
 30
0.0
 10
24.3562949085
 20
36.9455671599
 30
0.0
 10
23.841608745
 20
37.0300595339
 30
0.0
 10
23.1225127348
 20
37.237107741
 30
0.0
 10
22.5992091468
 20
37.4840763424
 30
0.0
 10
22.2591687992
 20
37.6792378062
 30
0.0
  0
SPLINE
  5
32B
100
AcDbEntity
  8
0
100
AcDbSpline
 62
7
  6
BYLAYER
 70
0
 71
3
 72
10
 73
6
 74
0
 42
0.0000001
 43
0.0000001
 44
0.0000000001
 40
0.0
 40
0.0
 40
0.0
 40
0.0
 40
0.2725044823
 40
0.5299457365
 40
1.0
 40
1.0
 40
1.0
 40
1.0
 10
63.7794731622
 20
60.560245171
 30
0.0
 10
63.7794739876
 20
60.3115317914
 30
0.0
 10
63.7582295054
 20
59.827257456
 30
0.0
 10
63.627204767
 20
58.9235357153
 30
0.0
 10
63.4231073789
 20
58.2817667226
 30
0.0
 10
63.2333016274
 20
57.8970219896
 30
0.0
  0
SPLINE
  5
32C
100
AcDbEntity
  8
0
100
AcDbSpline
 62
7
  6
BYLAYER
 70
0
 71
3
 72
11
 73
7
 74
0
 42
0.0000001
 43
0.0000001
 44
0.0000000001
 40
0.0
 40
0.0
 40
0.0
 40
0.0
 40
0.2325810675
 40
0.4780121557
 40
0.7345771936
 40
1.0
 40
1.0
 40
1.0
 40
1.0
 10
57.5570782352
 20
71.5011127669
 30
0.0
 10
57.8241286576
 20
71.3469317645
 30
0.0
 10
58.3556583602
 20
70.9993779277
 30
0.0
 10
59.1171181658
 20
70.390154153
 30
0.0
 10
59.8543088274
 20
69.6872002376
 30
0.0
 10
60.315792475
 20
69.1703618343
 30
0.0
 10
60.5401757368
 20
68.8992721039
 30
0.0
  0
SPLINE
  5
32D
100
AcDbEntity
  8
0
100
AcDbSpline
 62
7
  6
BYLAYER
 70
0
 71
3
 72
13
 73
9
 74
0
 42
0.0000001
 43
0.0000001
 44
0.0000000001
 40
0.0
 40
0.0
 40
0.0
 40
0.0
 40
0.1159304708
 40
0.2328356786
 40
0.3516466044
 40
0.4732253256
 40
0.7273056367
 40
1.0
 40
1.0
 40
1.0
 40
1.0
 10
23.2171614083
 20
54.8823219012
 30
0.0
 10
23.1193821364
 20
54.8258775505
 30
0.0
 10
22.9292565976
 20
54.701265594
 30
0.0
 10
22.6651745253
 20
54.4821893887
 30
0.0
 10
22.4227075216
 20
54.2316550519
 30
0.0
 10
22.1255486048
 20
53.8517452707
 30
0.0
 10
21.8141988077
 20
53.2978184877
 30
0.0
 10
21.6438153905
 20
52.811281205
 30
0.0
 10
21.5743033802
 20
52.5549703074
 30
0.0
  0
SPLINE
  5
32E
100
AcDbEntity
  8
0
100
AcDbSpline
 62
7
  6
BYLAYER
 70
0
 71
3
 72
15
 73
11
 74
0
 42
0.0000001
 43
0.0000001
 44
0.0000000001
 40
0.0
 40
0.0
 40
0.0
 40
0.0
 40
0.1291384059
 40
0.2599681844
 40
0.3909740141
 40
0.5207140122
 40
0.6477399847
 40
0.7707169826
 40
0.888460082
 40
1.0
 40
1.0
 40
1.0
 40
1.0
 10
60.5054400905
 20
68.8746064454
 30
0.0
 10
60.7496372039
 20
68.5770042921
 30
0.0
 10
61.2174958967
 20
67.9580352621
 30
0.0
 10
61.8482379961
 20
66.9767072897
 30
0.0
 10
62.4045814747
 20
65.9492473218
 30
0.0
 10
62.8772126175
 20
64.893087004
 30
0.0
 10
63.2581740386
 20
63.8258179643
 30
0.0
 10
63.5410845229
 20
62.7652861269
 30
0.0
 10
63.7211864675
 20
61.7293314529
 30
0.0
 10
63.7721788811
 20
61.0462551422
 30
0.0
 10
63.7780988587
 20
60.7138030345
 30
0.0
  0
SPLINE
  5
32F
100
AcDbEntity
  8
0
100
AcDbSpline
 62
7
  6
BYLAYER
 70
0
 71
3
 72
17
 73
13
 74
0
 42
0.0000001
 43
0.0000001
 44
0.0000000001
 40
0.0
 40
0.0
 40
0.0
 40
0.0
 40
0.0475139319
 40
0.0956326083
 40
0.1449214477
 40
0.1958816447
 40
0.3042056883
 40
0.4229325209
 40
0.552761847
 40
0.6932169504
 40
0.8429670381
 40
1.0
 40
1.0
 40
1.0
 40
1.0
 10
22.9479272363
 20
53.2257633428
 30
0.0
 10
23.0511624488
 20
53.2853725419
 30
0.0
 10
23.2676424072
 20
53.3909512226
 30
0.0
 10
23.6143060922
 20
53.5040787764
 30
0.0
 10
23.9813969071
 20
53.5719440907
 30
0.0
 10
24.5050010748
 20
53.6020457311
 30
0.0
 10
25.2033984488
 20
53.517824306
 30
0.0
 10
26.0591547203
 20
53.239957152
 30
0.0
 10
26.93067112
 20
52.7927762438
 30
0.0
 10
27.7971068477
 20
52.1880612069
 30
0.0
 10
28.6374478548
 20
51.4411718271
 30
0.0
 10
29.1570382093
 20
50.8712462626
 30
0.0
 10
29.408251711
 20
50.5677414471
 30
0.0
  0
SPLINE
  5
330
100
AcDbEntity
  8
0
100
AcDbSpline
 62
7
  6
BYLAYER
 70
0
 71
3
 72
28
 73
24
 74
0
 42
0.0000001
 43
0.0000001
 44
0.0000000001
 40
0.0
 40
0.0
 40
0.0
 40
0.0
 40
0.061579364
 40
0.0903354526
 40
0.1177689268
 40
0.1689903384
 40
0.1931911377
 40
0.2167238881
 40
0.2398634937
 40
0.2629102572
 40
0.286169937
 40
0.3099353736
 40
0.3344670747
 40
0.3599846368
 40
0.4145336803
 40
0.4744453159
 40
0.5398073217
 40
0.6101750388
 40
0.6847095393
 40
0.7622964166
 40
0.841638494
 40
0.9213478732
 40
1.0
 40
1.0
 40
1.0
 40
1.0
 10
22.3322536827
 20
37.7065160501
 30
0.0
 10
22.6087320268
 20
37.5547510519
 30
0.0
 10
23.03097943
 20
37.3593709765
 30
0.0
 10
23.607809966
 20
37.1803573845
 30
0.0
 10
24.1468056671
 20
37.0676647078
 30
0.0
 10
24.6784016581
 20
37.0397884909
 30
0.0
 10
25.1816636783
 20
37.1094650001
 30
0.0
 10
25.5325935176
 20
37.2066792925
 30
0.0
 10
25.8612403731
 20
37.3493130549
 30
0.0
 10
26.1651613653
 20
37.536396405
 30
0.0
 10
26.4421264344
 20
37.76646673
 30
0.0
 10
26.6901047291
 20
38.0378024876
 30
0.0
 10
26.9075594261
 20
38.3482874446
 30
0.0
 10
27.1603765824
 20
38.8218625199
 30
0.0
 10
27.3885301218
 20
39.507305819
 30
0.0
 10
27.5165441331
 20
40.4233536774
 30
0.0
 10
27.5042503778
 20
41.4285807843
 30
0.0
 10
27.352604503
 20
42.4973552261
 30
0.0
 10
27.065923206
 20
43.6024921326
 30
0.0
 10
26.6517057692
 20
44.7153254805
 30
0.0
 10
26.1208048513
 20
45.8069082073
 30
0.0
 10
25.4871823395
 20
46.8484621671
 30
0.0
 10
25.0011328431
 20
47.4996655214
 30
0.0
 10
24.744275477
 20
47.8099889991
 30
0.0
  0
SPLINE
  5
331
100
AcDbEntity
  8
0
100
AcDbSpline
 62
7
  6
BYLAYER
 70
0
 71
3
 72
23
 73
19
 74
0
 42
0.0000001
 43
0.0000001
 44
0.0000000001
 40
0.0
 40
0.0
 40
0.0
 40
0.0
 40
0.0826703375
 40
0.162501095
 40
0.2387158536
 40
0.3107780208
 40
0.3783004276
 40
0.4411595507
 40
0.4995437727
 40
0.554011229
 40
0.6055342667
 40
0.6554643346
 40
0.7053882816
 40
0.7568942748
 40
0.8113353619
 40
0.869686132
 40
0.9325109986
 40
1.0
 40
1.0
 40
1.0
 40
1.0
 10
24.744275477
 20
47.8099889991
 30
0.0
 10
24.5477940252
 20
48.0473690219
 30
0.0
 10
24.1433861307
 20
48.4993215328
 30
0.0
 10
23.496607828
 20
49.1119199493
 30
0.0
 10
22.82838785
 20
49.6397092317
 30
0.0
 10
22.149643512
 20
50.0741073436
 30
0.0
 10
21.4709364862
 20
50.4080069003
 30
0.0
 10
20.8028456496
 20
50.6357614938
 30
0.0
 10
20.1556317564
 20
50.7530926397
 30
0.0
 10
19.5394293709
 20
50.7567986793
 30
0.0
 10
18.9647848855
 20
50.6450423096
 30
0.0
 10
18.4429743986
 20
50.4182899832
 30
0.0
 10
17.9851778647
 20
50.0805648553
 30
0.0
 10
17.6005381872
 20
49.6394862418
 30
0.0
 10
17.2950713536
 20
49.104645738
 30
0.0
 10
17.0724383844
 20
48.4860565799
 30
0.0
 10
16.9349954965
 20
47.7941736835
 30
0.0
 10
16.9022919311
 20
47.3081795061
 30
0.0
 10
16.8990061975
 20
47.0566416154
 30
0.0
  0
SPLINE
  5
332
100
AcDbEntity
  8
0
100
AcDbSpline
 62
7
  6
BYLAYER
 70
0
 71
3
 72
17
 73
13
 74
0
 42
0.0000001
 43
0.0000001
 44
0.0000000001
 40
0.0
 40
0.0
 40
0.0
 40
0.0
 40
0.1570329619
 40
0.3067830496
 40
0.447238153
 40
0.5770674791
 40
0.6957943117
 40
0.8041183553
 40
0.8550785523
 40
0.9043673917
 40
0.9524860681
 40
1.0
 40
1.0
 40
1.0
 40
1.0
 10
24.9534975366
 20
47.9958032777
 30
0.0
 10
24.7022840348
 20
48.2993080933
 30
0.0
 10
24.1826936804
 20
48.8692336577
 30
0.0
 10
23.3423526733
 20
49.6161230375
 30
0.0
 10
22.4759169456
 20
50.2208380744
 30
0.0
 10
21.6044005458
 20
50.6680189826
 30
0.0
 10
20.7486442743
 20
50.9458861366
 30
0.0
 10
20.0502469003
 20
51.0301075617
 30
0.0
 10
19.5266427327
 20
51.0000059213
 30
0.0
 10
19.1595519177
 20
50.932140607
 30
0.0
 10
18.8128882328
 20
50.8190130532
 30
0.0
 10
18.5964082743
 20
50.7134343725
 30
0.0
 10
18.4931730619
 20
50.6538251734
 30
0.0
  0
SPLINE
  5
333
100
AcDbEntity
  8
0
100
AcDbSpline
 62
7
  6
BYLAYER
 70
0
 71
3
 72
21
 73
17
 74
0
 42
0.0000001
 43
0.0000001
 44
0.0000000001
 40
0.0
 40
0.0
 40
0.0
 40
0.0
 40
0.1486131144
 40
0.2984447805
 40
0.3722003739
 40
0.4442941055
 40
0.5141401833
 40
0.581220959
 40
0.6451098845
 40
0.7054965973
 40
0.762222306
 40
0.8153106142
 40
0.8650043572
 40
0.9118029506
 40
0.9564696755
 40
1.0
 40
1.0
 40
1.0
 40
1.0
 10
29.408251711
 20
50.5677414471
 30
0.0
 10
29.783534738
 20
50.1143414305
 30
0.0
 10
30.473026089
 20
49.1491504345
 30
0.0
 10
31.1663165303
 20
47.8431607312
 30
0.0
 10
31.6074224849
 20
46.7575225538
 30
0.0
 10
31.8724862306
 20
45.9446384924
 30
0.0
 10
32.0699145016
 20
45.1398845112
 30
0.0
 10
32.1971199373
 20
44.3538770067
 30
0.0
 10
32.252373092
 20
43.5969749592
 30
0.0
 10
32.2347833468
 20
42.8790867402
 30
0.0
 10
32.1444403764
 20
42.2095654663
 30
0.0
 10
31.9821456003
 20
41.5971124032
 30
0.0
 10
31.7493681969
 20
41.0498717735
 30
0.0
 10
31.4483745284
 20
40.5754200304
 30
0.0
 10
31.0826904718
 20
40.1811768407
 30
0.0
 10
30.7971727748
 20
39.9751853418
 30
0.0
 10
30.647876689
 20
39.8889800647
 30
0.0
  0
SPLINE
  5
334
100
AcDbEntity
  8
0
100
AcDbSpline
 62
7
  6
BYLAYER
 70
0
 71
3
 72
18
 73
14
 74
0
 42
0.0000001
 43
0.0000001
 44
0.0000000001
 40
0.0
 40
0.0
 40
0.0
 40
0.0
 40
0.1570124042
 40
0.3067336009
 40
0.4471702704
 40
0.5769787252
 40
0.6956878935
 40
0.7511159406
 40
0.8041491044
 40
0.8551003671
 40
0.9043824159
 40
0.9524931023
 40
1.0
 40
1.0
 40
1.0
 40
1.0
 10
30.7681950985
 20
51.7755342584
 30
0.0
 10
30.4745619399
 20
52.1302885889
 30
0.0
 10
29.8672509904
 20
52.7964380183
 30
0.0
 10
28.8850515399
 20
53.6694115856
 30
0.0
 10
27.8722505391
 20
54.3762435402
 30
0.0
 10
26.8539269388
 20
54.8988870474
 30
0.0
 10
26.0009626382
 20
55.1756316888
 30
0.0
 10
25.3426964788
 20
55.2853408981
 30
0.0
 10
24.8749696098
 20
55.3128117501
 30
0.0
 10
24.4251062247
 20
55.2869092459
 30
0.0
 10
23.9960483585
 20
55.2076505267
 30
0.0
 10
23.5908656649
 20
55.0753681081
 30
0.0
 10
23.3378345086
 20
54.9519820107
 30
0.0
 10
23.2171614083
 20
54.8823219012
 30
0.0
  0
SPLINE
  5
335
100
AcDbEntity
  8
0
100
AcDbSpline
 62
7
  6
BYLAYER
 70
0
 71
3
 72
21
 73
17
 74
0
 42
0.0000001
 43
0.0000001
 44
0.0000000001
 40
0.0
 40
0.0
 40
0.0
 40
0.0
 40
0.0435303245
 40
0.0881970494
 40
0.1349956428
 40
0.1846893858
 40
0.237777694
 40
0.2945034027
 40
0.3548901155
 40
0.418779041
 40
0.4858598167
 40
0.5557058945
 40
0.6277996261
 40
0.7015552195
 40
0.8513868856
 40
1.0
 40
1.0
 40
1.0
 40
1.0
 10
26.1931225145
 20
37.3170418953
 30
0.0
 10
26.3424186003
 20
37.4032471724
 30
0.0
 10
26.6279362973
 20
37.6092386713
 30
0.0
 10
26.993620354
 20
38.003481861
 30
0.0
 10
27.2946140224
 20
38.4779336041
 30
0.0
 10
27.5273914258
 20
39.0251742338
 30
0.0
 10
27.689686202
 20
39.6376272969
 30
0.0
 10
27.7800291723
 20
40.3071485708
 30
0.0
 10
27.7976189176
 20
41.0250367898
 30
0.0
 10
27.7423657629
 20
41.7819388373
 30
0.0
 10
27.6151603272
 20
42.5679463419
 30
0.0
 10
27.4177320561
 20
43.3727003231
 30
0.0
 10
27.1526683104
 20
44.1855843844
 30
0.0
 10
26.7115623558
 20
45.2712225618
 30
0.0
 10
26.0182719145
 20
46.5772122651
 30
0.0
 10
25.3287805636
 20
47.5424032611
 30
0.0
 10
24.9534975366
 20
47.9958032777
 30
0.0
  0
SPLINE
  5
336
100
AcDbEntity
  8
0
100
AcDbSpline
 62
7
  6
BYLAYER
 70
0
 71
3
 72
11
 73
7
 74
0
 42
0.0000001
 43
0.0000001
 44
0.0000000001
 40
0.0
 40
0.0
 40
0.0
 40
0.0
 40
0.2336690028
 40
0.4793761385
 40
0.735527482
 40
1.0
 40
1.0
 40
1.0
 40
1.0
 10
57.5553014424
 20
71.5003763826
 30
0.0
 10
57.8158691074
 20
71.3433356814
 30
0.0
 10
58.333950251
 20
70.9932480726
 30
0.0
 10
59.0767219355
 20
70.3870373479
 30
0.0
 10
59.7958593095
 20
69.693935476
 30
0.0
 10
60.2469983222
 20
69.1870487146
 30
0.0
 10
60.4665562615
 20
68.921788721
 30
0.0
  0
SPLINE
  5
337
100
AcDbEntity
  8
0
100
AcDbSpline
 62
7
  6
BYLAYER
 70
0
 71
3
 72
23
 73
19
 74
0
 42
0.0000001
 43
0.0000001
 44
0.0000000001
 40
0.0
 40
0.0
 40
0.0
 40
0.0
 40
0.0435229125
 40
0.0881815041
 40
0.1349721815
 40
0.1846582026
 40
0.2377366256
 40
0.2944524258
 40
0.3548297484
 40
0.4187071475
 40
0.4857761705
 40
0.5556109958
 40
0.6276920843
 40
0.7014343612
 40
0.7762020795
 40
0.8513265105
 40
0.9261646417
 40
1.0
 40
1.0
 40
1.0
 40
1.0
 10
32.2171124937
 20
39.2938563064
 30
0.0
 10
32.3916258346
 20
39.3945963919
 30
0.0
 10
32.7253000022
 20
39.6354320137
 30
0.0
 10
33.152767802
 20
40.0961796646
 30
0.0
 10
33.5045846596
 20
40.6507418936
 30
0.0
 10
33.7766148505
 20
41.2903917233
 30
0.0
 10
33.966344884
 20
42.0062332189
 30
0.0
 10
34.071956174
 20
42.7887914993
 30
0.0
 10
34.0924725695
 20
43.6278831686
 30
0.0
 10
34.0279128588
 20
44.5125747309
 30
0.0
 10
33.8792480327
 20
45.4312866777
 30
0.0
 10
33.6484578523
 20
46.3719092231
 30
0.0
 10
33.338652756
 20
47.3220054227
 30
0.0
 10
32.9539615736
 20
48.2689633556
 30
0.0
 10
32.4995030254
 20
49.2001501178
 30
0.0
 10
31.9812983863
 20
50.1032864528
 30
0.0
 10
31.4062804916
 20
50.9661185339
 30
0.0
 10
30.9861629299
 20
51.5121953614
 30
0.0
 10
30.7681950985
 20
51.7755342584
 30
0.0
  0
ELLIPSE
  5
338
100
AcDbEntity
  8
0
100
AcDbEllipse
 62
7
  6
BYLAYER
 10
53.3243774894
 20
61.4045378602
 30
0.0
 11
-6.697911533
 21
9.0224519243
 31
0.0
 40
0.237653632
 41
-3.621220487
 42
-3.5761173952
  0
ELLIPSE
  5
339
100
AcDbEntity
  8
0
100
AcDbEllipse
 62
7
  6
BYLAYER
 10
53.5630687525
 20
61.0825706182
 30
0.0
 11
-7.771919411
 21
8.4178689616
 31
0.0
 40
0.2080881539
 41
-3.776150951
 42
-3.7310478592
  0
ELLIPSE
  5
33A
100
AcDbEntity
  8
0
100
AcDbEllipse
 62
7
  6
BYLAYER
 10
53.8205353927
 20
60.7873145187
 30
0.0
 11
8.7768884855
 21
-7.8725830182
 31
0.0
 40
0.1645667058
 41
-0.7761845743
 42
-0.7310814825
  0
ELLIPSE
  5
33B
100
AcDbEntity
  8
0
100
AcDbEllipse
 62
7
  6
BYLAYER
 10
54.0923720845
 20
60.5238214755
 30
0.0
 11
9.7084977198
 21
-7.3902123918
 31
0.0
 40
0.1126524607
 41
-0.9033914073
 42
-0.8582883155
  0
ELLIPSE
  5
33C
100
AcDbEntity
  8
0
100
AcDbEllipse
 62
7
  6
BYLAYER
 10
54.3739276266
 20
60.2965999274
 30
0.0
 11
10.5718375853
 21
-6.960304009
 31
0.0
 40
0.0568047358
 41
-1.0174361609
 42
-0.9723330691
  0
ELLIPSE
  5
33D
100
AcDbEntity
  8
0
100
AcDbEllipse
 62
7
  6
BYLAYER
 10
46.477343943
 20
60.4063330667
 30
0.0
 11
16.5193159623
 21
2.2787596211
 31
0.0
 40
0.6026731265
 41
1.241942007
 42
1.282314114
  0
ELLIPSE
  5
33E
100
AcDbEntity
  8
0
100
AcDbEllipse
 62
7
  6
BYLAYER
 10
46.3996098129
 20
60.9024654114
 30
0.0
 11
16.6864275756
 21
1.0715200677
 31
0.0
 40
0.5717395885
 41
1.2247899469
 42
1.2675199254
  0
ELLIPSE
  5
33F
100
AcDbEntity
  8
0
100
AcDbEllipse
 62
7
  6
BYLAYER
 10
46.3735498049
 20
61.3766198454
 30
0.0
 11
16.7382408644
 21
0.0000566019
 31
0.0
 40
0.5377539929
 41
1.1982675425
 42
1.2432434606
  0
ELLIPSE
  5
340
100
AcDbEntity
  8
0
100
AcDbEllipse
 62
7
  6
BYLAYER
 10
46.3996098129
 20
61.8206834548
 30
0.0
 11
16.6908877101
 21
-0.9487317066
 31
0.0
 40
0.5015815387
 41
1.1657997255
 42
1.2107756436
  0
ELLIPSE
  5
341
100
AcDbEntity
  8
0
100
AcDbEllipse
 62
7
  6
BYLAYER
 10
46.477343943
 20
62.2270581882
 30
0.0
 11
16.5555197785
 21
-1.7893382479
 31
0.0
 40
0.4637735253
 41
1.1263386505
 42
1.1713145686
  0
ELLIPSE
  5
342
100
AcDbEntity
  8
0
100
AcDbEllipse
 62
7
  6
BYLAYER
 10
46.6054221426
 20
62.5887908613
 30
0.0
 11
16.3397602127
 21
-2.5350802267
 31
0.0
 40
0.4246314928
 41
1.080862291
 42
1.1258382091
  0
ELLIPSE
  5
343
100
AcDbEntity
  8
0
100
AcDbEllipse
 62
7
  6
BYLAYER
 10
46.7816529583
 20
62.8996921276
 30
0.0
 11
16.0490376495
 21
-3.1974474626
 31
0.0
 40
0.3842666715
 41
1.0301020743
 42
1.0750779924
  0
ELLIPSE
  5
344
100
AcDbEntity
  8
0
100
AcDbEllipse
 62
7
  6
BYLAYER
 10
47.0030210319
 20
63.1544423804
 30
0.0
 11
15.6875399451
 21
-3.7863161236
 31
0.0
 40
0.3426475445
 41
0.9745550181
 42
1.0195309362
  0
ELLIPSE
  5
345
100
AcDbEntity
  8
0
100
AcDbEllipse
 62
7
  6
BYLAYER
 10
47.2657386943
 20
63.3486827722
 30
0.0
 11
15.2588119763
 21
-4.3104779181
 31
0.0
 40
0.2996367937
 41
0.9145032477
 42
0.9594791658
  0
ELLIPSE
  5
346
100
AcDbEntity
  8
0
100
AcDbEllipse
 62
7
  6
BYLAYER
 10
47.5653107735
 20
63.479089796
 30
0.0
 11
14.7660832651
 21
-4.7782447927
 31
0.0
 40
0.2550219721
 41
0.8500268312
 42
0.8950027493
  0
ELLIPSE
  5
347
100
AcDbEntity
  8
0
100
AcDbEllipse
 62
7
  6
BYLAYER
 10
47.8966115081
 20
63.5434321514
 30
0.0
 11
14.2123980506
 21
-5.198047032
 31
0.0
 40
0.2085456475
 41
0.7810034854
 42
0.8259794035
  0
ELLIPSE
  5
348
100
AcDbEntity
  8
0
100
AcDbEllipse
 62
7
  6
BYLAYER
 10
48.2539722508
 20
63.5406089231
 30
0.0
 11
13.6005907232
 21
-5.5790156486
 31
0.0
 40
0.1599424749
 41
0.707091337
 42
0.7520672551
  0
ELLIPSE
  5
349
100
AcDbEntity
  8
0
100
AcDbEllipse
 62
7
  6
BYLAYER
 10
48.63127846
 20
63.4706684171
 30
0.0
 11
12.9331195969
 21
-5.9315691201
 31
0.0
 40
0.1089938613
 41
0.6276915302
 42
0.6726674484
  0
ELLIPSE
  5
34A
100
AcDbEntity
  8
0
100
AcDbEllipse
 62
7
  6
BYLAYER
 10
49.0220743221
 20
63.3348073349
 30
0.0
 11
12.21174523
 21
-6.2680235371
 31
0.0
 40
0.0556166323
 41
0.5418884945
 42
0.5868644126
  0
ELLIPSE
  5
34B
100
AcDbEntity
  8
0
100
AcDbEllipse
 62
7
  6
BYLAYER
 10
49.8172721006
 20
55.90115159
 30
0.0
 11
7.5237871239
 21
14.9291080089
 31
0.0
 40
0.5015766464
 41
-1.2107708716
 42
-1.1657949534
  0
ELLIPSE
  5
34C
100
AcDbEntity
  8
0
100
AcDbEllipse
 62
7
  6
BYLAYER
 10
50.2080679627
 20
55.7652905078
 30
0.0
 11
6.7281241514
 21
15.2321670699
 31
0.0
 40
0.4637684418
 41
-1.1713089434
 42
-1.1263330252
  0
ELLIPSE
  5
34D
100
AcDbEntity
  8
0
100
AcDbEllipse
 62
7
  6
BYLAYER
 10
50.585374172
 20
55.6953500018
 30
0.0
 11
5.9744188766
 21
15.4181739787
 31
0.0
 40
0.4246262441
 41
-1.1258318434
 42
-1.0808559253
  0
ELLIPSE
  5
34E
100
AcDbEntity
  8
0
100
AcDbEllipse
 62
7
  6
BYLAYER
 10
50.9427349146
 20
55.6925267734
 30
0.0
 11
5.2554352934
 21
15.4975747121
 31
0.0
 40
0.384261262
 41
-1.0750709669
 42
-1.0300950488
  0
ELLIPSE
  5
34F
100
AcDbEntity
  8
0
100
AcDbEllipse
 62
7
  6
BYLAYER
 10
51.2740356492
 20
55.7568691289
 30
0.0
 11
4.5647144603
 21
15.4789339848
 31
0.0
 40
0.3426419623
 41
-1.019523302
 42
-0.9745473839
  0
ELLIPSE
  5
350
100
AcDbEntity
  8
0
100
AcDbEllipse
 62
7
  6
BYLAYER
 10
51.5736077284
 20
55.8872761527
 30
0.0
 11
3.8964150721
 21
15.3697175322
 31
0.0
 40
0.2996310152
 41
-0.9594709466
 42
-0.9144950285
  0
ELLIPSE
  5
351
100
AcDbEntity
  8
0
100
AcDbEllipse
 62
7
  6
BYLAYER
 10
51.8363253908
 20
56.0815165445
 30
0.0
 11
3.2449535743
 21
15.1768781678
 31
0.0
 40
0.2550159655
 41
-0.8949939425
 42
-0.8500180243
  0
ELLIPSE
  5
352
100
AcDbEntity
  8
0
100
AcDbEllipse
 62
7
  6
BYLAYER
 10
52.0576934644
 20
56.3362667972
 30
0.0
 11
2.6045512229
 21
14.9072674593
 31
0.0
 40
0.2085393773
 41
-0.825969979
 42
-0.7809940609
  0
ELLIPSE
  5
353
100
AcDbEntity
  8
0
100
AcDbEllipse
 62
7
  6
BYLAYER
 10
52.2339242801
 20
56.6471680636
 30
0.0
 11
1.9687174295
 21
14.5679056351
 31
0.0
 40
0.1599359076
 41
-0.7520571518
 42
-0.7070812337
  0
ELLIPSE
  5
354
100
AcDbEntity
  8
0
100
AcDbEllipse
 62
7
  6
BYLAYER
 10
52.3620024797
 20
57.0089007366
 30
0.0
 11
1.3296585074
 21
14.1661309836
 31
0.0
 40
0.1089869747
 41
-0.672656568
 42
-0.6276806499
  0
ELLIPSE
  5
355
100
AcDbEntity
  8
0
100
AcDbEllipse
 62
7
  6
BYLAYER
 10
52.4397366098
 20
57.41527547
 30
0.0
 11
0.6775884151
 21
13.7096263296
 31
0.0
 40
0.0556094299
 41
-0.58685261
 42
-0.5418766919
  0
ELLIPSE
  5
356
100
AcDbEntity
  8
0
100
AcDbEllipse
 62
7
  6
BYLAYER
 10
52.4845283564
 20
63.5691172926
 30
0.0
 11
-0.7419176185
 21
12.6355676962
 31
0.0
 40
0.0568122221
 41
0.9723187931
 42
1.0174218849
  0
ELLIPSE
  5
357
100
AcDbEntity
  8
0
100
AcDbEllipse
 62
7
  6
BYLAYER
 10
52.5405332359
 20
63.2116702855
 30
0.0
 11
-1.5459112751
 21
12.1028473128
 31
0.0
 40
0.1126596549
 41
0.8582724333
 42
0.9033755251
  0
ELLIPSE
  5
358
100
AcDbEntity
  8
0
100
AcDbEllipse
 62
7
  6
BYLAYER
 10
52.6328093586
 20
62.8445049354
 30
0.0
 11
-2.4294755358
 21
11.5372356716
 31
0.0
 40
0.1645731193
 41
0.7310637474
 42
0.7761668392
  0
ELLIPSE
  5
359
100
AcDbEntity
  8
0
100
AcDbEllipse
 62
7
  6
BYLAYER
 10
52.7597778546
 20
62.473903543
 30
0.0
 11
-3.4042068376
 21
10.9395507359
 31
0.0
 40
0.2080931049
 41
0.5894355681
 42
0.626225483
  0
ELLIPSE
  5
35A
100
AcDbEntity
  8
0
100
AcDbEllipse
 62
7
  6
BYLAYER
 10
52.9192662577
 20
62.1062072011
 30
0.0
 11
-4.4648080884
 21
10.3117260248
 31
0.0
 40
0.2376563695
 41
0.4345035838
 42
0.4553641338
  0
ELLIPSE
  5
35B
100
AcDbEntity
  8
0
100
AcDbEllipse
 62
7
  6
BYLAYER
 10
48.2539722508
 20
57.0413550779
 30
0.0
 11
11.2490381238
 21
12.2291827176
 31
0.0
 40
0.6293304387
 41
-1.2865712493
 42
-1.2476111437
  0
ELLIPSE
  5
35C
100
AcDbEntity
  8
0
100
AcDbEllipse
 62
7
  6
BYLAYER
 10
49.4196732114
 20
56.1006086276
 30
0.0
 11
8.3691291807
 21
14.4957367517
 31
0.0
 40
0.5377493467
 41
-1.2432396868
 42
-1.1982637687
  0
ELLIPSE
  5
35D
100
AcDbEntity
  8
0
100
AcDbEllipse
 62
7
  6
BYLAYER
 10
49.0220743221
 20
56.3602488553
 30
0.0
 11
9.2711262905
 21
13.9151494528
 31
0.0
 40
0.5717352805
 41
-1.2675173186
 42
-1.2247870382
  0
ELLIPSE
  5
35E
100
AcDbEntity
  8
0
100
AcDbEllipse
 62
7
  6
BYLAYER
 10
48.63127846
 20
56.675629757
 30
0.0
 11
10.2330589334
 21
13.1668254015
 31
0.0
 40
0.6026692941
 41
-1.2823128393
 42
-1.2419403487
  0
ELLIPSE
  5
35F
100
AcDbEntity
  8
0
100
AcDbEllipse
 62
7
  6
BYLAYER
 10
54.0923720845
 20
65.4194229373
 30
0.0
 11
6.6306715163
 21
14.8897619847
 31
0.0
 40
0.479536451
 41
-1.8113149985
 42
-1.7662119067
  0
ELLIPSE
  5
360
100
AcDbEntity
  8
0
100
AcDbEllipse
 62
7
  6
BYLAYER
 10
53.8205353927
 20
65.4698127674
 30
0.0
 11
5.9141983598
 21
15.0712064093
 31
0.0
 40
0.4387975103
 41
-1.7638760346
 42
-1.7187729428
  0
ELLIPSE
  5
361
100
AcDbEntity
  8
0
100
AcDbEllipse
 62
7
  6
BYLAYER
 10
53.5630687525
 20
65.4718468104
 30
0.0
 11
5.2280102737
 21
15.1544817399
 31
0.0
 40
0.3966858117
 41
-1.7112369927
 42
-1.6661339009
  0
ELLIPSE
  5
362
100
AcDbEntity
  8
0
100
AcDbEllipse
 62
7
  6
BYLAYER
 10
53.3243774894
 20
65.4254902633
 30
0.0
 11
4.5645094692
 21
15.1480683359
 31
0.0
 40
0.3531954297
 41
-1.6539313455
 42
-1.6088282537
  0
ELLIPSE
  5
363
100
AcDbEntity
  8
0
100
AcDbEllipse
 62
7
  6
BYLAYER
 10
53.108545677
 20
65.3315362995
 30
0.0
 11
3.9170278359
 21
15.0590602294
 31
0.0
 40
0.3082317889
 41
-1.5922649381
 42
-1.5471618463
  0
ELLIPSE
  5
364
100
AcDbEntity
  8
0
100
AcDbEllipse
 62
7
  6
BYLAYER
 10
52.9192662577
 20
65.1915924974
 30
0.0
 11
3.2794335677
 21
14.893779084
 31
0.0
 40
0.2616433071
 41
-1.5263339993
 42
-1.4812309074
  0
ELLIPSE
  5
365
100
AcDbEntity
  8
0
100
AcDbEllipse
 62
7
  6
BYLAYER
 10
52.7597778546
 20
65.0080533341
 30
0.0
 11
2.6456676367
 21
14.6582013007
 31
0.0
 40
0.2132528315
 41
-1.456028525
 42
-1.4109254332
  0
ELLIPSE
  5
366
100
AcDbEntity
  8
0
100
AcDbEllipse
 62
7
  6
BYLAYER
 10
52.6328093586
 20
64.7840592158
 30
0.0
 11
2.0092326326
 21
14.3582391263
 31
0.0
 40
0.1628962535
 41
-1.3810187119
 42
-1.3359156201
  0
ELLIPSE
  5
367
100
AcDbEntity
  8
0
100
AcDbEllipse
 62
7
  6
BYLAYER
 10
52.5405332359
 20
64.5234427437
 30
0.0
 11
1.362623573
 21
13.9998992874
 31
0.0
 40
0.1104783762
 41
-1.3007229657
 42
-1.2556198739
  0
ELLIPSE
  5
368
100
AcDbEntity
  8
0
100
AcDbEllipse
 62
7
  6
BYLAYER
 10
52.4845283564
 20
64.2306631381
 30
0.0
 11
0.6966883468
 21
13.5893161587
 31
0.0
 40
0.0560608308
 41
-1.214257747
 42
-1.1691546551
  0
ELLIPSE
  5
369
100
AcDbEntity
  8
0
100
AcDbEllipse
 62
7
  6
BYLAYER
 10
47.8966115081
 20
57.4511671564
 30
0.0
 11
12.296402924
 21
11.0872384992
 31
0.0
 40
0.6501830562
 41
-1.2800991874
 42
-1.2419234609
  0
ELLIPSE
  5
36A
100
AcDbEntity
  8
0
100
AcDbEllipse
 62
7
  6
BYLAYER
 10
54.9468414247
 20
59.9658354748
 30
0.0
 11
12.1170997036
 21
-6.1913219507
 31
0.0
 40
0.0560681352
 41
1.1691665273
 42
1.2142696191
  0
ELLIPSE
  5
36B
100
AcDbEntity
  8
0
100
AcDbEllipse
 62
7
  6
BYLAYER
 10
55.2283969668
 20
59.8679520416
 30
0.0
 11
12.8056374116
 21
-5.8198998215
 31
0.0
 40
0.1104854318
 41
1.2556308579
 42
1.3007339497
  0
ELLIPSE
  5
36C
100
AcDbEntity
  8
0
100
AcDbEllipse
 62
7
  6
BYLAYER
 10
55.5002336586
 20
59.8175622115
 30
0.0
 11
13.4392680365
 21
-5.439091141
 31
0.0
 40
0.1629030364
 41
1.3359258553
 42
1.3810289471
  0
ELLIPSE
  5
36D
100
AcDbEntity
  8
0
100
AcDbEllipse
 62
7
  6
BYLAYER
 10
55.7577002988
 20
59.8155281685
 30
0.0
 11
14.0172550462
 21
-5.0379029907
 31
0.0
 40
0.2132593463
 41
1.410935015
 42
1.4560381068
  0
ELLIPSE
  5
36E
100
AcDbEntity
  8
0
100
AcDbEllipse
 62
7
  6
BYLAYER
 10
55.9963915619
 20
59.8618847156
 30
0.0
 11
14.5381489316
 21
-4.6068326535
 31
0.0
 40
0.2616495724
 41
1.4812398951
 42
1.5263429869
  0
ELLIPSE
  5
36F
100
AcDbEntity
  8
0
100
AcDbEllipse
 62
7
  6
BYLAYER
 10
56.2122233743
 20
59.9558386794
 30
0.0
 11
15.0000782432
 21
-4.1372971579
 31
0.0
 40
0.3082378281
 41
1.5471702683
 42
1.5922733601
  0
ELLIPSE
  5
370
100
AcDbEntity
  8
0
100
AcDbEllipse
 62
7
  6
BYLAYER
 10
56.4015027936
 20
60.0957824815
 30
0.0
 11
15.4008967901
 21
-3.6210610279
 31
0.0
 40
0.3532012654
 41
1.6088361109
 42
1.6539392027
  0
ELLIPSE
  5
371
100
AcDbEntity
  8
0
100
AcDbEllipse
 62
7
  6
BYLAYER
 10
56.5609911967
 20
60.2793216448
 30
0.0
 11
15.7381957576
 21
-3.0496530487
 31
0.0
 40
0.3966914607
 41
1.666141167
 42
1.7112442588
  0
ELLIPSE
  5
372
100
AcDbEntity
  8
0
100
AcDbEllipse
 62
7
  6
BYLAYER
 10
56.6879596927
 20
60.5033157631
 30
0.0
 11
16.0091655673
 21
-2.4137512819
 31
0.0
 40
0.43880298
 41
1.7187795629
 42
1.7638826547
  0
ELLIPSE
  5
373
100
AcDbEntity
  8
0
100
AcDbEllipse
 62
7
  6
BYLAYER
 10
56.7802358154
 20
60.7639322352
 30
0.0
 11
16.2102608323
 21
-1.7025354109
 31
0.0
 40
0.4795417348
 41
1.7662177942
 42
1.811320886
  0
ELLIPSE
  5
374
100
AcDbEntity
  8
0
100
AcDbEllipse
 62
7
  6
BYLAYER
 10
56.8362406949
 20
61.0567118408
 30
0.0
 11
16.336585227
 21
-0.9030705418
 31
0.0
 40
0.5187870566
 41
1.807666998
 42
1.8527700899
  0
ELLIPSE
  5
375
100
AcDbEntity
  8
0
100
AcDbEllipse
 62
7
  6
BYLAYER
 10
56.855016072
 20
61.3766450397
 30
0.0
 11
16.3808846694
 21
0.0000570158
 31
0.0
 40
0.5562423032
 41
1.8420581444
 42
1.8871612363
  0
ELLIPSE
  5
376
100
AcDbEntity
  8
0
100
AcDbEllipse
 62
7
  6
BYLAYER
 10
56.8362406949
 20
61.7182576863
 30
0.0
 11
16.3320724217
 21
1.0242973174
 31
0.0
 40
0.5913711198
 41
1.8680513647
 42
1.9131544565
  0
ELLIPSE
  5
377
100
AcDbEntity
  8
0
100
AcDbEllipse
 62
7
  6
BYLAYER
 10
56.7802358154
 20
62.0757046934
 30
0.0
 11
16.173473457
 21
2.1867295896
 31
0.0
 40
0.6233241255
 41
1.8841476047
 42
1.9292506965
  0
ELLIPSE
  5
378
100
AcDbEntity
  8
0
100
AcDbEllipse
 62
7
  6
BYLAYER
 10
56.6879596927
 20
62.4428700435
 30
0.0
 11
15.8818151041
 21
3.4978039193
 31
0.0
 40
0.6508809859
 41
1.8890242343
 42
1.9239005672
  0
ELLIPSE
  5
379
100
AcDbEntity
  8
0
100
AcDbEllipse
 62
7
  6
BYLAYER
 10
56.5609911967
 20
62.8134714359
 30
0.0
 11
15.4296988941
 21
4.9496122113
 31
0.0
 40
0.6724718307
 41
1.8822336013
 42
1.9150048042
  0
ELLIPSE
  5
37A
100
AcDbEntity
  8
0
100
AcDbEllipse
 62
7
  6
BYLAYER
 10
56.4015027936
 20
63.1811677778
 30
0.0
 11
14.7956511638
 21
6.5011827944
 31
0.0
 40
0.6863820082
 41
1.8652191791
 42
1.8778879212
  0
ELLIPSE
  5
37B
100
AcDbEntity
  8
0
100
AcDbEllipse
 62
7
  6
BYLAYER
 10
55.9963915619
 20
63.8828371187
 30
0.0
 11
13.027932106
 21
9.5629382959
 31
0.0
 40
0.686380748
 41
-1.8866325289
 42
-1.8652219499
  0
ELLIPSE
  5
37C
100
AcDbEntity
  8
0
100
AcDbEllipse
 62
7
  6
BYLAYER
 10
55.7577002988
 20
64.2048043607
 30
0.0
 11
12.0012584943
 21
10.8878046916
 31
0.0
 40
0.6724694506
 41
-1.9273383237
 42
-1.8822352318
  0
ELLIPSE
  5
37D
100
AcDbEntity
  8
0
100
AcDbEllipse
 62
7
  6
BYLAYER
 10
55.5002336586
 20
64.5000604602
 30
0.0
 11
10.9700225626
 21
12.0052300839
 31
0.0
 40
0.6508777042
 41
-1.9341274585
 42
-1.8890243667
  0
ELLIPSE
  5
37E
100
AcDbEntity
  8
0
100
AcDbEllipse
 62
7
  6
BYLAYER
 10
54.6603845257
 20
65.1778372806
 30
0.0
 11
8.1904552171
 21
14.1862548219
 31
0.0
 40
0.5562374973
 41
-1.8871572184
 42
-1.8420541266
  0
ELLIPSE
  5
37F
100
AcDbEntity
  8
0
100
AcDbEllipse
 62
7
  6
BYLAYER
 10
54.3739276266
 20
65.3215395041
 30
0.0
 11
7.3861833181
 21
14.5994409912
 31
0.0
 40
0.518781985
 41
-1.8527650572
 42
-1.8076619654
  0
ELLIPSE
  5
380
100
AcDbEntity
  8
0
100
AcDbEllipse
 62
7
  6
BYLAYER
 10
54.9468414247
 20
64.9907750515
 30
0.0
 11
9.0530561034
 21
13.6318776265
 31
0.0
 40
0.5913666693
 41
-1.9131516451
 42
-1.8680485533
  0
ELLIPSE
  5
381
100
AcDbEntity
  8
0
100
AcDbEllipse
 62
7
  6
BYLAYER
 10
55.2283969668
 20
64.7635535034
 30
0.0
 11
9.9804401156
 21
12.9133293138
 31
0.0
 40
0.6233201663
 41
-1.9292492886
 42
-1.8841461968
  0
ENDSEC
  0
SECTION
  2
OBJECTS
  0
DICTIONARY
  5
C
100
AcDbDictionary
280
0
281
1
  3
ACAD_GROUP
350
D
  3
ACAD_MLINESTYLE
350
17
  3
ACAD_LAYOUT
350
1A
  3
ACAD_PLOTSETTINGS
350
19
  3
ACAD_PLOTSTYLENAME
350
E
  0
DICTIONARY
  5
D
102
{ACAD_REACTORS
330
C
102
}
100
AcDbDictionary
280
0
281
1
  0
ACDBDICTIONARYWDFLT
  5
E
102
{ACAD_REACTORS
330
C
102
}
100
AcDbDictionary
281
1
  3
Normal
350
F
100
AcDbDictionaryWithDefault
340
F
  0
DICTIONARY
  5
17
102
{ACAD_REACTORS
330
C
102
}
100
AcDbDictionary
280
0
281
1
  3
Standard
350
18
  0
DICTIONARY
  5
19
102
{ACAD_REACTORS
330
C
102
}
100
AcDbDictionary
281
1
  0
DICTIONARY
  5
1A
102
{ACAD_REACTORS
330
C
102
}
100
AcDbDictionary
281
1
  3
Model
350
382
  3
Layout1
350
383
  0
ACDBPLACEHOLDER
  5
F
102
{ACAD_REACTORS
330
E
102
}
  0
MLINESTYLE
  5
18
102
{ACAD_REACTORS
330
17
102
}
100
AcDbMlineStyle
  2
STANDARD
 70
0
  3

 62
256
 51
90.0
 52
90.0
 71
2
 49
0.5
 62
256
  6
BYLAYER
 49
-0.5
 62
256
  6
BYLAYER
  0
LAYOUT
  5
382
102
{ACAD_REACTORS
330
1A
102
}
100
AcDbPlotSettings
  1

  2
none_device
  4

  6

 40
0.0
 41
0.0
 42
0.0
 43
0.0
 44
210.0
 45
297.0
 46
0.0
 47
0.0
 48
0.0
 49
0.0
140
0.0
141
0.0
142
1.0
143
1.0
 70
1024
 72
1
 73
0
 74
0
  7

 75
0
147
1.0
148
0.0
149
0.0
100
AcDbLayout
  1
Model
 70
0
 71
0
 10
0.0
 20
0.0
 11
210.0
 21
297.0
 12
0.0
 22
0.0
 32
0.0
 14
0.0
 24
0.0
 34
0.0
 15
0.0
 25
0.0
 35
0.0
146
0.0
 13
0.0
 23
0.0
 33
0.0
 16
1.0
 26
0.0
 36
0.0
 17
0.0
 27
1.0
 37
0.0
 76
0
330
210
345
0
346
0
  0
LAYOUT
  5
383
102
{ACAD_REACTORS
330
1A
102
}
100
AcDbPlotSettings
  1

  2
none_device
  4

  6

 40
0.0
 41
0.0
 42
0.0
 43
0.0
 44
210.0
 45
297.0
 46
0.0
 47
0.0
 48
0.0
 49
0.0
140
0.0
141
0.0
142
1.0
143
1.0
 70
0
 72
1
 73
0
 74
0
  7

 75
0
147
1.0
148
0.0
149
0.0
100
AcDbLayout
  1
Layout1
 70
0
 71
1
 10
0.0
 20
0.0
 11
210.0
 21
297.0
 12
0.0
 22
0.0
 32
0.0
 14
0.0
 24
0.0
 34
0.0
 15
0.0
 25
0.0
 35
0.0
146
0.0
 13
0.0
 23
0.0
 33
0.0
 16
1.0
 26
0.0
 36
0.0
 17
0.0
 27
1.0
 37
0.0
 76
0
330
211
345
0
346
0
  0
ENDSEC
  0
EOF
