999
DXF file: C:\Users\sesa63760\Dev\_Creo\CAD\MCADID0000197_3D-CAD\drw0001_1.dxf
999
Pro/ENGINEER 2019471 by Parametric Technology Corporation
  0
SECTION
  2
HEADER
  9
$ACADVER
  1
AC1024
  9
$DWGCODEPAGE
  3
ANSI_1252
  9
$EXTMAX
 10
111.9081620047
 20
158.2701148352
 30
0.0
  9
$EXTMIN
 10
0.0
 20
0.0
 30
0.0
  9
$LIMMIN
 10
0.0
 20
0.0
  9
$LIMMAX
 10
111.9081620047
 20
158.2701148352
  9
$VIEWCTR
 10
55.9540810023
 20
79.1350574176
  9
$VIEWSIZE
 40
158.2701148352
  9
$CLAYER
  8
0
  9
$LTSCALE
 40
10.3168667448
  9
$CELTYPE
  6
BYLAYER
  9
$DIMSCALE
 40
1.0
  9
$DIMASZ
 40
1.3322400239
  9
$DIMEXO
 40
1.0
  9
$DIMDLI
 40
7.1280170237
  9
$DIMEXE
 40
1.0
  9
$DIMCEN
 40
1.6882145582
  9
$DIMLFAC
 40
1.0
  9
$DIMBLK
  1
_FILLED
  9
$DIMALT
 70
0
  9
$DIMALTF
 40
0.0393700787
  9
$DIMTXT
 40
1.8651360334
  9
$DIMTOL
 70
1
  9
$DIMLIM
 70
0
  9
$DIMTFAC
 40
1.0
  9
$DIMTP
 40
0.01
  9
$DIMTM
 40
0.01
  9
$DIMGAP
 40
0.625
  9
$DIMDSEP
 70
46
  9
$AUNITS
 70
0
  9
$PDMODE
 70
3
  9
$PDSIZE
 40
0.3125
  9
$HANDSEED
  5
3BE
  9
$TILEMODE
 70
1
  9
$MEASUREMENT
 70
1
  9
$INSUNITS
 70
4
  0
ENDSEC
  0
SECTION
  2
CLASSES
  0
CLASS
  1
ACDBDICTIONARYWDFLT
  2
AcDbDictionaryWithDefault
  3
AutoCAD 2000
 90
0
 91
1
280
0
281
0
  0
CLASS
  1
ACDBPLACEHOLDER
  2
AcDbPlaceHolder
  3
AutoCAD 2000
 90
0
 91
1
280
0
281
0
  0
CLASS
  1
LAYOUT
  2
AcDbLayout
  3
AutoCAD 2000
 90
0
 91
0
280
0
281
0
  0
ENDSEC
  0
SECTION
  2
TABLES
  0
TABLE
  2
VPORT
  5
8
100
AcDbSymbolTable
 70
2
  0
VPORT
  5
1F4
100
AcDbSymbolTableRecord
100
AcDbViewportTableRecord
  2
*ACTIVE
 70
0
 10
0.0
 20
0.0
 11
1.0
 21
1.0
 12
55.9540810023
 22
79.1350574176
 13
0.0
 23
0.0
 14
1.0
 24
1.0
 15
0.0
 25
0.0
 16
0.0
 26
0.0
 36
1.0
 17
0.0
 27
0.0
 37
0.0
 40
158.2701148352
 41
0.7070707071
 42
50.0
 43
0.0
 44
0.0
 50
0.0
 51
0.0
 71
0
 72
100
 73
1
 74
1
 75
0
 76
0
 77
0
 78
0
  0
ENDTAB
  0
TABLE
  2
LTYPE
  5
5
100
AcDbSymbolTable
 70
6
  0
LTYPE
  5
14
100
AcDbSymbolTableRecord
100
AcDbLinetypeTableRecord
  2
BYBLOCK
 70
0
  3

 72
65
 73
0
 40
0.0
  0
LTYPE
  5
15
100
AcDbSymbolTableRecord
100
AcDbLinetypeTableRecord
  2
BYLAYER
 70
0
  3

 72
65
 73
0
 40
0.0
  0
LTYPE
  5
16
100
AcDbSymbolTableRecord
100
AcDbLinetypeTableRecord
  2
CONTINUOUS
 70
64
  3
Solid line
 72
65
 73
0
 40
0.0
  0
LTYPE
  5
1F5
100
AcDbSymbolTableRecord
100
AcDbLinetypeTableRecord
  2
CENTER
 70
64
  3
____ _ ____ _ ____ _ ____ _ ____ _ ____ _ ____
 72
65
 73
4
 40
0.6
 49
0.375
 74
0
 49
-0.075
 74
0
 49
0.075
 74
0
 49
-0.075
 74
0
  0
LTYPE
  5
1F6
100
AcDbSymbolTableRecord
100
AcDbLinetypeTableRecord
  2
HIDDEN
 70
64
  3
- - - - - - - - - - - - - - - - - - - -
 72
65
 73
2
 40
0.2
 49
0.1
 74
0
 49
-0.1
 74
0
  0
LTYPE
  5
1F7
100
AcDbSymbolTableRecord
100
AcDbLinetypeTableRecord
  2
PHANTOM
 70
64
  3
_____ _ _ _____ _ _ _____ _ _ _____
 72
65
 73
6
 40
0.8
 49
0.45
 74
0
 49
-0.05
 74
0
 49
0.1
 74
0
 49
-0.05
 74
0
 49
0.1
 74
0
 49
-0.05
 74
0
  0
LTYPE
  5
1F8
100
AcDbSymbolTableRecord
100
AcDbLinetypeTableRecord
  2
DOT
 70
64
  3
. . . . . . . . . . . . . . . . . . . .
 72
65
 73
2
 40
0.2
 49
0.1
 74
0
 49
-0.1
 74
0
  0
LTYPE
  5
1F9
100
AcDbSymbolTableRecord
100
AcDbLinetypeTableRecord
  2
DASHED
 70
64
  3
- - - - - - - - - - - - - - - - - - - -
 72
65
 73
2
 40
0.2
 49
0.1
 74
0
 49
-0.1
 74
0
  0
ENDTAB
  0
TABLE
  2
LAYER
  5
2
100
AcDbSymbolTable
 70
36
  0
LAYER
  5
10
100
AcDbSymbolTableRecord
100
AcDbLayerTableRecord
  2
0
 70
0
 62
7
  6
CONTINUOUS
370
-3
390
F
  0
LAYER
  5
1FA
100
AcDbSymbolTableRecord
100
AcDbLayerTableRecord
  2
DEFAULT_1
 70
0
 62
7
  6
CENTER
370
-3
390
F
  0
LAYER
  5
1FB
100
AcDbSymbolTableRecord
100
AcDbLayerTableRecord
  2
DEFAULT_2
 70
0
 62
8
  6
HIDDEN
370
-3
390
F
  0
LAYER
  5
1FC
100
AcDbSymbolTableRecord
100
AcDbLayerTableRecord
  2
DEFAULT_3
 70
0
 62
7
  6
PHANTOM
370
-3
390
F
  0
LAYER
  5
1FD
100
AcDbSymbolTableRecord
100
AcDbLayerTableRecord
  2
00_COMPONENTS
 70
0
 62
7
  6
CONTINUOUS
370
-3
390
F
  0
LAYER
  5
1FE
100
AcDbSymbolTableRecord
100
AcDbLayerTableRecord
  2
01_1_DEFAULT_DATUMS
 70
0
 62
7
  6
CONTINUOUS
370
-3
390
F
  0
LAYER
  5
1FF
100
AcDbSymbolTableRecord
100
AcDbLayerTableRecord
  2
01_PLANES
 70
0
 62
7
  6
CONTINUOUS
370
-3
390
F
  0
LAYER
  5
200
100
AcDbSymbolTableRecord
100
AcDbLayerTableRecord
  2
02_COORD_SYS
 70
0
 62
7
  6
CONTINUOUS
370
-3
390
F
  0
LAYER
  5
201
100
AcDbSymbolTableRecord
100
AcDbLayerTableRecord
  2
03_AXES
 70
0
 62
7
  6
CONTINUOUS
370
-3
390
F
  0
LAYER
  5
202
100
AcDbSymbolTableRecord
100
AcDbLayerTableRecord
  2
04_POINTS
 70
0
 62
7
  6
CONTINUOUS
370
-3
390
F
  0
LAYER
  5
203
100
AcDbSymbolTableRecord
100
AcDbLayerTableRecord
  2
05_CURVES
 70
0
 62
7
  6
CONTINUOUS
370
-3
390
F
  0
LAYER
  5
204
100
AcDbSymbolTableRecord
100
AcDbLayerTableRecord
  2
06_SURFS
 70
0
 62
7
  6
CONTINUOUS
370
-3
390
F
  0
LAYER
  5
205
100
AcDbSymbolTableRecord
100
AcDbLayerTableRecord
  2
07_COSMETICS
 70
0
 62
7
  6
CONTINUOUS
370
-3
390
F
  0
LAYER
  5
206
100
AcDbSymbolTableRecord
100
AcDbLayerTableRecord
  2
10_NOTES
 70
0
 62
7
  6
CONTINUOUS
370
-3
390
F
  0
LAYER
  5
207
100
AcDbSymbolTableRecord
100
AcDbLayerTableRecord
  2
11_NOTES_PUB
 70
0
 62
7
  6
CONTINUOUS
370
-3
390
F
  0
LAYER
  5
208
100
AcDbSymbolTableRecord
100
AcDbLayerTableRecord
  2
13_REF_GTOL
 70
0
 62
7
  6
CONTINUOUS
370
-3
390
F
  0
LAYER
  5
209
100
AcDbSymbolTableRecord
100
AcDbLayerTableRecord
  2
16_MISC
 70
0
 62
7
  6
CONTINUOUS
370
-3
390
F
  0
LAYER
  5
20A
100
AcDbSymbolTableRecord
100
AcDbLayerTableRecord
  2
17_NO_PRINT
 70
0
 62
7
  6
CONTINUOUS
370
-3
390
F
  0
LAYER
  5
20B
100
AcDbSymbolTableRecord
100
AcDbLayerTableRecord
  2
18_DATUM_CAMS_JOINTS
 70
0
 62
7
  6
CONTINUOUS
370
-3
390
F
  0
LAYER
  5
20C
100
AcDbSymbolTableRecord
100
AcDbLayerTableRecord
  2
19_DATUM_FUNCTIONAL
 70
0
 62
7
  6
CONTINUOUS
370
-3
390
F
  0
LAYER
  5
20D
100
AcDbSymbolTableRecord
100
AcDbLayerTableRecord
  2
20_DATUM_KINEMATIC_SCHEME
 70
0
 62
7
  6
CONTINUOUS
370
-3
390
F
  0
ENDTAB
  0
TABLE
  2
STYLE
  5
3
100
AcDbSymbolTable
 70
1
  0
STYLE
  5
11
100
AcDbSymbolTableRecord
100
AcDbTextStyleTableRecord
  2
STANDARD
 70
0
 40
0.0
 41
0.8
 50
0.0
 71
0
 42
0.2
  3
txt
  4

  0
STYLE
  5
20E
100
AcDbSymbolTableRecord
100
AcDbTextStyleTableRecord
  2
TEXTSTYLE_1
 70
0
 40
0.0
 41
0.8
 50
0.0
 71
0
 42
0.2
  3
gdt
  4

  0
ENDTAB
  0
TABLE
  2
VIEW
  5
6
100
AcDbSymbolTable
 70
0
  0
ENDTAB
  0
TABLE
  2
UCS
  5
7
100
AcDbSymbolTable
 70
0
  0
ENDTAB
  0
TABLE
  2
APPID
  5
9
100
AcDbSymbolTable
 70
1
  0
APPID
  5
20F
100
AcDbSymbolTableRecord
100
AcDbRegAppTableRecord
  2
ACAD
 70
0
  0
ENDTAB
  0
TABLE
  2
BLOCK_RECORD
  5
1
100
AcDbSymbolTable
 70
0
  0
BLOCK_RECORD
  5
210
100
AcDbSymbolTableRecord
100
AcDbBlockTableRecord
  2
*Model_Space
  0
BLOCK_RECORD
  5
211
100
AcDbSymbolTableRecord
100
AcDbBlockTableRecord
  2
*Paper_Space
  0
BLOCK_RECORD
  5
212
100
AcDbSymbolTableRecord
100
AcDbBlockTableRecord
  2
_FILLED
  0
ENDTAB
  0
TABLE
  2
DIMSTYLE
  5
A
100
AcDbSymbolTable
 70
1
100
AcDbDimStyleTable
 71
0
  0
DIMSTYLE
105
213
100
AcDbSymbolTableRecord
100
AcDbDimStyleTableRecord
  2
STANDARD
 70
0
  3

  4

 40
1.0
 41
1.3322400239
 42
1.0
 43
0.38
 44
1.0
 45
0.0
 46
0.0
 47
0.01
 48
0.01
140
1.8651360334
141
0.09
142
0.0
143
25.4
144
1.0
145
0.0
146
1.0
147
0.625
 71
1
 72
0
 73
0
 74
0
 75
0
 76
0
 77
1
 78
8
 79
2
170
0
171
1
172
0
173
0
174
0
175
0
176
0
177
0
178
0
270
2
179
2
271
2
272
2
273
2
274
2
275
0
280
0
281
0
282
0
283
1
284
8
285
0
286
0
287
3
288
0
340
11
278
46
341
212
342
212
343
212
344
212
  0
ENDTAB
  0
ENDSEC
  0
SECTION
  2
BLOCKS
  0
BLOCK
  5
20
100
AcDbEntity
  8
0
100
AcDbBlockBegin
  2
*Model_Space
 70
0
 10
0.0
 20
0.0
 30
0.0
  3
*Model_Space
  1

  0
ENDBLK
  5
21
100
AcDbEntity
  8
0
100
AcDbBlockEnd
  0
BLOCK
  5
1C
100
AcDbEntity
  8
0
100
AcDbBlockBegin
  2
*Paper_Space
 70
0
 10
0.0
 20
0.0
 30
0.0
  3
*Paper_Space
  1

  0
ENDBLK
  5
1D
100
AcDbEntity
  8
0
100
AcDbBlockEnd
  0
BLOCK
  5
214
100
AcDbEntity
  8
0
100
AcDbBlockBegin
  2
_FILLED
 70
64
 10
0.0
 20
0.0
  3
_FILLED
  1

  0
SOLID
  5
215
100
AcDbEntity
  8
0
  6
BYBLOCK
 62
0
100
AcDbTrace
 10
0.0
 20
0.0
 11
-1.0
 21
0.25
 12
-1.0
 22
-0.25
 13
-1.0
 23
-0.25
  0
ENDBLK
  5
216
100
AcDbEntity
  8
0
  6
BYBLOCK
 62
0
100
AcDbBlockEnd
  0
ENDSEC
  0
SECTION
  2
ENTITIES
  0
LINE
  5
217
100
AcDbEntity
  8
0
100
AcDbLine
 62
7
  6
CONTINUOUS
 10
26.4884070621
 20
20.5539473641
 11
14.4675417346
 21
27.4940401909
  0
LINE
  5
218
100
AcDbEntity
  8
0
100
AcDbLine
 62
7
  6
CONTINUOUS
 10
36.9065381327
 20
14.7705433455
 11
26.7948690631
 21
20.6083861351
  0
LINE
  5
219
100
AcDbEntity
  8
0
100
AcDbLine
 62
7
  6
CONTINUOUS
 10
37.342566479
 20
15.022282926
 11
37.7314570429
 21
14.7977619335
  0
LINE
  5
21A
100
AcDbEntity
  8
0
100
AcDbLine
 62
7
  6
CONTINUOUS
 10
25.6431846785
 20
22.158977746
 11
13.622319351
 21
29.0990705728
  0
LINE
  5
21B
100
AcDbEntity
  8
0
100
AcDbLine
 62
7
  6
CONTINUOUS
 10
13.8295137363
 20
29.2485608979
 11
36.0327591058
 21
16.4298012064
  0
LINE
  5
21C
100
AcDbEntity
  8
0
100
AcDbLine
 62
7
  6
CONTINUOUS
 10
36.9323841702
 20
16.6656629869
 11
37.7314570429
 21
16.2043284856
  0
LINE
  5
21D
100
AcDbEntity
  8
0
100
AcDbLine
 62
7
  6
CONTINUOUS
 10
36.808894347
 20
16.967344185
 11
37.3167842436
 21
16.6741195012
  0
LINE
  5
21E
100
AcDbEntity
  8
0
100
AcDbLine
 62
7
  6
CONTINUOUS
 10
35.3994658408
 20
26.3251137725
 11
13.1962204712
 21
39.1438734644
  0
LINE
  5
21F
100
AcDbEntity
  8
0
100
AcDbLine
 62
7
  6
CONTINUOUS
 10
14.4675417346
 20
27.4940401909
 11
13.622319351
 21
29.0990705728
  0
LINE
  5
220
100
AcDbEntity
  8
0
100
AcDbLine
 62
7
  6
CONTINUOUS
 10
12.9826343265
 20
39.4343432453
 11
35.6101455312
 21
26.3706391006
  0
LINE
  5
221
100
AcDbEntity
  8
0
100
AcDbLine
 62
7
  6
CONTINUOUS
 10
25.6431846785
 20
22.158977746
 11
26.4884070621
 21
20.5539473641
  0
LINE
  5
222
100
AcDbEntity
  8
0
100
AcDbLine
 62
7
  6
CONTINUOUS
 10
26.7948690631
 20
20.6083861351
 11
25.9210900363
 21
22.2676439963
  0
LINE
  5
223
100
AcDbEntity
  8
0
100
AcDbLine
 62
7
  6
CONTINUOUS
 10
71.9972925136
 20
142.3588743653
 11
26.4193518276
 21
116.0445951162
  0
LINE
  5
224
100
AcDbEntity
  8
0
100
AcDbLine
 62
7
  6
CONTINUOUS
 10
12.9826343265
 20
108.4223599915
 11
26.4193518276
 21
116.0445995111
  0
LINE
  5
225
100
AcDbEntity
  8
0
100
AcDbLine
 62
7
  6
CONTINUOUS
 10
37.438499919
 20
16.7443953488
 11
37.7314570429
 21
16.2043284856
  0
LINE
  5
226
100
AcDbEntity
  8
0
100
AcDbLine
 62
7
  6
CONTINUOUS
 10
36.0327591057
 20
16.4298012064
 11
36.9065381327
 21
14.7705433455
  0
LINE
  5
227
100
AcDbEntity
  8
0
100
AcDbLine
 62
7
  6
CONTINUOUS
 10
37.3779033579
 20
15.8196467823
 11
36.8178847601
 21
16.8830910103
  0
LINE
  5
228
100
AcDbEntity
  8
0
100
AcDbLine
 62
7
  6
CONTINUOUS
 10
12.9826343265
 20
39.4343432453
 11
12.9826343265
 21
108.4223599915
  0
LINE
  5
229
100
AcDbEntity
  8
0
100
AcDbLine
 62
7
  6
CONTINUOUS
 10
78.0361873502
 20
143.8858316846
 11
75.8639222675
 21
142.6316813406
  0
LINE
  5
22A
100
AcDbEntity
  8
0
100
AcDbLine
 62
7
  6
CONTINUOUS
 10
75.3491927686
 20
140.7014990655
 11
75.1086062294
 21
140.5625971915
  0
LINE
  5
22B
100
AcDbEntity
  8
0
100
AcDbLine
 62
7
  6
CONTINUOUS
 10
81.3773288983
 20
141.9568663516
 11
79.2050638156
 21
140.7027160076
  0
LINE
  5
22C
100
AcDbEntity
  8
0
100
AcDbLine
 62
7
  6
CONTINUOUS
 10
78.4497477775
 20
138.6336318583
 11
78.6903343167
 21
138.7725337324
  0
LINE
  5
22D
100
AcDbEntity
  8
0
100
AcDbLine
 62
7
  6
CONTINUOUS
 10
79.3962690944
 20
138.0871698838
 11
81.3563847032
 21
139.2188364032
  0
LINE
  5
22E
100
AcDbEntity
  8
0
100
AcDbLine
 62
7
  6
CONTINUOUS
 10
23.8517109794
 20
105.2227904239
 11
21.164716398
 21
103.6985395721
  0
LINE
  5
22F
100
AcDbEntity
  8
0
100
AcDbLine
 62
7
  6
CONTINUOUS
 10
51.6614026357
 20
38.3537176901
 11
51.4114129082
 21
38.3289641933
  0
LINE
  5
230
100
AcDbEntity
  8
0
100
AcDbLine
 62
7
  6
CONTINUOUS
 10
51.6589004289
 20
38.6759787534
 11
51.9088901572
 21
38.7007322503
  0
LINE
  5
231
100
AcDbEntity
  8
0
100
AcDbLine
 62
7
  6
CONTINUOUS
 10
51.6614026359
 20
38.3537176902
 11
51.3078461906
 21
38.5578389812
  0
LINE
  5
232
100
AcDbEntity
  8
0
100
AcDbLine
 62
7
  6
CONTINUOUS
 10
51.3078507174
 20
38.8786402895
 11
51.6588950058
 21
38.6759693601
  0
LINE
  5
233
100
AcDbEntity
  8
0
100
AcDbLine
 62
7
  6
CONTINUOUS
 10
51.555338238
 20
38.9048621802
 11
51.3078507174
 21
39.0477459344
  0
LINE
  5
234
100
AcDbEntity
  8
0
100
AcDbLine
 62
7
  6
CONTINUOUS
 10
52.191723543
 20
38.8640252072
 11
52.3685064729
 21
38.761961844
  0
LINE
  5
235
100
AcDbEntity
  8
0
100
AcDbLine
 62
7
  6
CONTINUOUS
 10
52.4673921097
 20
38.8353465456
 11
52.3047198741
 21
38.92926328
  0
LINE
  5
236
100
AcDbEntity
  8
0
100
AcDbLine
 62
7
  6
CONTINUOUS
 10
21.164716398
 20
72.2059511606
 11
21.164716398
 21
103.6985395721
  0
LINE
  5
237
100
AcDbEntity
  8
0
100
AcDbLine
 62
7
  6
CONTINUOUS
 10
23.8517109794
 20
73.7572789453
 11
23.8517109794
 21
105.2227904239
  0
LINE
  5
238
100
AcDbEntity
  8
0
100
AcDbLine
 62
7
  6
CONTINUOUS
 10
24.7171187434
 20
80.6587175249
 11
24.7171187434
 21
90.1383105878
  0
LINE
  5
239
100
AcDbEntity
  8
0
100
AcDbLine
 62
7
  6
CONTINUOUS
 10
25.0706736059
 20
89.9341902105
 11
25.0706736059
 21
80.4545971476
  0
LINE
  5
23A
100
AcDbEntity
  8
0
100
AcDbLine
 62
7
  6
CONTINUOUS
 10
26.0641401332
 20
91.9610686091
 11
26.0641401332
 21
92.2544881956
  0
LINE
  5
23B
100
AcDbEntity
  8
0
100
AcDbLine
 62
7
  6
CONTINUOUS
 10
27.0961085443
 20
89.1817395704
 11
26.9904733891
 21
88.9482826449
  0
LINE
  5
23C
100
AcDbEntity
  8
0
100
AcDbLine
 62
7
  6
CONTINUOUS
 10
26.5744331755
 20
96.3328954073
 11
25.5538082001
 21
94.8808841383
  0
LINE
  5
23D
100
AcDbEntity
  8
0
100
AcDbLine
 62
7
  6
CONTINUOUS
 10
55.1664797645
 20
43.2408121348
 11
55.0707646005
 21
43.2782871848
  0
LINE
  5
23E
100
AcDbEntity
  8
0
100
AcDbLine
 62
7
  6
CONTINUOUS
 10
54.2085277296
 20
43.7760886125
 11
54.3042428941
 21
43.7386135635
  0
LINE
  5
23F
100
AcDbEntity
  8
0
100
AcDbLine
 62
7
  6
CONTINUOUS
 10
55.4030320997
 20
43.7642182904
 11
55.5138817422
 21
43.720061234
  0
LINE
  5
240
100
AcDbEntity
  8
0
100
AcDbLine
 62
7
  6
CONTINUOUS
 10
51.3078507174
 20
42.395404248
 11
51.555338238
 21
42.2525204939
  0
LINE
  5
241
100
AcDbEntity
  8
0
100
AcDbLine
 62
7
  6
CONTINUOUS
 10
51.9088901565
 20
42.8648945775
 11
51.5114024247
 21
43.0943790349
  0
LINE
  5
242
100
AcDbEntity
  8
0
100
AcDbLine
 62
7
  6
CONTINUOUS
 10
52.1563671737
 20
43.5384983964
 11
52.6159939938
 21
43.2731387314
  0
LINE
  5
243
100
AcDbEntity
  8
0
100
AcDbLine
 62
7
  6
CONTINUOUS
 10
52.254514222
 20
43.5951632829
 11
52.7346459233
 21
43.3179653869
  0
LINE
  5
244
100
AcDbEntity
  8
0
100
AcDbLine
 62
7
  6
CONTINUOUS
 10
55.4030320993
 20
42.1626673591
 11
55.2471654746
 21
42.252654961
  0
LINE
  5
245
100
AcDbEntity
  8
0
100
AcDbLine
 62
7
  6
CONTINUOUS
 10
54.2085277297
 20
43.7760886125
 11
55.0707646005
 21
43.2782871847
  0
LINE
  5
246
100
AcDbEntity
  8
0
100
AcDbLine
 62
7
  6
CONTINUOUS
 10
54.3043487808
 20
43.7387974933
 11
55.1665856517
 21
43.2409960656
  0
LINE
  5
247
100
AcDbEntity
  8
0
100
AcDbLine
 62
7
  6
CONTINUOUS
 10
25.5538082001
 20
74.1662178157
 11
26.5744331755
 21
71.5357169991
  0
LINE
  5
248
100
AcDbEntity
  8
0
100
AcDbLine
 62
7
  6
CONTINUOUS
 10
27.7965558007
 20
76.3238176996
 11
27.7965558007
 21
76.501477701
  0
LINE
  5
249
100
AcDbEntity
  8
0
100
AcDbLine
 62
7
  6
CONTINUOUS
 10
28.4294168327
 20
88.7737466377
 11
28.4294168327
 21
87.7143228063
  0
LINE
  5
24A
100
AcDbEntity
  8
0
100
AcDbLine
 62
7
  6
CONTINUOUS
 10
28.4294168327
 20
86.5365300147
 11
28.4294168327
 21
85.4771061834
  0
LINE
  5
24B
100
AcDbEntity
  8
0
100
AcDbLine
 62
7
  6
CONTINUOUS
 10
28.4294168327
 20
84.2993133918
 11
28.4294168327
 21
83.2398895604
  0
LINE
  5
24C
100
AcDbEntity
  8
0
100
AcDbLine
 62
7
  6
CONTINUOUS
 10
30.8901866439
 20
77.5356870432
 11
30.8901866439
 21
86.1334574956
  0
LINE
  5
24D
100
AcDbEntity
  8
0
100
AcDbLine
 62
7
  6
CONTINUOUS
 10
31.2437415065
 20
85.9293371183
 11
31.2437415065
 21
77.3315666659
  0
LINE
  5
24E
100
AcDbEntity
  8
0
100
AcDbLine
 62
7
  6
CONTINUOUS
 10
27.6060901535
 20
88.2984201498
 11
27.7117253087
 21
88.5318770753
  0
LINE
  5
24F
100
AcDbEntity
  8
0
100
AcDbLine
 62
7
  6
CONTINUOUS
 10
27.0961085443
 20
86.9445229475
 11
26.9904733891
 21
86.711066022
  0
LINE
  5
250
100
AcDbEntity
  8
0
100
AcDbLine
 62
7
  6
CONTINUOUS
 10
27.6060901535
 20
86.0612035269
 11
27.7117253087
 21
86.2946604524
  0
LINE
  5
251
100
AcDbEntity
  8
0
100
AcDbLine
 62
7
  6
CONTINUOUS
 10
27.0961085443
 20
84.7073063246
 11
26.9904733891
 21
84.4738493991
  0
LINE
  5
252
100
AcDbEntity
  8
0
100
AcDbLine
 62
7
  6
CONTINUOUS
 10
27.6060901535
 20
83.8239869039
 11
27.7117253087
 21
84.0574438294
  0
LINE
  5
253
100
AcDbEntity
  8
0
100
AcDbLine
 62
7
  6
CONTINUOUS
 10
29.1043001637
 20
86.9118925403
 11
28.9986650085
 21
86.6784356148
  0
LINE
  5
254
100
AcDbEntity
  8
0
100
AcDbLine
 62
7
  6
CONTINUOUS
 10
27.0961085443
 20
82.4700897016
 11
26.9904733891
 21
82.2366327761
  0
LINE
  5
255
100
AcDbEntity
  8
0
100
AcDbLine
 62
7
  6
CONTINUOUS
 10
29.6142817729
 20
86.0285731197
 11
29.7199169282
 21
86.2620300452
  0
LINE
  5
256
100
AcDbEntity
  8
0
100
AcDbLine
 62
7
  6
CONTINUOUS
 10
27.6060901535
 20
81.586770281
 11
27.7117253087
 21
81.8202272065
  0
LINE
  5
257
100
AcDbEntity
  8
0
100
AcDbLine
 62
7
  6
CONTINUOUS
 10
29.1043001637
 20
84.6746759174
 11
28.9986650085
 21
84.4412189919
  0
LINE
  5
258
100
AcDbEntity
  8
0
100
AcDbLine
 62
7
  6
CONTINUOUS
 10
27.0961085443
 20
80.2328730787
 11
26.9904733891
 21
79.9994161532
  0
LINE
  5
259
100
AcDbEntity
  8
0
100
AcDbLine
 62
7
  6
CONTINUOUS
 10
29.6142817729
 20
83.7913564967
 11
29.7199169282
 21
84.0248134222
  0
LINE
  5
25A
100
AcDbEntity
  8
0
100
AcDbLine
 62
7
  6
CONTINUOUS
 10
27.6060901535
 20
79.3495536581
 11
27.7117253087
 21
79.5830105836
  0
LINE
  5
25B
100
AcDbEntity
  8
0
100
AcDbLine
 62
7
  6
CONTINUOUS
 10
29.1043001637
 20
82.4374592944
 11
28.9986650085
 21
82.2040023689
  0
LINE
  5
25C
100
AcDbEntity
  8
0
100
AcDbLine
 62
7
  6
CONTINUOUS
 10
30.6957035018
 20
85.7802341588
 11
30.5900724224
 21
85.5467702107
  0
LINE
  5
25D
100
AcDbEntity
  8
0
100
AcDbLine
 62
7
  6
CONTINUOUS
 10
29.6142817729
 20
81.5541398738
 11
29.7199169282
 21
81.7875967993
  0
LINE
  5
25E
100
AcDbEntity
  8
0
100
AcDbLine
 62
7
  6
CONTINUOUS
 10
29.1043001637
 20
80.2002426715
 11
28.9986650085
 21
79.966785746
  0
LINE
  5
25F
100
AcDbEntity
  8
0
100
AcDbLine
 62
7
  6
CONTINUOUS
 10
30.6957035018
 20
83.5430175359
 11
30.5900724224
 21
83.3095535878
  0
LINE
  5
260
100
AcDbEntity
  8
0
100
AcDbLine
 62
7
  6
CONTINUOUS
 10
28.6156831263
 20
91.0718937741
 11
29.6363081017
 21
92.5239050431
  0
LINE
  5
261
100
AcDbEntity
  8
0
100
AcDbLine
 62
7
  6
CONTINUOUS
 10
32.8182753692
 20
94.3610037355
 11
31.7976503938
 21
92.9089924665
  0
LINE
  5
262
100
AcDbEntity
  8
0
100
AcDbLine
 62
7
  6
CONTINUOUS
 10
32.9549781089
 20
94.3538196993
 11
32.2577358295
 21
93.3618748897
  0
LINE
  5
263
100
AcDbEntity
  8
0
100
AcDbLine
 62
7
  6
CONTINUOUS
 10
26.5744331755
 20
96.3328954073
 11
29.756400443
 21
98.1699940997
  0
LINE
  5
264
100
AcDbEntity
  8
0
100
AcDbLine
 62
7
  6
CONTINUOUS
 10
30.1519177532
 20
97.9416472401
 11
30.4206108738
 21
98.0967763596
  0
LINE
  5
265
100
AcDbEntity
  8
0
100
AcDbLine
 62
7
  6
CONTINUOUS
 10
28.6156831263
 20
95.1544058597
 11
31.7976503938
 21
96.9915045522
  0
LINE
  5
266
100
AcDbEntity
  8
0
100
AcDbLine
 62
7
  6
CONTINUOUS
 10
31.8677040757
 20
96.8109521729
 11
31.9066186045
 21
96.8334193525
  0
LINE
  5
267
100
AcDbEntity
  8
0
100
AcDbLine
 62
7
  6
CONTINUOUS
 10
26.0641401332
 20
92.2544881956
 11
26.4797421153
 21
92.4944346796
  0
LINE
  5
268
100
AcDbEntity
  8
0
100
AcDbLine
 62
7
  6
CONTINUOUS
 10
25.3570982866
 20
91.5528602453
 11
26.5721376287
 21
92.2543593491
  0
LINE
  5
269
100
AcDbEntity
  8
0
100
AcDbLine
 62
7
  6
CONTINUOUS
 10
97.3225570064
 20
132.7510928734
 11
95.1502919237
 21
131.4969425294
  0
LINE
  5
26A
100
AcDbEntity
  8
0
100
AcDbLine
 62
7
  6
CONTINUOUS
 10
29.6363081017
 20
71.8092387205
 11
28.6156831263
 21
74.4397395372
  0
LINE
  5
26B
100
AcDbEntity
  8
0
100
AcDbLine
 62
7
  6
CONTINUOUS
 10
33.0998935254
 20
93.6513864363
 11
33.0998935254
 21
91.5119459247
  0
LINE
  5
26C
100
AcDbEntity
  8
0
100
AcDbLine
 62
7
  6
CONTINUOUS
 10
33.0998935254
 20
75.3782308898
 11
33.0998935254
 21
73.238789741
  0
LINE
  5
26D
100
AcDbEntity
  8
0
100
AcDbLine
 62
7
  6
CONTINUOUS
 10
34.6024847332
 20
87.8685342771
 11
34.6024847332
 21
79.2706889681
  0
LINE
  5
26E
100
AcDbEntity
  8
0
100
AcDbLine
 62
7
  6
CONTINUOUS
 10
34.8323054319
 20
86.7315636796
 11
34.8323054319
 21
78.1582168164
  0
LINE
  5
26F
100
AcDbEntity
  8
0
100
AcDbLine
 62
7
  6
CONTINUOUS
 10
35.6101455312
 20
26.3706391006
 11
35.6101455312
 21
63.8660674353
  0
LINE
  5
270
100
AcDbEntity
  8
0
100
AcDbLine
 62
7
  6
CONTINUOUS
 10
29.6142817729
 20
79.3169232509
 11
29.7199169282
 21
79.5503801764
  0
LINE
  5
271
100
AcDbEntity
  8
0
100
AcDbLine
 62
7
  6
CONTINUOUS
 10
30.6957035018
 20
81.3058009129
 11
30.5900724224
 21
81.0723369649
  0
LINE
  5
272
100
AcDbEntity
  8
0
100
AcDbLine
 62
7
  6
CONTINUOUS
 10
26.5744331755
 20
75.6182290847
 11
25.5538082001
 21
74.1662178157
  0
LINE
  5
273
100
AcDbEntity
  8
0
100
AcDbLine
 62
7
  6
CONTINUOUS
 10
32.7745507905
 20
94.4367373794
 11
32.9204891456
 21
94.520994425
  0
LINE
  5
274
100
AcDbEntity
  8
0
100
AcDbLine
 62
7
  6
CONTINUOUS
 10
25.0706736059
 20
89.9341902105
 11
26.8905469928
 21
90.9848883285
  0
LINE
  5
275
100
AcDbEntity
  8
0
100
AcDbLine
 62
7
  6
CONTINUOUS
 10
29.6363081017
 20
92.5239050431
 11
32.8182753692
 21
94.3610037355
  0
LINE
  5
276
100
AcDbEntity
  8
0
100
AcDbLine
 62
7
  6
CONTINUOUS
 10
27.28301056
 20
91.1412808787
 11
27.8892494404
 21
91.4912909702
  0
LINE
  5
277
100
AcDbEntity
  8
0
100
AcDbLine
 62
7
  6
CONTINUOUS
 10
94.3949758858
 20
129.4278583801
 11
94.6355624255
 21
129.5667602544
  0
LINE
  5
278
100
AcDbEntity
  8
0
100
AcDbLine
 62
7
  6
CONTINUOUS
 10
32.019167842
 20
93.2241384201
 11
32.2577358295
 21
93.3618748897
  0
LINE
  5
279
100
AcDbEntity
  8
0
100
AcDbLine
 62
7
  6
CONTINUOUS
 10
94.6248037182
 20
129.2951702206
 11
49.0468630323
 21
102.9808953664
  0
LINE
  5
27A
100
AcDbEntity
  8
0
100
AcDbLine
 62
7
  6
CONTINUOUS
 10
28.6156831263
 20
91.0718937741
 11
31.7976503938
 21
92.9089924665
  0
LINE
  5
27B
100
AcDbEntity
  8
0
100
AcDbLine
 62
7
  6
CONTINUOUS
 10
27.0961004905
 20
89.1817534752
 11
28.3403207358
 21
89.9001000807
  0
LINE
  5
27C
100
AcDbEntity
  8
0
100
AcDbLine
 62
7
  6
CONTINUOUS
 10
100.6636985549
 20
130.8221275398
 11
98.4914334724
 21
129.567977196
  0
LINE
  5
27D
100
AcDbEntity
  8
0
100
AcDbLine
 62
7
  6
CONTINUOUS
 10
32.7984384484
 20
91.394395003
 11
29.4396952217
 21
89.4552352721
  0
LINE
  5
27E
100
AcDbEntity
  8
0
100
AcDbLine
 62
7
  6
CONTINUOUS
 10
27.6060982073
 20
88.2984062451
 11
29.2069033948
 21
89.2226260341
  0
LINE
  5
27F
100
AcDbEntity
  8
0
100
AcDbLine
 62
7
  6
CONTINUOUS
 10
27.0961004905
 20
86.9445368522
 11
29.859051982
 21
88.5397181176
  0
LINE
  5
280
100
AcDbEntity
  8
0
100
AcDbLine
 62
7
  6
CONTINUOUS
 10
97.9767039734
 20
127.6377949211
 11
96.4210755318
 21
126.7396577824
  0
LINE
  5
281
100
AcDbEntity
  8
0
100
AcDbLine
 62
7
  6
CONTINUOUS
 10
27.6060982073
 20
86.0611896222
 11
30.4610946394
 21
87.7095127416
  0
LINE
  5
282
100
AcDbEntity
  8
0
100
AcDbLine
 62
7
  6
CONTINUOUS
 10
29.1042921099
 20
86.911906445
 11
30.466727164
 21
87.6985039949
  0
LINE
  5
283
100
AcDbEntity
  8
0
100
AcDbLine
 62
7
  6
CONTINUOUS
 10
49.0468630323
 20
102.9808953664
 11
38.2971401126
 21
96.8829066987
  0
LINE
  5
284
100
AcDbEntity
  8
0
100
AcDbLine
 62
7
  6
CONTINUOUS
 10
21.164716398
 20
72.2059511606
 11
35.6101455312
 21
63.8660674353
  0
LINE
  5
285
100
AcDbEntity
  8
0
100
AcDbLine
 62
7
  6
CONTINUOUS
 10
28.6156831263
 20
70.3572274515
 11
26.5744331755
 21
71.5357169991
  0
LINE
  5
286
100
AcDbEntity
  8
0
100
AcDbLine
 62
7
  6
CONTINUOUS
 10
38.2971401126
 20
65.41739522
 11
29.1782899501
 21
70.6820467137
  0
LINE
  5
287
100
AcDbEntity
  8
0
100
AcDbLine
 62
7
  6
CONTINUOUS
 10
26.2496175874
 20
72.372878239
 11
23.8517109794
 21
73.7572789453
  0
LINE
  5
288
100
AcDbEntity
  8
0
100
AcDbLine
 62
7
  6
CONTINUOUS
 10
51.4114129082
 20
38.3289641933
 11
51.3078507174
 21
38.557846822
  0
LINE
  5
289
100
AcDbEntity
  8
0
100
AcDbLine
 62
7
  6
CONTINUOUS
 10
51.5553382379
 20
38.9048637766
 11
51.6589004289
 21
38.6759787534
  0
LINE
  5
28A
100
AcDbEntity
  8
0
100
AcDbLine
 62
7
  6
CONTINUOUS
 10
31.7976503938
 20
76.2768382296
 11
32.8182753692
 21
73.646337413
  0
LINE
  5
28B
100
AcDbEntity
  8
0
100
AcDbLine
 62
7
  6
CONTINUOUS
 10
32.2577358295
 20
76.4847699277
 11
33.0998935254
 21
74.3142405362
  0
LINE
  5
28C
100
AcDbEntity
  8
0
100
AcDbLine
 62
7
  6
CONTINUOUS
 10
25.5538082001
 20
94.8808841383
 11
26.5744331755
 21
92.2503833217
  0
LINE
  5
28D
100
AcDbEntity
  8
0
100
AcDbLine
 62
7
  6
CONTINUOUS
 10
29.6363081017
 20
92.5239050431
 11
28.6156831263
 21
95.1544058597
  0
LINE
  5
28E
100
AcDbEntity
  8
0
100
AcDbLine
 62
7
  6
CONTINUOUS
 10
37.3779033579
 20
15.0426845607
 11
37.3779033579
 21
15.8196467823
  0
LINE
  5
28F
100
AcDbEntity
  8
0
100
AcDbLine
 62
7
  6
CONTINUOUS
 10
37.7314570429
 20
14.7977619335
 11
37.7314570429
 21
16.2043284856
  0
LINE
  5
290
100
AcDbEntity
  8
0
100
AcDbLine
 62
7
  6
CONTINUOUS
 10
38.2971401126
 20
65.41739522
 11
38.2971401126
 21
96.8829066986
  0
LINE
  5
291
100
AcDbEntity
  8
0
100
AcDbLine
 62
7
  6
CONTINUOUS
 10
28.6156831263
 20
70.3572274515
 11
29.6363081017
 21
71.8092387205
  0
LINE
  5
292
100
AcDbEntity
  8
0
100
AcDbLine
 62
7
  6
CONTINUOUS
 10
32.8182753692
 20
73.646337413
 11
31.7976503938
 21
72.1943261439
  0
LINE
  5
293
100
AcDbEntity
  8
0
100
AcDbLine
 62
7
  6
CONTINUOUS
 10
33.0998935254
 20
74.0086204962
 11
32.2577358295
 21
72.8105090506
  0
LINE
  5
294
100
AcDbEntity
  8
0
100
AcDbLine
 62
7
  6
CONTINUOUS
 10
27.0961004905
 20
84.7073202293
 11
29.4189872598
 21
86.0484315255
  0
LINE
  5
295
100
AcDbEntity
  8
0
100
AcDbLine
 62
7
  6
CONTINUOUS
 10
29.6142898267
 20
86.028559215
 11
30.7682571713
 21
86.694798595
  0
LINE
  5
296
100
AcDbEntity
  8
0
100
AcDbLine
 62
7
  6
CONTINUOUS
 10
31.2437415065
 20
85.9293371183
 11
34.6024847332
 21
87.8684968492
  0
LINE
  5
297
100
AcDbEntity
  8
0
100
AcDbLine
 62
7
  6
CONTINUOUS
 10
27.6060982073
 20
83.8239729992
 11
30.5900764004
 21
85.5467633286
  0
LINE
  5
298
100
AcDbEntity
  8
0
100
AcDbLine
 62
7
  6
CONTINUOUS
 10
29.1042921099
 20
84.6746898221
 11
30.8901866439
 21
85.7057703573
  0
LINE
  5
299
100
AcDbEntity
  8
0
100
AcDbLine
 62
7
  6
CONTINUOUS
 10
52.3685064728
 20
97.5501358772
 11
51.6614026358
 21
97.1418917235
  0
LINE
  5
29A
100
AcDbEntity
  8
0
100
AcDbLine
 62
7
  6
CONTINUOUS
 10
27.0961004905
 20
82.4701036064
 11
29.4189872598
 21
83.8112149025
  0
LINE
  5
29B
100
AcDbEntity
  8
0
100
AcDbLine
 62
7
  6
CONTINUOUS
 10
51.9088901562
 20
96.7540541082
 11
52.6159939933
 21
97.162298262
  0
LINE
  5
29C
100
AcDbEntity
  8
0
100
AcDbLine
 62
7
  6
CONTINUOUS
 10
29.6142898267
 20
83.791342592
 11
30.8901866439
 21
84.5279775657
  0
LINE
  5
29D
100
AcDbEntity
  8
0
100
AcDbLine
 62
7
  6
CONTINUOUS
 10
27.2533648138
 20
81.7147669819
 11
25.0706736059
 21
80.4545971476
  0
LINE
  5
29E
100
AcDbEntity
  8
0
100
AcDbLine
 62
7
  6
CONTINUOUS
 10
27.6060982073
 20
81.5867563763
 11
30.5900764004
 21
83.3095467056
  0
LINE
  5
29F
100
AcDbEntity
  8
0
100
AcDbLine
 62
7
  6
CONTINUOUS
 10
29.1042921099
 20
82.4374731992
 11
30.8901866439
 21
83.4685537343
  0
LINE
  5
2A0
100
AcDbEntity
  8
0
100
AcDbLine
 62
7
  6
CONTINUOUS
 10
27.0961004905
 20
80.2328869834
 11
29.4189872598
 21
81.5739982796
  0
LINE
  5
2A1
100
AcDbEntity
  8
0
100
AcDbLine
 62
7
  6
CONTINUOUS
 10
29.6142898267
 20
81.5541259691
 11
30.8901866439
 21
82.2907609428
  0
LINE
  5
2A2
100
AcDbEntity
  8
0
100
AcDbLine
 62
7
  6
CONTINUOUS
 10
26.5744331755
 20
75.6182290847
 11
28.6156831263
 21
74.4397395372
  0
LINE
  5
2A3
100
AcDbEntity
  8
0
100
AcDbLine
 62
7
  6
CONTINUOUS
 10
31.5123254185
 20
76.4415669542
 11
31.7976503938
 21
76.2768382296
  0
LINE
  5
2A4
100
AcDbEntity
  8
0
100
AcDbLine
 62
7
  6
CONTINUOUS
 10
31.7976503938
 20
96.9915045522
 11
32.8182753692
 21
94.3610037355
  0
LINE
  5
2A5
100
AcDbEntity
  8
0
100
AcDbLine
 62
7
  6
CONTINUOUS
 10
27.6060982073
 20
79.3495397534
 11
30.5900764004
 21
81.0723300827
  0
LINE
  5
2A6
100
AcDbEntity
  8
0
100
AcDbLine
 62
7
  6
CONTINUOUS
 10
29.1042921099
 20
80.2002565762
 11
30.8901866439
 21
81.2313371114
  0
LINE
  5
2A7
100
AcDbEntity
  8
0
100
AcDbLine
 62
7
  6
CONTINUOUS
 10
52.6159939933
 20
92.9981359347
 11
51.9088901562
 21
92.5898917809
  0
LINE
  5
2A8
100
AcDbEntity
  8
0
100
AcDbLine
 62
7
  6
CONTINUOUS
 10
51.6614026358
 20
92.2428772207
 11
52.3685064728
 21
92.6511213745
  0
LINE
  5
2A9
100
AcDbEntity
  8
0
100
AcDbLine
 62
7
  6
CONTINUOUS
 10
29.6142898267
 20
79.3169093462
 11
30.8901866439
 21
80.0535443199
  0
LINE
  5
2AA
100
AcDbEntity
  8
0
100
AcDbLine
 62
7
  6
CONTINUOUS
 10
27.221372572
 20
77.1305627111
 11
30.5801157987
 21
79.069722442
  0
LINE
  5
2AB
100
AcDbEntity
  8
0
100
AcDbLine
 62
7
  6
CONTINUOUS
 10
26.5744331755
 20
75.6182290847
 11
27.9835181834
 21
76.4317598372
  0
LINE
  5
2AC
100
AcDbEntity
  8
0
100
AcDbLine
 62
7
  6
CONTINUOUS
 10
21.164716398
 20
72.2059511606
 11
23.8517109794
 21
73.7572789453
  0
LINE
  5
2AD
100
AcDbEntity
  8
0
100
AcDbLine
 62
7
  6
CONTINUOUS
 10
30.7730615184
 20
77.1317410068
 11
29.3780572337
 21
76.3263397151
  0
LINE
  5
2AE
100
AcDbEntity
  8
0
100
AcDbLine
 62
7
  6
CONTINUOUS
 10
34.6024847332
 20
79.2707263968
 11
31.2437415065
 21
77.3315666659
  0
LINE
  5
2AF
100
AcDbEntity
  8
0
100
AcDbLine
 62
7
  6
CONTINUOUS
 10
30.6037625543
 20
75.9170110711
 11
33.9625057811
 21
77.856170802
  0
LINE
  5
2B0
100
AcDbEntity
  8
0
100
AcDbLine
 62
7
  6
CONTINUOUS
 10
28.6156831263
 20
74.4397395372
 11
31.7976503938
 21
76.2768382296
  0
LINE
  5
2B1
100
AcDbEntity
  8
0
100
AcDbLine
 62
7
  6
CONTINUOUS
 10
31.8226339252
 20
76.2335652255
 11
32.2577358295
 21
76.4847699277
  0
LINE
  5
2B2
100
AcDbEntity
  8
0
100
AcDbLine
 62
7
  6
CONTINUOUS
 10
27.2829762977
 20
76.692990375
 11
29.439727162
 21
75.8887426922
  0
LINE
  5
2B3
100
AcDbEntity
  8
0
100
AcDbLine
 62
7
  6
CONTINUOUS
 10
29.3780794895
 20
76.326331416
 11
27.2213438513
 21
77.130573421
  0
LINE
  5
2B4
100
AcDbEntity
  8
0
100
AcDbLine
 62
7
  6
CONTINUOUS
 10
31.922442928
 20
76.6783469953
 11
32.2577358295
 21
76.4847699277
  0
LINE
  5
2B5
100
AcDbEntity
  8
0
100
AcDbLine
 62
7
  6
CONTINUOUS
 10
51.3078507174
 20
96.5295176398
 11
51.3078507174
 21
92.4470071508
  0
LINE
  5
2B6
100
AcDbEntity
  8
0
100
AcDbLine
 62
7
  6
CONTINUOUS
 10
51.3078507174
 20
76.2802576944
 11
51.3078507174
 21
72.1977472058
  0
LINE
  5
2B7
100
AcDbEntity
  8
0
100
AcDbLine
 62
7
  6
CONTINUOUS
 10
51.3078507174
 20
42.6403581093
 11
51.3078507174
 21
38.5578476202
  0
LINE
  5
2B8
100
AcDbEntity
  8
0
100
AcDbLine
 62
7
  6
CONTINUOUS
 10
51.555338238
 20
38.9048621802
 11
51.555338238
 21
42.2525204939
  0
LINE
  5
2B9
100
AcDbEntity
  8
0
100
AcDbLine
 62
7
  6
CONTINUOUS
 10
51.5553382377
 20
72.544761766
 11
51.5553382377
 21
75.8924200794
  0
LINE
  5
2BA
100
AcDbEntity
  8
0
100
AcDbLine
 62
7
  6
CONTINUOUS
 10
51.5553382377
 20
92.7940217108
 11
51.5553382377
 21
96.1416800244
  0
LINE
  5
2BB
100
AcDbEntity
  8
0
100
AcDbLine
 62
7
  6
CONTINUOUS
 10
33.3068846903
 20
75.8357498262
 11
34.1554092949
 21
76.3256428109
  0
LINE
  5
2BC
100
AcDbEntity
  8
0
100
AcDbLine
 62
7
  6
CONTINUOUS
 10
34.2576215413
 20
76.3643158143
 11
33.4090969367
 21
75.8744228296
  0
LINE
  5
2BD
100
AcDbEntity
  8
0
100
AcDbLine
 62
7
  6
CONTINUOUS
 10
32.7345022016
 20
73.8622496147
 11
33.0998935254
 21
74.0732071346
  0
LINE
  5
2BE
100
AcDbEntity
  8
0
100
AcDbLine
 62
7
  6
CONTINUOUS
 10
29.6363081017
 20
71.8092387205
 11
32.8182753692
 21
73.646337413
  0
LINE
  5
2BF
100
AcDbEntity
  8
0
100
AcDbLine
 62
7
  6
CONTINUOUS
 10
32.2123492515
 20
72.7843052539
 11
32.2577358295
 21
72.8105090506
  0
LINE
  5
2C0
100
AcDbEntity
  8
0
100
AcDbLine
 62
7
  6
CONTINUOUS
 10
28.6156831263
 20
70.3572274515
 11
31.7976503938
 21
72.1943261439
  0
LINE
  5
2C1
100
AcDbEntity
  8
0
100
AcDbLine
 62
7
  6
CONTINUOUS
 10
34.1555099895
 20
76.3254678766
 11
34.2576215413
 21
76.3643158143
  0
LINE
  5
2C2
100
AcDbEntity
  8
0
100
AcDbLine
 62
7
  6
CONTINUOUS
 10
33.8795523284
 20
76.0525207265
 11
33.3069853848
 21
75.8355748919
  0
LINE
  5
2C3
100
AcDbEntity
  8
0
100
AcDbLine
 62
7
  6
CONTINUOUS
 10
51.6614026363
 20
71.993617276
 11
51.4114129082
 21
71.9688637791
  0
LINE
  5
2C4
100
AcDbEntity
  8
0
100
AcDbLine
 62
7
  6
CONTINUOUS
 10
51.6589004289
 20
72.3158783391
 11
51.9088901567
 21
72.340631836
  0
LINE
  5
2C5
100
AcDbEntity
  8
0
100
AcDbLine
 62
7
  6
CONTINUOUS
 10
30.5800870162
 20
79.069733175
 11
30.8901866439
 21
78.9540977017
  0
LINE
  5
2C6
100
AcDbEntity
  8
0
100
AcDbLine
 62
7
  6
CONTINUOUS
 10
51.6614026358
 20
71.9936172759
 11
51.3078461901
 21
72.1977385673
  0
LINE
  5
2C7
100
AcDbEntity
  8
0
100
AcDbLine
 62
7
  6
CONTINUOUS
 10
51.3078507174
 20
72.5185398752
 11
51.6588950053
 21
72.3158689461
  0
LINE
  5
2C8
100
AcDbEntity
  8
0
100
AcDbLine
 62
7
  6
CONTINUOUS
 10
51.3078507174
 20
72.6876452909
 11
51.5553382377
 21
72.544761766
  0
LINE
  5
2C9
100
AcDbEntity
  8
0
100
AcDbLine
 62
7
  6
CONTINUOUS
 10
52.191723543
 20
72.5039247933
 11
52.3685064733
 21
72.4018614299
  0
LINE
  5
2CA
100
AcDbEntity
  8
0
100
AcDbLine
 62
7
  6
CONTINUOUS
 10
52.4673921097
 20
72.4752461314
 11
52.3047198737
 21
72.5691628659
  0
LINE
  5
2CB
100
AcDbEntity
  8
0
100
AcDbLine
 62
7
  6
CONTINUOUS
 10
51.5553382377
 20
75.8924200794
 11
51.3078507174
 21
76.0353040626
  0
LINE
  5
2CC
100
AcDbEntity
  8
0
100
AcDbLine
 62
7
  6
CONTINUOUS
 10
51.9088901562
 20
76.5047941634
 11
51.5114024247
 21
76.7342786206
  0
LINE
  5
2CD
100
AcDbEntity
  8
0
100
AcDbLine
 62
7
  6
CONTINUOUS
 10
27.2213452455
 20
90.7748889373
 11
29.3780794881
 21
89.0888045695
  0
LINE
  5
2CE
100
AcDbEntity
  8
0
100
AcDbLine
 62
7
  6
CONTINUOUS
 10
29.4397271589
 20
89.4552103044
 11
27.2829779553
 21
91.1413063682
  0
LINE
  5
2CF
100
AcDbEntity
  8
0
100
AcDbLine
 62
7
  6
CONTINUOUS
 10
31.2589172918
 20
92.5979566217
 11
32.7984703662
 21
91.3943700505
  0
LINE
  5
2D0
100
AcDbEntity
  8
0
100
AcDbLine
 62
7
  6
CONTINUOUS
 10
51.4114129082
 20
71.9688637791
 11
51.3078507172
 21
72.1977464086
  0
LINE
  5
2D1
100
AcDbEntity
  8
0
100
AcDbLine
 62
7
  6
CONTINUOUS
 10
51.555338238
 20
72.5447633624
 11
51.6589004289
 21
72.3158783391
  0
LINE
  5
2D2
100
AcDbEntity
  8
0
100
AcDbLine
 62
7
  6
CONTINUOUS
 10
52.368506473
 20
77.3008759325
 11
51.6614026359
 21
76.8926317787
  0
LINE
  5
2D3
100
AcDbEntity
  8
0
100
AcDbLine
 62
7
  6
CONTINUOUS
 10
51.9088901562
 20
76.5047941634
 11
52.6159939933
 21
76.9130383172
  0
LINE
  5
2D4
100
AcDbEntity
  8
0
100
AcDbLine
 62
7
  6
CONTINUOUS
 10
55.1664797645
 20
76.8807117206
 11
55.0707646006
 21
76.9181867705
  0
LINE
  5
2D5
100
AcDbEntity
  8
0
100
AcDbLine
 62
7
  6
CONTINUOUS
 10
54.2085277299
 20
77.4159881982
 11
54.3042428944
 21
77.3785131497
  0
LINE
  5
2D6
100
AcDbEntity
  8
0
100
AcDbLine
 62
7
  6
CONTINUOUS
 10
55.4030320991
 20
77.4041178762
 11
55.5138817423
 21
77.3599608197
  0
LINE
  5
2D7
100
AcDbEntity
  8
0
100
AcDbLine
 62
7
  6
CONTINUOUS
 10
52.1563671737
 20
77.1783979821
 11
52.6159939933
 21
76.9130383172
  0
LINE
  5
2D8
100
AcDbEntity
  8
0
100
AcDbLine
 62
7
  6
CONTINUOUS
 10
52.254514222
 20
77.2350628686
 11
52.7346459228
 21
76.9578649729
  0
LINE
  5
2D9
100
AcDbEntity
  8
0
100
AcDbLine
 62
7
  6
CONTINUOUS
 10
28.6156831263
 20
91.0718937741
 11
26.5744331755
 21
92.2503833217
  0
LINE
  5
2DA
100
AcDbEntity
  8
0
100
AcDbLine
 62
7
  6
CONTINUOUS
 10
55.4030320993
 20
75.8025669447
 11
55.2471654746
 21
75.8925545467
  0
LINE
  5
2DB
100
AcDbEntity
  8
0
100
AcDbLine
 62
7
  6
CONTINUOUS
 10
54.2085277297
 20
77.4159881982
 11
55.0707646
 21
76.9181867708
  0
LINE
  5
2DC
100
AcDbEntity
  8
0
100
AcDbLine
 62
7
  6
CONTINUOUS
 10
54.3043487808
 20
77.378697079
 11
55.1665856512
 21
76.8808956516
  0
LINE
  5
2DD
100
AcDbEntity
  8
0
100
AcDbLine
 62
7
  6
CONTINUOUS
 10
26.5744331755
 20
96.3328954073
 11
28.6156831263
 21
95.1544058597
  0
LINE
  5
2DE
100
AcDbEntity
  8
0
100
AcDbLine
 62
7
  6
CONTINUOUS
 10
51.4114129082
 20
92.2181237239
 11
51.3078507172
 21
92.4470063534
  0
LINE
  5
2DF
100
AcDbEntity
  8
0
100
AcDbLine
 62
7
  6
CONTINUOUS
 10
75.3491927686
 20
140.7014990654
 11
75.8639222675
 21
142.6316813405
  0
LINE
  5
2E0
100
AcDbEntity
  8
0
100
AcDbLine
 62
7
  6
CONTINUOUS
 10
79.2050638156
 20
140.7027160076
 11
78.6903343167
 21
138.7725337325
  0
LINE
  5
2E1
100
AcDbEntity
  8
0
100
AcDbLine
 62
7
  6
CONTINUOUS
 10
38.2971401126
 20
65.41739522
 11
35.6101455312
 21
63.8660674353
  0
LINE
  5
2E2
100
AcDbEntity
  8
0
100
AcDbLine
 62
7
  6
CONTINUOUS
 10
52.6159939933
 20
72.7488759899
 11
51.9088901562
 21
72.3406318361
  0
LINE
  5
2E3
100
AcDbEntity
  8
0
100
AcDbLine
 62
7
  6
CONTINUOUS
 10
51.6614026358
 20
71.9936172759
 11
52.3685064733
 21
72.4018614299
  0
LINE
  5
2E4
100
AcDbEntity
  8
0
100
AcDbLine
 62
7
  6
CONTINUOUS
 10
29.756400443
 20
98.1699940997
 11
31.7976503938
 21
96.9915045522
  0
LINE
  5
2E5
100
AcDbEntity
  8
0
100
AcDbLine
 62
7
  6
CONTINUOUS
 10
96.4210755316
 20
59.99055382
 11
97.4817312874
 21
59.3781977871
  0
LINE
  5
2E6
100
AcDbEntity
  8
0
100
AcDbLine
 62
7
  6
CONTINUOUS
 10
30.4206108738
 20
98.0967763596
 11
30.9768436746
 21
97.7756424674
  0
LINE
  5
2E7
100
AcDbEntity
  8
0
100
AcDbLine
 62
7
  6
CONTINUOUS
 10
12.9826343265
 20
108.4223599915
 11
21.164716398
 21
103.6985395721
  0
LINE
  5
2E8
100
AcDbEntity
  8
0
100
AcDbLine
 62
7
  6
CONTINUOUS
 10
51.555338238
 20
92.7940233072
 11
51.6589004289
 21
92.5651382839
  0
LINE
  5
2E9
100
AcDbEntity
  8
0
100
AcDbLine
 62
7
  6
CONTINUOUS
 10
23.8517109794
 20
105.2227904239
 11
38.2971401126
 21
96.8829066987
  0
LINE
  5
2EA
100
AcDbEntity
  8
0
100
AcDbLine
 62
7
  6
CONTINUOUS
 10
51.6614026358
 20
92.2428772207
 11
51.3078461901
 21
92.4469985121
  0
LINE
  5
2EB
100
AcDbEntity
  8
0
100
AcDbLine
 62
7
  6
CONTINUOUS
 10
51.3078507174
 20
92.76779982
 11
51.6588950053
 21
92.5651288909
  0
LINE
  5
2EC
100
AcDbEntity
  8
0
100
AcDbLine
 62
7
  6
CONTINUOUS
 10
51.3078507174
 20
92.9369052356
 11
51.5553382377
 21
92.7940217108
  0
LINE
  5
2ED
100
AcDbEntity
  8
0
100
AcDbLine
 62
7
  6
CONTINUOUS
 10
52.1917235426
 20
92.7531847379
 11
52.3685064728
 21
92.6511213745
  0
LINE
  5
2EE
100
AcDbEntity
  8
0
100
AcDbLine
 62
7
  6
CONTINUOUS
 10
52.4673921097
 20
92.7245060762
 11
52.3047198738
 21
92.8184228107
  0
LINE
  5
2EF
100
AcDbEntity
  8
0
100
AcDbLine
 62
7
  6
CONTINUOUS
 10
13.3409860936
 20
39.2274534366
 11
13.1962204712
 21
39.1438734644
  0
LINE
  5
2F0
100
AcDbEntity
  8
0
100
AcDbLine
 62
7
  6
CONTINUOUS
 10
51.6614026355
 20
92.2428772206
 11
51.4114129082
 21
92.2181237239
  0
LINE
  5
2F1
100
AcDbEntity
  8
0
100
AcDbLine
 62
7
  6
CONTINUOUS
 10
51.6589004289
 20
92.5651382839
 11
51.9088901566
 21
92.5898917808
  0
LINE
  5
2F2
100
AcDbEntity
  8
0
100
AcDbLine
 62
7
  6
CONTINUOUS
 10
55.1664797645
 20
97.1299716654
 11
55.0707646005
 21
97.1674467153
  0
LINE
  5
2F3
100
AcDbEntity
  8
0
100
AcDbLine
 62
7
  6
CONTINUOUS
 10
54.2085277297
 20
97.665248143
 11
54.3042428944
 21
97.6277730945
  0
LINE
  5
2F4
100
AcDbEntity
  8
0
100
AcDbLine
 62
7
  6
CONTINUOUS
 10
51.5553382377
 20
96.1416800244
 11
51.3078507174
 21
96.2845640076
  0
LINE
  5
2F5
100
AcDbEntity
  8
0
100
AcDbLine
 62
7
  6
CONTINUOUS
 10
51.9088901562
 20
96.7540541082
 11
51.5114024247
 21
96.9835385654
  0
LINE
  5
2F6
100
AcDbEntity
  8
0
100
AcDbLine
 62
7
  6
CONTINUOUS
 10
52.1563671737
 20
97.4276579269
 11
52.6159939933
 21
97.162298262
  0
LINE
  5
2F7
100
AcDbEntity
  8
0
100
AcDbLine
 62
7
  6
CONTINUOUS
 10
52.254514222
 20
97.4843228134
 11
52.7346459228
 21
97.2071249177
  0
LINE
  5
2F8
100
AcDbEntity
  8
0
100
AcDbLine
 62
7
  6
CONTINUOUS
 10
55.4030320993
 20
96.0518268897
 11
55.2471654747
 21
96.1418144916
  0
LINE
  5
2F9
100
AcDbEntity
  8
0
100
AcDbLine
 62
7
  6
CONTINUOUS
 10
54.2085277297
 20
97.665248143
 11
55.0707646
 21
97.1674467156
  0
LINE
  5
2FA
100
AcDbEntity
  8
0
100
AcDbLine
 62
7
  6
CONTINUOUS
 10
54.3043487808
 20
97.6279570239
 11
55.1665856512
 21
97.1301555964
  0
LINE
  5
2FB
100
AcDbEntity
  8
0
100
AcDbLine
 62
7
  6
CONTINUOUS
 10
81.3563847032
 20
139.2188364032
 11
81.3773288983
 21
139.5073591002
  0
LINE
  5
2FC
100
AcDbEntity
  8
0
100
AcDbLine
 62
7
  6
CONTINUOUS
 10
13.8408257757
 20
29.2296286912
 11
13.622319351
 21
29.0990705728
  0
LINE
  5
2FD
100
AcDbEntity
  8
0
100
AcDbLine
 62
7
  6
CONTINUOUS
 10
55.4030320997
 20
97.6533778209
 11
55.5138817423
 21
97.6092207645
  0
LINE
  5
2FE
100
AcDbEntity
  8
0
100
AcDbLine
 62
7
  6
CONTINUOUS
 10
49.0468630655
 20
102.9808997803
 11
26.4193518608
 21
116.044603925
  0
LINE
  5
2FF
100
AcDbEntity
  8
0
100
AcDbLine
 62
7
  6
CONTINUOUS
 10
81.3773288983
 20
139.5073591002
 11
81.3773288983
 21
141.9568663516
  0
LINE
  5
300
100
AcDbEntity
  8
0
100
AcDbLine
 62
7
  6
CONTINUOUS
 10
94.6355624255
 20
129.5667602544
 11
95.1502919241
 21
131.4969425292
  0
LINE
  5
301
100
AcDbEntity
  8
0
100
AcDbLine
 62
7
  6
CONTINUOUS
 10
98.4914334724
 20
129.567977196
 11
97.9767039734
 21
127.6377949211
  0
LINE
  5
302
100
AcDbEntity
  8
0
100
AcDbLine
 62
7
  6
CONTINUOUS
 10
52.3685064729
 20
43.6609763467
 11
51.6614026359
 21
43.252732193
  0
LINE
  5
303
100
AcDbEntity
  8
0
100
AcDbLine
 62
7
  6
CONTINUOUS
 10
51.9088901565
 20
42.8648945775
 11
52.6159939938
 21
43.2731387314
  0
LINE
  5
304
100
AcDbEntity
  8
0
100
AcDbLine
 62
7
  6
CONTINUOUS
 10
25.8722468804
 20
22.2958429668
 11
25.6431846785
 21
22.158977746
  0
LINE
  5
305
100
AcDbEntity
  8
0
100
AcDbLine
 62
7
  6
CONTINUOUS
 10
52.6159939938
 20
39.108976404
 11
51.9088901565
 21
38.7007322501
  0
LINE
  5
306
100
AcDbEntity
  8
0
100
AcDbLine
 62
7
  6
CONTINUOUS
 10
51.6614026359
 20
38.3537176902
 11
52.3685064729
 21
38.761961844
  0
LINE
  5
307
100
AcDbEntity
  8
0
100
AcDbLine
 62
7
  6
CONTINUOUS
 10
35.5442314632
 20
26.4086937446
 11
35.3994658408
 21
26.3251137725
  0
LINE
  5
308
100
AcDbEntity
  8
0
100
AcDbLine
 62
7
  6
CONTINUOUS
 10
26.4884070621
 20
20.5539473641
 11
26.7418268578
 21
20.700258478
  0
LINE
  5
309
100
AcDbEntity
  8
0
100
AcDbLine
 62
7
  6
CONTINUOUS
 10
36.6369192888
 20
26.9530625449
 11
35.6101455312
 21
26.3706391006
  0
LINE
  5
30A
100
AcDbEntity
  8
0
100
AcDbLine
 62
7
  6
CONTINUOUS
 10
96.4210755316
 20
58.7658315563
 11
96.4210755316
 21
117.9341972666
  0
LINE
  5
30B
100
AcDbEntity
  8
0
100
AcDbLine
 62
7
  6
CONTINUOUS
 10
97.4817312874
 20
49.2943929357
 11
97.4817312874
 21
59.3781977871
  0
LINE
  5
30C
100
AcDbEntity
  8
0
100
AcDbLine
 62
7
  6
CONTINUOUS
 10
100.1555561796
 20
121.372560856
 11
100.6636985549
 21
128.3726202888
  0
LINE
  5
30D
100
AcDbEntity
  8
0
100
AcDbLine
 62
7
  6
CONTINUOUS
 10
97.4817312874
 20
59.3781977871
 11
96.4210755316
 21
58.7658315563
  0
LINE
  5
30E
100
AcDbEntity
  8
0
100
AcDbLine
 62
7
  6
CONTINUOUS
 10
100.6636985549
 20
128.3726202888
 11
100.6636985549
 21
130.8221275398
  0
LINE
  5
30F
100
AcDbEntity
  8
0
100
AcDbLine
 62
7
  6
CONTINUOUS
 10
37.438499919
 20
16.7443953488
 11
37.3167842436
 21
16.6741195012
  0
LINE
  5
310
100
AcDbEntity
  8
0
100
AcDbLine
 62
7
  6
CONTINUOUS
 10
36.9065381327
 20
14.7705433455
 11
37.3779033579
 21
15.0426845607
  0
LINE
  5
311
100
AcDbEntity
  8
0
100
AcDbLine
 62
7
  6
CONTINUOUS
 10
97.4817312874
 20
49.2943929357
 11
37.7314570429
 21
14.7977619335
  0
LINE
  5
312
100
AcDbEntity
  8
0
100
AcDbLine
 62
7
  6
CONTINUOUS
 10
71.9972925137
 20
142.3588743656
 11
94.6248037184
 21
129.2951702209
  0
LINE
  5
313
100
AcDbEntity
  8
0
100
AcDbLine
 62
7
  6
CONTINUOUS
 10
75.3491927687
 20
140.7014990654
 11
78.6903343169
 21
138.7725337325
  0
LINE
  5
314
100
AcDbEntity
  8
0
100
AcDbLine
 62
7
  6
CONTINUOUS
 10
94.635562425
 20
129.5667602547
 11
97.9767039735
 21
127.6377949211
  0
LINE
  5
315
100
AcDbEntity
  8
0
100
AcDbLine
 62
7
  6
CONTINUOUS
 10
96.4210755318
 20
126.7396577824
 11
94.6248037182
 21
129.2951702206
  0
LINE
  5
316
100
AcDbEntity
  8
0
100
AcDbLine
 62
7
  6
CONTINUOUS
 10
75.8639222675
 20
142.6316813406
 11
79.2050638156
 21
140.7027160075
  0
LINE
  5
317
100
AcDbEntity
  8
0
100
AcDbLine
 62
7
  6
CONTINUOUS
 10
95.1502919237
 20
131.4969425294
 11
98.4914334724
 21
129.5679771961
  0
LINE
  5
318
100
AcDbEntity
  8
0
100
AcDbLine
 62
7
  6
CONTINUOUS
 10
78.0361873502
 20
143.8858316845
 11
81.3773288983
 21
141.9568663516
  0
LINE
  5
319
100
AcDbEntity
  8
0
100
AcDbLine
 62
7
  6
CONTINUOUS
 10
97.3225570064
 20
132.7510928734
 11
100.6636985549
 21
130.8221275398
  0
ARC
  5
31A
100
AcDbEntity
  8
0
100
AcDbCircle
 62
7
  6
CONTINUOUS
 10
36.394143703
 20
55.8231294181
 40
23.4082477287
100
AcDbArc
 50
323.3614779018
 51
324.2976344548
  0
ARC
  5
31B
100
AcDbEntity
  8
0
100
AcDbCircle
 62
7
  6
CONTINUOUS
 10
36.3941437056
 20
109.7122889467
 40
23.4082477255
100
AcDbArc
 50
323.3614779041
 51
324.2976344548
  0
ARC
  5
31C
100
AcDbEntity
  8
0
100
AcDbCircle
 62
7
  6
CONTINUOUS
 10
36.3941437271
 20
89.4630289857
 40
23.4082476986
100
AcDbArc
 50
323.3614779032
 51
324.2976344545
  0
ARC
  5
31D
100
AcDbEntity
  8
0
100
AcDbCircle
 62
7
  6
CONTINUOUS
 10
39.3849528007
 20
53.1448670418
 40
19.3884982667
100
AcDbArc
 50
313.3029084765
 51
313.7406674678
  0
ARC
  5
31E
100
AcDbEntity
  8
0
100
AcDbCircle
 62
7
  6
CONTINUOUS
 10
39.3849528038
 20
86.7847666243
 40
19.3884982622
100
AcDbArc
 50
313.3029084755
 51
313.7406674641
  0
ARC
  5
31F
100
AcDbEntity
  8
0
100
AcDbCircle
 62
7
  6
CONTINUOUS
 10
39.3849528082
 20
107.0340265645
 40
19.3884982558
100
AcDbArc
 50
313.3029084753
 51
313.740667463
  0
ARC
  5
320
100
AcDbEntity
  8
0
100
AcDbCircle
 62
7
  6
CONTINUOUS
 10
39.6179448779
 20
52.8969874923
 40
19.0483080686
100
AcDbArc
 50
312.4208896095
 51
313.3042690388
  0
ARC
  5
321
100
AcDbEntity
  8
0
100
AcDbCircle
 62
7
  6
CONTINUOUS
 10
39.6179448813
 20
86.5368870745
 40
19.0483080637
100
AcDbArc
 50
312.4208896095
 51
313.3042690378
  0
ARC
  5
322
100
AcDbEntity
  8
0
100
AcDbCircle
 62
7
  6
CONTINUOUS
 10
39.6179448865
 20
106.7861470139
 40
19.0483080562
100
AcDbArc
 50
312.4208896095
 51
313.3042690377
  0
ARC
  5
323
100
AcDbEntity
  8
0
100
AcDbCircle
 62
7
  6
CONTINUOUS
 10
27.0496395585
 20
93.2708166451
 40
6.061561125
100
AcDbArc
 50
38.1018738905
 51
39.018532647
  0
ARC
  5
324
100
AcDbEntity
  8
0
100
AcDbCircle
 62
7
  6
CONTINUOUS
 10
30.4808457295
 20
88.4306269114
 40
3.7623340297
100
AcDbArc
 50
50.3131423511
 51
51.9748624063
  0
ARC
  5
325
100
AcDbEntity
  8
0
100
AcDbCircle
 62
7
  6
CONTINUOUS
 10
32.7259638206
 20
74.5683559161
 40
2.7651789972
100
AcDbArc
 50
247.1788016698
 51
249.9789111557
  0
ARC
  5
326
100
AcDbEntity
  8
0
100
AcDbCircle
 62
7
  6
CONTINUOUS
 10
27.6413095623
 20
72.7243028822
 40
0.9755124091
100
AcDbArc
 50
358.1554547981
 51
0.0069196322
  0
ARC
  5
327
100
AcDbEntity
  8
0
100
AcDbCircle
 62
7
  6
CONTINUOUS
 10
28.7571661991
 20
74.0147891365
 40
0.9605881508
100
AcDbArc
 50
176.914712272
 51
180.0196614447
  0
ARC
  5
328
100
AcDbEntity
  8
0
100
AcDbCircle
 62
7
  6
CONTINUOUS
 10
28.7571661991
 20
94.5661549757
 40
0.9605881508
100
AcDbArc
 50
176.914712272
 51
180.0196614447
  0
ARC
  5
329
100
AcDbEntity
  8
0
100
AcDbCircle
 62
7
  6
CONTINUOUS
 10
27.3304175023
 20
94.6764716511
 40
0.5756975819
100
AcDbArc
 50
137.1612042245
 51
140.8207293774
  0
ARC
  5
32A
100
AcDbEntity
  8
0
100
AcDbCircle
 62
7
  6
CONTINUOUS
 10
27.330419708
 20
73.9618025845
 40
0.5756975819
100
AcDbArc
 50
137.1612042245
 51
140.8207293774
  0
ARC
  5
32B
100
AcDbEntity
  8
0
100
AcDbCircle
 62
7
  6
CONTINUOUS
 10
28.2120980439
 20
93.0953000065
 40
0.3623382634
100
AcDbArc
 50
299.9730252038
 51
308.4841479549
  0
SPLINE
  5
32C
100
AcDbEntity
  8
0
100
AcDbSpline
 62
7
  6
CONTINUOUS
 70
0
 71
3
 72
9
 73
5
 74
0
 42
0.0000001
 43
0.0000001
 44
0.0000000001
 40
0.0
 40
0.0
 40
0.0
 40
0.0
 40
0.491358077
 40
1.0
 40
1.0
 40
1.0
 40
1.0
 10
36.8178847601
 20
16.8830910103
 30
0.0
 10
36.6124598066
 20
18.4807548368
 30
0.0
 10
36.3017101597
 20
21.7467636296
 30
0.0
 10
36.1888569427
 20
25.0251640125
 30
0.0
 10
36.1778005992
 20
26.6926051759
 30
0.0
  0
SPLINE
  5
32D
100
AcDbEntity
  8
0
100
AcDbSpline
 62
7
  6
CONTINUOUS
 70
0
 71
3
 72
9
 73
5
 74
0
 42
0.0000001
 43
0.0000001
 44
0.0000000001
 40
0.0
 40
0.0
 40
0.0
 40
0.0
 40
0.4913968112
 40
1.0
 40
1.0
 40
1.0
 40
1.0
 10
13.829513736
 20
29.2485608993
 30
0.0
 10
13.6248081793
 20
30.8605100111
 30
0.0
 10
13.3159429737
 20
34.1552117875
 30
0.0
 10
13.2057361677
 20
37.4621091181
 30
0.0
 10
13.1962204713
 20
39.1438734601
 30
0.0
  0
SPLINE
  5
32E
100
AcDbEntity
  8
0
100
AcDbSpline
 62
7
  6
CONTINUOUS
 70
0
 71
3
 72
9
 73
5
 74
0
 42
0.0000001
 43
0.0000001
 44
0.0000000001
 40
0.0
 40
0.0
 40
0.0
 40
0.0
 40
0.5086031888
 40
1.0
 40
1.0
 40
1.0
 40
1.0
 10
35.3994658408
 20
26.3251137725
 30
0.0
 10
35.4089815372
 20
24.6433494296
 30
0.0
 10
35.5191883432
 20
21.3364520972
 30
0.0
 10
35.8280535489
 20
18.0417503191
 30
0.0
 10
36.0327591057
 20
16.4298012064
 30
0.0
  0
SPLINE
  5
32F
100
AcDbEntity
  8
0
100
AcDbSpline
 62
7
  6
CONTINUOUS
 70
0
 71
3
 72
11
 73
7
 74
0
 42
0.0000001
 43
0.0000001
 44
0.0000000001
 40
0.0
 40
0.0
 40
0.0
 40
0.0
 40
0.2787454573
 40
0.5346825906
 40
0.772355019
 40
1.0
 40
1.0
 40
1.0
 40
1.0
 10
29.439727162
 20
75.8887426922
 30
0.0
 10
29.5442932688
 20
75.8497507714
 30
0.0
 10
29.7511371589
 20
75.7900296525
 30
0.0
 10
30.0611955578
 20
75.7613162895
 30
0.0
 10
30.3501088054
 20
75.7997924096
 30
0.0
 10
30.5248079617
 20
75.8714831072
 30
0.0
 10
30.6037446534
 20
75.917042159
 30
0.0
  0
SPLINE
  5
330
100
AcDbEntity
  8
0
100
AcDbSpline
 62
7
  6
CONTINUOUS
 70
0
 71
3
 72
15
 73
11
 74
0
 42
0.0000001
 43
0.0000001
 44
0.0000000001
 40
0.0
 40
0.0
 40
0.0
 40
0.0
 40
0.1166365691
 40
0.2432091428
 40
0.3763238511
 40
0.5120025738
 40
0.6459621728
 40
0.7740895424
 40
0.8929206654
 40
1.0
 40
1.0
 40
1.0
 40
1.0
 10
24.7171187434
 20
80.6586773433
 30
0.0
 10
24.7171198709
 20
80.4658468187
 30
0.0
 10
24.756625039
 20
80.0633521242
 30
0.0
 10
24.9116594817
 20
79.4588517714
 30
0.0
 10
25.1582763674
 20
78.8514934141
 30
0.0
 10
25.4849443937
 20
78.2693108698
 30
0.0
 10
25.876811484
 20
77.7390080315
 30
0.0
 10
26.3159686704
 20
77.284700877
 30
0.0
 10
26.7823901627
 20
76.9273688178
 30
0.0
 10
27.1171040822
 20
76.7548450926
 30
0.0
 10
27.2829762977
 20
76.692990375
 30
0.0
  0
SPLINE
  5
331
100
AcDbEntity
  8
0
100
AcDbSpline
 62
7
  6
CONTINUOUS
 70
0
 71
3
 72
11
 73
7
 74
0
 42
0.0000001
 43
0.0000001
 44
0.0000000001
 40
0.0
 40
0.0
 40
0.0
 40
0.0
 40
0.2896554543
 40
0.549095768
 40
0.7822195922
 40
1.0
 40
1.0
 40
1.0
 40
1.0
 10
30.8901866439
 20
77.5356609462
 30
0.0
 10
30.8901864086
 20
77.4044556228
 30
0.0
 10
30.8702495045
 20
77.15489022
 30
0.0
 10
30.7692274088
 20
76.8119961413
 30
0.0
 10
30.5990593912
 20
76.5336997747
 30
0.0
 10
30.4391453745
 20
76.3994363363
 30
0.0
 10
30.3537391976
 20
76.350068079
 30
0.0
  0
SPLINE
  5
332
100
AcDbEntity
  8
0
100
AcDbSpline
 62
7
  6
CONTINUOUS
 70
0
 71
3
 72
11
 73
7
 74
0
 42
0.0000001
 43
0.0000001
 44
0.0000000001
 40
0.0
 40
0.0
 40
0.0
 40
0.0
 40
0.2472518425
 40
0.5099176124
 40
0.7672898738
 40
1.0
 40
1.0
 40
1.0
 40
1.0
 10
29.3780794881
 20
89.0888045695
 30
0.0
 10
29.5997350923
 20
88.915518858
 30
0.0
 10
30.0100186515
 20
88.4967537461
 30
0.0
 10
30.485076848
 20
87.7579324161
 30
0.0
 10
30.8020428526
 20
86.9565008156
 30
0.0
 10
30.8901861775
 20
86.3982886614
 30
0.0
 10
30.8901866439
 20
86.1334835941
 30
0.0
  0
SPLINE
  5
333
100
AcDbEntity
  8
0
100
AcDbSpline
 62
7
  6
CONTINUOUS
 70
0
 71
3
 72
11
 73
7
 74
0
 42
0.0000001
 43
0.0000001
 44
0.0000000001
 40
0.0
 40
0.0
 40
0.0
 40
0.0
 40
0.2115182376
 40
0.4422721579
 40
0.7040522119
 40
1.0
 40
1.0
 40
1.0
 40
1.0
 10
27.3131768104
 20
74.1005812783
 30
0.0
 10
27.3541805962
 20
74.1242160615
 30
0.0
 10
27.450803408
 20
74.1563979543
 30
0.0
 10
27.6107956101
 20
74.149313909
 30
0.0
 10
27.779734344
 20
74.0928693575
 30
0.0
 10
27.8876628075
 20
74.028489991
 30
0.0
 10
27.9416156471
 20
73.9900965976
 30
0.0
  0
SPLINE
  5
334
100
AcDbEntity
  8
0
100
AcDbSpline
 62
7
  6
CONTINUOUS
 70
0
 71
3
 72
10
 73
6
 74
0
 42
0.0000001
 43
0.0000001
 44
0.0000000001
 40
0.0
 40
0.0
 40
0.0
 40
0.0
 40
0.2276017786
 40
0.4655993488
 40
1.0
 40
1.0
 40
1.0
 40
1.0
 10
26.8200976716
 20
74.3300111459
 30
0.0
 10
26.8603911869
 20
74.3532754641
 30
0.0
 10
26.9497917493
 20
74.389750763
 30
0.0
 10
27.1543744177
 20
74.4155332033
 30
0.0
 10
27.313594711
 20
74.3791176146
 30
0.0
 10
27.4155237233
 20
74.3398130418
 30
0.0
  0
SPLINE
  5
335
100
AcDbEntity
  8
0
100
AcDbSpline
 62
7
  6
CONTINUOUS
 70
0
 71
3
 72
11
 73
7
 74
0
 42
0.0000001
 43
0.0000001
 44
0.0000000001
 40
0.0
 40
0.0
 40
0.0
 40
0.0
 40
0.220677586
 40
0.4745898853
 40
0.7422019926
 40
1.0
 40
1.0
 40
1.0
 40
1.0
 10
27.4155237233
 20
74.3398130418
 30
0.0
 10
27.5608786027
 20
74.2837631369
 30
0.0
 10
27.8490955968
 20
74.1003049147
 30
0.0
 10
28.2088769983
 20
73.714277637
 30
0.0
 10
28.4939999465
 20
73.239392279
 30
0.0
 10
28.6164388969
 20
72.8852119548
 30
0.0
 10
28.6531107086
 20
72.7069526958
 30
0.0
  0
SPLINE
  5
336
100
AcDbEntity
  8
0
100
AcDbSpline
 62
7
  6
CONTINUOUS
 70
0
 71
3
 72
9
 73
5
 74
0
 42
0.0000001
 43
0.0000001
 44
0.0000000001
 40
0.0
 40
0.0
 40
0.0
 40
0.0
 40
0.2608591757
 40
1.0
 40
1.0
 40
1.0
 40
1.0
 10
28.6531107086
 20
72.7069526958
 30
0.0
 10
28.6593196143
 20
72.6767716144
 30
0.0
 10
28.6804942926
 20
72.5605707263
 30
0.0
 10
28.6910775888
 20
72.4422654727
 30
0.0
 10
28.6910775888
 20
72.3549569364
 30
0.0
  0
SPLINE
  5
337
100
AcDbEntity
  8
0
100
AcDbSpline
 62
7
  6
CONTINUOUS
 70
0
 71
3
 72
11
 73
7
 74
0
 42
0.0000001
 43
0.0000001
 44
0.0000000001
 40
0.0
 40
0.0
 40
0.0
 40
0.0
 40
0.2897016594
 40
0.5490895814
 40
0.7822189142
 40
1.0
 40
1.0
 40
1.0
 40
1.0
 10
33.0998935254
 20
73.238789741
 30
0.0
 10
33.0998935254
 20
73.0487843389
 30
0.0
 10
33.0710861142
 20
72.6874324791
 30
0.0
 10
32.9247506017
 20
72.1909502997
 30
0.0
 10
32.6783522471
 20
71.7880834372
 30
0.0
 10
32.446908764
 20
71.5935253465
 30
0.0
 10
32.3232150994
 20
71.5220987395
 30
0.0
  0
SPLINE
  5
338
100
AcDbEntity
  8
0
100
AcDbSpline
 62
7
  6
CONTINUOUS
 70
0
 71
3
 72
12
 73
8
 74
0
 42
0.0000001
 43
0.0000001
 44
0.0000000001
 40
0.0
 40
0.0
 40
0.0
 40
0.0
 40
0.2895037294
 40
0.548632375
 40
0.781564271
 40
0.89177184
 40
1.0
 40
1.0
 40
1.0
 40
1.0
 10
34.8323054319
 20
78.1582168164
 30
0.0
 10
34.8323054319
 20
77.9251294
 30
0.0
 10
34.7969234153
 20
77.4818403103
 30
0.0
 10
34.6177730544
 20
76.8731433274
 30
0.0
 10
34.3601679893
 20
76.453166898
 30
0.0
 10
34.1001241109
 20
76.1972397796
 30
0.0
 10
33.9550525019
 20
76.0960255043
 30
0.0
 10
33.8795725106
 20
76.0524857595
 30
0.0
  0
SPLINE
  5
339
100
AcDbEntity
  8
0
100
AcDbSpline
 62
7
  6
CONTINUOUS
 70
0
 71
3
 72
11
 73
7
 74
0
 42
0.0000001
 43
0.0000001
 44
0.0000000001
 40
0.0
 40
0.0
 40
0.0
 40
0.0
 40
0.2630972593
 40
0.52384453
 40
0.7722731827
 40
1.0
 40
1.0
 40
1.0
 40
1.0
 10
33.4090968801
 20
90.6587247936
 30
0.0
 10
33.6289848647
 20
90.3590575328
 30
0.0
 10
34.0243966165
 20
89.7301248208
 30
0.0
 10
34.4733590213
 20
88.7318592641
 30
0.0
 10
34.7585170715
 20
87.7266954106
 30
0.0
 10
34.8323054319
 20
87.0532815403
 30
0.0
 10
34.8323054319
 20
86.7315636796
 30
0.0
  0
SPLINE
  5
33A
100
AcDbEntity
  8
0
100
AcDbSpline
 62
7
  6
CONTINUOUS
 70
0
 71
3
 72
10
 73
6
 74
0
 42
0.0000001
 43
0.0000001
 44
0.0000000001
 40
0.0
 40
0.0
 40
0.0
 40
0.0
 40
0.2279416022
 40
0.4767701928
 40
1.0
 40
1.0
 40
1.0
 40
1.0
 10
33.0998935254
 20
91.5119459247
 30
0.0
 10
33.0998935254
 20
91.4420749133
 30
0.0
 10
33.1159971053
 20
91.2957288476
 30
0.0
 10
33.1997645041
 20
91.0000795708
 30
0.0
 10
33.3142152704
 20
90.7880348256
 30
0.0
 10
33.4090968801
 20
90.6587247936
 30
0.0
  0
SPLINE
  5
33B
100
AcDbEntity
  8
0
100
AcDbSpline
 62
7
  6
CONTINUOUS
 70
0
 71
3
 72
11
 73
7
 74
0
 42
0.0000001
 43
0.0000001
 44
0.0000000001
 40
0.0
 40
0.0
 40
0.0
 40
0.0
 40
0.2266597429
 40
0.4714301199
 40
0.730757353
 40
1.0
 40
1.0
 40
1.0
 40
1.0
 10
96.4210755316
 20
117.9341972666
 30
0.0
 10
96.7665692745
 20
118.1086939
 30
0.0
 10
97.4552576043
 20
118.5324047962
 30
0.0
 10
98.4225464583
 20
119.3255842103
 30
0.0
 10
99.3398098961
 20
120.279462401
 30
0.0
 10
99.8930692676
 20
120.9950752493
 30
0.0
 10
100.1555561796
 20
121.372560856
 30
0.0
  0
SPLINE
  5
33C
100
AcDbEntity
  8
0
100
AcDbSpline
 62
7
  6
CONTINUOUS
 70
0
 71
3
 72
9
 73
5
 74
0
 42
0.0000001
 43
0.0000001
 44
0.0000000001
 40
0.0
 40
0.0
 40
0.0
 40
0.0
 40
0.261827516
 40
1.0
 40
1.0
 40
1.0
 40
1.0
 10
52.4673921102
 20
77.3416738474
 30
0.0
 10
52.6391854034
 20
77.3830685947
 30
0.0
 10
53.2999594885
 20
77.5201145709
 30
0.0
 10
53.9812017873
 20
77.5677072705
 30
0.0
 10
54.4785262092
 20
77.5381790341
 30
0.0
  0
SPLINE
  5
33D
100
AcDbEntity
  8
0
100
AcDbSpline
 62
7
  6
CONTINUOUS
 70
0
 71
3
 72
9
 73
5
 74
0
 42
0.0000001
 43
0.0000001
 44
0.0000000001
 40
0.0
 40
0.0
 40
0.0
 40
0.0
 40
0.2543899133
 40
1.0
 40
1.0
 40
1.0
 40
1.0
 10
54.4785262092
 20
77.5381790341
 30
0.0
 10
54.5576569424
 20
77.5334807107
 30
0.0
 10
54.8682921977
 20
77.5086303985
 30
0.0
 10
55.1769459855
 20
77.4576553603
 30
0.0
 10
55.4030320991
 20
77.4041178762
 30
0.0
  0
SPLINE
  5
33E
100
AcDbEntity
  8
0
100
AcDbSpline
 62
7
  6
CONTINUOUS
 70
0
 71
3
 72
9
 73
5
 74
0
 42
0.0000001
 43
0.0000001
 44
0.0000000001
 40
0.0
 40
0.0
 40
0.0
 40
0.0
 40
0.265062622
 40
1.0
 40
1.0
 40
1.0
 40
1.0
 10
52.3685064758
 20
77.300875934
 30
0.0
 10
52.3767072078
 20
77.3056093174
 30
0.0
 10
52.4081606908
 20
77.3225247419
 30
0.0
 10
52.4418696973
 20
77.3355197032
 30
0.0
 10
52.4673921102
 20
77.3416738474
 30
0.0
  0
SPLINE
  5
33F
100
AcDbEntity
  8
0
100
AcDbSpline
 62
7
  6
CONTINUOUS
 70
0
 71
3
 72
11
 73
7
 74
0
 42
0.0000001
 43
0.0000001
 44
0.0000000001
 40
0.0
 40
0.0
 40
0.0
 40
0.0
 40
0.2372445101
 40
0.5000012468
 40
0.7627573064
 40
1.0
 40
1.0
 40
1.0
 40
1.0
 10
51.3078507172
 20
76.2802560965
 30
0.0
 10
51.3078509134
 20
76.3382168164
 30
0.0
 10
51.3295958289
 20
76.460449116
 30
0.0
 10
51.4053646661
 20
76.6322063829
 30
0.0
 10
51.516224878
 20
76.7837032273
 30
0.0
 10
51.6112076359
 20
76.8636515147
 30
0.0
 10
51.661402635
 20
76.892631778
 30
0.0
  0
SPLINE
  5
340
100
AcDbEntity
  8
0
100
AcDbSpline
 62
7
  6
CONTINUOUS
 70
0
 71
3
 72
9
 73
5
 74
0
 42
0.0000001
 43
0.0000001
 44
0.0000000001
 40
0.0
 40
0.0
 40
0.0
 40
0.0
 40
0.261827516
 40
1.0
 40
1.0
 40
1.0
 40
1.0
 10
52.4673921103
 20
43.7017742617
 30
0.0
 10
52.6391854035
 20
43.743169009
 30
0.0
 10
53.2999594888
 20
43.8802149852
 30
0.0
 10
53.9812017877
 20
43.9278076848
 30
0.0
 10
54.4785262096
 20
43.8982794484
 30
0.0
  0
SPLINE
  5
341
100
AcDbEntity
  8
0
100
AcDbSpline
 62
7
  6
CONTINUOUS
 70
0
 71
3
 72
9
 73
5
 74
0
 42
0.0000001
 43
0.0000001
 44
0.0000000001
 40
0.0
 40
0.0
 40
0.0
 40
0.0
 40
0.2543899133
 40
1.0
 40
1.0
 40
1.0
 40
1.0
 10
54.4785262096
 20
43.8982794484
 30
0.0
 10
54.5576569429
 20
43.8935811249
 30
0.0
 10
54.8682921982
 20
43.8687308127
 30
0.0
 10
55.176945986
 20
43.8177557745
 30
0.0
 10
55.4030320997
 20
43.7642182904
 30
0.0
  0
SPLINE
  5
342
100
AcDbEntity
  8
0
100
AcDbSpline
 62
7
  6
CONTINUOUS
 70
0
 71
3
 72
9
 73
5
 74
0
 42
0.0000001
 43
0.0000001
 44
0.0000000001
 40
0.0
 40
0.0
 40
0.0
 40
0.0
 40
0.2650626219
 40
1.0
 40
1.0
 40
1.0
 40
1.0
 10
52.3685064719
 20
43.6609763462
 30
0.0
 10
52.3767072042
 20
43.6657097298
 30
0.0
 10
52.4081606885
 20
43.6826251552
 30
0.0
 10
52.4418696964
 20
43.6956201173
 30
0.0
 10
52.4673921103
 20
43.7017742617
 30
0.0
  0
SPLINE
  5
343
100
AcDbEntity
  8
0
100
AcDbSpline
 62
7
  6
CONTINUOUS
 70
0
 71
3
 72
11
 73
7
 74
0
 42
0.0000001
 43
0.0000001
 44
0.0000000001
 40
0.0
 40
0.0
 40
0.0
 40
0.0
 40
0.2372445103
 40
0.5000012471
 40
0.7627573066
 40
1.0
 40
1.0
 40
1.0
 40
1.0
 10
51.3078507174
 20
42.6403565127
 30
0.0
 10
51.3078509137
 20
42.6983172326
 30
0.0
 10
51.3295958295
 20
42.8205495321
 30
0.0
 10
51.405364667
 20
42.9923067986
 30
0.0
 10
51.5162248791
 20
43.1438036426
 30
0.0
 10
51.6112076369
 20
43.2237519298
 30
0.0
 10
51.661402636
 20
43.252732193
 30
0.0
  0
SPLINE
  5
344
100
AcDbEntity
  8
0
100
AcDbSpline
 62
7
  6
CONTINUOUS
 70
0
 71
3
 72
9
 73
5
 74
0
 42
0.0000001
 43
0.0000001
 44
0.0000000001
 40
0.0
 40
0.0
 40
0.0
 40
0.0
 40
0.261827516
 40
1.0
 40
1.0
 40
1.0
 40
1.0
 10
52.4673921104
 20
97.5909337923
 30
0.0
 10
52.6391854037
 20
97.6323285396
 30
0.0
 10
53.2999594889
 20
97.7693745157
 30
0.0
 10
53.9812017878
 20
97.8169672154
 30
0.0
 10
54.4785262097
 20
97.7874389789
 30
0.0
  0
SPLINE
  5
345
100
AcDbEntity
  8
0
100
AcDbSpline
 62
7
  6
CONTINUOUS
 70
0
 71
3
 72
9
 73
5
 74
0
 42
0.0000001
 43
0.0000001
 44
0.0000000001
 40
0.0
 40
0.0
 40
0.0
 40
0.0
 40
0.2543899133
 40
1.0
 40
1.0
 40
1.0
 40
1.0
 10
54.4785262097
 20
97.7874389789
 30
0.0
 10
54.5576569429
 20
97.7827406555
 30
0.0
 10
54.8682921982
 20
97.7578903432
 30
0.0
 10
55.176945986
 20
97.706915305
 30
0.0
 10
55.4030320997
 20
97.6533778209
 30
0.0
  0
SPLINE
  5
346
100
AcDbEntity
  8
0
100
AcDbSpline
 62
7
  6
CONTINUOUS
 70
0
 71
3
 72
9
 73
5
 74
0
 42
0.0000001
 43
0.0000001
 44
0.0000000001
 40
0.0
 40
0.0
 40
0.0
 40
0.0
 40
0.265062622
 40
1.0
 40
1.0
 40
1.0
 40
1.0
 10
52.3685064718
 20
97.5501358767
 30
0.0
 10
52.3767072041
 20
97.5548692602
 30
0.0
 10
52.4081606885
 20
97.5717846857
 30
0.0
 10
52.4418696964
 20
97.5847796478
 30
0.0
 10
52.4673921104
 20
97.5909337923
 30
0.0
  0
SPLINE
  5
347
100
AcDbEntity
  8
0
100
AcDbSpline
 62
7
  6
CONTINUOUS
 70
0
 71
3
 72
11
 73
7
 74
0
 42
0.0000001
 43
0.0000001
 44
0.0000000001
 40
0.0
 40
0.0
 40
0.0
 40
0.0
 40
0.2372445102
 40
0.5000012469
 40
0.7627573064
 40
1.0
 40
1.0
 40
1.0
 40
1.0
 10
51.3078507172
 20
96.529516042
 30
0.0
 10
51.3078509135
 20
96.5874767619
 30
0.0
 10
51.3295958291
 20
96.7097090615
 30
0.0
 10
51.4053646665
 20
96.8814663283
 30
0.0
 10
51.5162248785
 20
97.0329631726
 30
0.0
 10
51.6112076363
 20
97.11291146
 30
0.0
 10
51.6614026355
 20
97.1418917233
 30
0.0
  0
SPLINE
  5
348
100
AcDbEntity
  8
0
100
AcDbSpline
 62
7
  6
CONTINUOUS
 70
0
 71
3
 72
16
 73
12
 74
0
 42
0.0000001
 43
0.0000001
 44
0.0000000001
 40
0.0
 40
0.0
 40
0.0
 40
0.0
 40
0.0428757924
 40
0.0875166499
 40
0.1869226544
 40
0.3042403634
 40
0.4379635554
 40
0.5823668907
 40
0.729555294
 40
0.8712850814
 40
1.0
 40
1.0
 40
1.0
 40
1.0
 10
27.3131768104
 20
94.6519471174
 30
0.0
 10
27.339811261
 20
94.6672993454
 30
0.0
 10
27.398484924
 20
94.6916977074
 30
0.0
 10
27.532243763
 20
94.7113705191
 30
0.0
 10
27.7210971046
 20
94.6744713178
 30
0.0
 10
27.9435496794
 20
94.5524392832
 30
0.0
 10
28.1573960661
 20
94.3633002278
 30
0.0
 10
28.345974991
 20
94.1217517016
 30
0.0
 10
28.4946287779
 20
93.8472243894
 30
0.0
 10
28.5909418993
 20
93.5621982243
 30
0.0
 10
28.6168219643
 20
93.3680759997
 30
0.0
 10
28.6168219643
 20
93.2757865344
 30
0.0
  0
SPLINE
  5
349
100
AcDbEntity
  8
0
100
AcDbSpline
 62
7
  6
CONTINUOUS
 70
0
 71
3
 72
11
 73
7
 74
0
 42
0.0000001
 43
0.0000001
 44
0.0000000001
 40
0.0
 40
0.0
 40
0.0
 40
0.0
 40
0.2232705163
 40
0.4588899159
 40
0.7161067081
 40
1.0
 40
1.0
 40
1.0
 40
1.0
 10
26.8200954658
 20
95.0446802124
 30
0.0
 10
26.8647487545
 20
95.0704617386
 30
0.0
 10
26.9651793262
 20
95.1096637527
 30
0.0
 10
27.1318304576
 20
95.123711672
 30
0.0
 10
27.3103866281
 20
95.0953609773
 30
0.0
 10
27.4281936583
 20
95.0514050434
 30
0.0
 10
27.4876790275
 20
95.0238399638
 30
0.0
  0
SPLINE
  5
34A
100
AcDbEntity
  8
0
100
AcDbSpline
 62
7
  6
CONTINUOUS
 70
0
 71
3
 72
11
 73
7
 74
0
 42
0.0000001
 43
0.0000001
 44
0.0000000001
 40
0.0
 40
0.0
 40
0.0
 40
0.0
 40
0.2270965952
 40
0.4847468229
 40
0.7506035267
 40
1.0
 40
1.0
 40
1.0
 40
1.0
 10
27.4876790275
 20
95.0238399638
 30
0.0
 10
27.6386074147
 20
94.9539008667
 30
0.0
 10
27.9320357601
 20
94.742598032
 30
0.0
 10
28.2885143401
 20
94.3188597499
 30
0.0
 10
28.5557311462
 20
93.8152075084
 30
0.0
 10
28.6567310415
 20
93.4466961446
 30
0.0
 10
28.6787680574
 20
93.265350209
 30
0.0
  0
SPLINE
  5
34B
100
AcDbEntity
  8
0
100
AcDbSpline
 62
7
  6
CONTINUOUS
 70
0
 71
3
 72
9
 73
5
 74
0
 42
0.0000001
 43
0.0000001
 44
0.0000000001
 40
0.0
 40
0.0
 40
0.0
 40
0.0
 40
0.2568620356
 40
1.0
 40
1.0
 40
1.0
 40
1.0
 10
28.6787680574
 20
93.265350209
 30
0.0
 10
28.6807942799
 20
93.2486761178
 30
0.0
 10
28.6877780244
 20
93.1836576029
 30
0.0
 10
28.691075383
 20
93.1182213683
 30
0.0
 10
28.691075383
 20
93.0696260029
 30
0.0
  0
SPLINE
  5
34C
100
AcDbEntity
  8
0
100
AcDbSpline
 62
7
  6
CONTINUOUS
 70
0
 71
3
 72
11
 73
7
 74
0
 42
0.0000001
 43
0.0000001
 44
0.0000000001
 40
0.0
 40
0.0
 40
0.0
 40
0.0
 40
0.2316992747
 40
0.4714288645
 40
0.7259787633
 40
1.0
 40
1.0
 40
1.0
 40
1.0
 10
28.5732342267
 20
98.4298916333
 30
0.0
 10
28.6576151702
 20
98.4786172048
 30
0.0
 10
28.8417638412
 20
98.5575766777
 30
0.0
 10
29.1445160682
 20
98.6119948374
 30
0.0
 10
29.4694371761
 20
98.6029524246
 30
0.0
 10
29.6881965373
 20
98.5574702802
 30
0.0
 10
29.7989959196
 20
98.5257994477
 30
0.0
  0
SPLINE
  5
34D
100
AcDbEntity
  8
0
100
AcDbSpline
 62
7
  6
CONTINUOUS
 70
0
 71
3
 72
9
 73
5
 74
0
 42
0.0000001
 43
0.0000001
 44
0.0000000001
 40
0.0
 40
0.0
 40
0.0
 40
0.0
 40
0.2365011405
 40
1.0
 40
1.0
 40
1.0
 40
1.0
 10
29.7989959196
 20
98.5257994477
 30
0.0
 10
29.8576562841
 20
98.5090320024
 30
0.0
 10
30.1029084828
 20
98.428457545
 30
0.0
 10
30.3358062751
 20
98.3125363712
 30
0.0
 10
30.5045482527
 20
98.2109553936
 30
0.0
  0
SPLINE
  5
34E
100
AcDbEntity
  8
0
100
AcDbSpline
 62
7
  6
CONTINUOUS
 70
0
 71
3
 72
9
 73
5
 74
0
 42
0.0000001
 43
0.0000001
 44
0.0000000001
 40
0.0
 40
0.0
 40
0.0
 40
0.0
 40
0.4788640844
 40
1.0
 40
1.0
 40
1.0
 40
1.0
 10
30.5045482527
 20
98.2109553936
 30
0.0
 10
30.735747217
 20
98.0717759367
 30
0.0
 10
31.187302375
 20
97.7281868914
 30
0.0
 10
31.5742249568
 20
97.3151731802
 30
0.0
 10
31.7591231857
 20
97.0870041716
 30
0.0
  0
SPLINE
  5
34F
100
AcDbEntity
  8
0
100
AcDbSpline
 62
7
  6
CONTINUOUS
 70
0
 71
3
 72
10
 73
6
 74
0
 42
0.0000001
 43
0.0000001
 44
0.0000000001
 40
0.0
 40
0.0
 40
0.0
 40
0.0
 40
0.5102930541
 40
0.761046291
 40
1.0
 40
1.0
 40
1.0
 40
1.0
 10
31.8195719676
 20
97.0111733238
 30
0.0
 10
32.1282226602
 20
96.6175807756
 30
0.0
 10
32.5202677039
 20
95.9722631764
 30
0.0
 10
32.8773160297
 20
95.0579397702
 30
0.0
 10
32.9950330834
 20
94.5906800205
 30
0.0
 10
33.0353437454
 20
94.3599567358
 30
0.0
  0
SPLINE
  5
350
100
AcDbEntity
  8
0
100
AcDbSpline
 62
7
  6
CONTINUOUS
 70
0
 71
3
 72
9
 73
5
 74
0
 42
0.0000001
 43
0.0000001
 44
0.0000000001
 40
0.0
 40
0.0
 40
0.0
 40
0.0
 40
0.2593309483
 40
1.0
 40
1.0
 40
1.0
 40
1.0
 10
33.0353437454
 20
94.3599567358
 30
0.0
 10
33.0459363852
 20
94.2993283925
 30
0.0
 10
33.0822004642
 20
94.0647912362
 30
0.0
 10
33.0998935254
 20
93.8271686125
 30
0.0
 10
33.0998935254
 20
93.6513864363
 30
0.0
  0
SPLINE
  5
351
100
AcDbEntity
  8
0
100
AcDbSpline
 62
7
  6
CONTINUOUS
 70
0
 71
3
 72
11
 73
7
 74
0
 42
0.0000001
 43
0.0000001
 44
0.0000000001
 40
0.0
 40
0.0
 40
0.0
 40
0.0
 40
0.2179357054
 40
0.4510284079
 40
0.7105659247
 40
1.0
 40
1.0
 40
1.0
 40
1.0
 10
33.3069231558
 20
75.8356826893
 30
0.0
 10
33.2739304034
 20
75.8166413117
 30
0.0
 10
33.2121550901
 20
75.7648674025
 30
0.0
 10
33.1465115265
 20
75.657403892
 30
0.0
 10
33.1076441801
 20
75.52509261
 30
0.0
 10
33.0998935254
 20
75.4288214292
 30
0.0
 10
33.0998935254
 20
75.3782308898
 30
0.0
  0
SPLINE
  5
352
100
AcDbEntity
  8
0
100
AcDbSpline
 62
7
  6
CONTINUOUS
 70
0
 71
3
 72
11
 73
7
 74
0
 42
0.0000001
 43
0.0000001
 44
0.0000000001
 40
0.0
 40
0.0
 40
0.0
 40
0.0
 40
0.2177802855
 40
0.4509130653
 40
0.7102666467
 40
1.0
 40
1.0
 40
1.0
 40
1.0
 10
25.3571072194
 20
91.5528447123
 30
0.0
 10
25.2551744803
 20
91.4940134606
 30
0.0
 10
25.0644920364
 20
91.3336657595
 30
0.0
 10
24.8614571839
 20
91.0017527252
 30
0.0
 10
24.7408426988
 20
90.5926703728
 30
0.0
 10
24.717119657
 20
90.2949253823
 30
0.0
 10
24.7171187434
 20
90.1383488187
 30
0.0
  0
SPLINE
  5
353
100
AcDbEntity
  8
0
100
AcDbSpline
 62
7
  6
CONTINUOUS
 70
0
 71
3
 72
12
 73
8
 74
0
 42
0.0000001
 43
0.0000001
 44
0.0000000001
 40
0.0
 40
0.0
 40
0.0
 40
0.0
 40
0.103236808
 40
0.2093524102
 40
0.4388093699
 40
0.701687205
 40
1.0
 40
1.0
 40
1.0
 40
1.0
 10
25.6071044105
 20
91.1198355075
 30
0.0
 10
25.6590958393
 20
91.1498427198
 30
0.0
 10
25.7712832298
 20
91.1997125112
 30
0.0
 10
26.0220862003
 20
91.2543086208
 30
0.0
 10
26.376442935
 20
91.2276728855
 30
0.0
 10
26.809884835
 20
91.0621050307
 30
0.0
 10
27.084688263
 20
90.8817234792
 30
0.0
 10
27.2213452455
 20
90.7748889373
 30
0.0
  0
SPLINE
  5
354
100
AcDbEntity
  8
0
100
AcDbSpline
 62
7
  6
CONTINUOUS
 70
0
 71
3
 72
15
 73
11
 74
0
 42
0.0000001
 43
0.0000001
 44
0.0000000001
 40
0.0
 40
0.0
 40
0.0
 40
0.0
 40
0.1287604636
 40
0.2706327051
 40
0.4178830526
 40
0.5623899672
 40
0.6962074404
 40
0.8135919231
 40
0.9130623428
 40
1.0
 40
1.0
 40
1.0
 40
1.0
 10
28.9986650085
 20
86.6784356148
 30
0.0
 10
28.9986650085
 20
86.634867954
 30
0.0
 10
29.0109197594
 20
86.5432021389
 30
0.0
 10
29.0563505294
 20
86.4086010848
 30
0.0
 10
29.1265646913
 20
86.2789618329
 30
0.0
 10
29.2156070332
 20
86.1648991436
 30
0.0
 10
29.3165420773
 20
86.0755520772
 30
0.0
 10
29.4217874758
 20
86.0180743346
 30
0.0
 10
29.5248000724
 20
85.9974441124
 30
0.0
 10
29.5888036184
 20
86.013869765
 30
0.0
 10
29.6142856696
 20
86.028566368
 30
0.0
  0
SPLINE
  5
355
100
AcDbEntity
  8
0
100
AcDbSpline
 62
7
  6
CONTINUOUS
 70
0
 71
3
 72
15
 73
11
 74
0
 42
0.0000001
 43
0.0000001
 44
0.0000000001
 40
0.0
 40
0.0
 40
0.0
 40
0.0
 40
0.1287604636
 40
0.2706327051
 40
0.4178830526
 40
0.5623899672
 40
0.6962074404
 40
0.8135919231
 40
0.9130623428
 40
1.0
 40
1.0
 40
1.0
 40
1.0
 10
28.9986650085
 20
84.4412189919
 30
0.0
 10
28.9986650085
 20
84.397651331
 30
0.0
 10
29.0109197594
 20
84.305985516
 30
0.0
 10
29.0563505294
 20
84.1713844618
 30
0.0
 10
29.1265646913
 20
84.0417452099
 30
0.0
 10
29.2156070332
 20
83.9276825207
 30
0.0
 10
29.3165420773
 20
83.8383354543
 30
0.0
 10
29.4217874758
 20
83.7808577117
 30
0.0
 10
29.5248000724
 20
83.7602274894
 30
0.0
 10
29.5888036184
 20
83.7766531421
 30
0.0
 10
29.6142856696
 20
83.7913497451
 30
0.0
  0
SPLINE
  5
356
100
AcDbEntity
  8
0
100
AcDbSpline
 62
7
  6
CONTINUOUS
 70
0
 71
3
 72
15
 73
11
 74
0
 42
0.0000001
 43
0.0000001
 44
0.0000000001
 40
0.0
 40
0.0
 40
0.0
 40
0.0
 40
0.1287604636
 40
0.2706327051
 40
0.4178830526
 40
0.5623899672
 40
0.6962074404
 40
0.8135919231
 40
0.9130623428
 40
1.0
 40
1.0
 40
1.0
 40
1.0
 10
28.9986650085
 20
82.2040023689
 30
0.0
 10
28.9986650085
 20
82.1604347081
 30
0.0
 10
29.0109197594
 20
82.068768893
 30
0.0
 10
29.0563505294
 20
81.9341678389
 30
0.0
 10
29.1265646913
 20
81.804528587
 30
0.0
 10
29.2156070332
 20
81.6904658978
 30
0.0
 10
29.3165420773
 20
81.6011188313
 30
0.0
 10
29.4217874758
 20
81.5436410887
 30
0.0
 10
29.5248000724
 20
81.5230108665
 30
0.0
 10
29.5888036184
 20
81.5394365192
 30
0.0
 10
29.6142856696
 20
81.5541331221
 30
0.0
  0
SPLINE
  5
357
100
AcDbEntity
  8
0
100
AcDbSpline
 62
7
  6
CONTINUOUS
 70
0
 71
3
 72
15
 73
11
 74
0
 42
0.0000001
 43
0.0000001
 44
0.0000000001
 40
0.0
 40
0.0
 40
0.0
 40
0.0
 40
0.1287604636
 40
0.2706327051
 40
0.4178830526
 40
0.5623899672
 40
0.6962074404
 40
0.8135919231
 40
0.9130623428
 40
1.0
 40
1.0
 40
1.0
 40
1.0
 10
28.9986650085
 20
79.966785746
 30
0.0
 10
28.9986650085
 20
79.9232180852
 30
0.0
 10
29.0109197594
 20
79.8315522701
 30
0.0
 10
29.0563505294
 20
79.696951216
 30
0.0
 10
29.1265646913
 20
79.5673119641
 30
0.0
 10
29.2156070332
 20
79.4532492748
 30
0.0
 10
29.3165420773
 20
79.3639022084
 30
0.0
 10
29.4217874758
 20
79.3064244658
 30
0.0
 10
29.5248000724
 20
79.2857942436
 30
0.0
 10
29.5888036184
 20
79.3022198962
 30
0.0
 10
29.6142856696
 20
79.3169164992
 30
0.0
  0
SPLINE
  5
358
100
AcDbEntity
  8
0
100
AcDbSpline
 62
7
  6
CONTINUOUS
 70
0
 71
3
 72
15
 73
11
 74
0
 42
0.0000001
 43
0.0000001
 44
0.0000000001
 40
0.0
 40
0.0
 40
0.0
 40
0.0
 40
0.1287604636
 40
0.2706327051
 40
0.4178830526
 40
0.5623899672
 40
0.6962074404
 40
0.8135919231
 40
0.9130623428
 40
1.0
 40
1.0
 40
1.0
 40
1.0
 10
26.9904733891
 20
79.9994161532
 30
0.0
 10
26.9904733891
 20
79.9558484924
 30
0.0
 10
27.00272814
 20
79.8641826773
 30
0.0
 10
27.0481589099
 20
79.7295816232
 30
0.0
 10
27.1183730719
 20
79.5999423713
 30
0.0
 10
27.2074154138
 20
79.485879682
 30
0.0
 10
27.3083504579
 20
79.3965326156
 30
0.0
 10
27.4135958563
 20
79.339054873
 30
0.0
 10
27.516608453
 20
79.3184246508
 30
0.0
 10
27.580611999
 20
79.3348503034
 30
0.0
 10
27.6060940502
 20
79.3495469064
 30
0.0
  0
SPLINE
  5
359
100
AcDbEntity
  8
0
100
AcDbSpline
 62
7
  6
CONTINUOUS
 70
0
 71
3
 72
15
 73
11
 74
0
 42
0.0000001
 43
0.0000001
 44
0.0000000001
 40
0.0
 40
0.0
 40
0.0
 40
0.0
 40
0.1287604636
 40
0.2706327051
 40
0.4178830526
 40
0.5623899672
 40
0.6962074404
 40
0.8135919231
 40
0.9130623428
 40
1.0
 40
1.0
 40
1.0
 40
1.0
 10
26.9904733891
 20
82.2366327761
 30
0.0
 10
26.9904733891
 20
82.1930651153
 30
0.0
 10
27.00272814
 20
82.1013993002
 30
0.0
 10
27.0481589099
 20
81.9667982461
 30
0.0
 10
27.1183730719
 20
81.8371589942
 30
0.0
 10
27.2074154138
 20
81.723096305
 30
0.0
 10
27.3083504579
 20
81.6337492385
 30
0.0
 10
27.4135958563
 20
81.5762714959
 30
0.0
 10
27.516608453
 20
81.5556412737
 30
0.0
 10
27.580611999
 20
81.5720669264
 30
0.0
 10
27.6060940502
 20
81.5867635293
 30
0.0
  0
SPLINE
  5
35A
100
AcDbEntity
  8
0
100
AcDbSpline
 62
7
  6
CONTINUOUS
 70
0
 71
3
 72
15
 73
11
 74
0
 42
0.0000001
 43
0.0000001
 44
0.0000000001
 40
0.0
 40
0.0
 40
0.0
 40
0.0
 40
0.1287604636
 40
0.2706327051
 40
0.4178830526
 40
0.5623899672
 40
0.6962074404
 40
0.8135919231
 40
0.9130623428
 40
1.0
 40
1.0
 40
1.0
 40
1.0
 10
26.9904733891
 20
84.4738493991
 30
0.0
 10
26.9904733891
 20
84.4302817382
 30
0.0
 10
27.00272814
 20
84.3386159232
 30
0.0
 10
27.0481589099
 20
84.204014869
 30
0.0
 10
27.1183730719
 20
84.0743756171
 30
0.0
 10
27.2074154138
 20
83.9603129279
 30
0.0
 10
27.3083504579
 20
83.8709658615
 30
0.0
 10
27.4135958563
 20
83.8134881189
 30
0.0
 10
27.516608453
 20
83.7928578966
 30
0.0
 10
27.580611999
 20
83.8092835493
 30
0.0
 10
27.6060940502
 20
83.8239801523
 30
0.0
  0
SPLINE
  5
35B
100
AcDbEntity
  8
0
100
AcDbSpline
 62
7
  6
CONTINUOUS
 70
0
 71
3
 72
15
 73
11
 74
0
 42
0.0000001
 43
0.0000001
 44
0.0000000001
 40
0.0
 40
0.0
 40
0.0
 40
0.0
 40
0.1287604636
 40
0.2706327051
 40
0.4178830526
 40
0.5623899672
 40
0.6962074404
 40
0.8135919231
 40
0.9130623428
 40
1.0
 40
1.0
 40
1.0
 40
1.0
 10
26.9904733891
 20
86.711066022
 30
0.0
 10
26.9904733891
 20
86.6674983612
 30
0.0
 10
27.00272814
 20
86.5758325461
 30
0.0
 10
27.0481589099
 20
86.441231492
 30
0.0
 10
27.1183730719
 20
86.3115922401
 30
0.0
 10
27.2074154138
 20
86.1975295508
 30
0.0
 10
27.3083504579
 20
86.1081824844
 30
0.0
 10
27.4135958563
 20
86.0507047418
 30
0.0
 10
27.516608453
 20
86.0300745196
 30
0.0
 10
27.580611999
 20
86.0465001722
 30
0.0
 10
27.6060940502
 20
86.0611967752
 30
0.0
  0
SPLINE
  5
35C
100
AcDbEntity
  8
0
100
AcDbSpline
 62
7
  6
CONTINUOUS
 70
0
 71
3
 72
15
 73
11
 74
0
 42
0.0000001
 43
0.0000001
 44
0.0000000001
 40
0.0
 40
0.0
 40
0.0
 40
0.0
 40
0.1287604636
 40
0.2706327051
 40
0.4178830526
 40
0.5623899672
 40
0.6962074404
 40
0.8135919231
 40
0.9130623428
 40
1.0
 40
1.0
 40
1.0
 40
1.0
 10
26.9904733891
 20
88.9482826449
 30
0.0
 10
26.9904733891
 20
88.9047149841
 30
0.0
 10
27.00272814
 20
88.8130491691
 30
0.0
 10
27.0481589099
 20
88.6784481149
 30
0.0
 10
27.1183730719
 20
88.548808863
 30
0.0
 10
27.2074154138
 20
88.4347461738
 30
0.0
 10
27.3083504579
 20
88.3453991073
 30
0.0
 10
27.4135958563
 20
88.2879213647
 30
0.0
 10
27.516608453
 20
88.2672911425
 30
0.0
 10
27.580611999
 20
88.2837167952
 30
0.0
 10
27.6060940502
 20
88.2984133981
 30
0.0
  0
SPLINE
  5
35D
100
AcDbEntity
  8
0
100
AcDbSpline
 62
7
  6
CONTINUOUS
 70
0
 71
3
 72
9
 73
5
 74
0
 42
0.0000001
 43
0.0000001
 44
0.0000000001
 40
0.0
 40
0.0
 40
0.0
 40
0.0
 40
0.2727418425
 40
1.0
 40
1.0
 40
1.0
 40
1.0
 10
28.6163164976
 20
72.6929032582
 30
0.0
 10
28.6153787365
 20
72.6638951233
 30
0.0
 10
28.6071602402
 20
72.5579595022
 30
0.0
 10
28.5780350604
 20
72.4520821006
 30
0.0
 10
28.5405800346
 20
72.3843599129
 30
0.0
  0
SPLINE
  5
35E
100
AcDbEntity
  8
0
100
AcDbSpline
 62
7
  6
CONTINUOUS
 70
0
 71
3
 72
9
 73
5
 74
0
 42
0.0000001
 43
0.0000001
 44
0.0000000001
 40
0.0
 40
0.0
 40
0.0
 40
0.0
 40
0.5128697966
 40
1.0
 40
1.0
 40
1.0
 40
1.0
 10
28.5405800346
 20
72.3843599129
 30
0.0
 10
28.5227535392
 20
72.3521279429
 30
0.0
 10
28.4805633893
 20
72.2929100723
 30
0.0
 10
28.4234293979
 20
72.2475255861
 30
0.0
 10
28.3931194215
 20
72.2300547671
 30
0.0
  0
SPLINE
  5
35F
100
AcDbEntity
  8
0
100
AcDbSpline
 62
7
  6
CONTINUOUS
 70
0
 71
3
 72
9
 73
5
 74
0
 42
0.0000001
 43
0.0000001
 44
0.0000000001
 40
0.0
 40
0.0
 40
0.0
 40
0.0
 40
0.2597737325
 40
1.0
 40
1.0
 40
1.0
 40
1.0
 10
28.6910775888
 20
72.3549569364
 30
0.0
 10
28.6910775888
 20
72.33405599
 30
0.0
 10
28.6893216034
 20
72.2536186685
 30
0.0
 10
28.6803791099
 20
72.1732507635
 30
0.0
 10
28.6688991569
 20
72.1148103148
 30
0.0
  0
SPLINE
  5
360
100
AcDbEntity
  8
0
100
AcDbSpline
 62
7
  6
CONTINUOUS
 70
0
 71
3
 72
10
 73
6
 74
0
 42
0.0000001
 43
0.0000001
 44
0.0000000001
 40
0.0
 40
0.0
 40
0.0
 40
0.0
 40
0.5316332122
 40
0.7704575165
 40
1.0
 40
1.0
 40
1.0
 40
1.0
 10
28.6688991569
 20
72.1148103148
 30
0.0
 10
28.6493734865
 20
72.0154119157
 30
0.0
 10
28.5993898397
 20
71.872336822
 30
0.0
 10
28.4797758954
 20
71.7221173929
 30
0.0
 10
28.4079003152
 20
71.6673150341
 30
0.0
 10
28.3700230417
 20
71.6454457845
 30
0.0
  0
SPLINE
  5
361
100
AcDbEntity
  8
0
100
AcDbSpline
 62
7
  6
CONTINUOUS
 70
0
 71
3
 72
9
 73
5
 74
0
 42
0.0000001
 43
0.0000001
 44
0.0000000001
 40
0.0
 40
0.0
 40
0.0
 40
0.0
 40
0.2611484155
 40
1.0
 40
1.0
 40
1.0
 40
1.0
 10
28.6168219643
 20
93.2757865344
 30
0.0
 10
28.6168219643
 20
93.2593060693
 30
0.0
 10
28.6152576633
 20
93.1962216287
 30
0.0
 10
28.6072785627
 20
93.1331927838
 30
0.0
 10
28.596949846
 20
93.0877239726
 30
0.0
  0
SPLINE
  5
362
100
AcDbEntity
  8
0
100
AcDbSpline
 62
7
  6
CONTINUOUS
 70
0
 71
3
 72
9
 73
5
 74
0
 42
0.0000001
 43
0.0000001
 44
0.0000000001
 40
0.0
 40
0.0
 40
0.0
 40
0.0
 40
0.5291304513
 40
1.0
 40
1.0
 40
1.0
 40
1.0
 10
28.596949846
 20
93.0877239726
 30
0.0
 10
28.5843144693
 20
93.032100842
 30
0.0
 10
28.5476608513
 20
92.9288760317
 30
0.0
 10
28.4773151851
 20
92.8432550741
 30
0.0
 10
28.4375804525
 20
92.811668731
 30
0.0
  0
SPLINE
  5
363
100
AcDbEntity
  8
0
100
AcDbSpline
 62
7
  6
CONTINUOUS
 70
0
 71
3
 72
9
 73
5
 74
0
 42
0.0000001
 43
0.0000001
 44
0.0000000001
 40
0.0
 40
0.0
 40
0.0
 40
0.0
 40
0.2685959073
 40
1.0
 40
1.0
 40
1.0
 40
1.0
 10
28.691075383
 20
93.0696260029
 30
0.0
 10
28.691075383
 20
93.0332440904
 30
0.0
 10
28.6859437344
 20
92.8979848339
 30
0.0
 10
28.6593458428
 20
92.7624661937
 30
0.0
 10
28.6231587307
 20
92.6702413642
 30
0.0
  0
SPLINE
  5
364
100
AcDbEntity
  8
0
100
AcDbSpline
 62
7
  6
CONTINUOUS
 70
0
 71
3
 72
9
 73
5
 74
0
 42
0.0000001
 43
0.0000001
 44
0.0000000001
 40
0.0
 40
0.0
 40
0.0
 40
0.0
 40
0.5202067377
 40
1.0
 40
1.0
 40
1.0
 40
1.0
 10
28.6231587307
 20
92.6702413642
 30
0.0
 10
28.5974304057
 20
92.6046713242
 30
0.0
 10
28.5310637919
 20
92.4838371162
 30
0.0
 10
28.4262816435
 20
92.3925982252
 30
0.0
 10
28.370020836
 20
92.360114851
 30
0.0
  0
SPLINE
  5
365
100
AcDbEntity
  8
0
100
AcDbSpline
 62
7
  6
CONTINUOUS
 70
0
 71
3
 72
9
 73
5
 74
0
 42
0.0000001
 43
0.0000001
 44
0.0000000001
 40
0.0
 40
0.0
 40
0.0
 40
0.0
 40
0.2369515498
 40
1.0
 40
1.0
 40
1.0
 40
1.0
 10
52.6159939932
 20
92.9981359342
 30
0.0
 10
52.6262863766
 20
93.0040810423
 30
0.0
 10
52.6687712585
 20
93.0308110281
 30
0.0
 10
52.7074233405
 20
93.0634086632
 30
0.0
 10
52.7346459229
 20
93.0903159078
 30
0.0
  0
SPLINE
  5
366
100
AcDbEntity
  8
0
100
AcDbSpline
 62
7
  6
CONTINUOUS
 70
0
 71
3
 72
9
 73
5
 74
0
 42
0.0000001
 43
0.0000001
 44
0.0000000001
 40
0.0
 40
0.0
 40
0.0
 40
0.0
 40
0.244604701
 40
1.0
 40
1.0
 40
1.0
 40
1.0
 10
52.7346459229
 20
93.0903159078
 30
0.0
 10
52.9434228637
 20
93.2967392445
 30
0.0
 10
53.7782295003
 20
94.1594520347
 30
0.0
 10
54.5391733822
 20
95.0929898576
 30
0.0
 10
55.070764601
 20
95.8274955034
 30
0.0
  0
SPLINE
  5
367
100
AcDbEntity
  8
0
100
AcDbSpline
 62
7
  6
CONTINUOUS
 70
0
 71
3
 72
10
 73
6
 74
0
 42
0.0000001
 43
0.0000001
 44
0.0000000001
 40
0.0
 40
0.0
 40
0.0
 40
0.0
 40
0.5234124239
 40
0.7720767784
 40
1.0
 40
1.0
 40
1.0
 40
1.0
 10
55.070764601
 20
95.8274955034
 30
0.0
 10
55.1637734335
 20
95.9560072899
 30
0.0
 10
55.2759482912
 20
96.1661017638
 30
0.0
 10
55.3579684288
 20
96.4586456801
 30
0.0
 10
55.3736987905
 20
96.6032886925
 30
0.0
 10
55.3736989345
 20
96.6723684767
 30
0.0
  0
SPLINE
  5
368
100
AcDbEntity
  8
0
100
AcDbSpline
 62
7
  6
CONTINUOUS
 70
0
 71
3
 72
11
 73
7
 74
0
 42
0.0000001
 43
0.0000001
 44
0.0000000001
 40
0.0
 40
0.0
 40
0.0
 40
0.0
 40
0.2894486566
 40
0.5489693846
 40
0.7820619097
 40
1.0
 40
1.0
 40
1.0
 40
1.0
 10
55.3736989345
 20
96.6723684767
 30
0.0
 10
55.3736988313
 20
96.7229913386
 30
0.0
 10
55.3659484735
 20
96.8193195922
 30
0.0
 10
55.327051807
 20
96.9517063489
 30
0.0
 10
55.2613705872
 20
97.059231143
 30
0.0
 10
55.1995584291
 20
97.1110334244
 30
0.0
 10
55.1665486844
 20
97.1300910411
 30
0.0
  0
SPLINE
  5
369
100
AcDbEntity
  8
0
100
AcDbSpline
 62
7
  6
CONTINUOUS
 70
0
 71
3
 72
9
 73
5
 74
0
 42
0.0000001
 43
0.0000001
 44
0.0000000001
 40
0.0
 40
0.0
 40
0.0
 40
0.0
 40
0.2369515498
 40
1.0
 40
1.0
 40
1.0
 40
1.0
 10
52.6159939907
 20
39.108976402
 30
0.0
 10
52.6262863744
 20
39.1149215103
 30
0.0
 10
52.6687712577
 20
39.1416514968
 30
0.0
 10
52.7074233408
 20
39.1742491329
 30
0.0
 10
52.7346459241
 20
39.2011563783
 30
0.0
  0
SPLINE
  5
36A
100
AcDbEntity
  8
0
100
AcDbSpline
 62
7
  6
CONTINUOUS
 70
0
 71
3
 72
9
 73
5
 74
0
 42
0.0000001
 43
0.0000001
 44
0.0000000001
 40
0.0
 40
0.0
 40
0.0
 40
0.0
 40
0.244604701
 40
1.0
 40
1.0
 40
1.0
 40
1.0
 10
52.7346459241
 20
39.2011563783
 30
0.0
 10
52.9434228647
 20
39.4075797149
 30
0.0
 10
53.7782295007
 20
40.2702925046
 30
0.0
 10
54.5391733821
 20
41.2038303268
 30
0.0
 10
55.0707646005
 20
41.9383359721
 30
0.0
  0
SPLINE
  5
36B
100
AcDbEntity
  8
0
100
AcDbSpline
 62
7
  6
CONTINUOUS
 70
0
 71
3
 72
10
 73
6
 74
0
 42
0.0000001
 43
0.0000001
 44
0.0000000001
 40
0.0
 40
0.0
 40
0.0
 40
0.0
 40
0.5234124238
 40
0.7720767784
 40
1.0
 40
1.0
 40
1.0
 40
1.0
 10
55.0707646005
 20
41.9383359721
 30
0.0
 10
55.1637734331
 20
42.0668477586
 30
0.0
 10
55.2759482909
 20
42.2769422325
 30
0.0
 10
55.3579684287
 20
42.5694861489
 30
0.0
 10
55.3736987905
 20
42.7141291612
 30
0.0
 10
55.3736989344
 20
42.7832089455
 30
0.0
  0
SPLINE
  5
36C
100
AcDbEntity
  8
0
100
AcDbSpline
 62
7
  6
CONTINUOUS
 70
0
 71
3
 72
11
 73
7
 74
0
 42
0.0000001
 43
0.0000001
 44
0.0000000001
 40
0.0
 40
0.0
 40
0.0
 40
0.0
 40
0.2894486622
 40
0.548969386
 40
0.7820619107
 40
1.0
 40
1.0
 40
1.0
 40
1.0
 10
55.3736989344
 20
42.7832089455
 30
0.0
 10
55.3736988406
 20
42.8338318085
 30
0.0
 10
55.3659484831
 20
42.9301600647
 30
0.0
 10
55.3270518019
 20
43.0625468166
 30
0.0
 10
55.2613705872
 20
43.170071612
 30
0.0
 10
55.1995584293
 20
43.2218738944
 30
0.0
 10
55.1665486846
 20
43.2409315109
 30
0.0
  0
SPLINE
  5
36D
100
AcDbEntity
  8
0
100
AcDbSpline
 62
7
  6
CONTINUOUS
 70
0
 71
3
 72
9
 73
5
 74
0
 42
0.0000001
 43
0.0000001
 44
0.0000000001
 40
0.0
 40
0.0
 40
0.0
 40
0.0
 40
0.2369515498
 40
1.0
 40
1.0
 40
1.0
 40
1.0
 10
52.6159939931
 20
72.7488759894
 30
0.0
 10
52.6262863766
 20
72.7548210975
 30
0.0
 10
52.6687712586
 20
72.7815510834
 30
0.0
 10
52.7074233407
 20
72.8141487186
 30
0.0
 10
52.7346459232
 20
72.8410559633
 30
0.0
  0
SPLINE
  5
36E
100
AcDbEntity
  8
0
100
AcDbSpline
 62
7
  6
CONTINUOUS
 70
0
 71
3
 72
9
 73
5
 74
0
 42
0.0000001
 43
0.0000001
 44
0.0000000001
 40
0.0
 40
0.0
 40
0.0
 40
0.0
 40
0.244604701
 40
1.0
 40
1.0
 40
1.0
 40
1.0
 10
52.7346459232
 20
72.8410559633
 30
0.0
 10
52.9434228639
 20
73.0474792999
 30
0.0
 10
53.7782295003
 20
73.9101920899
 30
0.0
 10
54.5391733821
 20
74.8437299126
 30
0.0
 10
55.0707646007
 20
75.5782355582
 30
0.0
  0
SPLINE
  5
36F
100
AcDbEntity
  8
0
100
AcDbSpline
 62
7
  6
CONTINUOUS
 70
0
 71
3
 72
10
 73
6
 74
0
 42
0.0000001
 43
0.0000001
 44
0.0000000001
 40
0.0
 40
0.0
 40
0.0
 40
0.0
 40
0.5234124238
 40
0.7720767784
 40
1.0
 40
1.0
 40
1.0
 40
1.0
 10
55.0707646007
 20
75.5782355582
 30
0.0
 10
55.1637734333
 20
75.7067473447
 30
0.0
 10
55.2759482912
 20
75.9168418187
 30
0.0
 10
55.3579684288
 20
76.2093857352
 30
0.0
 10
55.3736987905
 20
76.3540287476
 30
0.0
 10
55.3736989345
 20
76.4231085319
 30
0.0
  0
SPLINE
  5
370
100
AcDbEntity
  8
0
100
AcDbSpline
 62
7
  6
CONTINUOUS
 70
0
 71
3
 72
11
 73
7
 74
0
 42
0.0000001
 43
0.0000001
 44
0.0000000001
 40
0.0
 40
0.0
 40
0.0
 40
0.0
 40
0.2894486566
 40
0.5489693846
 40
0.7820619096
 40
1.0
 40
1.0
 40
1.0
 40
1.0
 10
55.3736989345
 20
76.4231085319
 30
0.0
 10
55.3736988313
 20
76.4737313938
 30
0.0
 10
55.3659484735
 20
76.5700596474
 30
0.0
 10
55.327051807
 20
76.7024464041
 30
0.0
 10
55.2613705872
 20
76.8099711982
 30
0.0
 10
55.1995584291
 20
76.8617734796
 30
0.0
 10
55.1665486844
 20
76.8808310963
 30
0.0
  0
SPLINE
  5
371
100
AcDbEntity
  8
0
100
AcDbSpline
 62
7
  6
CONTINUOUS
 70
0
 71
3
 72
12
 73
8
 74
0
 42
0.0000001
 43
0.0000001
 44
0.0000000001
 40
0.0
 40
0.0
 40
0.0
 40
0.0
 40
0.2983128015
 40
0.5611906372
 40
0.7906475889
 40
0.896763189
 40
1.0
 40
1.0
 40
1.0
 40
1.0
 10
27.2829779553
 20
91.1413063682
 30
0.0
 10
27.1199390402
 20
91.2687650663
 30
0.0
 10
26.7920849942
 20
91.4839697475
 30
0.0
 10
26.2749668205
 20
91.6815004184
 30
0.0
 10
25.8522013721
 20
91.7132780913
 30
0.0
 10
25.5529807938
 20
91.6481420991
 30
0.0
 10
25.419135601
 20
91.5886448622
 30
0.0
 10
25.3571072194
 20
91.5528447123
 30
0.0
  0
SPLINE
  5
372
100
AcDbEntity
  8
0
100
AcDbSpline
 62
7
  6
CONTINUOUS
 70
0
 71
3
 72
9
 73
5
 74
0
 42
0.0000001
 43
0.0000001
 44
0.0000000001
 40
0.0
 40
0.0
 40
0.0
 40
0.0
 40
0.2455343966
 40
1.0
 40
1.0
 40
1.0
 40
1.0
 10
29.0431148894
 20
98.5867354854
 30
0.0
 10
29.0305201871
 20
98.5705609396
 30
0.0
 10
28.9806262418
 20
98.5036017309
 30
0.0
 10
28.9363819455
 20
98.4324747697
 30
0.0
 10
28.9061606014
 20
98.3772071457
 30
0.0
  0
SPLINE
  5
373
100
AcDbEntity
  8
0
100
AcDbSpline
 62
7
  6
CONTINUOUS
 70
0
 71
3
 72
9
 73
5
 74
0
 42
0.0000001
 43
0.0000001
 44
0.0000000001
 40
0.0
 40
0.0
 40
0.0
 40
0.0
 40
0.2347954189
 40
1.0
 40
1.0
 40
1.0
 40
1.0
 10
28.9061606014
 20
98.3772071457
 30
0.0
 10
28.8772260505
 20
98.3242927592
 30
0.0
 10
28.7660699965
 20
98.0923198374
 30
0.0
 10
28.7027316516
 20
97.8392274141
 30
0.0
 10
28.6751033203
 20
97.6446312252
 30
0.0
  0
SPLINE
  5
374
100
AcDbEntity
  8
0
100
AcDbSpline
 62
7
  6
CONTINUOUS
 70
0
 71
3
 72
11
 73
7
 74
0
 42
0.0000001
 43
0.0000001
 44
0.0000000001
 40
0.0
 40
0.0
 40
0.0
 40
0.0
 40
0.2327008486
 40
0.4900810879
 40
0.7527582626
 40
1.0
 40
1.0
 40
1.0
 40
1.0
 10
31.2437415065
 20
85.9293745735
 30
0.0
 10
31.243740294
 20
86.2452873751
 30
0.0
 10
31.1385472361
 20
86.9112466474
 30
0.0
 10
30.7605233807
 20
87.8674662113
 30
0.0
 10
30.1936193305
 20
88.7488511418
 30
0.0
 10
29.7041619707
 20
89.2484799679
 30
0.0
 10
29.4397271589
 20
89.4552103044
 30
0.0
  0
SPLINE
  5
375
100
AcDbEntity
  8
0
100
AcDbSpline
 62
7
  6
CONTINUOUS
 70
0
 71
3
 72
15
 73
11
 74
0
 42
0.0000001
 43
0.0000001
 44
0.0000000001
 40
0.0
 40
0.0
 40
0.0
 40
0.0
 40
0.1070793264
 40
0.2259104646
 40
0.3540378254
 40
0.4879974266
 40
0.6236761511
 40
0.7567908513
 40
0.8833634388
 40
1.0
 40
1.0
 40
1.0
 40
1.0
 10
27.2213438513
 20
77.130573421
 30
0.0
 10
27.082311676
 20
77.1824189203
 30
0.0
 10
26.8017587324
 20
77.3270266534
 30
0.0
 10
26.4108099763
 20
77.6265378768
 30
0.0
 10
26.0427137771
 20
78.0073325557
 30
0.0
 10
25.7142556342
 20
78.4518258837
 30
0.0
 10
25.4404464874
 20
78.9398041103
 30
0.0
 10
25.2337352644
 20
79.4488844562
 30
0.0
 10
25.103787386
 20
79.9555691827
 30
0.0
 10
25.070674199
 20
80.292935307
 30
0.0
 10
25.0706736059
 20
80.4545634709
 30
0.0
  0
SPLINE
  5
376
100
AcDbEntity
  8
0
100
AcDbSpline
 62
7
  6
CONTINUOUS
 70
0
 71
3
 72
11
 73
7
 74
0
 42
0.0000001
 43
0.0000001
 44
0.0000000001
 40
0.0
 40
0.0
 40
0.0
 40
0.0
 40
0.2252802999
 40
0.4618248675
 40
0.7183820254
 40
1.0
 40
1.0
 40
1.0
 40
1.0
 10
32.3232150994
 20
71.5220987395
 30
0.0
 10
32.2207812485
 20
71.4629485603
 30
0.0
 10
31.9920131604
 20
71.3717756159
 30
0.0
 10
31.6130814769
 20
71.3312980595
 30
0.0
 10
31.2065973198
 20
71.383654716
 30
0.0
 10
30.9370451748
 20
71.4739388901
 30
0.0
 10
30.8008329608
 20
71.5314765876
 30
0.0
  0
SPLINE
  5
377
100
AcDbEntity
  8
0
100
AcDbSpline
 62
7
  6
CONTINUOUS
 70
0
 71
3
 72
9
 73
5
 74
0
 42
0.0000001
 43
0.0000001
 44
0.0000000001
 40
0.0
 40
0.0
 40
0.0
 40
0.0
 40
0.2388099501
 40
1.0
 40
1.0
 40
1.0
 40
1.0
 10
28.4475882567
 20
82.0864624747
 30
0.0
 10
28.4561628081
 20
82.0116525774
 30
0.0
 10
28.5039193956
 20
81.6997848426
 30
0.0
 10
28.5955315418
 20
81.3952977904
 30
0.0
 10
28.6836705156
 20
81.1720545861
 30
0.0
  0
SPLINE
  5
378
100
AcDbEntity
  8
0
100
AcDbSpline
 62
7
  6
CONTINUOUS
 70
0
 71
3
 72
9
 73
5
 74
0
 42
0.0000001
 43
0.0000001
 44
0.0000000001
 40
0.0
 40
0.0
 40
0.0
 40
0.0
 40
0.266960381
 40
1.0
 40
1.0
 40
1.0
 40
1.0
 10
29.9188891708
 20
79.4562818111
 30
0.0
 10
29.972308475
 20
79.4137146749
 30
0.0
 10
30.1774150936
 20
79.2609341552
 30
0.0
 10
30.4043509278
 20
79.1352656694
 30
0.0
 10
30.5800870162
 20
79.069733175
 30
0.0
  0
SPLINE
  5
379
100
AcDbEntity
  8
0
100
AcDbSpline
 62
7
  6
CONTINUOUS
 70
0
 71
3
 72
9
 73
5
 74
0
 42
0.0000001
 43
0.0000001
 44
0.0000000001
 40
0.0
 40
0.0
 40
0.0
 40
0.0
 40
0.2567303445
 40
1.0
 40
1.0
 40
1.0
 40
1.0
 10
36.6369192888
 20
26.9530625449
 30
0.0
 10
36.6419155277
 20
26.0711982344
 30
0.0
 10
36.7110381243
 20
22.6368164422
 30
0.0
 10
36.9835401759
 20
19.2054376372
 30
0.0
 10
37.3167842436
 20
16.6741195012
 30
0.0
  0
SPLINE
  5
37A
100
AcDbEntity
  8
0
100
AcDbSpline
 62
7
  6
CONTINUOUS
 70
0
 71
3
 72
9
 73
5
 74
0
 42
0.0000001
 43
0.0000001
 44
0.0000000001
 40
0.0
 40
0.0
 40
0.0
 40
0.0
 40
0.2610633908
 40
1.0
 40
1.0
 40
1.0
 40
1.0
 10
52.4673921103
 20
72.4752461319
 30
0.0
 10
52.4594722984
 20
72.4680108563
 30
0.0
 10
52.4284840374
 20
72.441030979
 30
0.0
 10
52.3948000117
 20
72.4170460347
 30
0.0
 10
52.3685064698
 20
72.4018614278
 30
0.0
  0
SPLINE
  5
37B
100
AcDbEntity
  8
0
100
AcDbSpline
 62
7
  6
CONTINUOUS
 70
0
 71
3
 72
11
 73
7
 74
0
 42
0.0000001
 43
0.0000001
 44
0.0000000001
 40
0.0
 40
0.0
 40
0.0
 40
0.0
 40
0.2177834487
 40
0.450931936
 40
0.7102397891
 40
1.0
 40
1.0
 40
1.0
 40
1.0
 10
30.6037446534
 20
75.917042159
 30
0.0
 10
30.7056794692
 20
75.9758747938
 30
0.0
 10
30.8964051828
 20
76.1361934095
 30
0.0
 10
31.0993872154
 20
76.4681302848
 30
0.0
 10
31.2200501492
 20
76.877193183
 30
0.0
 10
31.2437409088
 20
77.1749370979
 30
0.0
 10
31.2437415065
 20
77.3315292144
 30
0.0
  0
SPLINE
  5
37C
100
AcDbEntity
  8
0
100
AcDbSpline
 62
7
  6
CONTINUOUS
 70
0
 71
3
 72
9
 73
5
 74
0
 42
0.0000001
 43
0.0000001
 44
0.0000000001
 40
0.0
 40
0.0
 40
0.0
 40
0.0
 40
0.2553606506
 40
1.0
 40
1.0
 40
1.0
 40
1.0
 10
55.1773062656
 20
75.493817649
 30
0.0
 10
54.9934730075
 20
75.2466389363
 30
0.0
 10
54.254521507
 20
74.2930944406
 30
0.0
 10
53.439054392
 20
73.3980853827
 30
0.0
 10
52.7900710331
 20
72.7770305432
 30
0.0
  0
SPLINE
  5
37D
100
AcDbEntity
  8
0
100
AcDbSpline
 62
7
  6
CONTINUOUS
 70
0
 71
3
 72
11
 73
7
 74
0
 42
0.0000001
 43
0.0000001
 44
0.0000000001
 40
0.0
 40
0.0
 40
0.0
 40
0.0
 40
0.2276054868
 40
0.4653231549
 40
0.7214006349
 40
1.0
 40
1.0
 40
1.0
 40
1.0
 10
30.3537391976
 20
76.350068079
 30
0.0
 10
30.2876125764
 20
76.3118441921
 30
0.0
 10
30.1411564859
 20
76.2517983727
 30
0.0
 10
29.8989543098
 20
76.219481798
 30
0.0
 10
29.6390656533
 20
76.2436928707
 30
0.0
 10
29.4656789473
 20
76.2936659818
 30
0.0
 10
29.3780794895
 20
76.326331416
 30
0.0
  0
SPLINE
  5
37E
100
AcDbEntity
  8
0
100
AcDbSpline
 62
7
  6
CONTINUOUS
 70
0
 71
3
 72
11
 73
7
 74
0
 42
0.0000001
 43
0.0000001
 44
0.0000000001
 40
0.0
 40
0.0
 40
0.0
 40
0.0
 40
0.289733389
 40
0.5490869419
 40
0.7822197118
 40
1.0
 40
1.0
 40
1.0
 40
1.0
 10
25.0706736059
 20
89.934222258
 30
0.0
 10
25.0706740899
 20
90.0654628616
 30
0.0
 10
25.0905586704
 20
90.3150291617
 30
0.0
 10
25.1916564876
 20
90.6579169468
 30
0.0
 10
25.3618377736
 20
90.9361224874
 30
0.0
 10
25.5216655924
 20
91.0705239032
 30
0.0
 10
25.6071044105
 20
91.1198355075
 30
0.0
  0
SPLINE
  5
37F
100
AcDbEntity
  8
0
100
AcDbSpline
 62
7
  6
CONTINUOUS
 70
0
 71
3
 72
11
 73
7
 74
0
 42
0.0000001
 43
0.0000001
 44
0.0000000001
 40
0.0
 40
0.0
 40
0.0
 40
0.0
 40
0.2258848695
 40
0.4881367965
 40
0.7569635018
 40
1.0
 40
1.0
 40
1.0
 40
1.0
 10
30.2737440321
 20
81.9597276136
 30
0.0
 10
30.3311252297
 20
81.9380463602
 30
0.0
 10
30.4435794702
 20
81.8614611136
 30
0.0
 10
30.575574772
 20
81.7015548054
 30
0.0
 10
30.6683101716
 20
81.5108318368
 30
0.0
 10
30.6957035018
 20
81.3717992386
 30
0.0
 10
30.6957035018
 20
81.3058009129
 30
0.0
  0
SPLINE
  5
380
100
AcDbEntity
  8
0
100
AcDbSpline
 62
7
  6
CONTINUOUS
 70
0
 71
3
 72
9
 73
5
 74
0
 42
0.0000001
 43
0.0000001
 44
0.0000000001
 40
0.0
 40
0.0
 40
0.0
 40
0.0
 40
0.2610633907
 40
1.0
 40
1.0
 40
1.0
 40
1.0
 10
52.4673921102
 20
38.8353465461
 30
0.0
 10
52.4594722985
 20
38.8281112707
 30
0.0
 10
52.4284840384
 20
38.8011313942
 30
0.0
 10
52.3948000138
 20
38.7771464504
 30
0.0
 10
52.3685064727
 20
38.7619618438
 30
0.0
  0
SPLINE
  5
381
100
AcDbEntity
  8
0
100
AcDbSpline
 62
7
  6
CONTINUOUS
 70
0
 71
3
 72
15
 73
11
 74
0
 42
0.0000001
 43
0.0000001
 44
0.0000000001
 40
0.0
 40
0.0
 40
0.0
 40
0.0
 40
0.1287604636
 40
0.2706327051
 40
0.4178830526
 40
0.5623899672
 40
0.6962074404
 40
0.8135919231
 40
0.9130623428
 40
1.0
 40
1.0
 40
1.0
 40
1.0
 10
29.7199169282
 20
86.2620300452
 30
0.0
 10
29.7199169282
 20
86.305597706
 30
0.0
 10
29.7076621773
 20
86.3972635211
 30
0.0
 10
29.6622314073
 20
86.5318645752
 30
0.0
 10
29.5920172454
 20
86.6615038271
 30
0.0
 10
29.5029749035
 20
86.7755665163
 30
0.0
 10
29.4020398594
 20
86.8649135828
 30
0.0
 10
29.2967944609
 20
86.9223913254
 30
0.0
 10
29.1937818642
 20
86.9430215476
 30
0.0
 10
29.1297783183
 20
86.9265958949
 30
0.0
 10
29.104296267
 20
86.911899292
 30
0.0
  0
SPLINE
  5
382
100
AcDbEntity
  8
0
100
AcDbSpline
 62
7
  6
CONTINUOUS
 70
0
 71
3
 72
9
 73
5
 74
0
 42
0.0000001
 43
0.0000001
 44
0.0000000001
 40
0.0
 40
0.0
 40
0.0
 40
0.0
 40
0.2553606506
 40
1.0
 40
1.0
 40
1.0
 40
1.0
 10
55.1773062654
 20
41.8539180629
 30
0.0
 10
54.9934730073
 20
41.6067393504
 30
0.0
 10
54.2545215072
 20
40.6531948551
 30
0.0
 10
53.4390543925
 20
39.7581857976
 30
0.0
 10
52.790071034
 20
39.1371309582
 30
0.0
  0
SPLINE
  5
383
100
AcDbEntity
  8
0
100
AcDbSpline
 62
7
  6
CONTINUOUS
 70
0
 71
3
 72
15
 73
11
 74
0
 42
0.0000001
 43
0.0000001
 44
0.0000000001
 40
0.0
 40
0.0
 40
0.0
 40
0.0
 40
0.1287604636
 40
0.2706327051
 40
0.4178830526
 40
0.5623899672
 40
0.6962074404
 40
0.8135919231
 40
0.9130623428
 40
1.0
 40
1.0
 40
1.0
 40
1.0
 10
29.7199169282
 20
84.0248134222
 30
0.0
 10
29.7199169282
 20
84.0683810831
 30
0.0
 10
29.7076621773
 20
84.1600468981
 30
0.0
 10
29.6622314073
 20
84.2946479523
 30
0.0
 10
29.5920172454
 20
84.4242872042
 30
0.0
 10
29.5029749035
 20
84.5383498934
 30
0.0
 10
29.4020398594
 20
84.6276969599
 30
0.0
 10
29.2967944609
 20
84.6851747024
 30
0.0
 10
29.1937818642
 20
84.7058049247
 30
0.0
 10
29.1297783183
 20
84.689379272
 30
0.0
 10
29.104296267
 20
84.674682669
 30
0.0
  0
SPLINE
  5
384
100
AcDbEntity
  8
0
100
AcDbSpline
 62
7
  6
CONTINUOUS
 70
0
 71
3
 72
15
 73
11
 74
0
 42
0.0000001
 43
0.0000001
 44
0.0000000001
 40
0.0
 40
0.0
 40
0.0
 40
0.0
 40
0.1287604636
 40
0.2706327051
 40
0.4178830526
 40
0.5623899672
 40
0.6962074404
 40
0.8135919231
 40
0.9130623428
 40
1.0
 40
1.0
 40
1.0
 40
1.0
 10
29.7199169282
 20
81.7875967993
 30
0.0
 10
29.7199169282
 20
81.8311644601
 30
0.0
 10
29.7076621773
 20
81.9228302752
 30
0.0
 10
29.6622314073
 20
82.0574313293
 30
0.0
 10
29.5920172454
 20
82.1870705813
 30
0.0
 10
29.5029749035
 20
82.3011332705
 30
0.0
 10
29.4020398594
 20
82.3904803369
 30
0.0
 10
29.2967944609
 20
82.4479580795
 30
0.0
 10
29.1937818642
 20
82.4685883017
 30
0.0
 10
29.1297783183
 20
82.4521626491
 30
0.0
 10
29.104296267
 20
82.4374660461
 30
0.0
  0
SPLINE
  5
385
100
AcDbEntity
  8
0
100
AcDbSpline
 62
7
  6
CONTINUOUS
 70
0
 71
3
 72
9
 73
5
 74
0
 42
0.0000001
 43
0.0000001
 44
0.0000000001
 40
0.0
 40
0.0
 40
0.0
 40
0.0
 40
0.2610633907
 40
1.0
 40
1.0
 40
1.0
 40
1.0
 10
52.4673921105
 20
92.7245060769
 30
0.0
 10
52.4594722987
 20
92.7172708014
 30
0.0
 10
52.4284840385
 20
92.6902909248
 30
0.0
 10
52.3948000138
 20
92.6663059809
 30
0.0
 10
52.3685064725
 20
92.6511213743
 30
0.0
  0
SPLINE
  5
386
100
AcDbEntity
  8
0
100
AcDbSpline
 62
7
  6
CONTINUOUS
 70
0
 71
3
 72
9
 73
5
 74
0
 42
0.0000001
 43
0.0000001
 44
0.0000000001
 40
0.0
 40
0.0
 40
0.0
 40
0.0
 40
0.2553606506
 40
1.0
 40
1.0
 40
1.0
 40
1.0
 10
55.1773062659
 20
95.7430775942
 30
0.0
 10
54.9934730077
 20
95.4958988815
 30
0.0
 10
54.2545215071
 20
94.5423543855
 30
0.0
 10
53.4390543919
 20
93.6473453274
 30
0.0
 10
52.7900710329
 20
93.0262904877
 30
0.0
  0
SPLINE
  5
387
100
AcDbEntity
  8
0
100
AcDbSpline
 62
7
  6
CONTINUOUS
 70
0
 71
3
 72
15
 73
11
 74
0
 42
0.0000001
 43
0.0000001
 44
0.0000000001
 40
0.0
 40
0.0
 40
0.0
 40
0.0
 40
0.1287604636
 40
0.2706327051
 40
0.4178830526
 40
0.5623899672
 40
0.6962074404
 40
0.8135919231
 40
0.9130623428
 40
1.0
 40
1.0
 40
1.0
 40
1.0
 10
29.7199169282
 20
79.5503801764
 30
0.0
 10
29.7199169282
 20
79.5939478372
 30
0.0
 10
29.7076621773
 20
79.6856136523
 30
0.0
 10
29.6622314073
 20
79.8202147064
 30
0.0
 10
29.5920172454
 20
79.9498539583
 30
0.0
 10
29.5029749035
 20
80.0639166475
 30
0.0
 10
29.4020398594
 20
80.153263714
 30
0.0
 10
29.2967944609
 20
80.2107414566
 30
0.0
 10
29.1937818642
 20
80.2313716788
 30
0.0
 10
29.1297783183
 20
80.2149460261
 30
0.0
 10
29.104296267
 20
80.2002494232
 30
0.0
  0
SPLINE
  5
388
100
AcDbEntity
  8
0
100
AcDbSpline
 62
7
  6
CONTINUOUS
 70
0
 71
3
 72
15
 73
11
 74
0
 42
0.0000001
 43
0.0000001
 44
0.0000000001
 40
0.0
 40
0.0
 40
0.0
 40
0.0
 40
0.1287604636
 40
0.2706327051
 40
0.4178830526
 40
0.5623899672
 40
0.6962074404
 40
0.8135919231
 40
0.9130623428
 40
1.0
 40
1.0
 40
1.0
 40
1.0
 10
27.7117253087
 20
79.5830105836
 30
0.0
 10
27.7117253087
 20
79.6265782444
 30
0.0
 10
27.6994705579
 20
79.7182440595
 30
0.0
 10
27.6540397879
 20
79.8528451136
 30
0.0
 10
27.583825626
 20
79.9824843655
 30
0.0
 10
27.4947832841
 20
80.0965470547
 30
0.0
 10
27.39384824
 20
80.1858941212
 30
0.0
 10
27.2886028415
 20
80.2433718638
 30
0.0
 10
27.1855902448
 20
80.264002086
 30
0.0
 10
27.1215866989
 20
80.2475764333
 30
0.0
 10
27.0961046476
 20
80.2328798304
 30
0.0
  0
SPLINE
  5
389
100
AcDbEntity
  8
0
100
AcDbSpline
 62
7
  6
CONTINUOUS
 70
0
 71
3
 72
15
 73
11
 74
0
 42
0.0000001
 43
0.0000001
 44
0.0000000001
 40
0.0
 40
0.0
 40
0.0
 40
0.0
 40
0.1287604636
 40
0.2706327051
 40
0.4178830526
 40
0.5623899672
 40
0.6962074404
 40
0.8135919231
 40
0.9130623428
 40
1.0
 40
1.0
 40
1.0
 40
1.0
 10
27.7117253087
 20
81.8202272065
 30
0.0
 10
27.7117253087
 20
81.8637948673
 30
0.0
 10
27.6994705579
 20
81.9554606824
 30
0.0
 10
27.6540397879
 20
82.0900617365
 30
0.0
 10
27.583825626
 20
82.2197009885
 30
0.0
 10
27.4947832841
 20
82.3337636777
 30
0.0
 10
27.39384824
 20
82.4231107441
 30
0.0
 10
27.2886028415
 20
82.4805884867
 30
0.0
 10
27.1855902448
 20
82.5012187089
 30
0.0
 10
27.1215866989
 20
82.4847930563
 30
0.0
 10
27.0961046476
 20
82.4700964533
 30
0.0
  0
SPLINE
  5
38A
100
AcDbEntity
  8
0
100
AcDbSpline
 62
7
  6
CONTINUOUS
 70
0
 71
3
 72
11
 73
7
 74
0
 42
0.0000001
 43
0.0000001
 44
0.0000000001
 40
0.0
 40
0.0
 40
0.0
 40
0.0
 40
0.2258848695
 40
0.4881367965
 40
0.7569635018
 40
1.0
 40
1.0
 40
1.0
 40
1.0
 10
30.2737440321
 20
84.1969442365
 30
0.0
 10
30.3311252297
 20
84.1752629832
 30
0.0
 10
30.4435794702
 20
84.0986777365
 30
0.0
 10
30.575574772
 20
83.9387714284
 30
0.0
 10
30.6683101716
 20
83.7480484597
 30
0.0
 10
30.6957035018
 20
83.6090158615
 30
0.0
 10
30.6957035018
 20
83.5430175359
 30
0.0
  0
SPLINE
  5
38B
100
AcDbEntity
  8
0
100
AcDbSpline
 62
7
  6
CONTINUOUS
 70
0
 71
3
 72
15
 73
11
 74
0
 42
0.0000001
 43
0.0000001
 44
0.0000000001
 40
0.0
 40
0.0
 40
0.0
 40
0.0
 40
0.1287604636
 40
0.2706327051
 40
0.4178830526
 40
0.5623899672
 40
0.6962074404
 40
0.8135919231
 40
0.9130623428
 40
1.0
 40
1.0
 40
1.0
 40
1.0
 10
27.7117253087
 20
84.0574438294
 30
0.0
 10
27.7117253087
 20
84.1010114903
 30
0.0
 10
27.6994705579
 20
84.1926773053
 30
0.0
 10
27.6540397879
 20
84.3272783595
 30
0.0
 10
27.583825626
 20
84.4569176114
 30
0.0
 10
27.4947832841
 20
84.5709803006
 30
0.0
 10
27.39384824
 20
84.6603273671
 30
0.0
 10
27.2886028415
 20
84.7178051096
 30
0.0
 10
27.1855902448
 20
84.7384353319
 30
0.0
 10
27.1215866989
 20
84.7220096792
 30
0.0
 10
27.0961046476
 20
84.7073130762
 30
0.0
  0
SPLINE
  5
38C
100
AcDbEntity
  8
0
100
AcDbSpline
 62
7
  6
CONTINUOUS
 70
0
 71
3
 72
16
 73
12
 74
0
 42
0.0000001
 43
0.0000001
 44
0.0000000001
 40
0.0
 40
0.0
 40
0.0
 40
0.0
 40
0.0428757924
 40
0.0875166499
 40
0.1869226544
 40
0.3042403634
 40
0.4379635554
 40
0.5823668907
 40
0.729555294
 40
0.8712850814
 40
1.0
 40
1.0
 40
1.0
 40
1.0
 10
28.3931194215
 20
92.7814206063
 30
0.0
 10
28.3664849709
 20
92.7660683783
 30
0.0
 10
28.307811308
 20
92.7416700162
 30
0.0
 10
28.174052469
 20
92.7219972046
 30
0.0
 10
27.9851991273
 20
92.7588964059
 30
0.0
 10
27.7627465525
 20
92.8809284405
 30
0.0
 10
27.5489001659
 20
93.0700674959
 30
0.0
 10
27.360321241
 20
93.3116160221
 30
0.0
 10
27.211667454
 20
93.5861433343
 30
0.0
 10
27.1153543326
 20
93.8711694994
 30
0.0
 10
27.0894742676
 20
94.065291724
 30
0.0
 10
27.0894742676
 20
94.1575811893
 30
0.0
  0
SPLINE
  5
38D
100
AcDbEntity
  8
0
100
AcDbSpline
 62
7
  6
CONTINUOUS
 70
0
 71
3
 72
9
 73
5
 74
0
 42
0.0000001
 43
0.0000001
 44
0.0000000001
 40
0.0
 40
0.0
 40
0.0
 40
0.0
 40
0.5258579905
 40
1.0
 40
1.0
 40
1.0
 40
1.0
 10
31.7792605685
 20
71.9702858941
 30
0.0
 10
31.9340002698
 20
71.9139903742
 30
0.0
 10
32.2394473288
 20
71.8338732857
 30
0.0
 10
32.5571130743
 20
71.8305997953
 30
0.0
 10
32.7040257529
 20
71.8520345871
 30
0.0
  0
SPLINE
  5
38E
100
AcDbEntity
  8
0
100
AcDbSpline
 62
7
  6
CONTINUOUS
 70
0
 71
3
 72
15
 73
11
 74
0
 42
0.0000001
 43
0.0000001
 44
0.0000000001
 40
0.0
 40
0.0
 40
0.0
 40
0.0
 40
0.1287604636
 40
0.2706327051
 40
0.4178830526
 40
0.5623899672
 40
0.6962074404
 40
0.8135919231
 40
0.9130623428
 40
1.0
 40
1.0
 40
1.0
 40
1.0
 10
27.7117253087
 20
86.2946604524
 30
0.0
 10
27.7117253087
 20
86.3382281132
 30
0.0
 10
27.6994705579
 20
86.4298939283
 30
0.0
 10
27.6540397879
 20
86.5644949824
 30
0.0
 10
27.583825626
 20
86.6941342343
 30
0.0
 10
27.4947832841
 20
86.8081969235
 30
0.0
 10
27.39384824
 20
86.89754399
 30
0.0
 10
27.2886028415
 20
86.9550217326
 30
0.0
 10
27.1855902448
 20
86.9756519548
 30
0.0
 10
27.1215866989
 20
86.9592263021
 30
0.0
 10
27.0961046476
 20
86.9445296992
 30
0.0
  0
SPLINE
  5
38F
100
AcDbEntity
  8
0
100
AcDbSpline
 62
7
  6
CONTINUOUS
 70
0
 71
3
 72
17
 73
13
 74
0
 42
0.0000001
 43
0.0000001
 44
0.0000000001
 40
0.0
 40
0.0
 40
0.0
 40
0.0
 40
0.0428570455
 40
0.087485165
 40
0.1353123244
 40
0.1872781392
 40
0.3045378316
 40
0.4381995438
 40
0.5825378192
 40
0.7296849502
 40
0.8713141218
 40
1.0
 40
1.0
 40
1.0
 40
1.0
 10
28.370020836
 20
92.360114851
 30
0.0
 10
28.3318111016
 20
92.338053648
 30
0.0
 10
28.247610459
 20
92.3029637432
 30
0.0
 10
28.1085591667
 20
92.282682339
 30
0.0
 10
27.95924403
 20
92.2935786831
 30
0.0
 10
27.7423082194
 20
92.351382052
 30
0.0
 10
27.464950543
 20
92.5029638026
 30
0.0
 10
27.1585242766
 20
92.774335937
 30
0.0
 10
26.8876827327
 20
93.1210165799
 30
0.0
 10
26.6744459716
 20
93.5150279009
 30
0.0
 10
26.5361354069
 20
93.9240864136
 30
0.0
 10
26.4990409188
 20
94.2026873278
 30
0.0
 10
26.4990409188
 20
94.3351690605
 30
0.0
  0
SPLINE
  5
390
100
AcDbEntity
  8
0
100
AcDbSpline
 62
7
  6
CONTINUOUS
 70
0
 71
3
 72
9
 73
5
 74
0
 42
0.0000001
 43
0.0000001
 44
0.0000000001
 40
0.0
 40
0.0
 40
0.0
 40
0.0
 40
0.4599507414
 40
1.0
 40
1.0
 40
1.0
 40
1.0
 10
26.884152221
 20
95.0401679592
 30
0.0
 10
26.8244288731
 20
94.9669208994
 30
0.0
 10
26.7335229797
 20
94.7755942629
 30
0.0
 10
26.7111720699
 20
94.568610024
 30
0.0
 10
26.7111720699
 20
94.4576423067
 30
0.0
  0
SPLINE
  5
391
100
AcDbEntity
  8
0
100
AcDbSpline
 62
7
  6
CONTINUOUS
 70
0
 71
3
 72
15
 73
11
 74
0
 42
0.0000001
 43
0.0000001
 44
0.0000000001
 40
0.0
 40
0.0
 40
0.0
 40
0.0
 40
0.1287604636
 40
0.2706327051
 40
0.4178830526
 40
0.5623899672
 40
0.6962074404
 40
0.8135919231
 40
0.9130623428
 40
1.0
 40
1.0
 40
1.0
 40
1.0
 10
27.7117253087
 20
88.5318770753
 30
0.0
 10
27.7117253087
 20
88.5754447361
 30
0.0
 10
27.6994705579
 20
88.6671105512
 30
0.0
 10
27.6540397879
 20
88.8017116053
 30
0.0
 10
27.583825626
 20
88.9313508573
 30
0.0
 10
27.4947832841
 20
89.0454135465
 30
0.0
 10
27.39384824
 20
89.1347606129
 30
0.0
 10
27.2886028415
 20
89.1922383555
 30
0.0
 10
27.1855902448
 20
89.2128685777
 30
0.0
 10
27.1215866989
 20
89.1964429251
 30
0.0
 10
27.0961046476
 20
89.1817463221
 30
0.0
  0
SPLINE
  5
392
100
AcDbEntity
  8
0
100
AcDbSpline
 62
7
  6
CONTINUOUS
 70
0
 71
3
 72
11
 73
7
 74
0
 42
0.0000001
 43
0.0000001
 44
0.0000000001
 40
0.0
 40
0.0
 40
0.0
 40
0.0
 40
0.2326319284
 40
0.489949065
 40
0.7526118785
 40
1.0
 40
1.0
 40
1.0
 40
1.0
 10
27.7965781049
 20
74.014459504
 30
0.0
 10
27.7965781049
 20
73.9043076031
 30
0.0
 10
27.8331720609
 20
73.6720947594
 30
0.0
 10
27.9647563983
 20
73.3385611001
 30
0.0
 10
28.1621688265
 20
73.0309204744
 30
0.0
 10
28.3326251668
 20
72.8563469782
 30
0.0
 10
28.4247429806
 20
72.7839877764
 30
0.0
  0
SPLINE
  5
393
100
AcDbEntity
  8
0
100
AcDbSpline
 62
7
  6
CONTINUOUS
 70
0
 71
3
 72
9
 73
5
 74
0
 42
0.0000001
 43
0.0000001
 44
0.0000000001
 40
0.0
 40
0.0
 40
0.0
 40
0.0
 40
0.2600957016
 40
1.0
 40
1.0
 40
1.0
 40
1.0
 10
28.4247429806
 20
72.7839877764
 30
0.0
 10
28.4390758516
 20
72.7727292037
 30
0.0
 10
28.4950913025
 20
72.7306292172
 30
0.0
 10
28.5548248731
 20
72.6933517234
 30
0.0
 10
28.6008986931
 20
72.6695728207
 30
0.0
  0
SPLINE
  5
394
100
AcDbEntity
  8
0
100
AcDbSpline
 62
7
  6
CONTINUOUS
 70
0
 71
3
 72
11
 73
7
 74
0
 42
0.0000001
 43
0.0000001
 44
0.0000000001
 40
0.0
 40
0.0
 40
0.0
 40
0.0
 40
0.2893966051
 40
0.5491278405
 40
0.7823136736
 40
1.0
 40
1.0
 40
1.0
 40
1.0
 10
27.0894742676
 20
73.6062153502
 30
0.0
 10
27.0894742676
 20
73.6608771898
 30
0.0
 10
27.0978751247
 20
73.7649315328
 30
0.0
 10
27.1398608416
 20
73.9079774238
 30
0.0
 10
27.2108919562
 20
74.0240362883
 30
0.0
 10
27.277553826
 20
74.0800480154
 30
0.0
 10
27.3131768104
 20
74.1005812783
 30
0.0
  0
SPLINE
  5
395
100
AcDbEntity
  8
0
100
AcDbSpline
 62
7
  6
CONTINUOUS
 70
0
 71
3
 72
15
 73
11
 74
0
 42
0.0000001
 43
0.0000001
 44
0.0000000001
 40
0.0
 40
0.0
 40
0.0
 40
0.0
 40
0.1236252986
 40
0.2590942348
 40
0.4007410365
 40
0.5422214301
 40
0.6770928563
 40
0.7999400382
 40
0.9074584928
 40
1.0
 40
1.0
 40
1.0
 40
1.0
 10
26.7111742757
 20
73.7429732401
 30
0.0
 10
26.7111742757
 20
73.6247801596
 30
0.0
 10
26.7407800452
 20
73.3767976211
 30
0.0
 10
26.8533068487
 20
73.008942803
 30
0.0
 10
27.029222805
 20
72.6477118463
 30
0.0
 10
27.2566171527
 20
72.317232304
 30
0.0
 10
27.5206227361
 20
72.0392015199
 30
0.0
 10
27.8045259807
 20
71.8318596554
 30
0.0
 10
28.0908643148
 20
71.708424882
 30
0.0
 10
28.2861891636
 20
71.6892513126
 30
0.0
 10
28.3740332234
 20
71.6997998603
 30
0.0
  0
SPLINE
  5
396
100
AcDbEntity
  8
0
100
AcDbSpline
 62
7
  6
CONTINUOUS
 70
0
 71
3
 72
9
 73
5
 74
0
 42
0.0000001
 43
0.0000001
 44
0.0000000001
 40
0.0
 40
0.0
 40
0.0
 40
0.0
 40
0.2547119229
 40
1.0
 40
1.0
 40
1.0
 40
1.0
 10
28.3740332234
 20
71.6997998603
 30
0.0
 10
28.3851059909
 20
71.7011295076
 30
0.0
 10
28.4284239132
 20
71.7075355326
 30
0.0
 10
28.4710332532
 20
71.7189021228
 30
0.0
 10
28.5016470505
 20
71.7301992231
 30
0.0
  0
SPLINE
  5
397
100
AcDbEntity
  8
0
100
AcDbSpline
 62
7
  6
CONTINUOUS
 70
0
 71
3
 72
11
 73
7
 74
0
 42
0.0000001
 43
0.0000001
 44
0.0000000001
 40
0.0
 40
0.0
 40
0.0
 40
0.0
 40
0.2258848695
 40
0.4881367965
 40
0.7569635018
 40
1.0
 40
1.0
 40
1.0
 40
1.0
 10
30.2737440321
 20
86.4341608594
 30
0.0
 10
30.3311252297
 20
86.4124796061
 30
0.0
 10
30.4435794702
 20
86.3358943594
 30
0.0
 10
30.575574772
 20
86.1759880513
 30
0.0
 10
30.6683101716
 20
85.9852650827
 30
0.0
 10
30.6957035018
 20
85.8462324845
 30
0.0
 10
30.6957035018
 20
85.7802341588
 30
0.0
  0
SPLINE
  5
398
100
AcDbEntity
  8
0
100
AcDbSpline
 62
7
  6
CONTINUOUS
 70
0
 71
3
 72
13
 73
9
 74
0
 42
0.0000001
 43
0.0000001
 44
0.0000000001
 40
0.0
 40
0.0
 40
0.0
 40
0.0
 40
0.0959964867
 40
0.1964622773
 40
0.3049970452
 40
0.4238365863
 40
0.6935049471
 40
1.0
 40
1.0
 40
1.0
 40
1.0
 10
55.5140301025
 20
97.6094777367
 30
0.0
 10
55.5459489284
 20
97.5910495756
 30
0.0
 10
55.6063126617
 20
97.5439775517
 30
0.0
 10
55.6769430555
 20
97.4491216745
 30
0.0
 10
55.7275610301
 20
97.3328460852
 30
0.0
 10
55.7688554701
 20
97.1455642582
 30
0.0
 10
55.7614344306
 20
96.8751361191
 30
0.0
 10
55.7052825674
 20
96.6595406277
 30
0.0
 10
55.6654297657
 20
96.548819788
 30
0.0
  0
SPLINE
  5
399
100
AcDbEntity
  8
0
100
AcDbSpline
 62
7
  6
CONTINUOUS
 70
0
 71
3
 72
9
 73
5
 74
0
 42
0.0000001
 43
0.0000001
 44
0.0000000001
 40
0.0
 40
0.0
 40
0.0
 40
0.0
 40
0.247213506
 40
1.0
 40
1.0
 40
1.0
 40
1.0
 10
55.6654297657
 20
96.548819788
 30
0.0
 10
55.649717231
 20
96.5051665199
 30
0.0
 10
55.5797053421
 20
96.3309695389
 30
0.0
 10
55.4854785286
 20
96.1665512338
 30
0.0
 10
55.4030320997
 20
96.0518268901
 30
0.0
  0
SPLINE
  5
39A
100
AcDbEntity
  8
0
100
AcDbSpline
 62
7
  6
CONTINUOUS
 70
0
 71
3
 72
11
 73
7
 74
0
 42
0.0000001
 43
0.0000001
 44
0.0000000001
 40
0.0
 40
0.0
 40
0.0
 40
0.0
 40
0.2895453772
 40
0.5491366158
 40
0.7822776227
 40
1.0
 40
1.0
 40
1.0
 40
1.0
 10
26.4990431245
 20
73.620499994
 30
0.0
 10
26.4990431245
 20
73.6989915211
 30
0.0
 10
26.5110283102
 20
73.8483491701
 30
0.0
 10
26.5714071323
 20
74.0535954569
 30
0.0
 10
26.6732653189
 20
74.2201778995
 30
0.0
 10
26.7689841396
 20
74.3004996607
 30
0.0
 10
26.8200976716
 20
74.3300111459
 30
0.0
  0
SPLINE
  5
39B
100
AcDbEntity
  8
0
100
AcDbSpline
 62
7
  6
CONTINUOUS
 70
0
 71
3
 72
11
 73
7
 74
0
 42
0.0000001
 43
0.0000001
 44
0.0000000001
 40
0.0
 40
0.0
 40
0.0
 40
0.0
 40
0.2897601974
 40
0.5490680135
 40
0.7822165237
 40
1.0
 40
1.0
 40
1.0
 40
1.0
 10
34.6024847332
 20
79.2706889681
 30
0.0
 10
34.6024841356
 20
79.1140968562
 30
0.0
 10
34.5787934056
 20
78.8163529591
 30
0.0
 10
34.4581304625
 20
78.4072900762
 30
0.0
 10
34.2551484633
 20
78.0753531575
 30
0.0
 10
34.0644227025
 20
77.9150345472
 30
0.0
 10
33.9624878756
 20
77.8562018975
 30
0.0
  0
SPLINE
  5
39C
100
AcDbEntity
  8
0
100
AcDbSpline
 62
7
  6
CONTINUOUS
 70
0
 71
3
 72
11
 73
7
 74
0
 42
0.0000001
 43
0.0000001
 44
0.0000000001
 40
0.0
 40
0.0
 40
0.0
 40
0.0
 40
0.2326319284
 40
0.489949065
 40
0.7526118785
 40
1.0
 40
1.0
 40
1.0
 40
1.0
 10
27.7965781049
 20
94.5658253432
 30
0.0
 10
27.7965781049
 20
94.4556734423
 30
0.0
 10
27.8331720609
 20
94.2234605985
 30
0.0
 10
27.9647563983
 20
93.8899269393
 30
0.0
 10
28.1621688265
 20
93.5822863136
 30
0.0
 10
28.3326251668
 20
93.4077128173
 30
0.0
 10
28.4247429806
 20
93.3353536156
 30
0.0
  0
SPLINE
  5
39D
100
AcDbEntity
  8
0
100
AcDbSpline
 62
7
  6
CONTINUOUS
 70
0
 71
3
 72
9
 73
5
 74
0
 42
0.0000001
 43
0.0000001
 44
0.0000000001
 40
0.0
 40
0.0
 40
0.0
 40
0.0
 40
0.2600957016
 40
1.0
 40
1.0
 40
1.0
 40
1.0
 10
28.4247429806
 20
93.3353536156
 30
0.0
 10
28.4390758516
 20
93.3240950429
 30
0.0
 10
28.4950913025
 20
93.2819950564
 30
0.0
 10
28.5548248731
 20
93.2447175625
 30
0.0
 10
28.6008986931
 20
93.2209386599
 30
0.0
  0
SPLINE
  5
39E
100
AcDbEntity
  8
0
100
AcDbSpline
 62
7
  6
CONTINUOUS
 70
0
 71
3
 72
11
 73
7
 74
0
 42
0.0000001
 43
0.0000001
 44
0.0000000001
 40
0.0
 40
0.0
 40
0.0
 40
0.0
 40
0.2893966051
 40
0.5491278405
 40
0.7823136736
 40
1.0
 40
1.0
 40
1.0
 40
1.0
 10
27.0894742676
 20
94.1575811893
 30
0.0
 10
27.0894742676
 20
94.212243029
 30
0.0
 10
27.0978751247
 20
94.3162973719
 30
0.0
 10
27.1398608416
 20
94.459343263
 30
0.0
 10
27.2108919562
 20
94.5754021274
 30
0.0
 10
27.277553826
 20
94.6314138545
 30
0.0
 10
27.3131768104
 20
94.6519471174
 30
0.0
  0
SPLINE
  5
39F
100
AcDbEntity
  8
0
100
AcDbSpline
 62
7
  6
CONTINUOUS
 70
0
 71
3
 72
13
 73
9
 74
0
 42
0.0000001
 43
0.0000001
 44
0.0000000001
 40
0.0
 40
0.0
 40
0.0
 40
0.0
 40
0.0959964867
 40
0.1964622773
 40
0.3049970452
 40
0.4238365863
 40
0.6935049471
 40
1.0
 40
1.0
 40
1.0
 40
1.0
 10
55.5140301025
 20
43.7203182062
 30
0.0
 10
55.5459489285
 20
43.701890045
 30
0.0
 10
55.6063126618
 20
43.6548180211
 30
0.0
 10
55.6769430555
 20
43.5599621438
 30
0.0
 10
55.7275610302
 20
43.4436865545
 30
0.0
 10
55.7688554701
 20
43.2564047274
 30
0.0
 10
55.7614344306
 20
42.9859765881
 30
0.0
 10
55.7052825673
 20
42.7703810966
 30
0.0
 10
55.6654297655
 20
42.6596602569
 30
0.0
  0
SPLINE
  5
3A0
100
AcDbEntity
  8
0
100
AcDbSpline
 62
7
  6
CONTINUOUS
 70
0
 71
3
 72
9
 73
5
 74
0
 42
0.0000001
 43
0.0000001
 44
0.0000000001
 40
0.0
 40
0.0
 40
0.0
 40
0.0
 40
0.247213506
 40
1.0
 40
1.0
 40
1.0
 40
1.0
 10
55.6654297655
 20
42.6596602569
 30
0.0
 10
55.6497172308
 20
42.6160069888
 30
0.0
 10
55.5797053419
 20
42.441810008
 30
0.0
 10
55.4854785285
 20
42.2773917032
 30
0.0
 10
55.4030320997
 20
42.1626673596
 30
0.0
  0
SPLINE
  5
3A1
100
AcDbEntity
  8
0
100
AcDbSpline
 62
7
  6
CONTINUOUS
 70
0
 71
3
 72
15
 73
11
 74
0
 42
0.0000001
 43
0.0000001
 44
0.0000000001
 40
0.0
 40
0.0
 40
0.0
 40
0.0
 40
0.1236252986
 40
0.2590942348
 40
0.4007410365
 40
0.5422214301
 40
0.6770928563
 40
0.7999400382
 40
0.9074584928
 40
1.0
 40
1.0
 40
1.0
 40
1.0
 10
26.7111720699
 20
94.4576423067
 30
0.0
 10
26.7111720699
 20
94.3394492262
 30
0.0
 10
26.7407778394
 20
94.0914666877
 30
0.0
 10
26.8533046429
 20
93.7236118696
 30
0.0
 10
27.0292205992
 20
93.3623809128
 30
0.0
 10
27.256614947
 20
93.0319013705
 30
0.0
 10
27.5206205303
 20
92.7538705864
 30
0.0
 10
27.804523775
 20
92.5465287219
 30
0.0
 10
28.0908621091
 20
92.4230939486
 30
0.0
 10
28.2861869579
 20
92.4039203791
 30
0.0
 10
28.3740310177
 20
92.4144689268
 30
0.0
  0
SPLINE
  5
3A2
100
AcDbEntity
  8
0
100
AcDbSpline
 62
7
  6
CONTINUOUS
 70
0
 71
3
 72
9
 73
5
 74
0
 42
0.0000001
 43
0.0000001
 44
0.0000000001
 40
0.0
 40
0.0
 40
0.0
 40
0.0
 40
0.2547119229
 40
1.0
 40
1.0
 40
1.0
 40
1.0
 10
28.3740310177
 20
92.4144689268
 30
0.0
 10
28.3851037852
 20
92.4157985741
 30
0.0
 10
28.4284217074
 20
92.4222045991
 30
0.0
 10
28.4710310474
 20
92.4335711893
 30
0.0
 10
28.5016448448
 20
92.4448682896
 30
0.0
  0
SPLINE
  5
3A3
100
AcDbEntity
  8
0
100
AcDbSpline
 62
7
  6
CONTINUOUS
 70
0
 71
3
 72
11
 73
7
 74
0
 42
0.0000001
 43
0.0000001
 44
0.0000000001
 40
0.0
 40
0.0
 40
0.0
 40
0.0
 40
0.2895453772
 40
0.5491366158
 40
0.7822776227
 40
1.0
 40
1.0
 40
1.0
 40
1.0
 10
26.4990409188
 20
94.3351690605
 30
0.0
 10
26.4990409188
 20
94.4136605876
 30
0.0
 10
26.5110261045
 20
94.5630182366
 30
0.0
 10
26.5714049265
 20
94.7682645235
 30
0.0
 10
26.6732631132
 20
94.9348469661
 30
0.0
 10
26.7689819338
 20
95.0151687273
 30
0.0
 10
26.8200954658
 20
95.0446802124
 30
0.0
  0
SPLINE
  5
3A4
100
AcDbEntity
  8
0
100
AcDbSpline
 62
7
  6
CONTINUOUS
 70
0
 71
3
 72
9
 73
5
 74
0
 42
0.0000001
 43
0.0000001
 44
0.0000000001
 40
0.0
 40
0.0
 40
0.0
 40
0.0
 40
0.2438226121
 40
1.0
 40
1.0
 40
1.0
 40
1.0
 10
32.883439576
 20
91.3259162164
 30
0.0
 10
32.9196392237
 20
91.2958846073
 30
0.0
 10
33.0658481506
 20
91.1700073652
 30
0.0
 10
33.2031760719
 20
91.0338995125
 30
0.0
 10
33.3018727891
 20
90.9264858612
 30
0.0
  0
SPLINE
  5
3A5
100
AcDbEntity
  8
0
100
AcDbSpline
 62
7
  6
CONTINUOUS
 70
0
 71
3
 72
9
 73
5
 74
0
 42
0.0000001
 43
0.0000001
 44
0.0000000001
 40
0.0
 40
0.0
 40
0.0
 40
0.0
 40
0.262060938
 40
1.0
 40
1.0
 40
1.0
 40
1.0
 10
34.494708195
 20
88.7133224252
 30
0.0
 10
34.5122952796
 20
88.6409400923
 30
0.0
 10
34.5721667296
 20
88.3631089136
 30
0.0
 10
34.6024839282
 20
88.0782863703
 30
0.0
 10
34.6024847332
 20
87.8685342771
 30
0.0
  0
SPLINE
  5
3A6
100
AcDbEntity
  8
0
100
AcDbSpline
 62
7
  6
CONTINUOUS
 70
0
 71
3
 72
13
 73
9
 74
0
 42
0.0000001
 43
0.0000001
 44
0.0000000001
 40
0.0
 40
0.0
 40
0.0
 40
0.0
 40
0.0959964867
 40
0.1964622773
 40
0.3049970452
 40
0.4238365863
 40
0.6935049471
 40
1.0
 40
1.0
 40
1.0
 40
1.0
 10
55.5140301025
 20
77.3602177919
 30
0.0
 10
55.5459489284
 20
77.3417896308
 30
0.0
 10
55.6063126617
 20
77.2947176069
 30
0.0
 10
55.6769430555
 20
77.1998617297
 30
0.0
 10
55.7275610301
 20
77.0835861404
 30
0.0
 10
55.7688554701
 20
76.8963043134
 30
0.0
 10
55.7614344306
 20
76.6258761742
 30
0.0
 10
55.7052825674
 20
76.4102806828
 30
0.0
 10
55.6654297657
 20
76.2995598431
 30
0.0
  0
SPLINE
  5
3A7
100
AcDbEntity
  8
0
100
AcDbSpline
 62
7
  6
CONTINUOUS
 70
0
 71
3
 72
9
 73
5
 74
0
 42
0.0000001
 43
0.0000001
 44
0.0000000001
 40
0.0
 40
0.0
 40
0.0
 40
0.0
 40
0.247213506
 40
1.0
 40
1.0
 40
1.0
 40
1.0
 10
55.6654297657
 20
76.2995598431
 30
0.0
 10
55.649717231
 20
76.2559065749
 30
0.0
 10
55.5797053419
 20
76.0817095938
 30
0.0
 10
55.4854785282
 20
75.9172912886
 30
0.0
 10
55.4030320993
 20
75.8025669447
 30
0.0
  0
SPLINE
  5
3A8
100
AcDbEntity
  8
0
100
AcDbSpline
 62
7
  6
CONTINUOUS
 70
0
 71
3
 72
9
 73
5
 74
0
 42
0.0000001
 43
0.0000001
 44
0.0000000001
 40
0.0
 40
0.0
 40
0.0
 40
0.0
 40
0.2325819102
 40
1.0
 40
1.0
 40
1.0
 40
1.0
 10
52.7346459242
 20
97.2071249176
 30
0.0
 10
52.7249154061
 20
97.205506953
 30
0.0
 10
52.6834640982
 20
97.1962278802
 30
0.0
 10
52.6441841397
 20
97.1785659933
 30
0.0
 10
52.6159939935
 20
97.1622982617
 30
0.0
  0
SPLINE
  5
3A9
100
AcDbEntity
  8
0
100
AcDbSpline
 62
7
  6
CONTINUOUS
 70
0
 71
3
 72
11
 73
7
 74
0
 42
0.0000001
 43
0.0000001
 44
0.0000000001
 40
0.0
 40
0.0
 40
0.0
 40
0.0
 40
0.2372425175
 40
0.4999983821
 40
0.7627551272
 40
1.0
 40
1.0
 40
1.0
 40
1.0
 10
51.9088901566
 20
96.7540541081
 30
0.0
 10
51.8586953569
 20
96.7250739599
 30
0.0
 10
51.7637129418
 20
96.6451260597
 30
0.0
 10
51.6528529156
 20
96.4936299262
 30
0.0
 10
51.5770840921
 20
96.3218733356
 30
0.0
 10
51.5553385324
 20
96.1996414437
 30
0.0
 10
51.555338238
 20
96.1416808225
 30
0.0
  0
SPLINE
  5
3AA
100
AcDbEntity
  8
0
100
AcDbSpline
 62
7
  6
CONTINUOUS
 70
0
 71
3
 72
9
 73
5
 74
0
 42
0.0000001
 43
0.0000001
 44
0.0000000001
 40
0.0
 40
0.0
 40
0.0
 40
0.0
 40
0.483828022
 40
1.0
 40
1.0
 40
1.0
 40
1.0
 10
55.0707646005
 20
97.1674467153
 30
0.0
 10
54.7015625896
 20
97.2512621258
 30
0.0
 10
53.9174857655
 20
97.3391566448
 30
0.0
 10
53.1331009646
 20
97.2732552818
 30
0.0
 10
52.7346459242
 20
97.2071249176
 30
0.0
  0
SPLINE
  5
3AB
100
AcDbEntity
  8
0
100
AcDbSpline
 62
7
  6
CONTINUOUS
 70
0
 71
3
 72
9
 73
5
 74
0
 42
0.0000001
 43
0.0000001
 44
0.0000000001
 40
0.0
 40
0.0
 40
0.0
 40
0.0
 40
0.2530418714
 40
1.0
 40
1.0
 40
1.0
 40
1.0
 10
53.5427283907
 20
97.7720260541
 30
0.0
 10
53.5993593264
 20
97.7665284468
 30
0.0
 10
53.8228123273
 20
97.7413953366
 30
0.0
 10
54.0447397041
 20
97.7024309324
 30
0.0
 10
54.2085277297
 20
97.665248143
 30
0.0
  0
SPLINE
  5
3AC
100
AcDbEntity
  8
0
100
AcDbSpline
 62
7
  6
CONTINUOUS
 70
0
 71
3
 72
16
 73
12
 74
0
 42
0.0000001
 43
0.0000001
 44
0.0000000001
 40
0.0
 40
0.0
 40
0.0
 40
0.0
 40
0.0428757924
 40
0.0875166499
 40
0.1869226544
 40
0.3042403634
 40
0.4379635554
 40
0.5823668907
 40
0.729555294
 40
0.8712850814
 40
1.0
 40
1.0
 40
1.0
 40
1.0
 10
28.3931194215
 20
72.2300547671
 30
0.0
 10
28.3664849709
 20
72.2147025392
 30
0.0
 10
28.307811308
 20
72.1903041771
 30
0.0
 10
28.174052469
 20
72.1706313654
 30
0.0
 10
27.9851991273
 20
72.2075305668
 30
0.0
 10
27.7627465525
 20
72.3295626013
 30
0.0
 10
27.5489001659
 20
72.5187016567
 30
0.0
 10
27.360321241
 20
72.7602501829
 30
0.0
 10
27.211667454
 20
73.0347774951
 30
0.0
 10
27.1153543326
 20
73.3198036603
 30
0.0
 10
27.0894742676
 20
73.5139258849
 30
0.0
 10
27.0894742676
 20
73.6062153502
 30
0.0
  0
SPLINE
  5
3AD
100
AcDbEntity
  8
0
100
AcDbSpline
 62
7
  6
CONTINUOUS
 70
0
 71
3
 72
17
 73
13
 74
0
 42
0.0000001
 43
0.0000001
 44
0.0000000001
 40
0.0
 40
0.0
 40
0.0
 40
0.0
 40
0.0428570455
 40
0.087485165
 40
0.1353123244
 40
0.1872781392
 40
0.3045378316
 40
0.4381995438
 40
0.5825378192
 40
0.7296849502
 40
0.8713141218
 40
1.0
 40
1.0
 40
1.0
 40
1.0
 10
28.3700230417
 20
71.6454457845
 30
0.0
 10
28.3318133073
 20
71.6233845814
 30
0.0
 10
28.2476126647
 20
71.5882946766
 30
0.0
 10
28.1085613724
 20
71.5680132724
 30
0.0
 10
27.9592462357
 20
71.5789096165
 30
0.0
 10
27.7423104252
 20
71.6367129855
 30
0.0
 10
27.4649527487
 20
71.7882947361
 30
0.0
 10
27.1585264824
 20
72.0596668705
 30
0.0
 10
26.8876849385
 20
72.4063475134
 30
0.0
 10
26.6744481774
 20
72.8003588344
 30
0.0
 10
26.5361376127
 20
73.2094173471
 30
0.0
 10
26.4990431245
 20
73.4880182612
 30
0.0
 10
26.4990431245
 20
73.620499994
 30
0.0
  0
SPLINE
  5
3AE
100
AcDbEntity
  8
0
100
AcDbSpline
 62
7
  6
CONTINUOUS
 70
0
 71
3
 72
9
 73
5
 74
0
 42
0.0000001
 43
0.0000001
 44
0.0000000001
 40
0.0
 40
0.0
 40
0.0
 40
0.0
 40
0.4599507414
 40
1.0
 40
1.0
 40
1.0
 40
1.0
 10
26.8841544268
 20
74.3254988926
 30
0.0
 10
26.8244310788
 20
74.2522518329
 30
0.0
 10
26.7335251854
 20
74.0609251964
 30
0.0
 10
26.7111742757
 20
73.8539409574
 30
0.0
 10
26.7111742757
 20
73.7429732401
 30
0.0
  0
SPLINE
  5
3AF
100
AcDbEntity
  8
0
100
AcDbSpline
 62
7
  6
CONTINUOUS
 70
0
 71
3
 72
9
 73
5
 74
0
 42
0.0000001
 43
0.0000001
 44
0.0000000001
 40
0.0
 40
0.0
 40
0.0
 40
0.0
 40
0.2743892216
 40
1.0
 40
1.0
 40
1.0
 40
1.0
 10
55.0179916568
 20
97.2323343904
 30
0.0
 10
55.0262444284
 20
97.2765612187
 30
0.0
 10
55.0492666257
 20
97.4386346738
 30
0.0
 10
55.0426342776
 20
97.6074306025
 30
0.0
 10
55.010459346
 20
97.7219721639
 30
0.0
  0
SPLINE
  5
3B0
100
AcDbEntity
  8
0
100
AcDbSpline
 62
7
  6
CONTINUOUS
 70
0
 71
3
 72
9
 73
5
 74
0
 42
0.0000001
 43
0.0000001
 44
0.0000000001
 40
0.0
 40
0.0
 40
0.0
 40
0.0
 40
0.23258191
 40
1.0
 40
1.0
 40
1.0
 40
1.0
 10
52.7346459241
 20
43.317965387
 30
0.0
 10
52.7249154057
 20
43.3163474224
 30
0.0
 10
52.6834640968
 20
43.3070683493
 30
0.0
 10
52.6441841375
 20
43.2894064617
 30
0.0
 10
52.6159939906
 20
43.2731387297
 30
0.0
  0
SPLINE
  5
3B1
100
AcDbEntity
  8
0
100
AcDbSpline
 62
7
  6
CONTINUOUS
 70
0
 71
3
 72
11
 73
7
 74
0
 42
0.0000001
 43
0.0000001
 44
0.0000000001
 40
0.0
 40
0.0
 40
0.0
 40
0.0
 40
0.2372425175
 40
0.4999983821
 40
0.7627551272
 40
1.0
 40
1.0
 40
1.0
 40
1.0
 10
51.9088901572
 20
42.8648945781
 30
0.0
 10
51.8586953574
 20
42.8359144299
 30
0.0
 10
51.7637129421
 20
42.7559665295
 30
0.0
 10
51.6528529156
 20
42.6044703958
 30
0.0
 10
51.577084092
 20
42.4327138048
 30
0.0
 10
51.5553385324
 20
42.3104819127
 30
0.0
 10
51.5553382379
 20
42.2525212914
 30
0.0
  0
SPLINE
  5
3B2
100
AcDbEntity
  8
0
100
AcDbSpline
 62
7
  6
CONTINUOUS
 70
0
 71
3
 72
11
 73
7
 74
0
 42
0.0000001
 43
0.0000001
 44
0.0000000001
 40
0.0
 40
0.0
 40
0.0
 40
0.0
 40
0.2807249646
 40
0.5368959901
 40
0.7738090633
 40
1.0
 40
1.0
 40
1.0
 40
1.0
 10
27.8264062572
 20
97.1535269614
 30
0.0
 10
27.8464460242
 20
97.2951219833
 30
0.0
 10
27.9055446239
 20
97.5638196178
 30
0.0
 10
28.0637640488
 20
97.9280359669
 30
0.0
 10
28.2849504721
 20
98.2246898493
 30
0.0
 10
28.4734501979
 20
98.3722715876
 30
0.0
 10
28.5732342267
 20
98.4298916333
 30
0.0
  0
SPLINE
  5
3B3
100
AcDbEntity
  8
0
100
AcDbSpline
 62
7
  6
CONTINUOUS
 70
0
 71
3
 72
9
 73
5
 74
0
 42
0.0000001
 43
0.0000001
 44
0.0000000001
 40
0.0
 40
0.0
 40
0.0
 40
0.0
 40
0.483828022
 40
1.0
 40
1.0
 40
1.0
 40
1.0
 10
55.0707646005
 20
43.2782871848
 30
0.0
 10
54.7015625895
 20
43.3621025952
 30
0.0
 10
53.9174857655
 20
43.4499971142
 30
0.0
 10
53.1331009644
 20
43.3840957513
 30
0.0
 10
52.7346459241
 20
43.317965387
 30
0.0
  0
SPLINE
  5
3B4
100
AcDbEntity
  8
0
100
AcDbSpline
 62
7
  6
CONTINUOUS
 70
0
 71
3
 72
9
 73
5
 74
0
 42
0.0000001
 43
0.0000001
 44
0.0000000001
 40
0.0
 40
0.0
 40
0.0
 40
0.0
 40
0.2530418714
 40
1.0
 40
1.0
 40
1.0
 40
1.0
 10
53.5427283907
 20
43.8828665235
 30
0.0
 10
53.5993593264
 20
43.8773689162
 30
0.0
 10
53.8228123272
 20
43.8522358061
 30
0.0
 10
54.0447397039
 20
43.8132714018
 30
0.0
 10
54.2085277296
 20
43.7760886125
 30
0.0
  0
SPLINE
  5
3B5
100
AcDbEntity
  8
0
100
AcDbSpline
 62
7
  6
CONTINUOUS
 70
0
 71
3
 72
9
 73
5
 74
0
 42
0.0000001
 43
0.0000001
 44
0.0000000001
 40
0.0
 40
0.0
 40
0.0
 40
0.0
 40
0.2743892216
 40
1.0
 40
1.0
 40
1.0
 40
1.0
 10
55.0179916568
 20
43.3431748598
 30
0.0
 10
55.0262444284
 20
43.3874016881
 30
0.0
 10
55.0492666257
 20
43.5494751432
 30
0.0
 10
55.0426342776
 20
43.718271072
 30
0.0
 10
55.010459346
 20
43.8328126333
 30
0.0
  0
SPLINE
  5
3B6
100
AcDbEntity
  8
0
100
AcDbSpline
 62
7
  6
CONTINUOUS
 70
0
 71
3
 72
9
 73
5
 74
0
 42
0.0000001
 43
0.0000001
 44
0.0000000001
 40
0.0
 40
0.0
 40
0.0
 40
0.0
 40
0.2325819102
 40
1.0
 40
1.0
 40
1.0
 40
1.0
 10
52.7346459244
 20
76.9578649728
 30
0.0
 10
52.7249154062
 20
76.9562470082
 30
0.0
 10
52.6834640983
 20
76.9469679354
 30
0.0
 10
52.6441841397
 20
76.9293060485
 30
0.0
 10
52.6159939935
 20
76.9130383169
 30
0.0
  0
SPLINE
  5
3B7
100
AcDbEntity
  8
0
100
AcDbSpline
 62
7
  6
CONTINUOUS
 70
0
 71
3
 72
11
 73
7
 74
0
 42
0.0000001
 43
0.0000001
 44
0.0000000001
 40
0.0
 40
0.0
 40
0.0
 40
0.0
 40
0.2372425175
 40
0.4999983821
 40
0.7627551272
 40
1.0
 40
1.0
 40
1.0
 40
1.0
 10
51.9088901566
 20
76.5047941632
 30
0.0
 10
51.8586953569
 20
76.4758140151
 30
0.0
 10
51.7637129418
 20
76.3958661149
 30
0.0
 10
51.6528529156
 20
76.2443699813
 30
0.0
 10
51.5770840921
 20
76.0726133907
 30
0.0
 10
51.5553385324
 20
75.9503814989
 30
0.0
 10
51.555338238
 20
75.8924208777
 30
0.0
  0
SPLINE
  5
3B8
100
AcDbEntity
  8
0
100
AcDbSpline
 62
7
  6
CONTINUOUS
 70
0
 71
3
 72
9
 73
5
 74
0
 42
0.0000001
 43
0.0000001
 44
0.0000000001
 40
0.0
 40
0.0
 40
0.0
 40
0.0
 40
0.2629700233
 40
1.0
 40
1.0
 40
1.0
 40
1.0
 10
26.0641401332
 20
92.2544881956
 30
0.0
 10
26.0641403137
 20
92.3326482967
 30
0.0
 10
26.072257375
 20
92.6297124551
 30
0.0
 10
26.1138526782
 20
92.9266291024
 30
0.0
 10
26.168692063
 20
93.1387143033
 30
0.0
  0
SPLINE
  5
3B9
100
AcDbEntity
  8
0
100
AcDbSpline
 62
7
  6
CONTINUOUS
 70
0
 71
3
 72
9
 73
5
 74
0
 42
0.0000001
 43
0.0000001
 44
0.0000000001
 40
0.0
 40
0.0
 40
0.0
 40
0.0
 40
0.483828022
 40
1.0
 40
1.0
 40
1.0
 40
1.0
 10
55.0707646006
 20
76.9181867705
 30
0.0
 10
54.7015625897
 20
77.0020021809
 30
0.0
 10
53.9174857657
 20
77.0898966999
 30
0.0
 10
53.1331009647
 20
77.023995337
 30
0.0
 10
52.7346459244
 20
76.9578649728
 30
0.0
  0
SPLINE
  5
3BA
100
AcDbEntity
  8
0
100
AcDbSpline
 62
7
  6
CONTINUOUS
 70
0
 71
3
 72
9
 73
5
 74
0
 42
0.0000001
 43
0.0000001
 44
0.0000000001
 40
0.0
 40
0.0
 40
0.0
 40
0.0
 40
0.2530418714
 40
1.0
 40
1.0
 40
1.0
 40
1.0
 10
53.5427283909
 20
77.5227661093
 30
0.0
 10
53.5993593266
 20
77.5172685019
 30
0.0
 10
53.8228123275
 20
77.4921353918
 30
0.0
 10
54.0447397043
 20
77.4531709875
 30
0.0
 10
54.2085277299
 20
77.4159881982
 30
0.0
  0
SPLINE
  5
3BB
100
AcDbEntity
  8
0
100
AcDbSpline
 62
7
  6
CONTINUOUS
 70
0
 71
3
 72
9
 73
5
 74
0
 42
0.0000001
 43
0.0000001
 44
0.0000000001
 40
0.0
 40
0.0
 40
0.0
 40
0.0
 40
0.2743892216
 40
1.0
 40
1.0
 40
1.0
 40
1.0
 10
55.0179916568
 20
76.9830744456
 30
0.0
 10
55.0262444284
 20
77.0273012738
 30
0.0
 10
55.0492666257
 20
77.189374729
 30
0.0
 10
55.0426342776
 20
77.3581706577
 30
0.0
 10
55.010459346
 20
77.4727122191
 30
0.0
  0
ENDSEC
  0
SECTION
  2
OBJECTS
  0
DICTIONARY
  5
C
100
AcDbDictionary
280
0
281
1
  3
ACAD_GROUP
350
D
  3
ACAD_MLINESTYLE
350
17
  3
ACAD_LAYOUT
350
1A
  3
ACAD_PLOTSETTINGS
350
19
  3
ACAD_PLOTSTYLENAME
350
E
  0
DICTIONARY
  5
D
102
{ACAD_REACTORS
330
C
102
}
100
AcDbDictionary
280
0
281
1
  0
ACDBDICTIONARYWDFLT
  5
E
102
{ACAD_REACTORS
330
C
102
}
100
AcDbDictionary
281
1
  3
Normal
350
F
100
AcDbDictionaryWithDefault
340
F
  0
DICTIONARY
  5
17
102
{ACAD_REACTORS
330
C
102
}
100
AcDbDictionary
280
0
281
1
  3
Standard
350
18
  0
DICTIONARY
  5
19
102
{ACAD_REACTORS
330
C
102
}
100
AcDbDictionary
281
1
  0
DICTIONARY
  5
1A
102
{ACAD_REACTORS
330
C
102
}
100
AcDbDictionary
281
1
  3
Model
350
3BC
  3
Layout1
350
3BD
  0
ACDBPLACEHOLDER
  5
F
102
{ACAD_REACTORS
330
E
102
}
  0
MLINESTYLE
  5
18
102
{ACAD_REACTORS
330
17
102
}
100
AcDbMlineStyle
  2
STANDARD
 70
0
  3

 62
256
 51
90.0
 52
90.0
 71
2
 49
0.5
 62
256
  6
BYLAYER
 49
-0.5
 62
256
  6
BYLAYER
  0
LAYOUT
  5
3BC
102
{ACAD_REACTORS
330
1A
102
}
100
AcDbPlotSettings
  1

  2
none_device
  4

  6

 40
0.0
 41
0.0
 42
0.0
 43
0.0
 44
210.0
 45
297.0
 46
0.0
 47
0.0
 48
0.0
 49
0.0
140
0.0
141
0.0
142
1.0
143
1.0
 70
1024
 72
1
 73
0
 74
0
  7

 75
0
147
1.0
148
0.0
149
0.0
100
AcDbLayout
  1
Model
 70
0
 71
0
 10
0.0
 20
0.0
 11
210.0
 21
297.0
 12
0.0
 22
0.0
 32
0.0
 14
0.0
 24
0.0
 34
0.0
 15
0.0
 25
0.0
 35
0.0
146
0.0
 13
0.0
 23
0.0
 33
0.0
 16
1.0
 26
0.0
 36
0.0
 17
0.0
 27
1.0
 37
0.0
 76
0
330
210
345
0
346
0
  0
LAYOUT
  5
3BD
102
{ACAD_REACTORS
330
1A
102
}
100
AcDbPlotSettings
  1

  2
none_device
  4

  6

 40
0.0
 41
0.0
 42
0.0
 43
0.0
 44
210.0
 45
297.0
 46
0.0
 47
0.0
 48
0.0
 49
0.0
140
0.0
141
0.0
142
1.0
143
1.0
 70
0
 72
1
 73
0
 74
0
  7

 75
0
147
1.0
148
0.0
149
0.0
100
AcDbLayout
  1
Layout1
 70
0
 71
1
 10
0.0
 20
0.0
 11
210.0
 21
297.0
 12
0.0
 22
0.0
 32
0.0
 14
0.0
 24
0.0
 34
0.0
 15
0.0
 25
0.0
 35
0.0
146
0.0
 13
0.0
 23
0.0
 33
0.0
 16
1.0
 26
0.0
 36
0.0
 17
0.0
 27
1.0
 37
0.0
 76
0
330
211
345
0
346
0
  0
ENDSEC
  0
EOF
