999
DXF file: C:\Users\sesa63760\Dev\_Creo\CAD\MCADUE0003179_3D-CAD\drw0001_1.dxf
999
Pro/ENGINEER 2019471 by Parametric Technology Corporation
  0
SECTION
  2
HEADER
  9
$ACADVER
  1
AC1024
  9
$DWGCODEPAGE
  3
ANSI_1252
  9
$EXTMAX
 10
703.8929962
 20
995.5058089115
 30
0.0
  9
$EXTMIN
 10
0.0
 20
0.0
 30
0.0
  9
$LIMMIN
 10
0.0
 20
0.0
  9
$LIMMAX
 10
703.8929962
 20
995.5058089115
  9
$VIEWCTR
 10
351.9464981
 20
497.7529044557
  9
$VIEWSIZE
 40
995.5058089115
  9
$CLAYER
  8
0
  9
$LTSCALE
 40
64.8922305068
  9
$CELTYPE
  6
BYLAYER
  9
$DIMSCALE
 40
1.0
  9
$DIMASZ
 40
8.3796785262
  9
$DIMEXO
 40
1.0
  9
$DIMDLI
 40
44.8346319865
  9
$DIMEXE
 40
1.0
  9
$DIMCEN
 40
10.6187286284
  9
$DIMLFAC
 40
1.0
  9
$DIMBLK
  1
_FILLED
  9
$DIMALT
 70
0
  9
$DIMALTF
 40
0.0393700787
  9
$DIMTXT
 40
11.7315499367
  9
$DIMTOL
 70
1
  9
$DIMLIM
 70
0
  9
$DIMTFAC
 40
1.0
  9
$DIMTP
 40
0.01
  9
$DIMTM
 40
0.01
  9
$DIMGAP
 40
0.625
  9
$DIMDSEP
 70
46
  9
$AUNITS
 70
0
  9
$PDMODE
 70
3
  9
$PDSIZE
 40
0.3125
  9
$HANDSEED
  5
838
  9
$TILEMODE
 70
1
  9
$MEASUREMENT
 70
1
  9
$INSUNITS
 70
4
  0
ENDSEC
  0
SECTION
  2
CLASSES
  0
CLASS
  1
ACDBDICTIONARYWDFLT
  2
AcDbDictionaryWithDefault
  3
AutoCAD 2000
 90
0
 91
1
280
0
281
0
  0
CLASS
  1
ACDBPLACEHOLDER
  2
AcDbPlaceHolder
  3
AutoCAD 2000
 90
0
 91
1
280
0
281
0
  0
CLASS
  1
LAYOUT
  2
AcDbLayout
  3
AutoCAD 2000
 90
0
 91
0
280
0
281
0
  0
ENDSEC
  0
SECTION
  2
TABLES
  0
TABLE
  2
VPORT
  5
8
100
AcDbSymbolTable
 70
2
  0
VPORT
  5
1F4
100
AcDbSymbolTableRecord
100
AcDbViewportTableRecord
  2
*ACTIVE
 70
0
 10
0.0
 20
0.0
 11
1.0
 21
1.0
 12
351.9464981
 22
497.7529044557
 13
0.0
 23
0.0
 14
1.0
 24
1.0
 15
0.0
 25
0.0
 16
0.0
 26
0.0
 36
1.0
 17
0.0
 27
0.0
 37
0.0
 40
995.5058089115
 41
0.7070707071
 42
50.0
 43
0.0
 44
0.0
 50
0.0
 51
0.0
 71
0
 72
100
 73
1
 74
1
 75
0
 76
0
 77
0
 78
0
  0
ENDTAB
  0
TABLE
  2
LTYPE
  5
5
100
AcDbSymbolTable
 70
6
  0
LTYPE
  5
14
100
AcDbSymbolTableRecord
100
AcDbLinetypeTableRecord
  2
BYBLOCK
 70
0
  3

 72
65
 73
0
 40
0.0
  0
LTYPE
  5
15
100
AcDbSymbolTableRecord
100
AcDbLinetypeTableRecord
  2
BYLAYER
 70
0
  3

 72
65
 73
0
 40
0.0
  0
LTYPE
  5
16
100
AcDbSymbolTableRecord
100
AcDbLinetypeTableRecord
  2
CONTINUOUS
 70
64
  3
Solid line
 72
65
 73
0
 40
0.0
  0
LTYPE
  5
1F5
100
AcDbSymbolTableRecord
100
AcDbLinetypeTableRecord
  2
CENTER
 70
64
  3
____ _ ____ _ ____ _ ____ _ ____ _ ____ _ ____
 72
65
 73
4
 40
0.6
 49
0.375
 74
0
 49
-0.075
 74
0
 49
0.075
 74
0
 49
-0.075
 74
0
  0
LTYPE
  5
1F6
100
AcDbSymbolTableRecord
100
AcDbLinetypeTableRecord
  2
HIDDEN
 70
64
  3
- - - - - - - - - - - - - - - - - - - -
 72
65
 73
2
 40
0.2
 49
0.1
 74
0
 49
-0.1
 74
0
  0
LTYPE
  5
1F7
100
AcDbSymbolTableRecord
100
AcDbLinetypeTableRecord
  2
PHANTOM
 70
64
  3
_____ _ _ _____ _ _ _____ _ _ _____
 72
65
 73
6
 40
0.8
 49
0.45
 74
0
 49
-0.05
 74
0
 49
0.1
 74
0
 49
-0.05
 74
0
 49
0.1
 74
0
 49
-0.05
 74
0
  0
LTYPE
  5
1F8
100
AcDbSymbolTableRecord
100
AcDbLinetypeTableRecord
  2
DOT
 70
64
  3
. . . . . . . . . . . . . . . . . . . .
 72
65
 73
2
 40
0.2
 49
0.1
 74
0
 49
-0.1
 74
0
  0
LTYPE
  5
1F9
100
AcDbSymbolTableRecord
100
AcDbLinetypeTableRecord
  2
DASHED
 70
64
  3
- - - - - - - - - - - - - - - - - - - -
 72
65
 73
2
 40
0.2
 49
0.1
 74
0
 49
-0.1
 74
0
  0
ENDTAB
  0
TABLE
  2
LAYER
  5
2
100
AcDbSymbolTable
 70
36
  0
LAYER
  5
10
100
AcDbSymbolTableRecord
100
AcDbLayerTableRecord
  2
0
 70
0
 62
7
  6
CONTINUOUS
370
-3
390
F
  0
LAYER
  5
1FA
100
AcDbSymbolTableRecord
100
AcDbLayerTableRecord
  2
DEFAULT_1
 70
0
 62
7
  6
CENTER
370
-3
390
F
  0
LAYER
  5
1FB
100
AcDbSymbolTableRecord
100
AcDbLayerTableRecord
  2
DEFAULT_2
 70
0
 62
8
  6
HIDDEN
370
-3
390
F
  0
LAYER
  5
1FC
100
AcDbSymbolTableRecord
100
AcDbLayerTableRecord
  2
DEFAULT_3
 70
0
 62
7
  6
PHANTOM
370
-3
390
F
  0
LAYER
  5
1FD
100
AcDbSymbolTableRecord
100
AcDbLayerTableRecord
  2
00_COMPONENTS
 70
0
 62
7
  6
CONTINUOUS
370
-3
390
F
  0
LAYER
  5
1FE
100
AcDbSymbolTableRecord
100
AcDbLayerTableRecord
  2
01_1_DEFAULT_DATUMS
 70
0
 62
7
  6
CONTINUOUS
370
-3
390
F
  0
LAYER
  5
1FF
100
AcDbSymbolTableRecord
100
AcDbLayerTableRecord
  2
01_PLANES
 70
0
 62
7
  6
CONTINUOUS
370
-3
390
F
  0
LAYER
  5
200
100
AcDbSymbolTableRecord
100
AcDbLayerTableRecord
  2
02_COORD_SYS
 70
0
 62
7
  6
CONTINUOUS
370
-3
390
F
  0
LAYER
  5
201
100
AcDbSymbolTableRecord
100
AcDbLayerTableRecord
  2
03_AXES
 70
0
 62
7
  6
CONTINUOUS
370
-3
390
F
  0
LAYER
  5
202
100
AcDbSymbolTableRecord
100
AcDbLayerTableRecord
  2
04_POINTS
 70
0
 62
7
  6
CONTINUOUS
370
-3
390
F
  0
LAYER
  5
203
100
AcDbSymbolTableRecord
100
AcDbLayerTableRecord
  2
05_CURVES
 70
0
 62
7
  6
CONTINUOUS
370
-3
390
F
  0
LAYER
  5
204
100
AcDbSymbolTableRecord
100
AcDbLayerTableRecord
  2
06_SURFS
 70
0
 62
7
  6
CONTINUOUS
370
-3
390
F
  0
LAYER
  5
205
100
AcDbSymbolTableRecord
100
AcDbLayerTableRecord
  2
07_COSMETICS
 70
0
 62
7
  6
CONTINUOUS
370
-3
390
F
  0
LAYER
  5
206
100
AcDbSymbolTableRecord
100
AcDbLayerTableRecord
  2
10_NOTES
 70
0
 62
7
  6
CONTINUOUS
370
-3
390
F
  0
LAYER
  5
207
100
AcDbSymbolTableRecord
100
AcDbLayerTableRecord
  2
11_NOTES_PUB
 70
0
 62
7
  6
CONTINUOUS
370
-3
390
F
  0
LAYER
  5
208
100
AcDbSymbolTableRecord
100
AcDbLayerTableRecord
  2
13_REF_GTOL
 70
0
 62
7
  6
CONTINUOUS
370
-3
390
F
  0
LAYER
  5
209
100
AcDbSymbolTableRecord
100
AcDbLayerTableRecord
  2
16_MISC
 70
0
 62
7
  6
CONTINUOUS
370
-3
390
F
  0
LAYER
  5
20A
100
AcDbSymbolTableRecord
100
AcDbLayerTableRecord
  2
17_NO_PRINT
 70
0
 62
7
  6
CONTINUOUS
370
-3
390
F
  0
LAYER
  5
20B
100
AcDbSymbolTableRecord
100
AcDbLayerTableRecord
  2
18_DATUM_CAMS_JOINTS
 70
0
 62
7
  6
CONTINUOUS
370
-3
390
F
  0
LAYER
  5
20C
100
AcDbSymbolTableRecord
100
AcDbLayerTableRecord
  2
19_DATUM_FUNCTIONAL
 70
0
 62
7
  6
CONTINUOUS
370
-3
390
F
  0
LAYER
  5
20D
100
AcDbSymbolTableRecord
100
AcDbLayerTableRecord
  2
20_DATUM_KINEMATIC_SCHEME
 70
0
 62
7
  6
CONTINUOUS
370
-3
390
F
  0
ENDTAB
  0
TABLE
  2
STYLE
  5
3
100
AcDbSymbolTable
 70
1
  0
STYLE
  5
11
100
AcDbSymbolTableRecord
100
AcDbTextStyleTableRecord
  2
STANDARD
 70
0
 40
0.0
 41
0.8
 50
0.0
 71
0
 42
0.2
  3
txt
  4

  0
STYLE
  5
20E
100
AcDbSymbolTableRecord
100
AcDbTextStyleTableRecord
  2
TEXTSTYLE_1
 70
0
 40
0.0
 41
0.8
 50
0.0
 71
0
 42
0.2
  3
gdt
  4

  0
ENDTAB
  0
TABLE
  2
VIEW
  5
6
100
AcDbSymbolTable
 70
0
  0
ENDTAB
  0
TABLE
  2
UCS
  5
7
100
AcDbSymbolTable
 70
0
  0
ENDTAB
  0
TABLE
  2
APPID
  5
9
100
AcDbSymbolTable
 70
1
  0
APPID
  5
20F
100
AcDbSymbolTableRecord
100
AcDbRegAppTableRecord
  2
ACAD
 70
0
  0
ENDTAB
  0
TABLE
  2
BLOCK_RECORD
  5
1
100
AcDbSymbolTable
 70
0
  0
BLOCK_RECORD
  5
210
100
AcDbSymbolTableRecord
100
AcDbBlockTableRecord
  2
*Model_Space
  0
BLOCK_RECORD
  5
211
100
AcDbSymbolTableRecord
100
AcDbBlockTableRecord
  2
*Paper_Space
  0
BLOCK_RECORD
  5
212
100
AcDbSymbolTableRecord
100
AcDbBlockTableRecord
  2
_FILLED
  0
ENDTAB
  0
TABLE
  2
DIMSTYLE
  5
A
100
AcDbSymbolTable
 70
1
100
AcDbDimStyleTable
 71
0
  0
DIMSTYLE
105
213
100
AcDbSymbolTableRecord
100
AcDbDimStyleTableRecord
  2
STANDARD
 70
0
  3

  4

 40
1.0
 41
8.3796785262
 42
1.0
 43
0.38
 44
1.0
 45
0.0
 46
0.0
 47
0.01
 48
0.01
140
11.7315499367
141
0.09
142
0.0
143
25.4
144
1.0
145
0.0
146
1.0
147
0.625
 71
1
 72
0
 73
0
 74
0
 75
0
 76
0
 77
1
 78
8
 79
2
170
0
171
1
172
0
173
0
174
0
175
0
176
0
177
0
178
0
270
2
179
2
271
2
272
2
273
2
274
2
275
0
280
0
281
0
282
0
283
1
284
8
285
0
286
0
287
3
288
0
340
11
278
46
341
212
342
212
343
212
344
212
  0
ENDTAB
  0
ENDSEC
  0
SECTION
  2
BLOCKS
  0
BLOCK
  5
20
100
AcDbEntity
  8
0
100
AcDbBlockBegin
  2
*Model_Space
 70
0
 10
0.0
 20
0.0
 30
0.0
  3
*Model_Space
  1

  0
ENDBLK
  5
21
100
AcDbEntity
  8
0
100
AcDbBlockEnd
  0
BLOCK
  5
1C
100
AcDbEntity
  8
0
100
AcDbBlockBegin
  2
*Paper_Space
 70
0
 10
0.0
 20
0.0
 30
0.0
  3
*Paper_Space
  1

  0
ENDBLK
  5
1D
100
AcDbEntity
  8
0
100
AcDbBlockEnd
  0
BLOCK
  5
214
100
AcDbEntity
  8
0
100
AcDbBlockBegin
  2
_FILLED
 70
64
 10
0.0
 20
0.0
  3
_FILLED
  1

  0
SOLID
  5
215
100
AcDbEntity
  8
0
  6
BYBLOCK
 62
0
100
AcDbTrace
 10
0.0
 20
0.0
 11
-1.0
 21
0.25
 12
-1.0
 22
-0.25
 13
-1.0
 23
-0.25
  0
ENDBLK
  5
216
100
AcDbEntity
  8
0
  6
BYBLOCK
 62
0
100
AcDbBlockEnd
  0
ENDSEC
  0
SECTION
  2
ENTITIES
  0
LINE
  5
217
100
AcDbEntity
  8
0
100
AcDbLine
 62
7
  6
CONTINUOUS
 10
81.6596860405
 20
625.2897647081
 11
81.6596860405
 21
461.9892812822
  0
LINE
  5
218
100
AcDbEntity
  8
0
100
AcDbLine
 62
7
  6
CONTINUOUS
 10
82.5375676501
 20
533.5588937324
 11
82.5375676501
 21
549.888942075
  0
LINE
  5
219
100
AcDbEntity
  8
0
100
AcDbLine
 62
7
  6
CONTINUOUS
 10
83.9822862433
 20
458.8395414374
 11
83.9822862433
 21
532.324758979
  0
LINE
  5
21A
100
AcDbEntity
  8
0
100
AcDbLine
 62
7
  6
CONTINUOUS
 10
83.9822862433
 20
548.6548073216
 11
83.9822862433
 21
622.1400248633
  0
LINE
  5
21B
100
AcDbEntity
  8
0
100
AcDbLine
 62
7
  6
CONTINUOUS
 10
84.3287402892
 20
459.0395655801
 11
84.3287402892
 21
532.5247831217
  0
LINE
  5
21C
100
AcDbEntity
  8
0
100
AcDbLine
 62
7
  6
CONTINUOUS
 10
84.3287402892
 20
548.8548314643
 11
84.3287402892
 21
622.340049006
  0
LINE
  5
21D
100
AcDbEntity
  8
0
100
AcDbLine
 62
7
  6
CONTINUOUS
 10
84.8944310133
 20
621.6052139482
 11
84.8944310133
 21
547.2293314663
  0
LINE
  5
21E
100
AcDbEntity
  8
0
100
AcDbLine
 62
7
  6
CONTINUOUS
 10
84.8944310133
 20
532.6806130041
 11
84.8944310133
 21
458.3047305223
  0
LINE
  5
21F
100
AcDbEntity
  8
0
100
AcDbLine
 62
7
  6
CONTINUOUS
 10
85.813673656
 20
621.0745009673
 11
85.813673656
 21
545.8079535453
  0
LINE
  5
220
100
AcDbEntity
  8
0
100
AcDbLine
 62
7
  6
CONTINUOUS
 10
85.813673656
 20
533.0405649634
 11
85.813673656
 21
457.7740175414
  0
LINE
  5
221
100
AcDbEntity
  8
0
100
AcDbLine
 62
7
  6
CONTINUOUS
 10
86.1672255746
 20
457.9781396183
 11
86.1672255746
 21
533.2446870404
  0
LINE
  5
222
100
AcDbEntity
  8
0
100
AcDbLine
 62
7
  6
CONTINUOUS
 10
86.1672255746
 20
546.0120756222
 11
86.1672255746
 21
621.2786230442
  0
LINE
  5
223
100
AcDbEntity
  8
0
100
AcDbLine
 62
7
  6
CONTINUOUS
 10
86.7329162987
 20
620.5437879864
 11
86.7329162987
 21
544.3865756242
  0
LINE
  5
224
100
AcDbEntity
  8
0
100
AcDbLine
 62
7
  6
CONTINUOUS
 10
86.7329162987
 20
533.4005169227
 11
86.7329162987
 21
457.2433045605
  0
LINE
  5
225
100
AcDbEntity
  8
0
100
AcDbLine
 62
7
  6
CONTINUOUS
 10
87.6521589414
 20
620.0130750056
 11
87.6521589414
 21
542.9651977031
  0
LINE
  5
226
100
AcDbEntity
  8
0
100
AcDbLine
 62
7
  6
CONTINUOUS
 10
87.6521589414
 20
533.7604688821
 11
87.6521589414
 21
456.7125915796
  0
LINE
  5
227
100
AcDbEntity
  8
0
100
AcDbLine
 62
7
  6
CONTINUOUS
 10
88.00571086
 20
456.9167136566
 11
88.00571086
 21
533.964590959
  0
LINE
  5
228
100
AcDbEntity
  8
0
100
AcDbLine
 62
7
  6
CONTINUOUS
 10
88.00571086
 20
543.1693197801
 11
88.00571086
 21
620.2171970825
  0
LINE
  5
229
100
AcDbEntity
  8
0
100
AcDbLine
 62
7
  6
CONTINUOUS
 10
88.5714015841
 20
619.4823620247
 11
88.5714015841
 21
541.5438197821
  0
LINE
  5
22A
100
AcDbEntity
  8
0
100
AcDbLine
 62
7
  6
CONTINUOUS
 10
88.5714015841
 20
534.1204208414
 11
88.5714015841
 21
456.1818785988
  0
LINE
  5
22B
100
AcDbEntity
  8
0
100
AcDbLine
 62
7
  6
CONTINUOUS
 10
89.4906442268
 20
618.9516490438
 11
89.4906442268
 21
540.122441861
  0
LINE
  5
22C
100
AcDbEntity
  8
0
100
AcDbLine
 62
7
  6
CONTINUOUS
 10
89.4906442268
 20
534.4803728007
 11
89.4906442268
 21
455.6511656179
  0
LINE
  5
22D
100
AcDbEntity
  8
0
100
AcDbLine
 62
7
  6
CONTINUOUS
 10
89.8441961454
 20
455.8552876948
 11
89.8441961454
 21
534.6844948776
  0
LINE
  5
22E
100
AcDbEntity
  8
0
100
AcDbLine
 62
7
  6
CONTINUOUS
 10
89.8441961454
 20
540.3265639379
 11
89.8441961454
 21
619.1557711207
  0
LINE
  5
22F
100
AcDbEntity
  8
0
100
AcDbLine
 62
7
  6
CONTINUOUS
 10
90.4098868695
 20
618.4209360629
 11
90.4098868695
 21
538.7010639399
  0
LINE
  5
230
100
AcDbEntity
  8
0
100
AcDbLine
 62
7
  6
CONTINUOUS
 10
90.4098868695
 20
534.84032476
 11
90.4098868695
 21
455.120452637
  0
LINE
  5
231
100
AcDbEntity
  8
0
100
AcDbLine
 62
7
  6
CONTINUOUS
 10
91.3291295122
 20
617.890223082
 11
91.3291295122
 21
537.2796860189
  0
LINE
  5
232
100
AcDbEntity
  8
0
100
AcDbLine
 62
7
  6
CONTINUOUS
 10
91.3291295122
 20
535.2002767193
 11
91.3291295122
 21
454.5897396561
  0
LINE
  5
233
100
AcDbEntity
  8
0
100
AcDbLine
 62
7
  6
CONTINUOUS
 10
91.6826814308
 20
454.7938617331
 11
91.6826814308
 21
535.4043987962
  0
LINE
  5
234
100
AcDbEntity
  8
0
100
AcDbLine
 62
7
  6
CONTINUOUS
 10
91.6826814308
 20
537.4838080958
 11
91.6826814308
 21
618.094345159
  0
LINE
  5
235
100
AcDbEntity
  8
0
100
AcDbLine
 62
7
  6
CONTINUOUS
 10
92.2483721549
 20
617.3595101012
 11
92.2483721549
 21
535.8583080978
  0
LINE
  5
236
100
AcDbEntity
  8
0
100
AcDbLine
 62
7
  6
CONTINUOUS
 10
92.2483721549
 20
535.5602286786
 11
92.2483721549
 21
454.0590266753
  0
LINE
  5
237
100
AcDbEntity
  8
0
100
AcDbLine
 62
7
  6
CONTINUOUS
 10
93.1676147975
 20
616.8287971203
 11
93.1676147975
 21
453.5283136944
  0
LINE
  5
238
100
AcDbEntity
  8
0
100
AcDbLine
 62
7
  6
CONTINUOUS
 10
93.5211667161
 20
453.7324357713
 11
93.5211667161
 21
617.0329191972
  0
LINE
  5
239
100
AcDbEntity
  8
0
100
AcDbLine
 62
7
  6
CONTINUOUS
 10
94.0868574402
 20
616.2980841394
 11
94.0868574402
 21
452.9976007135
  0
LINE
  5
23A
100
AcDbEntity
  8
0
100
AcDbLine
 62
7
  6
CONTINUOUS
 10
95.0061000829
 20
615.7673711585
 11
95.0061000829
 21
452.4668877326
  0
LINE
  5
23B
100
AcDbEntity
  8
0
100
AcDbLine
 62
7
  6
CONTINUOUS
 10
95.3596520015
 20
452.6710098096
 11
95.3596520015
 21
615.9714932355
  0
LINE
  5
23C
100
AcDbEntity
  8
0
100
AcDbLine
 62
7
  6
CONTINUOUS
 10
95.9253427256
 20
615.2366581777
 11
95.9253427256
 21
451.9361747517
  0
LINE
  5
23D
100
AcDbEntity
  8
0
100
AcDbLine
 62
7
  6
CONTINUOUS
 10
96.6324071137
 20
616.8696473706
 11
96.6324071137
 21
618.5917330323
  0
LINE
  5
23E
100
AcDbEntity
  8
0
100
AcDbLine
 62
7
  6
CONTINUOUS
 10
96.8445853683
 20
614.7059451968
 11
96.8445853683
 21
451.4054617709
  0
LINE
  5
23F
100
AcDbEntity
  8
0
100
AcDbLine
 62
7
  6
CONTINUOUS
 10
97.1981372869
 20
451.6095838478
 11
97.1981372869
 21
614.9100672737
  0
LINE
  5
240
100
AcDbEntity
  8
0
100
AcDbLine
 62
7
  6
CONTINUOUS
 10
97.763828011
 20
614.1752322159
 11
97.763828011
 21
450.87474879
  0
LINE
  5
241
100
AcDbEntity
  8
0
100
AcDbLine
 62
7
  6
CONTINUOUS
 10
98.4001873145
 20
615.849042085
 11
98.4001873145
 21
616.7688983403
  0
LINE
  5
242
100
AcDbEntity
  8
0
100
AcDbLine
 62
7
  6
CONTINUOUS
 10
98.6830706537
 20
613.644519235
 11
98.6830706537
 21
450.3440358091
  0
LINE
  5
243
100
AcDbEntity
  8
0
100
AcDbLine
 62
7
  6
CONTINUOUS
 10
99.0366225723
 20
450.5481578861
 11
99.0366225723
 21
613.848641312
  0
LINE
  5
244
100
AcDbEntity
  8
0
100
AcDbLine
 62
7
  6
CONTINUOUS
 10
99.6023132964
 20
613.1138062542
 11
99.6023132964
 21
449.8133228282
  0
LINE
  5
245
100
AcDbEntity
  8
0
100
AcDbLine
 62
7
  6
CONTINUOUS
 10
100.5215559391
 20
612.5830932733
 11
100.5215559391
 21
449.2826098474
  0
LINE
  5
246
100
AcDbEntity
  8
0
100
AcDbLine
 62
7
  6
CONTINUOUS
 10
100.8751078577
 20
449.4867319243
 11
100.8751078577
 21
612.7872153502
  0
LINE
  5
247
100
AcDbEntity
  8
0
100
AcDbLine
 62
7
  6
CONTINUOUS
 10
101.4407985818
 20
612.0523802924
 11
101.4407985818
 21
448.7518968665
  0
LINE
  5
248
100
AcDbEntity
  8
0
100
AcDbLine
 62
7
  6
CONTINUOUS
 10
102.3600412245
 20
611.5216673115
 11
102.3600412245
 21
448.2211838856
  0
LINE
  5
249
100
AcDbEntity
  8
0
100
AcDbLine
 62
7
  6
CONTINUOUS
 10
102.7135931431
 20
448.4253059626
 11
102.7135931431
 21
611.7257893885
  0
LINE
  5
24A
100
AcDbEntity
  8
0
100
AcDbLine
 62
7
  6
CONTINUOUS
 10
103.2792838671
 20
610.9909543307
 11
103.2792838671
 21
447.6904709047
  0
LINE
  5
24B
100
AcDbEntity
  8
0
100
AcDbLine
 62
7
  6
CONTINUOUS
 10
104.1985265098
 20
610.4602413498
 11
104.1985265098
 21
447.1597579239
  0
LINE
  5
24C
100
AcDbEntity
  8
0
100
AcDbLine
 62
7
  6
CONTINUOUS
 10
104.5520784284
 20
447.3638800008
 11
104.5520784284
 21
610.6643634267
  0
LINE
  5
24D
100
AcDbEntity
  8
0
100
AcDbLine
 62
7
  6
CONTINUOUS
 10
105.1177691525
 20
609.9295283689
 11
105.1177691525
 21
446.629044943
  0
LINE
  5
24E
100
AcDbEntity
  8
0
100
AcDbLine
 62
7
  6
CONTINUOUS
 10
106.0370117952
 20
609.398815388
 11
106.0370117952
 21
446.0983319621
  0
LINE
  5
24F
100
AcDbEntity
  8
0
100
AcDbLine
 62
7
  6
CONTINUOUS
 10
106.3905637138
 20
446.302454039
 11
106.3905637138
 21
609.602937465
  0
LINE
  5
250
100
AcDbEntity
  8
0
100
AcDbLine
 62
7
  6
CONTINUOUS
 10
106.7306324663
 20
613.4413778528
 11
106.7306324663
 21
612.6339483298
  0
LINE
  5
251
100
AcDbEntity
  8
0
100
AcDbLine
 62
7
  6
CONTINUOUS
 10
106.9562544379
 20
608.8681024071
 11
106.9562544379
 21
445.5676189812
  0
LINE
  5
252
100
AcDbEntity
  8
0
100
AcDbLine
 62
7
  6
CONTINUOUS
 10
107.0923236017
 20
613.311449673
 11
107.0923236017
 21
614.0884677367
  0
LINE
  5
253
100
AcDbEntity
  8
0
100
AcDbLine
 62
7
  6
CONTINUOUS
 10
107.8754970806
 20
608.3373894263
 11
107.8754970806
 21
445.0369060004
  0
LINE
  5
254
100
AcDbEntity
  8
0
100
AcDbLine
 62
7
  6
CONTINUOUS
 10
108.2290489992
 20
445.2410280773
 11
108.2290489992
 21
608.5415115032
  0
LINE
  5
255
100
AcDbEntity
  8
0
100
AcDbLine
 62
7
  6
CONTINUOUS
 10
108.7947397233
 20
607.8066764454
 11
108.7947397233
 21
444.5061930195
  0
LINE
  5
256
100
AcDbEntity
  8
0
100
AcDbLine
 62
7
  6
CONTINUOUS
 10
109.713982366
 20
607.2759634645
 11
109.713982366
 21
443.9754800386
  0
LINE
  5
257
100
AcDbEntity
  8
0
100
AcDbLine
 62
7
  6
CONTINUOUS
 10
110.0675342846
 20
444.1796021155
 11
110.0675342846
 21
607.4800855415
  0
LINE
  5
258
100
AcDbEntity
  8
0
100
AcDbLine
 62
7
  6
CONTINUOUS
 10
110.6332250087
 20
606.7452504836
 11
110.6332250087
 21
443.4447670577
  0
LINE
  5
259
100
AcDbEntity
  8
0
100
AcDbLine
 62
7
  6
CONTINUOUS
 10
105.6128226679
 20
611.6849193272
 11
106.7306324663
 21
612.6339483298
  0
LINE
  5
25A
100
AcDbEntity
  8
0
100
AcDbLine
 62
7
  6
CONTINUOUS
 10
104.9869088829
 20
612.0462826443
 11
106.7306324663
 21
613.4413778528
  0
LINE
  5
25B
100
AcDbEntity
  8
0
100
AcDbLine
 62
7
  6
CONTINUOUS
 10
280.0356631225
 20
739.8215048148
 11
279.8415046876
 21
739.7094080593
  0
LINE
  5
25C
100
AcDbEntity
  8
0
100
AcDbLine
 62
7
  6
CONTINUOUS
 10
81.6596860405
 20
625.2897647081
 11
81.8538444754
 21
625.4018614636
  0
LINE
  5
25D
100
AcDbEntity
  8
0
100
AcDbLine
 62
7
  6
CONTINUOUS
 10
84.3287402892
 20
622.340049006
 11
83.9822862433
 21
622.1400248633
  0
LINE
  5
25E
100
AcDbEntity
  8
0
100
AcDbLine
 62
7
  6
CONTINUOUS
 10
285.1448158503
 20
738.2805722172
 11
285.4912698963
 21
738.4805963599
  0
LINE
  5
25F
100
AcDbEntity
  8
0
100
AcDbLine
 62
7
  6
CONTINUOUS
 10
85.2479829319
 20
621.8093360251
 11
84.8944310133
 21
621.6052139482
  0
LINE
  5
260
100
AcDbEntity
  8
0
100
AcDbLine
 62
7
  6
CONTINUOUS
 10
286.064058493
 20
737.7498592363
 11
286.4176104116
 21
737.9539813132
  0
LINE
  5
261
100
AcDbEntity
  8
0
100
AcDbLine
 62
7
  6
CONTINUOUS
 10
86.1672255746
 20
621.2786230442
 11
85.813673656
 21
621.0745009673
  0
LINE
  5
262
100
AcDbEntity
  8
0
100
AcDbLine
 62
7
  6
CONTINUOUS
 10
286.9833011357
 20
737.2191462554
 11
287.3368530543
 21
737.4232683324
  0
LINE
  5
263
100
AcDbEntity
  8
0
100
AcDbLine
 62
7
  6
CONTINUOUS
 10
121.3812474938
 20
602.5812209624
 11
121.3812474938
 21
604.3033066241
  0
LINE
  5
264
100
AcDbEntity
  8
0
100
AcDbLine
 62
7
  6
CONTINUOUS
 10
123.1490276946
 20
601.5606156768
 11
123.1490276946
 21
602.4804719321
  0
LINE
  5
265
100
AcDbEntity
  8
0
100
AcDbLine
 62
7
  6
CONTINUOUS
 10
131.4794728465
 20
599.1529514446
 11
131.4794728465
 21
598.3455219216
  0
LINE
  5
266
100
AcDbEntity
  8
0
100
AcDbLine
 62
7
  6
CONTINUOUS
 10
131.8411639819
 20
599.0230232648
 11
131.8411639819
 21
599.8000413285
  0
LINE
  5
267
100
AcDbEntity
  8
0
100
AcDbLine
 62
7
  6
CONTINUOUS
 10
132.0410074351
 20
594.3857411464
 11
132.0410074351
 21
431.0852577205
  0
LINE
  5
268
100
AcDbEntity
  8
0
100
AcDbLine
 62
7
  6
CONTINUOUS
 10
137.8041982171
 20
429.5749653732
 11
137.8041982171
 21
592.8754487992
  0
LINE
  5
269
100
AcDbEntity
  8
0
100
AcDbLine
 62
7
  6
CONTINUOUS
 10
137.998356652
 20
592.9875455547
 11
137.998356652
 21
429.6870621288
  0
LINE
  5
26A
100
AcDbEntity
  8
0
100
AcDbLine
 62
7
  6
CONTINUOUS
 10
139.4524231528
 20
431.5984615238
 11
139.4524231528
 21
508.7649263179
  0
LINE
  5
26B
100
AcDbEntity
  8
0
100
AcDbLine
 62
7
  6
CONTINUOUS
 10
139.4524231528
 20
513.2487032368
 11
139.4524231528
 21
590.4151680308
  0
LINE
  5
26C
100
AcDbEntity
  8
0
100
AcDbLine
 62
7
  6
CONTINUOUS
 10
140.3311116412
 20
430.7889666461
 11
140.3311116412
 21
507.5401938563
  0
LINE
  5
26D
100
AcDbEntity
  8
0
100
AcDbLine
 62
7
  6
CONTINUOUS
 10
140.3311116412
 20
512.439208359
 11
140.3311116412
 21
589.1904355692
  0
LINE
  5
26E
100
AcDbEntity
  8
0
100
AcDbLine
 62
7
  6
CONTINUOUS
 10
153.6751019028
 20
598.8307211648
 11
154.119618803
 21
599.6006512949
  0
LINE
  5
26F
100
AcDbEntity
  8
0
100
AcDbLine
 62
7
  6
CONTINUOUS
 10
155.1802833908
 20
598.9882901631
 11
154.7357664905
 21
598.218360033
  0
LINE
  5
270
100
AcDbEntity
  8
0
100
AcDbLine
 62
7
  6
CONTINUOUS
 10
130.361663048
 20
597.396492919
 11
131.4794728465
 21
598.3455219216
  0
LINE
  5
271
100
AcDbEntity
  8
0
100
AcDbLine
 62
7
  6
CONTINUOUS
 10
129.735749263
 20
597.7578562361
 11
131.4794728465
 21
599.1529514446
  0
LINE
  5
272
100
AcDbEntity
  8
0
100
AcDbLine
 62
7
  6
CONTINUOUS
 10
285.4984278258
 20
727.5972997863
 11
287.2661874189
 21
728.6535404277
  0
LINE
  5
273
100
AcDbEntity
  8
0
100
AcDbLine
 62
7
  6
CONTINUOUS
 10
287.223744538
 20
721.4429594328
 11
285.4984278258
 21
720.4120785156
  0
LINE
  5
274
100
AcDbEntity
  8
0
100
AcDbLine
 62
7
  6
CONTINUOUS
 10
294.3372787824
 20
725.4018698936
 11
297.3071148987
 21
727.1763541713
  0
LINE
  5
275
100
AcDbEntity
  8
0
100
AcDbLine
 62
7
  6
CONTINUOUS
 10
87.0864682173
 20
620.7479100634
 11
86.7329162987
 21
620.5437879864
  0
LINE
  5
276
100
AcDbEntity
  8
0
100
AcDbLine
 62
7
  6
CONTINUOUS
 10
287.9025437784
 20
736.6884332746
 11
288.256095697
 21
736.8925553515
  0
LINE
  5
277
100
AcDbEntity
  8
0
100
AcDbLine
 62
7
  6
CONTINUOUS
 10
88.00571086
 20
620.2171970825
 11
87.6521589414
 21
620.0130750056
  0
LINE
  5
278
100
AcDbEntity
  8
0
100
AcDbLine
 62
7
  6
CONTINUOUS
 10
288.8217864211
 20
736.1577202937
 11
289.1753383397
 21
736.3618423706
  0
LINE
  5
279
100
AcDbEntity
  8
0
100
AcDbLine
 62
7
  6
CONTINUOUS
 10
88.9249535027
 20
619.6864841016
 11
88.5714015841
 21
619.4823620247
  0
LINE
  5
27A
100
AcDbEntity
  8
0
100
AcDbLine
 62
7
  6
CONTINUOUS
 10
289.7410290638
 20
735.6270073128
 11
290.0945809824
 21
735.8311293897
  0
LINE
  5
27B
100
AcDbEntity
  8
0
100
AcDbLine
 62
7
  6
CONTINUOUS
 10
89.8441961454
 20
619.1557711207
 11
89.4906442268
 21
618.9516490438
  0
LINE
  5
27C
100
AcDbEntity
  8
0
100
AcDbLine
 62
7
  6
CONTINUOUS
 10
290.6602717064
 20
735.0962943319
 11
291.0138236251
 21
735.3004164089
  0
LINE
  5
27D
100
AcDbEntity
  8
0
100
AcDbLine
 62
7
  6
CONTINUOUS
 10
90.7634387881
 20
618.6250581399
 11
90.4098868695
 21
618.4209360629
  0
LINE
  5
27E
100
AcDbEntity
  8
0
100
AcDbLine
 62
7
  6
CONTINUOUS
 10
291.5795143491
 20
734.5655813511
 11
291.9330662677
 21
734.769703428
  0
LINE
  5
27F
100
AcDbEntity
  8
0
100
AcDbLine
 62
7
  6
CONTINUOUS
 10
91.6826814308
 20
618.094345159
 11
91.3291295122
 21
617.890223082
  0
LINE
  5
280
100
AcDbEntity
  8
0
100
AcDbLine
 62
7
  6
CONTINUOUS
 10
292.4987569918
 20
734.0348683702
 11
292.8523089104
 21
734.2389904471
  0
LINE
  5
281
100
AcDbEntity
  8
0
100
AcDbLine
 62
7
  6
CONTINUOUS
 10
92.6019240735
 20
617.5636321781
 11
92.2483721549
 21
617.3595101012
  0
LINE
  5
282
100
AcDbEntity
  8
0
100
AcDbLine
 62
7
  6
CONTINUOUS
 10
293.4179996345
 20
733.5041553893
 11
293.7715515531
 21
733.7082774662
  0
LINE
  5
283
100
AcDbEntity
  8
0
100
AcDbLine
 62
7
  6
CONTINUOUS
 10
93.5211667161
 20
617.0329191972
 11
93.1676147975
 21
616.8287971203
  0
LINE
  5
284
100
AcDbEntity
  8
0
100
AcDbLine
 62
7
  6
CONTINUOUS
 10
294.3372422772
 20
732.9734424084
 11
294.6907941958
 21
733.1775644854
  0
LINE
  5
285
100
AcDbEntity
  8
0
100
AcDbLine
 62
7
  6
CONTINUOUS
 10
94.4404093588
 20
616.5022062164
 11
94.0868574402
 21
616.2980841394
  0
LINE
  5
286
100
AcDbEntity
  8
0
100
AcDbLine
 62
7
  6
CONTINUOUS
 10
295.2564849199
 20
732.4427294275
 11
295.6100368385
 21
732.6468515045
  0
LINE
  5
287
100
AcDbEntity
  8
0
100
AcDbLine
 62
7
  6
CONTINUOUS
 10
95.3596520015
 20
615.9714932355
 11
95.0061000829
 21
615.7673711585
  0
LINE
  5
288
100
AcDbEntity
  8
0
100
AcDbLine
 62
7
  6
CONTINUOUS
 10
296.1757275626
 20
731.9120164467
 11
296.5292794812
 21
732.1161385236
  0
LINE
  5
289
100
AcDbEntity
  8
0
100
AcDbLine
 62
7
  6
CONTINUOUS
 10
96.2788946442
 20
615.4407802546
 11
95.9253427256
 21
615.2366581777
  0
LINE
  5
28A
100
AcDbEntity
  8
0
100
AcDbLine
 62
7
  6
CONTINUOUS
 10
297.0949702053
 20
731.3813034658
 11
297.4485221239
 21
731.5854255427
  0
LINE
  5
28B
100
AcDbEntity
  8
0
100
AcDbLine
 62
7
  6
CONTINUOUS
 10
97.1981372869
 20
614.9100672737
 11
96.8445853683
 21
614.7059451968
  0
LINE
  5
28C
100
AcDbEntity
  8
0
100
AcDbLine
 62
7
  6
CONTINUOUS
 10
298.014212848
 20
730.8505904849
 11
298.3677647666
 21
731.0547125619
  0
LINE
  5
28D
100
AcDbEntity
  8
0
100
AcDbLine
 62
7
  6
CONTINUOUS
 10
98.1173799296
 20
614.3793542928
 11
97.763828011
 21
614.1752322159
  0
LINE
  5
28E
100
AcDbEntity
  8
0
100
AcDbLine
 62
7
  6
CONTINUOUS
 10
298.9334554907
 20
730.319877504
 11
299.2870074093
 21
730.523999581
  0
LINE
  5
28F
100
AcDbEntity
  8
0
100
AcDbLine
 62
7
  6
CONTINUOUS
 10
99.0366225723
 20
613.848641312
 11
98.6830706537
 21
613.644519235
  0
LINE
  5
290
100
AcDbEntity
  8
0
100
AcDbLine
 62
7
  6
CONTINUOUS
 10
299.8526981334
 20
729.7891645232
 11
300.206250052
 21
729.9932866001
  0
LINE
  5
291
100
AcDbEntity
  8
0
100
AcDbLine
 62
7
  6
CONTINUOUS
 10
99.955865215
 20
613.3179283311
 11
99.6023132964
 21
613.1138062542
  0
LINE
  5
292
100
AcDbEntity
  8
0
100
AcDbLine
 62
7
  6
CONTINUOUS
 10
300.771940776
 20
729.2584515423
 11
301.1254926947
 21
729.4625736192
  0
LINE
  5
293
100
AcDbEntity
  8
0
100
AcDbLine
 62
7
  6
CONTINUOUS
 10
100.8751078577
 20
612.7872153502
 11
100.5215559391
 21
612.5830932733
  0
LINE
  5
294
100
AcDbEntity
  8
0
100
AcDbLine
 62
7
  6
CONTINUOUS
 10
301.6911834187
 20
728.7277385614
 11
302.0447353373
 21
728.9318606383
  0
LINE
  5
295
100
AcDbEntity
  8
0
100
AcDbLine
 62
7
  6
CONTINUOUS
 10
101.7943505004
 20
612.2565023693
 11
101.4407985818
 21
612.0523802924
  0
LINE
  5
296
100
AcDbEntity
  8
0
100
AcDbLine
 62
7
  6
CONTINUOUS
 10
302.6104260614
 20
728.1970255805
 11
302.96397798
 21
728.4011476575
  0
LINE
  5
297
100
AcDbEntity
  8
0
100
AcDbLine
 62
7
  6
CONTINUOUS
 10
102.7135931431
 20
611.7257893885
 11
102.3600412245
 21
611.5216673115
  0
LINE
  5
298
100
AcDbEntity
  8
0
100
AcDbLine
 62
7
  6
CONTINUOUS
 10
303.5296687041
 20
727.6663125997
 11
303.8832206227
 21
727.8704346766
  0
LINE
  5
299
100
AcDbEntity
  8
0
100
AcDbLine
 62
7
  6
CONTINUOUS
 10
103.6328357858
 20
611.1950764076
 11
103.2792838671
 21
610.9909543307
  0
LINE
  5
29A
100
AcDbEntity
  8
0
100
AcDbLine
 62
7
  6
CONTINUOUS
 10
304.4489113468
 20
727.1355996188
 11
304.8024632654
 21
727.3397216957
  0
LINE
  5
29B
100
AcDbEntity
  8
0
100
AcDbLine
 62
7
  6
CONTINUOUS
 10
104.5520784284
 20
610.6643634267
 11
104.1985265098
 21
610.4602413498
  0
LINE
  5
29C
100
AcDbEntity
  8
0
100
AcDbLine
 62
7
  6
CONTINUOUS
 10
305.3681539895
 20
726.6048866379
 11
305.7217059081
 21
726.8090087148
  0
LINE
  5
29D
100
AcDbEntity
  8
0
100
AcDbLine
 62
7
  6
CONTINUOUS
 10
105.4713210711
 20
610.1336504458
 11
105.1177691525
 21
609.9295283689
  0
LINE
  5
29E
100
AcDbEntity
  8
0
100
AcDbLine
 62
7
  6
CONTINUOUS
 10
306.2873966322
 20
726.074173657
 11
306.6409485508
 21
726.278295734
  0
LINE
  5
29F
100
AcDbEntity
  8
0
100
AcDbLine
 62
7
  6
CONTINUOUS
 10
106.3905637138
 20
609.602937465
 11
106.0370117952
 21
609.398815388
  0
LINE
  5
2A0
100
AcDbEntity
  8
0
100
AcDbLine
 62
7
  6
CONTINUOUS
 10
307.2066392749
 20
725.5434606762
 11
307.5601911935
 21
725.7475827531
  0
LINE
  5
2A1
100
AcDbEntity
  8
0
100
AcDbLine
 62
7
  6
CONTINUOUS
 10
107.3098063565
 20
609.0722244841
 11
106.9562544379
 21
608.8681024071
  0
LINE
  5
2A2
100
AcDbEntity
  8
0
100
AcDbLine
 62
7
  6
CONTINUOUS
 10
308.1258819176
 20
725.0127476953
 11
308.4794338362
 21
725.2168697722
  0
LINE
  5
2A3
100
AcDbEntity
  8
0
100
AcDbLine
 62
7
  6
CONTINUOUS
 10
298.3677794864
 20
719.3787717687
 11
295.3461042562
 21
717.6342161404
  0
LINE
  5
2A4
100
AcDbEntity
  8
0
100
AcDbLine
 62
7
  6
CONTINUOUS
 10
108.2290489992
 20
608.5415115032
 11
107.8754970806
 21
608.3373894263
  0
LINE
  5
2A5
100
AcDbEntity
  8
0
100
AcDbLine
 62
7
  6
CONTINUOUS
 10
309.0451245603
 20
724.4820347144
 11
309.3986764789
 21
724.6861567913
  0
LINE
  5
2A6
100
AcDbEntity
  8
0
100
AcDbLine
 62
7
  6
CONTINUOUS
 10
109.1482916419
 20
608.0107985223
 11
108.7947397233
 21
607.8066764454
  0
LINE
  5
2A7
100
AcDbEntity
  8
0
100
AcDbLine
 62
7
  6
CONTINUOUS
 10
309.964367203
 20
723.9513217335
 11
310.3179191216
 21
724.1554438105
  0
LINE
  5
2A8
100
AcDbEntity
  8
0
100
AcDbLine
 62
7
  6
CONTINUOUS
 10
110.0675342846
 20
607.4800855415
 11
109.713982366
 21
607.2759634645
  0
LINE
  5
2A9
100
AcDbEntity
  8
0
100
AcDbLine
 62
7
  6
CONTINUOUS
 10
310.8836098456
 20
723.4206087526
 11
311.2371617643
 21
723.6247308296
  0
LINE
  5
2AA
100
AcDbEntity
  8
0
100
AcDbLine
 62
7
  6
CONTINUOUS
 10
110.9867769273
 20
606.9493725606
 11
110.6332250087
 21
606.7452504836
  0
LINE
  5
2AB
100
AcDbEntity
  8
0
100
AcDbLine
 62
7
  6
CONTINUOUS
 10
311.8028524883
 20
722.8898957718
 11
312.1564044069
 21
723.0940178487
  0
LINE
  5
2AC
100
AcDbEntity
  8
0
100
AcDbLine
 62
7
  6
CONTINUOUS
 10
295.3461042562
 20
719.7353310146
 11
294.2669345312
 21
719.1336535871
  0
LINE
  5
2AD
100
AcDbEntity
  8
0
100
AcDbLine
 62
7
  6
CONTINUOUS
 10
96.6324071137
 20
618.5917330323
 11
98.4001667067
 21
619.5767131602
  0
LINE
  5
2AE
100
AcDbEntity
  8
0
100
AcDbLine
 62
7
  6
CONTINUOUS
 10
101.4785078987
 20
614.0718130733
 11
102.2892908028
 21
614.5235741905
  0
LINE
  5
2AF
100
AcDbEntity
  8
0
100
AcDbLine
 62
7
  6
CONTINUOUS
 10
301.196218387
 20
724.9310300214
 11
296.1661597633
 21
722.811377681
  0
LINE
  5
2B0
100
AcDbEntity
  8
0
100
AcDbLine
 62
7
  6
CONTINUOUS
 10
301.196218387
 20
717.7458087507
 11
296.1661597633
 21
715.6261564102
  0
LINE
  5
2B1
100
AcDbEntity
  8
0
100
AcDbLine
 62
7
  6
CONTINUOUS
 10
301.196218387
 20
723.9512271209
 11
296.1661597633
 21
722.0039481579
  0
LINE
  5
2B2
100
AcDbEntity
  8
0
100
AcDbLine
 62
7
  6
CONTINUOUS
 10
301.196218387
 20
716.7660058501
 11
296.1661597633
 21
714.8187268871
  0
LINE
  5
2B3
100
AcDbEntity
  8
0
100
AcDbLine
 62
7
  6
CONTINUOUS
 10
156.9480429838
 20
599.1923981307
 11
156.9480429838
 21
596.9411304989
  0
LINE
  5
2B4
100
AcDbEntity
  8
0
100
AcDbLine
 62
7
  6
CONTINUOUS
 10
310.247268206
 20
713.3088733781
 11
312.015027799
 21
714.3651140195
  0
LINE
  5
2B5
100
AcDbEntity
  8
0
100
AcDbLine
 62
7
  6
CONTINUOUS
 10
311.9725849181
 20
707.1545330246
 11
310.247268206
 21
706.1236521074
  0
LINE
  5
2B6
100
AcDbEntity
  8
0
100
AcDbLine
 62
7
  6
CONTINUOUS
 10
319.0861191625
 20
711.1134434854
 11
322.0559552788
 21
712.8879277631
  0
LINE
  5
2B7
100
AcDbEntity
  8
0
100
AcDbLine
 62
7
  6
CONTINUOUS
 10
323.1166198666
 20
705.0903453605
 11
320.0949446364
 21
703.3457897322
  0
LINE
  5
2B8
100
AcDbEntity
  8
0
100
AcDbLine
 62
7
  6
CONTINUOUS
 10
320.0949446364
 20
705.4469046064
 11
319.0157749113
 21
704.8452271789
  0
LINE
  5
2B9
100
AcDbEntity
  8
0
100
AcDbLine
 62
7
  6
CONTINUOUS
 10
121.3812474938
 20
604.3033066241
 11
123.1490070869
 21
605.288286752
  0
LINE
  5
2BA
100
AcDbEntity
  8
0
100
AcDbLine
 62
7
  6
CONTINUOUS
 10
126.2273482788
 20
599.7833866651
 11
127.0381311829
 21
600.2351477822
  0
LINE
  5
2BB
100
AcDbEntity
  8
0
100
AcDbLine
 62
7
  6
CONTINUOUS
 10
325.9450587671
 20
710.6426036132
 11
320.9150001434
 21
708.5229512727
  0
LINE
  5
2BC
100
AcDbEntity
  8
0
100
AcDbLine
 62
7
  6
CONTINUOUS
 10
325.9450587671
 20
703.4573823425
 11
320.9150001434
 21
701.337730002
  0
LINE
  5
2BD
100
AcDbEntity
  8
0
100
AcDbLine
 62
7
  6
CONTINUOUS
 10
325.9450587671
 20
709.6628007126
 11
320.9150001434
 21
707.7155217497
  0
LINE
  5
2BE
100
AcDbEntity
  8
0
100
AcDbLine
 62
7
  6
CONTINUOUS
 10
325.9450587671
 20
702.4775794419
 11
320.9150001434
 21
700.5303004789
  0
LINE
  5
2BF
100
AcDbEntity
  8
0
100
AcDbLine
 62
7
  6
CONTINUOUS
 10
84.8944310133
 20
547.2293314663
 11
85.813673656
 21
545.8079535453
  0
LINE
  5
2C0
100
AcDbEntity
  8
0
100
AcDbLine
 62
7
  6
CONTINUOUS
 10
86.7329162987
 20
544.3865756242
 11
87.6521589414
 21
542.9651977031
  0
LINE
  5
2C1
100
AcDbEntity
  8
0
100
AcDbLine
 62
7
  6
CONTINUOUS
 10
88.5714015841
 20
541.5438197821
 11
89.4906442268
 21
540.122441861
  0
LINE
  5
2C2
100
AcDbEntity
  8
0
100
AcDbLine
 62
7
  6
CONTINUOUS
 10
90.4098868695
 20
538.7010639399
 11
91.3291295122
 21
537.2796860189
  0
LINE
  5
2C3
100
AcDbEntity
  8
0
100
AcDbLine
 62
7
  6
CONTINUOUS
 10
92.2483721549
 20
535.8583080978
 11
92.4021939237
 21
535.6204613577
  0
LINE
  5
2C4
100
AcDbEntity
  8
0
100
AcDbLine
 62
7
  6
CONTINUOUS
 10
336.1801752991
 20
707.4071889059
 11
335.9860168642
 21
707.2950921504
  0
LINE
  5
2C5
100
AcDbEntity
  8
0
100
AcDbLine
 62
7
  6
CONTINUOUS
 10
137.8041982171
 20
592.8754487992
 11
137.998356652
 21
592.9875455547
  0
LINE
  5
2C6
100
AcDbEntity
  8
0
100
AcDbLine
 62
7
  6
CONTINUOUS
 10
140.7553598125
 20
593.8444530931
 11
150.6548135335
 21
599.5598712473
  0
LINE
  5
2C7
100
AcDbEntity
  8
0
100
AcDbLine
 62
7
  6
CONTINUOUS
 10
324.6023574881
 20
699.9879330997
 11
334.5018112091
 21
705.7033512539
  0
LINE
  5
2C8
100
AcDbEntity
  8
0
100
AcDbLine
 62
7
  6
CONTINUOUS
 10
320.2890205483
 20
695.5380274547
 11
319.2283647925
 21
694.9256612239
  0
LINE
  5
2C9
100
AcDbEntity
  8
0
100
AcDbLine
 62
7
  6
CONTINUOUS
 10
155.1802745589
 20
600.2130175257
 11
154.119618803
 21
599.6006512949
  0
LINE
  5
2CA
100
AcDbEntity
  8
0
100
AcDbLine
 62
7
  6
CONTINUOUS
 10
155.1802833908
 20
598.9882901631
 11
156.2409391466
 21
599.6006563939
  0
LINE
  5
2CB
100
AcDbEntity
  8
0
100
AcDbLine
 62
7
  6
CONTINUOUS
 10
320.2890293802
 20
694.3133000921
 11
321.349685136
 21
694.9256663229
  0
LINE
  5
2CC
100
AcDbEntity
  8
0
100
AcDbLine
 62
7
  6
CONTINUOUS
 10
322.4456941559
 20
693.108915233
 11
322.0567889732
 21
692.8843820614
  0
LINE
  5
2CD
100
AcDbEntity
  8
0
100
AcDbLine
 62
7
  6
CONTINUOUS
 10
322.0567889732
 20
691.6596495997
 11
323.4710057012
 21
692.4761431345
  0
LINE
  5
2CE
100
AcDbEntity
  8
0
100
AcDbLine
 62
7
  6
CONTINUOUS
 10
83.9822862433
 20
548.6548073216
 11
84.3287402892
 21
548.8548314643
  0
LINE
  5
2CF
100
AcDbEntity
  8
0
100
AcDbLine
 62
7
  6
CONTINUOUS
 10
330.0117071419
 20
687.8832465552
 11
324.7084283628
 21
684.8214154011
  0
LINE
  5
2D0
100
AcDbEntity
  8
0
100
AcDbLine
 62
7
  6
CONTINUOUS
 10
85.813673656
 20
545.8079535453
 11
86.1672255746
 21
546.0120756222
  0
LINE
  5
2D1
100
AcDbEntity
  8
0
100
AcDbLine
 62
7
  6
CONTINUOUS
 10
87.6521589414
 20
542.9651977031
 11
88.00571086
 21
543.1693197801
  0
LINE
  5
2D2
100
AcDbEntity
  8
0
100
AcDbLine
 62
7
  6
CONTINUOUS
 10
328.9510425542
 20
681.5553371414
 11
324.3548764442
 21
678.9017552403
  0
LINE
  5
2D3
100
AcDbEntity
  8
0
100
AcDbLine
 62
7
  6
CONTINUOUS
 10
324.7084283628
 20
677.8811448555
 11
330.0117071419
 21
680.9429760096
  0
LINE
  5
2D4
100
AcDbEntity
  8
0
100
AcDbLine
 62
7
  6
CONTINUOUS
 10
89.4906442268
 20
540.122441861
 11
89.8441961454
 21
540.3265639379
  0
LINE
  5
2D5
100
AcDbEntity
  8
0
100
AcDbLine
 62
7
  6
CONTINUOUS
 10
428.4083354897
 20
259.9813719763
 11
427.489092847
 21
260.5120849572
  0
LINE
  5
2D6
100
AcDbEntity
  8
0
100
AcDbLine
 62
7
  6
CONTINUOUS
 10
426.5698502043
 20
261.0427979381
 11
425.6506075617
 21
261.5735109189
  0
LINE
  5
2D7
100
AcDbEntity
  8
0
100
AcDbLine
 62
7
  6
CONTINUOUS
 10
424.731364919
 20
262.1042238998
 11
423.8121222763
 21
262.6349368807
  0
LINE
  5
2D8
100
AcDbEntity
  8
0
100
AcDbLine
 62
7
  6
CONTINUOUS
 10
422.8928796336
 20
263.1656498616
 11
421.9736369909
 21
263.6963628424
  0
LINE
  5
2D9
100
AcDbEntity
  8
0
100
AcDbLine
 62
7
  6
CONTINUOUS
 10
421.0543943482
 20
264.2270758233
 11
420.1351517055
 21
264.7577888042
  0
LINE
  5
2DA
100
AcDbEntity
  8
0
100
AcDbLine
 62
7
  6
CONTINUOUS
 10
419.2159090628
 20
265.2885017851
 11
418.2966664201
 21
265.8192147659
  0
LINE
  5
2DB
100
AcDbEntity
  8
0
100
AcDbLine
 62
7
  6
CONTINUOUS
 10
417.3774237774
 20
266.3499277468
 11
416.4581811347
 21
266.8806407277
  0
LINE
  5
2DC
100
AcDbEntity
  8
0
100
AcDbLine
 62
7
  6
CONTINUOUS
 10
415.5389384921
 20
267.4113537086
 11
414.6196958494
 21
267.9420666894
  0
LINE
  5
2DD
100
AcDbEntity
  8
0
100
AcDbLine
 62
7
  6
CONTINUOUS
 10
413.7004532067
 20
268.4727796703
 11
412.781210564
 21
269.0034926512
  0
LINE
  5
2DE
100
AcDbEntity
  8
0
100
AcDbLine
 62
7
  6
CONTINUOUS
 10
411.8619679213
 20
269.5342056321
 11
410.9427252786
 21
270.064918613
  0
LINE
  5
2DF
100
AcDbEntity
  8
0
100
AcDbLine
 62
7
  6
CONTINUOUS
 10
410.0234826359
 20
270.5956315938
 11
409.1042399932
 21
271.1263445747
  0
LINE
  5
2E0
100
AcDbEntity
  8
0
100
AcDbLine
 62
7
  6
CONTINUOUS
 10
408.1849973505
 20
271.6570575556
 11
407.2657547078
 21
272.1877705365
  0
LINE
  5
2E1
100
AcDbEntity
  8
0
100
AcDbLine
 62
7
  6
CONTINUOUS
 10
406.3465120651
 20
272.7184835173
 11
405.4272694225
 21
273.2491964982
  0
LINE
  5
2E2
100
AcDbEntity
  8
0
100
AcDbLine
 62
7
  6
CONTINUOUS
 10
404.5080267798
 20
273.7799094791
 11
403.5887841371
 21
274.31062246
  0
LINE
  5
2E3
100
AcDbEntity
  8
0
100
AcDbLine
 62
7
  6
CONTINUOUS
 10
402.6695414944
 20
274.8413354408
 11
381.2617590679
 21
287.200844778
  0
LINE
  5
2E4
100
AcDbEntity
  8
0
100
AcDbLine
 62
7
  6
CONTINUOUS
 10
132.0410074351
 20
431.0852577205
 11
110.6332250087
 21
443.4447670577
  0
LINE
  5
2E5
100
AcDbEntity
  8
0
100
AcDbLine
 62
7
  6
CONTINUOUS
 10
109.713982366
 20
443.9754800386
 11
108.7947397233
 21
444.5061930195
  0
LINE
  5
2E6
100
AcDbEntity
  8
0
100
AcDbLine
 62
7
  6
CONTINUOUS
 10
107.8754970806
 20
445.0369060004
 11
106.9562544379
 21
445.5676189812
  0
LINE
  5
2E7
100
AcDbEntity
  8
0
100
AcDbLine
 62
7
  6
CONTINUOUS
 10
106.0370117952
 20
446.0983319621
 11
105.1177691525
 21
446.629044943
  0
LINE
  5
2E8
100
AcDbEntity
  8
0
100
AcDbLine
 62
7
  6
CONTINUOUS
 10
104.1985265098
 20
447.1597579239
 11
103.2792838671
 21
447.6904709047
  0
LINE
  5
2E9
100
AcDbEntity
  8
0
100
AcDbLine
 62
7
  6
CONTINUOUS
 10
102.3600412245
 20
448.2211838856
 11
101.4407985818
 21
448.7518968665
  0
LINE
  5
2EA
100
AcDbEntity
  8
0
100
AcDbLine
 62
7
  6
CONTINUOUS
 10
100.5215559391
 20
449.2826098474
 11
99.6023132964
 21
449.8133228282
  0
LINE
  5
2EB
100
AcDbEntity
  8
0
100
AcDbLine
 62
7
  6
CONTINUOUS
 10
98.6830706537
 20
450.3440358091
 11
97.763828011
 21
450.87474879
  0
LINE
  5
2EC
100
AcDbEntity
  8
0
100
AcDbLine
 62
7
  6
CONTINUOUS
 10
96.8445853683
 20
451.4054617709
 11
95.9253427256
 21
451.9361747517
  0
LINE
  5
2ED
100
AcDbEntity
  8
0
100
AcDbLine
 62
7
  6
CONTINUOUS
 10
95.0061000829
 20
452.4668877326
 11
94.0868574402
 21
452.9976007135
  0
LINE
  5
2EE
100
AcDbEntity
  8
0
100
AcDbLine
 62
7
  6
CONTINUOUS
 10
93.1676147975
 20
453.5283136944
 11
92.2483721549
 21
454.0590266753
  0
LINE
  5
2EF
100
AcDbEntity
  8
0
100
AcDbLine
 62
7
  6
CONTINUOUS
 10
91.3291295122
 20
454.5897396561
 11
90.4098868695
 21
455.120452637
  0
LINE
  5
2F0
100
AcDbEntity
  8
0
100
AcDbLine
 62
7
  6
CONTINUOUS
 10
89.4906442268
 20
455.6511656179
 11
88.5714015841
 21
456.1818785988
  0
LINE
  5
2F1
100
AcDbEntity
  8
0
100
AcDbLine
 62
7
  6
CONTINUOUS
 10
87.6521589414
 20
456.7125915796
 11
86.7329162987
 21
457.2433045605
  0
LINE
  5
2F2
100
AcDbEntity
  8
0
100
AcDbLine
 62
7
  6
CONTINUOUS
 10
85.813673656
 20
457.7740175414
 11
84.8944310133
 21
458.3047305223
  0
LINE
  5
2F3
100
AcDbEntity
  8
0
100
AcDbLine
 62
7
  6
CONTINUOUS
 10
110.6332250087
 20
443.8530078123
 11
110.0675342846
 21
444.1796021155
  0
LINE
  5
2F4
100
AcDbEntity
  8
0
100
AcDbLine
 62
7
  6
CONTINUOUS
 10
108.7947397233
 20
444.914433774
 11
108.2290489992
 21
445.2410280773
  0
LINE
  5
2F5
100
AcDbEntity
  8
0
100
AcDbLine
 62
7
  6
CONTINUOUS
 10
106.9562544379
 20
445.9758597358
 11
106.3905637138
 21
446.302454039
  0
LINE
  5
2F6
100
AcDbEntity
  8
0
100
AcDbLine
 62
7
  6
CONTINUOUS
 10
105.1177691525
 20
447.0372856975
 11
104.5520784284
 21
447.3638800008
  0
LINE
  5
2F7
100
AcDbEntity
  8
0
100
AcDbLine
 62
7
  6
CONTINUOUS
 10
103.2792838671
 20
448.0987116593
 11
102.7135931431
 21
448.4253059626
  0
LINE
  5
2F8
100
AcDbEntity
  8
0
100
AcDbLine
 62
7
  6
CONTINUOUS
 10
101.4407985818
 20
449.160137621
 11
100.8751078577
 21
449.4867319243
  0
LINE
  5
2F9
100
AcDbEntity
  8
0
100
AcDbLine
 62
7
  6
CONTINUOUS
 10
99.6023132964
 20
450.2215635828
 11
99.0366225723
 21
450.5481578861
  0
LINE
  5
2FA
100
AcDbEntity
  8
0
100
AcDbLine
 62
7
  6
CONTINUOUS
 10
97.763828011
 20
451.2829895445
 11
97.1981372869
 21
451.6095838478
  0
LINE
  5
2FB
100
AcDbEntity
  8
0
100
AcDbLine
 62
7
  6
CONTINUOUS
 10
95.9253427256
 20
452.3444155063
 11
95.3596520015
 21
452.6710098096
  0
LINE
  5
2FC
100
AcDbEntity
  8
0
100
AcDbLine
 62
7
  6
CONTINUOUS
 10
94.0868574402
 20
453.405841468
 11
93.5211667161
 21
453.7324357713
  0
LINE
  5
2FD
100
AcDbEntity
  8
0
100
AcDbLine
 62
7
  6
CONTINUOUS
 10
92.2483721549
 20
454.4672674298
 11
91.6826814308
 21
454.7938617331
  0
LINE
  5
2FE
100
AcDbEntity
  8
0
100
AcDbLine
 62
7
  6
CONTINUOUS
 10
90.4098868695
 20
455.5286933915
 11
89.8441961454
 21
455.8552876948
  0
LINE
  5
2FF
100
AcDbEntity
  8
0
100
AcDbLine
 62
7
  6
CONTINUOUS
 10
88.5714015841
 20
456.5901193533
 11
88.00571086
 21
456.9167136566
  0
LINE
  5
300
100
AcDbEntity
  8
0
100
AcDbLine
 62
7
  6
CONTINUOUS
 10
86.7329162987
 20
457.651545315
 11
86.1672255746
 21
457.9781396183
  0
LINE
  5
301
100
AcDbEntity
  8
0
100
AcDbLine
 62
7
  6
CONTINUOUS
 10
84.8944310133
 20
458.7129712768
 11
84.3287402892
 21
459.0395655801
  0
LINE
  5
302
100
AcDbEntity
  8
0
100
AcDbLine
 62
7
  6
CONTINUOUS
 10
403.023093413
 20
275.0454575178
 11
403.5887841371
 21
274.7188632145
  0
LINE
  5
303
100
AcDbEntity
  8
0
100
AcDbLine
 62
7
  6
CONTINUOUS
 10
404.8615786984
 20
273.984031556
 11
405.4272694225
 21
273.6574372527
  0
LINE
  5
304
100
AcDbEntity
  8
0
100
AcDbLine
 62
7
  6
CONTINUOUS
 10
406.7000639838
 20
272.9226055943
 11
407.2657547078
 21
272.596011291
  0
LINE
  5
305
100
AcDbEntity
  8
0
100
AcDbLine
 62
7
  6
CONTINUOUS
 10
408.5385492691
 20
271.8611796325
 11
409.1042399932
 21
271.5345853292
  0
LINE
  5
306
100
AcDbEntity
  8
0
100
AcDbLine
 62
7
  6
CONTINUOUS
 10
410.3770345545
 20
270.7997536708
 11
410.9427252786
 21
270.4731593675
  0
LINE
  5
307
100
AcDbEntity
  8
0
100
AcDbLine
 62
7
  6
CONTINUOUS
 10
412.2155198399
 20
269.738327709
 11
412.781210564
 21
269.4117334057
  0
LINE
  5
308
100
AcDbEntity
  8
0
100
AcDbLine
 62
7
  6
CONTINUOUS
 10
414.0540051253
 20
268.6769017473
 11
414.6196958494
 21
268.350307444
  0
LINE
  5
309
100
AcDbEntity
  8
0
100
AcDbLine
 62
7
  6
CONTINUOUS
 10
415.8924904107
 20
267.6154757855
 11
416.4581811347
 21
267.2888814822
  0
LINE
  5
30A
100
AcDbEntity
  8
0
100
AcDbLine
 62
7
  6
CONTINUOUS
 10
417.730975696
 20
266.5540498238
 11
418.2966664201
 21
266.2274555205
  0
LINE
  5
30B
100
AcDbEntity
  8
0
100
AcDbLine
 62
7
  6
CONTINUOUS
 10
419.5694609814
 20
265.492623862
 11
420.1351517055
 21
265.1660295587
  0
LINE
  5
30C
100
AcDbEntity
  8
0
100
AcDbLine
 62
7
  6
CONTINUOUS
 10
421.4079462668
 20
264.4311979002
 11
421.9736369909
 21
264.104603597
  0
LINE
  5
30D
100
AcDbEntity
  8
0
100
AcDbLine
 62
7
  6
CONTINUOUS
 10
423.2464315522
 20
263.3697719385
 11
423.8121222763
 21
263.0431776352
  0
LINE
  5
30E
100
AcDbEntity
  8
0
100
AcDbLine
 62
7
  6
CONTINUOUS
 10
425.0849168376
 20
262.3083459767
 11
425.6506075617
 21
261.9817516735
  0
LINE
  5
30F
100
AcDbEntity
  8
0
100
AcDbLine
 62
7
  6
CONTINUOUS
 10
426.923402123
 20
261.246920015
 11
427.489092847
 21
260.9203257117
  0
LINE
  5
310
100
AcDbEntity
  8
0
100
AcDbLine
 62
7
  6
CONTINUOUS
 10
428.7618874083
 20
260.1854940532
 11
429.3346760051
 21
259.854801884
  0
LINE
  5
311
100
AcDbEntity
  8
0
100
AcDbLine
 62
7
  6
CONTINUOUS
 10
377.9756403023
 20
292.5733004577
 11
140.1039010984
 21
429.9055062501
  0
LINE
  5
312
100
AcDbEntity
  8
0
100
AcDbLine
 62
7
  6
CONTINUOUS
 10
91.3291295122
 20
537.2796860189
 11
91.6826814308
 21
537.4838080958
  0
LINE
  5
313
100
AcDbEntity
  8
0
100
AcDbLine
 62
7
  6
CONTINUOUS
 10
83.9822862433
 20
532.324758979
 11
84.3287402892
 21
532.5247831217
  0
LINE
  5
314
100
AcDbEntity
  8
0
100
AcDbLine
 62
7
  6
CONTINUOUS
 10
84.8944310133
 20
532.6806130041
 11
85.2479829319
 21
532.8847350811
  0
LINE
  5
315
100
AcDbEntity
  8
0
100
AcDbLine
 62
7
  6
CONTINUOUS
 10
85.813673656
 20
533.0405649634
 11
86.1672255746
 21
533.2446870404
  0
LINE
  5
316
100
AcDbEntity
  8
0
100
AcDbLine
 62
7
  6
CONTINUOUS
 10
86.7329162987
 20
533.4005169227
 11
87.0864682173
 21
533.6046389997
  0
LINE
  5
317
100
AcDbEntity
  8
0
100
AcDbLine
 62
7
  6
CONTINUOUS
 10
87.6521589414
 20
533.7604688821
 11
88.00571086
 21
533.964590959
  0
LINE
  5
318
100
AcDbEntity
  8
0
100
AcDbLine
 62
7
  6
CONTINUOUS
 10
88.5714015841
 20
534.1204208414
 11
88.9249535027
 21
534.3245429183
  0
LINE
  5
319
100
AcDbEntity
  8
0
100
AcDbLine
 62
7
  6
CONTINUOUS
 10
89.4906442268
 20
534.4803728007
 11
89.8441961454
 21
534.6844948776
  0
LINE
  5
31A
100
AcDbEntity
  8
0
100
AcDbLine
 62
7
  6
CONTINUOUS
 10
90.4098868695
 20
534.84032476
 11
90.7634387881
 21
535.0444468369
  0
LINE
  5
31B
100
AcDbEntity
  8
0
100
AcDbLine
 62
7
  6
CONTINUOUS
 10
91.3291295122
 20
535.2002767193
 11
91.6826814308
 21
535.4043987962
  0
LINE
  5
31C
100
AcDbEntity
  8
0
100
AcDbLine
 62
7
  6
CONTINUOUS
 10
140.1777264549
 20
589.6411849728
 11
139.8678827537
 21
589.5357582688
  0
LINE
  5
31D
100
AcDbEntity
  8
0
100
AcDbLine
 62
7
  6
CONTINUOUS
 10
376.5057598403
 20
294.4365546363
 11
140.3311116412
 21
430.7889666461
  0
LINE
  5
31E
100
AcDbEntity
  8
0
100
AcDbLine
 62
7
  6
CONTINUOUS
 10
318.5212609553
 20
693.7009146529
 11
319.2283647925
 21
694.9256612239
  0
LINE
  5
31F
100
AcDbEntity
  8
0
100
AcDbLine
 62
7
  6
CONTINUOUS
 10
320.2890293802
 20
694.3133000921
 11
319.581925543
 21
693.0885535211
  0
LINE
  5
320
100
AcDbEntity
  8
0
100
AcDbLine
 62
7
  6
CONTINUOUS
 10
330.0117071419
 20
642.1591111959
 11
324.7084283628
 21
639.0972800419
  0
LINE
  5
321
100
AcDbEntity
  8
0
100
AcDbLine
 62
7
  6
CONTINUOUS
 10
328.9510425542
 20
635.8312017821
 11
324.3548764442
 21
633.177619881
  0
LINE
  5
322
100
AcDbEntity
  8
0
100
AcDbLine
 62
7
  6
CONTINUOUS
 10
324.7084283628
 20
632.1570094963
 11
330.0117071419
 21
635.2188406503
  0
LINE
  5
323
100
AcDbEntity
  8
0
100
AcDbLine
 62
7
  6
CONTINUOUS
 10
324.5316524035
 20
623.6857986822
 11
322.0567889732
 21
622.2569441437
  0
LINE
  5
324
100
AcDbEntity
  8
0
100
AcDbLine
 62
7
  6
CONTINUOUS
 10
321.349685136
 20
618.1744391127
 11
320.2890293802
 21
617.5620728819
  0
LINE
  5
325
100
AcDbEntity
  8
0
100
AcDbLine
 62
7
  6
CONTINUOUS
 10
335.1382099617
 20
625.3186976961
 11
327.7137102068
 21
621.032186351
  0
LINE
  5
326
100
AcDbEntity
  8
0
100
AcDbLine
 62
7
  6
CONTINUOUS
 10
337.2774656028
 20
626.1455600993
 11
337.2430521893
 21
626.1260366166
  0
LINE
  5
327
100
AcDbEntity
  8
0
100
AcDbLine
 62
7
  6
CONTINUOUS
 10
337.2594988761
 20
626.1352233575
 11
337.2430376728
 21
626.1260625974
  0
LINE
  5
328
100
AcDbEntity
  8
0
100
AcDbLine
 62
7
  6
CONTINUOUS
 10
85.2479829319
 20
532.8847350811
 11
86.1672255746
 21
533.2446870404
  0
LINE
  5
329
100
AcDbEntity
  8
0
100
AcDbLine
 62
7
  6
CONTINUOUS
 10
87.0864682173
 20
533.6046389997
 11
88.00571086
 21
533.964590959
  0
LINE
  5
32A
100
AcDbEntity
  8
0
100
AcDbLine
 62
7
  6
CONTINUOUS
 10
88.9249535027
 20
534.3245429183
 11
89.8441961454
 21
534.6844948776
  0
LINE
  5
32B
100
AcDbEntity
  8
0
100
AcDbLine
 62
7
  6
CONTINUOUS
 10
90.7634387881
 20
535.0444468369
 11
91.6826814308
 21
535.4043987962
  0
LINE
  5
32C
100
AcDbEntity
  8
0
100
AcDbLine
 62
7
  6
CONTINUOUS
 10
92.4021939237
 20
535.6204613577
 11
92.2483721549
 21
535.5602286786
  0
LINE
  5
32D
100
AcDbEntity
  8
0
100
AcDbLine
 62
7
  6
CONTINUOUS
 10
91.3291295122
 20
535.2002767193
 11
90.4098868695
 21
534.84032476
  0
LINE
  5
32E
100
AcDbEntity
  8
0
100
AcDbLine
 62
7
  6
CONTINUOUS
 10
89.4906442268
 20
534.4803728007
 11
88.5714015841
 21
534.1204208414
  0
LINE
  5
32F
100
AcDbEntity
  8
0
100
AcDbLine
 62
7
  6
CONTINUOUS
 10
87.6521589414
 20
533.7604688821
 11
86.7329162987
 21
533.4005169227
  0
LINE
  5
330
100
AcDbEntity
  8
0
100
AcDbLine
 62
7
  6
CONTINUOUS
 10
85.813673656
 20
533.0405649634
 11
84.8944310133
 21
532.6806130041
  0
LINE
  5
331
100
AcDbEntity
  8
0
100
AcDbLine
 62
7
  6
CONTINUOUS
 10
564.1711323679
 20
399.600235668
 11
563.4211613625
 21
399.5259720213
  0
LINE
  5
332
100
AcDbEntity
  8
0
100
AcDbLine
 62
7
  6
CONTINUOUS
 10
285.4984278258
 20
577.3608550345
 11
288.3268431747
 21
579.0508400608
  0
LINE
  5
333
100
AcDbEntity
  8
0
100
AcDbLine
 62
7
  6
CONTINUOUS
 10
286.1630887821
 20
570.5727702961
 11
285.4984278258
 21
570.1756337637
  0
LINE
  5
334
100
AcDbEntity
  8
0
100
AcDbLine
 62
7
  6
CONTINUOUS
 10
295.3979345382
 20
575.7991695267
 11
297.3071148987
 21
576.9399094194
  0
LINE
  5
335
100
AcDbEntity
  8
0
100
AcDbLine
 62
7
  6
CONTINUOUS
 10
320.2890205483
 20
613.8877857417
 11
319.2283647925
 21
613.2754195109
  0
LINE
  5
336
100
AcDbEntity
  8
0
100
AcDbLine
 62
7
  6
CONTINUOUS
 10
320.2890293802
 20
612.6630583792
 11
321.349685136
 21
613.27542461
  0
LINE
  5
337
100
AcDbEntity
  8
0
100
AcDbLine
 62
7
  6
CONTINUOUS
 10
322.4456941559
 20
611.45867352
 11
322.0567889732
 21
611.2341403484
  0
LINE
  5
338
100
AcDbEntity
  8
0
100
AcDbLine
 62
7
  6
CONTINUOUS
 10
322.0567889732
 20
610.0094078867
 11
323.4710057012
 21
610.8259014215
  0
LINE
  5
339
100
AcDbEntity
  8
0
100
AcDbLine
 62
7
  6
CONTINUOUS
 10
330.0117071419
 20
606.2330048422
 11
324.7084283628
 21
603.1711736882
  0
LINE
  5
33A
100
AcDbEntity
  8
0
100
AcDbLine
 62
7
  6
CONTINUOUS
 10
84.3287402892
 20
459.0395655801
 11
83.9822862433
 21
458.8395414374
  0
LINE
  5
33B
100
AcDbEntity
  8
0
100
AcDbLine
 62
7
  6
CONTINUOUS
 10
328.9510425542
 20
599.9050954284
 11
324.3548764442
 21
597.2515135273
  0
LINE
  5
33C
100
AcDbEntity
  8
0
100
AcDbLine
 62
7
  6
CONTINUOUS
 10
287.223744538
 20
575.4456434042
 11
286.1630887821
 21
574.8332771733
  0
LINE
  5
33D
100
AcDbEntity
  8
0
100
AcDbLine
 62
7
  6
CONTINUOUS
 10
324.7084283628
 20
596.2309031426
 11
330.0117071419
 21
599.2927342966
  0
LINE
  5
33E
100
AcDbEntity
  8
0
100
AcDbLine
 62
7
  6
CONTINUOUS
 10
86.1672255746
 20
457.9781396183
 11
85.813673656
 21
457.7740175414
  0
LINE
  5
33F
100
AcDbEntity
  8
0
100
AcDbLine
 62
7
  6
CONTINUOUS
 10
88.00571086
 20
456.9167136566
 11
87.6521589414
 21
456.7125915796
  0
LINE
  5
340
100
AcDbEntity
  8
0
100
AcDbLine
 62
7
  6
CONTINUOUS
 10
89.8441961454
 20
455.8552876948
 11
89.4906442268
 21
455.6511656179
  0
LINE
  5
341
100
AcDbEntity
  8
0
100
AcDbLine
 62
7
  6
CONTINUOUS
 10
91.6826814308
 20
454.7938617331
 11
91.3291295122
 21
454.5897396561
  0
LINE
  5
342
100
AcDbEntity
  8
0
100
AcDbLine
 62
7
  6
CONTINUOUS
 10
431.4723026902
 20
332.1058880034
 11
429.681130051
 21
333.139998614
  0
LINE
  5
343
100
AcDbEntity
  8
0
100
AcDbLine
 62
7
  6
CONTINUOUS
 10
84.3287402892
 20
532.5247831217
 11
82.5375676501
 21
533.5588937324
  0
LINE
  5
344
100
AcDbEntity
  8
0
100
AcDbLine
 62
7
  6
CONTINUOUS
 10
140.3311116412
 20
507.5401938563
 11
376.5057598403
 21
371.1877818465
  0
LINE
  5
345
100
AcDbEntity
  8
0
100
AcDbLine
 62
7
  6
CONTINUOUS
 10
377.9756403023
 20
374.2235421707
 11
140.1039010984
 21
511.555747963
  0
LINE
  5
346
100
AcDbEntity
  8
0
100
AcDbLine
 62
7
  6
CONTINUOUS
 10
376.5057598403
 20
376.0867963493
 11
140.3311116412
 21
512.439208359
  0
LINE
  5
347
100
AcDbEntity
  8
0
100
AcDbLine
 62
7
  6
CONTINUOUS
 10
96.6324071137
 20
618.5917330323
 11
98.4001873145
 21
616.7688983403
  0
LINE
  5
348
100
AcDbEntity
  8
0
100
AcDbLine
 62
7
  6
CONTINUOUS
 10
121.3812474938
 20
604.3033066241
 11
123.1490276946
 21
602.4804719321
  0
LINE
  5
349
100
AcDbEntity
  8
0
100
AcDbLine
 62
7
  6
CONTINUOUS
 10
279.8415046876
 20
576.4089246334
 11
279.8415046876
 21
739.7094080593
  0
LINE
  5
34A
100
AcDbEntity
  8
0
100
AcDbLine
 62
7
  6
CONTINUOUS
 10
285.4912698963
 20
738.4805963599
 11
285.4912698963
 21
738.0805514056
  0
LINE
  5
34B
100
AcDbEntity
  8
0
100
AcDbLine
 62
7
  6
CONTINUOUS
 10
285.4984278258
 20
577.3608550345
 11
285.4984278258
 21
576.6005345156
  0
LINE
  5
34C
100
AcDbEntity
  8
0
100
AcDbLine
 62
7
  6
CONTINUOUS
 10
285.4984278258
 20
570.1756337637
 11
285.4984278258
 21
569.4153132448
  0
LINE
  5
34D
100
AcDbEntity
  8
0
100
AcDbLine
 62
7
  6
CONTINUOUS
 10
285.4984278258
 20
719.6517579967
 11
285.4984278258
 21
720.4120785156
  0
LINE
  5
34E
100
AcDbEntity
  8
0
100
AcDbLine
 62
7
  6
CONTINUOUS
 10
285.4984278258
 20
726.8369792674
 11
285.4984278258
 21
727.5972997863
  0
LINE
  5
34F
100
AcDbEntity
  8
0
100
AcDbLine
 62
7
  6
CONTINUOUS
 10
286.1630887821
 20
726.4532457666
 11
286.1630887821
 21
722.9468156407
  0
LINE
  5
350
100
AcDbEntity
  8
0
100
AcDbLine
 62
7
  6
CONTINUOUS
 10
286.1630887821
 20
570.5727702961
 11
286.1630887821
 21
574.8332771733
  0
LINE
  5
351
100
AcDbEntity
  8
0
100
AcDbLine
 62
7
  6
CONTINUOUS
 10
287.223744538
 20
575.6044449819
 11
287.223744538
 21
575.4456434042
  0
LINE
  5
352
100
AcDbEntity
  8
0
100
AcDbLine
 62
7
  6
CONTINUOUS
 10
287.223744538
 20
721.4429594328
 11
287.223744538
 21
722.6066183483
  0
LINE
  5
353
100
AcDbEntity
  8
0
100
AcDbLine
 62
7
  6
CONTINUOUS
 10
287.3368530543
 20
737.0150275778
 11
287.3368530543
 21
737.4232683324
  0
LINE
  5
354
100
AcDbEntity
  8
0
100
AcDbLine
 62
7
  6
CONTINUOUS
 10
321.349685136
 20
618.1744391127
 11
322.0567889732
 21
619.3991856837
  0
LINE
  5
355
100
AcDbEntity
  8
0
100
AcDbLine
 62
7
  6
CONTINUOUS
 10
318.5212609553
 20
612.0506729399
 11
319.2283647925
 21
613.2754195109
  0
LINE
  5
356
100
AcDbEntity
  8
0
100
AcDbLine
 62
7
  6
CONTINUOUS
 10
320.2890293802
 20
612.6630583792
 11
319.581925543
 21
611.4383118081
  0
LINE
  5
357
100
AcDbEntity
  8
0
100
AcDbLine
 62
7
  6
CONTINUOUS
 10
310.247268206
 20
563.0724286263
 11
313.0756835548
 21
564.7624136526
  0
LINE
  5
358
100
AcDbEntity
  8
0
100
AcDbLine
 62
7
  6
CONTINUOUS
 10
310.9119291623
 20
556.2843438879
 11
310.247268206
 21
555.8872073555
  0
LINE
  5
359
100
AcDbEntity
  8
0
100
AcDbLine
 62
7
  6
CONTINUOUS
 10
93.5211667161
 20
453.7324357713
 11
93.1676147975
 21
453.5283136944
  0
LINE
  5
35A
100
AcDbEntity
  8
0
100
AcDbLine
 62
7
  6
CONTINUOUS
 10
95.3596520015
 20
452.6710098096
 11
95.0061000829
 21
452.4668877326
  0
LINE
  5
35B
100
AcDbEntity
  8
0
100
AcDbLine
 62
7
  6
CONTINUOUS
 10
298.3677794864
 20
569.1423270169
 11
294.2669345312
 21
566.774715807
  0
LINE
  5
35C
100
AcDbEntity
  8
0
100
AcDbLine
 62
7
  6
CONTINUOUS
 10
97.1981372869
 20
451.6095838478
 11
96.8445853683
 21
451.4054617709
  0
LINE
  5
35D
100
AcDbEntity
  8
0
100
AcDbLine
 62
7
  6
CONTINUOUS
 10
99.0366225723
 20
450.5481578861
 11
98.6830706537
 21
450.3440358091
  0
LINE
  5
35E
100
AcDbEntity
  8
0
100
AcDbLine
 62
7
  6
CONTINUOUS
 10
100.8751078577
 20
449.4867319243
 11
100.5215559391
 21
449.2826098474
  0
LINE
  5
35F
100
AcDbEntity
  8
0
100
AcDbLine
 62
7
  6
CONTINUOUS
 10
102.7135931431
 20
448.4253059626
 11
102.3600412245
 21
448.2211838856
  0
LINE
  5
360
100
AcDbEntity
  8
0
100
AcDbLine
 62
7
  6
CONTINUOUS
 10
104.5520784284
 20
447.3638800008
 11
104.1985265098
 21
447.1597579239
  0
LINE
  5
361
100
AcDbEntity
  8
0
100
AcDbLine
 62
7
  6
CONTINUOUS
 10
106.3905637138
 20
446.302454039
 11
106.0370117952
 21
446.0983319621
  0
LINE
  5
362
100
AcDbEntity
  8
0
100
AcDbLine
 62
7
  6
CONTINUOUS
 10
108.2290489992
 20
445.2410280773
 11
107.8754970806
 21
445.0369060004
  0
LINE
  5
363
100
AcDbEntity
  8
0
100
AcDbLine
 62
7
  6
CONTINUOUS
 10
311.9725849181
 20
561.1572169959
 11
310.9119291623
 21
560.5448507651
  0
LINE
  5
364
100
AcDbEntity
  8
0
100
AcDbLine
 62
7
  6
CONTINUOUS
 10
110.0675342846
 20
444.1796021155
 11
109.713982366
 21
443.9754800386
  0
LINE
  5
365
100
AcDbEntity
  8
0
100
AcDbLine
 62
7
  6
CONTINUOUS
 10
295.3461042562
 20
571.6217925473
 11
294.2669345312
 21
571.0201151198
  0
LINE
  5
366
100
AcDbEntity
  8
0
100
AcDbLine
 62
7
  6
CONTINUOUS
 10
301.196218387
 20
574.6945852696
 11
296.1661597633
 21
572.5749329291
  0
LINE
  5
367
100
AcDbEntity
  8
0
100
AcDbLine
 62
7
  6
CONTINUOUS
 10
301.196218387
 20
567.5093639988
 11
296.1661597633
 21
565.3897116584
  0
LINE
  5
368
100
AcDbEntity
  8
0
100
AcDbLine
 62
7
  6
CONTINUOUS
 10
301.196218387
 20
573.714782369
 11
296.1661597633
 21
571.767503406
  0
LINE
  5
369
100
AcDbEntity
  8
0
100
AcDbLine
 62
7
  6
CONTINUOUS
 10
301.196218387
 20
566.5295610983
 11
296.1661597633
 21
564.5822821353
  0
LINE
  5
36A
100
AcDbEntity
  8
0
100
AcDbLine
 62
7
  6
CONTINUOUS
 10
140.1777264549
 20
507.9909432598
 11
139.8678827537
 21
507.8855165559
  0
LINE
  5
36B
100
AcDbEntity
  8
0
100
AcDbLine
 62
7
  6
CONTINUOUS
 10
289.1753383397
 20
735.9536016161
 11
289.1753383397
 21
736.3618423706
  0
LINE
  5
36C
100
AcDbEntity
  8
0
100
AcDbLine
 62
7
  6
CONTINUOUS
 10
289.5360708584
 20
573.7514187444
 11
289.5360708584
 21
569.5060194316
  0
LINE
  5
36D
100
AcDbEntity
  8
0
100
AcDbLine
 62
7
  6
CONTINUOUS
 10
289.5360708584
 20
721.8649572117
 11
289.5360708584
 21
724.5058977118
  0
LINE
  5
36E
100
AcDbEntity
  8
0
100
AcDbLine
 62
7
  6
CONTINUOUS
 10
290.5967266142
 20
721.2526011789
 11
290.5967266142
 21
720.3762085684
  0
LINE
  5
36F
100
AcDbEntity
  8
0
100
AcDbLine
 62
7
  6
CONTINUOUS
 10
291.0138236251
 20
734.8921756543
 11
291.0138236251
 21
735.3004164089
  0
LINE
  5
370
100
AcDbEntity
  8
0
100
AcDbLine
 62
7
  6
CONTINUOUS
 10
292.8523089104
 20
733.8307496926
 11
292.8523089104
 21
734.2389904471
  0
LINE
  5
371
100
AcDbEntity
  8
0
100
AcDbLine
 62
7
  6
CONTINUOUS
 10
293.6047923953
 20
722.9171938981
 11
293.6047923953
 21
722.1568733792
  0
LINE
  5
372
100
AcDbEntity
  8
0
100
AcDbLine
 62
7
  6
CONTINUOUS
 10
293.6047923953
 20
715.7319726274
 11
293.6047923953
 21
714.9716521085
  0
LINE
  5
373
100
AcDbEntity
  8
0
100
AcDbLine
 62
7
  6
CONTINUOUS
 10
293.6047923953
 20
572.6807491463
 11
293.6047923953
 21
571.9204286274
  0
LINE
  5
374
100
AcDbEntity
  8
0
100
AcDbLine
 62
7
  6
CONTINUOUS
 10
293.6047923953
 20
565.4955278756
 11
293.6047923953
 21
564.7352073567
  0
LINE
  5
375
100
AcDbEntity
  8
0
100
AcDbLine
 62
7
  6
CONTINUOUS
 10
294.2669345312
 20
571.0201151198
 11
294.2669345312
 21
566.774715807
  0
LINE
  5
376
100
AcDbEntity
  8
0
100
AcDbLine
 62
7
  6
CONTINUOUS
 10
294.2669345312
 20
719.1336535871
 11
294.2669345312
 21
721.9419928745
  0
LINE
  5
377
100
AcDbEntity
  8
0
100
AcDbLine
 62
7
  6
CONTINUOUS
 10
294.6907941958
 20
732.7693237308
 11
294.6907941958
 21
733.1775644854
  0
LINE
  5
378
100
AcDbEntity
  8
0
100
AcDbLine
 62
7
  6
CONTINUOUS
 10
295.3461042562
 20
719.7353310146
 11
295.3461042562
 21
717.6342161404
  0
LINE
  5
379
100
AcDbEntity
  8
0
100
AcDbLine
 62
7
  6
CONTINUOUS
 10
296.1661597633
 20
564.5822821353
 11
296.1661597633
 21
565.3897116584
  0
LINE
  5
37A
100
AcDbEntity
  8
0
100
AcDbLine
 62
7
  6
CONTINUOUS
 10
296.1661597633
 20
571.767503406
 11
296.1661597633
 21
572.5749329291
  0
LINE
  5
37B
100
AcDbEntity
  8
0
100
AcDbLine
 62
7
  6
CONTINUOUS
 10
296.1661597633
 20
714.8187268871
 11
296.1661597633
 21
715.6261564102
  0
LINE
  5
37C
100
AcDbEntity
  8
0
100
AcDbLine
 62
7
  6
CONTINUOUS
 10
296.1661597633
 20
722.0039481579
 11
296.1661597633
 21
722.811377681
  0
LINE
  5
37D
100
AcDbEntity
  8
0
100
AcDbLine
 62
7
  6
CONTINUOUS
 10
296.5292794812
 20
731.7078977691
 11
296.5292794812
 21
732.1161385236
  0
LINE
  5
37E
100
AcDbEntity
  8
0
100
AcDbLine
 62
7
  6
CONTINUOUS
 10
298.3677647666
 20
730.6464718073
 11
298.3677647666
 21
731.0547125619
  0
LINE
  5
37F
100
AcDbEntity
  8
0
100
AcDbLine
 62
7
  6
CONTINUOUS
 10
298.3677794864
 20
722.8562578608
 11
298.3677794864
 21
719.3787717687
  0
LINE
  5
380
100
AcDbEntity
  8
0
100
AcDbLine
 62
7
  6
CONTINUOUS
 10
298.3677794864
 20
569.1423270169
 11
298.3677794864
 21
572.619813109
  0
LINE
  5
381
100
AcDbEntity
  8
0
100
AcDbLine
 62
7
  6
CONTINUOUS
 10
300.206250052
 20
729.5850458456
 11
300.206250052
 21
729.9932866001
  0
LINE
  5
382
100
AcDbEntity
  8
0
100
AcDbLine
 62
7
  6
CONTINUOUS
 10
301.196218387
 20
574.6945852696
 11
301.196218387
 21
573.714782369
  0
LINE
  5
383
100
AcDbEntity
  8
0
100
AcDbLine
 62
7
  6
CONTINUOUS
 10
301.196218387
 20
567.5093639988
 11
301.196218387
 21
566.5295610983
  0
LINE
  5
384
100
AcDbEntity
  8
0
100
AcDbLine
 62
7
  6
CONTINUOUS
 10
301.196218387
 20
716.7660058501
 11
301.196218387
 21
717.7458087507
  0
LINE
  5
385
100
AcDbEntity
  8
0
100
AcDbLine
 62
7
  6
CONTINUOUS
 10
301.196218387
 20
723.9512271209
 11
301.196218387
 21
724.9310300214
  0
LINE
  5
386
100
AcDbEntity
  8
0
100
AcDbLine
 62
7
  6
CONTINUOUS
 10
302.0447353373
 20
728.5236198838
 11
302.0447353373
 21
728.9318606383
  0
LINE
  5
387
100
AcDbEntity
  8
0
100
AcDbLine
 62
7
  6
CONTINUOUS
 10
303.8832206227
 20
727.4621939221
 11
303.8832206227
 21
727.8704346766
  0
LINE
  5
388
100
AcDbEntity
  8
0
100
AcDbLine
 62
7
  6
CONTINUOUS
 10
305.7217059081
 20
726.4007679603
 11
305.7217059081
 21
726.8090087148
  0
LINE
  5
389
100
AcDbEntity
  8
0
100
AcDbLine
 62
7
  6
CONTINUOUS
 10
307.5601911935
 20
725.3393419986
 11
307.5601911935
 21
725.7475827531
  0
LINE
  5
38A
100
AcDbEntity
  8
0
100
AcDbLine
 62
7
  6
CONTINUOUS
 10
309.3986764789
 20
724.2779160368
 11
309.3986764789
 21
724.6861567913
  0
LINE
  5
38B
100
AcDbEntity
  8
0
100
AcDbLine
 62
7
  6
CONTINUOUS
 10
310.247268206
 20
563.0724286263
 11
310.247268206
 21
562.3121081074
  0
LINE
  5
38C
100
AcDbEntity
  8
0
100
AcDbLine
 62
7
  6
CONTINUOUS
 10
310.247268206
 20
555.8872073555
 11
310.247268206
 21
555.1268868366
  0
LINE
  5
38D
100
AcDbEntity
  8
0
100
AcDbLine
 62
7
  6
CONTINUOUS
 10
310.247268206
 20
705.3633315885
 11
310.247268206
 21
706.1236521074
  0
LINE
  5
38E
100
AcDbEntity
  8
0
100
AcDbLine
 62
7
  6
CONTINUOUS
 10
310.247268206
 20
712.5485528592
 11
310.247268206
 21
713.3088733781
  0
LINE
  5
38F
100
AcDbEntity
  8
0
100
AcDbLine
 62
7
  6
CONTINUOUS
 10
310.9119291623
 20
712.1648193584
 11
310.9119291623
 21
708.6583892324
  0
LINE
  5
390
100
AcDbEntity
  8
0
100
AcDbLine
 62
7
  6
CONTINUOUS
 10
310.9119291623
 20
556.2843438879
 11
310.9119291623
 21
560.5448507651
  0
LINE
  5
391
100
AcDbEntity
  8
0
100
AcDbLine
 62
7
  6
CONTINUOUS
 10
311.2371617643
 20
723.2164900751
 11
311.2371617643
 21
723.6247308296
  0
LINE
  5
392
100
AcDbEntity
  8
0
100
AcDbLine
 62
7
  6
CONTINUOUS
 10
321.349685136
 20
536.5241973998
 11
322.0567889732
 21
537.7489439708
  0
LINE
  5
393
100
AcDbEntity
  8
0
100
AcDbLine
 62
7
  6
CONTINUOUS
 10
330.0117071419
 20
560.508869483
 11
324.7084283628
 21
557.4470383289
  0
LINE
  5
394
100
AcDbEntity
  8
0
100
AcDbLine
 62
7
  6
CONTINUOUS
 10
328.9510425542
 20
554.1809600691
 11
324.3548764442
 21
551.527378168
  0
LINE
  5
395
100
AcDbEntity
  8
0
100
AcDbLine
 62
7
  6
CONTINUOUS
 10
324.7084283628
 20
550.5067677833
 11
330.0117071419
 21
553.5685989374
  0
LINE
  5
396
100
AcDbEntity
  8
0
100
AcDbLine
 62
7
  6
CONTINUOUS
 10
324.5316524035
 20
542.0355569693
 11
322.0567889732
 21
540.6067024307
  0
LINE
  5
397
100
AcDbEntity
  8
0
100
AcDbLine
 62
7
  6
CONTINUOUS
 10
321.349685136
 20
536.5241973998
 11
320.2890293802
 21
535.911831169
  0
LINE
  5
398
100
AcDbEntity
  8
0
100
AcDbLine
 62
7
  6
CONTINUOUS
 10
335.1382099617
 20
543.6684559831
 11
327.7137102068
 21
539.3819446381
  0
LINE
  5
399
100
AcDbEntity
  8
0
100
AcDbLine
 62
7
  6
CONTINUOUS
 10
336.1801752991
 20
544.10670548
 11
335.9860168642
 21
543.9946087245
  0
LINE
  5
39A
100
AcDbEntity
  8
0
100
AcDbLine
 62
7
  6
CONTINUOUS
 10
137.8041982171
 20
429.5749653732
 11
137.998356652
 21
429.6870621288
  0
LINE
  5
39B
100
AcDbEntity
  8
0
100
AcDbLine
 62
7
  6
CONTINUOUS
 10
337.2774656051
 20
544.4953183877
 11
337.2430521875
 21
544.4757949027
  0
LINE
  5
39C
100
AcDbEntity
  8
0
100
AcDbLine
 62
7
  6
CONTINUOUS
 10
337.2594988761
 20
544.4849816445
 11
337.2430376711
 21
544.4758208835
  0
LINE
  5
39D
100
AcDbEntity
  8
0
100
AcDbLine
 62
7
  6
CONTINUOUS
 10
325.9450587671
 20
553.2209375906
 11
324.3548764442
 21
552.5508393006
  0
LINE
  5
39E
100
AcDbEntity
  8
0
100
AcDbLine
 62
7
  6
CONTINUOUS
 10
324.8708711269
 20
551.8252860587
 11
324.3548764442
 21
551.6255298201
  0
LINE
  5
39F
100
AcDbEntity
  8
0
100
AcDbLine
 62
7
  6
CONTINUOUS
 10
424.3777706072
 20
428.5699105065
 11
427.5597584825
 21
427.5350599168
  0
LINE
  5
3A0
100
AcDbEntity
  8
0
100
AcDbLine
 62
7
  6
CONTINUOUS
 10
139.8410194521
 20
510.4339755795
 11
140.1510054512
 21
510.3327742274
  0
LINE
  5
3A1
100
AcDbEntity
  8
0
100
AcDbLine
 62
7
  6
CONTINUOUS
 10
311.9725849181
 20
561.3160185737
 11
311.9725849181
 21
561.1572169959
  0
LINE
  5
3A2
100
AcDbEntity
  8
0
100
AcDbLine
 62
7
  6
CONTINUOUS
 10
311.9725849181
 20
707.1545330246
 11
311.9725849181
 21
708.3181919401
  0
LINE
  5
3A3
100
AcDbEntity
  8
0
100
AcDbLine
 62
7
  6
CONTINUOUS
 10
314.2849112385
 20
559.4629923362
 11
314.2849112385
 21
555.2175930234
  0
LINE
  5
3A4
100
AcDbEntity
  8
0
100
AcDbLine
 62
7
  6
CONTINUOUS
 10
314.2849112385
 20
707.5765308035
 11
314.2849112385
 21
710.2174713036
  0
LINE
  5
3A5
100
AcDbEntity
  8
0
100
AcDbLine
 62
7
  6
CONTINUOUS
 10
315.3455669943
 20
706.9641747707
 11
315.3455669943
 21
706.0877821601
  0
LINE
  5
3A6
100
AcDbEntity
  8
0
100
AcDbLine
 62
7
  6
CONTINUOUS
 10
318.3536327754
 20
708.6287674899
 11
318.3536327754
 21
707.868446971
  0
LINE
  5
3A7
100
AcDbEntity
  8
0
100
AcDbLine
 62
7
  6
CONTINUOUS
 10
318.3536327754
 20
701.4435462192
 11
318.3536327754
 21
700.6832257003
  0
LINE
  5
3A8
100
AcDbEntity
  8
0
100
AcDbLine
 62
7
  6
CONTINUOUS
 10
318.3536327754
 20
558.3923227381
 11
318.3536327754
 21
557.6320022192
  0
LINE
  5
3A9
100
AcDbEntity
  8
0
100
AcDbLine
 62
7
  6
CONTINUOUS
 10
318.3536327754
 20
551.2071014673
 11
318.3536327754
 21
550.4467809485
  0
LINE
  5
3AA
100
AcDbEntity
  8
0
100
AcDbLine
 62
7
  6
CONTINUOUS
 10
318.5212609553
 20
536.932450564
 11
318.5212609553
 21
612.0506729399
  0
LINE
  5
3AB
100
AcDbEntity
  8
0
100
AcDbLine
 62
7
  6
CONTINUOUS
 10
318.5212609553
 20
618.582692277
 11
318.5212609553
 21
693.7009146529
  0
LINE
  5
3AC
100
AcDbEntity
  8
0
100
AcDbLine
 62
7
  6
CONTINUOUS
 10
319.0157749113
 20
704.8452271789
 11
319.0157749113
 21
707.6535664663
  0
LINE
  5
3AD
100
AcDbEntity
  8
0
100
AcDbLine
 62
7
  6
CONTINUOUS
 10
319.581925543
 20
536.3200894322
 11
319.581925543
 21
611.4383118081
  0
LINE
  5
3AE
100
AcDbEntity
  8
0
100
AcDbLine
 62
7
  6
CONTINUOUS
 10
319.581925543
 20
617.9703311452
 11
319.581925543
 21
693.0885535211
  0
LINE
  5
3AF
100
AcDbEntity
  8
0
100
AcDbLine
 62
7
  6
CONTINUOUS
 10
320.0949446364
 20
705.4469046064
 11
320.0949446364
 21
703.3457897322
  0
LINE
  5
3B0
100
AcDbEntity
  8
0
100
AcDbLine
 62
7
  6
CONTINUOUS
 10
320.9150001434
 20
700.5303004789
 11
320.9150001434
 21
701.337730002
  0
LINE
  5
3B1
100
AcDbEntity
  8
0
100
AcDbLine
 62
7
  6
CONTINUOUS
 10
320.9150001434
 20
707.7155217497
 11
320.9150001434
 21
708.5229512727
  0
LINE
  5
3B2
100
AcDbEntity
  8
0
100
AcDbLine
 62
7
  6
CONTINUOUS
 10
322.0567889732
 20
694.5174080597
 11
322.0567889732
 21
691.6596495997
  0
LINE
  5
3B3
100
AcDbEntity
  8
0
100
AcDbLine
 62
7
  6
CONTINUOUS
 10
322.0567889732
 20
622.2569441437
 11
322.0567889732
 21
619.3991856837
  0
LINE
  5
3B4
100
AcDbEntity
  8
0
100
AcDbLine
 62
7
  6
CONTINUOUS
 10
322.0567889732
 20
612.8671663467
 11
322.0567889732
 21
610.0094078867
  0
LINE
  5
3B5
100
AcDbEntity
  8
0
100
AcDbLine
 62
7
  6
CONTINUOUS
 10
322.0567889732
 20
540.6067024307
 11
322.0567889732
 21
537.7489439708
  0
LINE
  5
3B6
100
AcDbEntity
  8
0
100
AcDbLine
 62
7
  6
CONTINUOUS
 10
322.4810459764
 20
537.9122244635
 11
322.4810459764
 21
540.8516458636
  0
LINE
  5
3B7
100
AcDbEntity
  8
0
100
AcDbLine
 62
7
  6
CONTINUOUS
 10
322.4810459764
 20
611.3974420052
 11
322.4810459764
 21
614.6634516737
  0
LINE
  5
3B8
100
AcDbEntity
  8
0
100
AcDbLine
 62
7
  6
CONTINUOUS
 10
322.4810459764
 20
619.5624661765
 11
322.4810459764
 21
622.5018875766
  0
LINE
  5
3B9
100
AcDbEntity
  8
0
100
AcDbLine
 62
7
  6
CONTINUOUS
 10
322.4810459764
 20
693.0476837181
 11
322.4810459764
 21
696.3136933867
  0
LINE
  5
3BA
100
AcDbEntity
  8
0
100
AcDbLine
 62
7
  6
CONTINUOUS
 10
323.1166198666
 20
708.5678314526
 11
323.1166198666
 21
705.0903453605
  0
LINE
  5
3BB
100
AcDbEntity
  8
0
100
AcDbLine
 62
7
  6
CONTINUOUS
 10
324.3548764442
 20
684.2090421156
 11
324.3548764442
 21
678.0852739872
  0
LINE
  5
3BC
100
AcDbEntity
  8
0
100
AcDbLine
 62
7
  6
CONTINUOUS
 10
324.3548764442
 20
638.4849067564
 11
324.3548764442
 21
632.3611386279
  0
LINE
  5
3BD
100
AcDbEntity
  8
0
100
AcDbLine
 62
7
  6
CONTINUOUS
 10
324.3548764442
 20
602.5588004027
 11
324.3548764442
 21
596.4350322742
  0
LINE
  5
3BE
100
AcDbEntity
  8
0
100
AcDbLine
 62
7
  6
CONTINUOUS
 10
324.3548764442
 20
556.8346650434
 11
324.3548764442
 21
550.710896915
  0
LINE
  5
3BF
100
AcDbEntity
  8
0
100
AcDbLine
 62
7
  6
CONTINUOUS
 10
324.5316524035
 20
541.2190650062
 11
324.5316524035
 21
542.0355569693
  0
LINE
  5
3C0
100
AcDbEntity
  8
0
100
AcDbLine
 62
7
  6
CONTINUOUS
 10
324.5316524035
 20
622.8693067191
 11
324.5316524035
 21
623.6857986822
  0
LINE
  5
3C1
100
AcDbEntity
  8
0
100
AcDbLine
 62
7
  6
CONTINUOUS
 10
325.9450587671
 20
553.2209375906
 11
325.9450587671
 21
552.44546488
  0
LINE
  5
3C2
100
AcDbEntity
  8
0
100
AcDbLine
 62
7
  6
CONTINUOUS
 10
325.9450587671
 20
702.4775794419
 11
325.9450587671
 21
703.4573823425
  0
LINE
  5
3C3
100
AcDbEntity
  8
0
100
AcDbLine
 62
7
  6
CONTINUOUS
 10
325.9450587671
 20
709.6628007126
 11
325.9450587671
 21
710.6426036132
  0
LINE
  5
3C4
100
AcDbEntity
  8
0
100
AcDbLine
 62
7
  6
CONTINUOUS
 10
329.3045944728
 20
687.4749973022
 11
329.3045944728
 21
682.1677104269
  0
LINE
  5
3C5
100
AcDbEntity
  8
0
100
AcDbLine
 62
7
  6
CONTINUOUS
 10
329.3045944728
 20
641.750861943
 11
329.3045944728
 21
636.4435750676
  0
LINE
  5
3C6
100
AcDbEntity
  8
0
100
AcDbLine
 62
7
  6
CONTINUOUS
 10
329.3045944728
 20
605.8247555893
 11
329.3045944728
 21
600.5174687139
  0
LINE
  5
3C7
100
AcDbEntity
  8
0
100
AcDbLine
 62
7
  6
CONTINUOUS
 10
329.3045944728
 20
560.10062023
 11
329.3045944728
 21
554.7933333546
  0
LINE
  5
3C8
100
AcDbEntity
  8
0
100
AcDbLine
 62
7
  6
CONTINUOUS
 10
330.3652590605
 20
554.1809722229
 11
330.3652590605
 21
560.3047403513
  0
LINE
  5
3C9
100
AcDbEntity
  8
0
100
AcDbLine
 62
7
  6
CONTINUOUS
 10
330.3652590605
 20
599.9051075821
 11
330.3652590605
 21
606.0288757106
  0
LINE
  5
3CA
100
AcDbEntity
  8
0
100
AcDbLine
 62
7
  6
CONTINUOUS
 10
330.3652590605
 20
635.8312139358
 11
330.3652590605
 21
641.9549820643
  0
LINE
  5
3CB
100
AcDbEntity
  8
0
100
AcDbLine
 62
7
  6
CONTINUOUS
 10
330.3652590605
 20
681.5553492951
 11
330.3652590605
 21
687.6791174236
  0
LINE
  5
3CC
100
AcDbEntity
  8
0
100
AcDbLine
 62
7
  6
CONTINUOUS
 10
335.1382099617
 20
685.7402320007
 11
335.1382099617
 21
625.3186976961
  0
LINE
  5
3CD
100
AcDbEntity
  8
0
100
AcDbLine
 62
7
  6
CONTINUOUS
 10
335.1382099617
 20
604.0899902878
 11
335.1382099617
 21
543.6684559831
  0
LINE
  5
3CE
100
AcDbEntity
  8
0
100
AcDbLine
 62
7
  6
CONTINUOUS
 10
335.9860168642
 20
543.9946087245
 11
335.9860168642
 21
544.2001419777
  0
LINE
  5
3CF
100
AcDbEntity
  8
0
100
AcDbLine
 62
7
  6
CONTINUOUS
 10
335.9860168642
 20
625.5580625381
 11
335.9860168642
 21
625.8503836907
  0
LINE
  5
3D0
100
AcDbEntity
  8
0
100
AcDbLine
 62
7
  6
CONTINUOUS
 10
335.9860168642
 20
705.5954647742
 11
335.9860168642
 21
707.2950921504
  0
LINE
  5
3D1
100
AcDbEntity
  8
0
100
AcDbLine
 62
7
  6
CONTINUOUS
 10
336.1801752991
 20
707.4071889059
 11
336.1801752991
 21
705.5813526229
  0
LINE
  5
3D2
100
AcDbEntity
  8
0
100
AcDbLine
 62
7
  6
CONTINUOUS
 10
336.1801752991
 20
625.9508540859
 11
336.1801752991
 21
625.6179050751
  0
LINE
  5
3D3
100
AcDbEntity
  8
0
100
AcDbLine
 62
7
  6
CONTINUOUS
 10
336.1801752991
 20
544.300612373
 11
336.1801752991
 21
544.10670548
  0
LINE
  5
3D4
100
AcDbEntity
  8
0
100
AcDbLine
 62
7
  6
CONTINUOUS
 10
390.2235884133
 20
460.0231499901
 11
390.9735594186
 21
460.0974136368
  0
LINE
  5
3D5
100
AcDbEntity
  8
0
100
AcDbLine
 62
7
  6
CONTINUOUS
 10
564.1711323679
 20
481.2504773809
 11
563.4211613625
 21
481.1762137342
  0
LINE
  5
3D6
100
AcDbEntity
  8
0
100
AcDbLine
 62
7
  6
CONTINUOUS
 10
399.6289302271
 20
442.8583369147
 11
402.8109181023
 21
441.823486325
  0
LINE
  5
3D7
100
AcDbEntity
  8
0
100
AcDbLine
 62
7
  6
CONTINUOUS
 10
140.3311116412
 20
589.1904355692
 11
376.5057598403
 21
452.8380235594
  0
LINE
  5
3D8
100
AcDbEntity
  8
0
100
AcDbLine
 62
7
  6
CONTINUOUS
 10
84.8944310133
 20
621.6052139482
 11
85.813673656
 21
621.0745009673
  0
LINE
  5
3D9
100
AcDbEntity
  8
0
100
AcDbLine
 62
7
  6
CONTINUOUS
 10
86.7329162987
 20
620.5437879864
 11
87.6521589414
 21
620.0130750056
  0
LINE
  5
3DA
100
AcDbEntity
  8
0
100
AcDbLine
 62
7
  6
CONTINUOUS
 10
88.5714015841
 20
619.4823620247
 11
89.4906442268
 21
618.9516490438
  0
LINE
  5
3DB
100
AcDbEntity
  8
0
100
AcDbLine
 62
7
  6
CONTINUOUS
 10
90.4098868695
 20
618.4209360629
 11
91.3291295122
 21
617.890223082
  0
LINE
  5
3DC
100
AcDbEntity
  8
0
100
AcDbLine
 62
7
  6
CONTINUOUS
 10
92.2483721549
 20
617.3595101012
 11
93.1676147975
 21
616.8287971203
  0
LINE
  5
3DD
100
AcDbEntity
  8
0
100
AcDbLine
 62
7
  6
CONTINUOUS
 10
94.0868574402
 20
616.2980841394
 11
95.0061000829
 21
615.7673711585
  0
LINE
  5
3DE
100
AcDbEntity
  8
0
100
AcDbLine
 62
7
  6
CONTINUOUS
 10
95.9253427256
 20
615.2366581777
 11
96.8445853683
 21
614.7059451968
  0
LINE
  5
3DF
100
AcDbEntity
  8
0
100
AcDbLine
 62
7
  6
CONTINUOUS
 10
97.763828011
 20
614.1752322159
 11
98.6830706537
 21
613.644519235
  0
LINE
  5
3E0
100
AcDbEntity
  8
0
100
AcDbLine
 62
7
  6
CONTINUOUS
 10
99.6023132964
 20
613.1138062542
 11
100.5215559391
 21
612.5830932733
  0
LINE
  5
3E1
100
AcDbEntity
  8
0
100
AcDbLine
 62
7
  6
CONTINUOUS
 10
101.4407985818
 20
612.0523802924
 11
102.3600412245
 21
611.5216673115
  0
LINE
  5
3E2
100
AcDbEntity
  8
0
100
AcDbLine
 62
7
  6
CONTINUOUS
 10
103.2792838671
 20
610.9909543307
 11
104.1985265098
 21
610.4602413498
  0
LINE
  5
3E3
100
AcDbEntity
  8
0
100
AcDbLine
 62
7
  6
CONTINUOUS
 10
105.1177691525
 20
609.9295283689
 11
106.0370117952
 21
609.398815388
  0
LINE
  5
3E4
100
AcDbEntity
  8
0
100
AcDbLine
 62
7
  6
CONTINUOUS
 10
106.9562544379
 20
608.8681024071
 11
107.8754970806
 21
608.3373894263
  0
LINE
  5
3E5
100
AcDbEntity
  8
0
100
AcDbLine
 62
7
  6
CONTINUOUS
 10
108.7947397233
 20
607.8066764454
 11
109.713982366
 21
607.2759634645
  0
LINE
  5
3E6
100
AcDbEntity
  8
0
100
AcDbLine
 62
7
  6
CONTINUOUS
 10
110.6332250087
 20
606.7452504836
 11
132.0410074351
 21
594.3857411464
  0
LINE
  5
3E7
100
AcDbEntity
  8
0
100
AcDbLine
 62
7
  6
CONTINUOUS
 10
381.2617590679
 20
450.501328204
 11
402.6695414944
 21
438.1418188668
  0
LINE
  5
3E8
100
AcDbEntity
  8
0
100
AcDbLine
 62
7
  6
CONTINUOUS
 10
403.5887841371
 20
437.6111058859
 11
404.5080267798
 21
437.080392905
  0
LINE
  5
3E9
100
AcDbEntity
  8
0
100
AcDbLine
 62
7
  6
CONTINUOUS
 10
405.4272694225
 20
436.5496799241
 11
406.3465120651
 21
436.0189669433
  0
LINE
  5
3EA
100
AcDbEntity
  8
0
100
AcDbLine
 62
7
  6
CONTINUOUS
 10
407.2657547078
 20
435.4882539624
 11
408.1849973505
 21
434.9575409815
  0
LINE
  5
3EB
100
AcDbEntity
  8
0
100
AcDbLine
 62
7
  6
CONTINUOUS
 10
409.1042399932
 20
434.4268280006
 11
410.0234826359
 21
433.8961150197
  0
LINE
  5
3EC
100
AcDbEntity
  8
0
100
AcDbLine
 62
7
  6
CONTINUOUS
 10
410.9427252786
 20
433.3654020389
 11
411.8619679213
 21
432.834689058
  0
LINE
  5
3ED
100
AcDbEntity
  8
0
100
AcDbLine
 62
7
  6
CONTINUOUS
 10
412.781210564
 20
432.3039760771
 11
413.7004532067
 21
431.7732630962
  0
LINE
  5
3EE
100
AcDbEntity
  8
0
100
AcDbLine
 62
7
  6
CONTINUOUS
 10
414.6196958494
 20
431.2425501154
 11
415.5389384921
 21
430.7118371345
  0
LINE
  5
3EF
100
AcDbEntity
  8
0
100
AcDbLine
 62
7
  6
CONTINUOUS
 10
416.4581811347
 20
430.1811241536
 11
417.3774237774
 21
429.6504111727
  0
LINE
  5
3F0
100
AcDbEntity
  8
0
100
AcDbLine
 62
7
  6
CONTINUOUS
 10
418.2966664201
 20
429.1196981919
 11
419.2159090628
 21
428.588985211
  0
LINE
  5
3F1
100
AcDbEntity
  8
0
100
AcDbLine
 62
7
  6
CONTINUOUS
 10
420.1351517055
 20
428.0582722301
 11
421.0543943482
 21
427.5275592492
  0
LINE
  5
3F2
100
AcDbEntity
  8
0
100
AcDbLine
 62
7
  6
CONTINUOUS
 10
421.9736369909
 20
426.9968462684
 11
422.8928796336
 21
426.4661332875
  0
LINE
  5
3F3
100
AcDbEntity
  8
0
100
AcDbLine
 62
7
  6
CONTINUOUS
 10
423.8121222763
 20
425.9354203066
 11
424.731364919
 21
425.4047073257
  0
LINE
  5
3F4
100
AcDbEntity
  8
0
100
AcDbLine
 62
7
  6
CONTINUOUS
 10
425.6506075617
 20
424.8739943448
 11
426.5698502043
 21
424.343281364
  0
LINE
  5
3F5
100
AcDbEntity
  8
0
100
AcDbLine
 62
7
  6
CONTINUOUS
 10
427.489092847
 20
423.8125683831
 11
428.4083354897
 21
423.2818554022
  0
LINE
  5
3F6
100
AcDbEntity
  8
0
100
AcDbLine
 62
7
  6
CONTINUOUS
 10
110.9867769273
 20
606.9493725606
 11
110.0675342846
 21
607.4800855415
  0
LINE
  5
3F7
100
AcDbEntity
  8
0
100
AcDbLine
 62
7
  6
CONTINUOUS
 10
109.1482916419
 20
608.0107985223
 11
108.2290489992
 21
608.5415115032
  0
LINE
  5
3F8
100
AcDbEntity
  8
0
100
AcDbLine
 62
7
  6
CONTINUOUS
 10
107.3098063565
 20
609.0722244841
 11
106.3905637138
 21
609.602937465
  0
LINE
  5
3F9
100
AcDbEntity
  8
0
100
AcDbLine
 62
7
  6
CONTINUOUS
 10
105.4713210711
 20
610.1336504458
 11
104.5520784284
 21
610.6643634267
  0
LINE
  5
3FA
100
AcDbEntity
  8
0
100
AcDbLine
 62
7
  6
CONTINUOUS
 10
103.6328357858
 20
611.1950764076
 11
102.7135931431
 21
611.7257893885
  0
LINE
  5
3FB
100
AcDbEntity
  8
0
100
AcDbLine
 62
7
  6
CONTINUOUS
 10
101.7943505004
 20
612.2565023693
 11
100.8751078577
 21
612.7872153502
  0
LINE
  5
3FC
100
AcDbEntity
  8
0
100
AcDbLine
 62
7
  6
CONTINUOUS
 10
99.955865215
 20
613.3179283311
 11
99.0366225723
 21
613.848641312
  0
LINE
  5
3FD
100
AcDbEntity
  8
0
100
AcDbLine
 62
7
  6
CONTINUOUS
 10
98.1173799296
 20
614.3793542928
 11
97.1981372869
 21
614.9100672737
  0
LINE
  5
3FE
100
AcDbEntity
  8
0
100
AcDbLine
 62
7
  6
CONTINUOUS
 10
96.2788946442
 20
615.4407802546
 11
95.3596520015
 21
615.9714932355
  0
LINE
  5
3FF
100
AcDbEntity
  8
0
100
AcDbLine
 62
7
  6
CONTINUOUS
 10
94.4404093588
 20
616.5022062164
 11
93.5211667161
 21
617.0329191972
  0
LINE
  5
400
100
AcDbEntity
  8
0
100
AcDbLine
 62
7
  6
CONTINUOUS
 10
92.6019240735
 20
617.5636321781
 11
91.6826814308
 21
618.094345159
  0
LINE
  5
401
100
AcDbEntity
  8
0
100
AcDbLine
 62
7
  6
CONTINUOUS
 10
90.7634387881
 20
618.6250581399
 11
89.8441961454
 21
619.1557711207
  0
LINE
  5
402
100
AcDbEntity
  8
0
100
AcDbLine
 62
7
  6
CONTINUOUS
 10
88.9249535027
 20
619.6864841016
 11
88.00571086
 21
620.2171970825
  0
LINE
  5
403
100
AcDbEntity
  8
0
100
AcDbLine
 62
7
  6
CONTINUOUS
 10
87.0864682173
 20
620.7479100634
 11
86.1672255746
 21
621.2786230442
  0
LINE
  5
404
100
AcDbEntity
  8
0
100
AcDbLine
 62
7
  6
CONTINUOUS
 10
85.2479829319
 20
621.8093360251
 11
84.3287402892
 21
622.340049006
  0
LINE
  5
405
100
AcDbEntity
  8
0
100
AcDbLine
 62
7
  6
CONTINUOUS
 10
403.023093413
 20
438.3459409437
 11
403.9423360557
 21
437.8152279628
  0
LINE
  5
406
100
AcDbEntity
  8
0
100
AcDbLine
 62
7
  6
CONTINUOUS
 10
404.8615786984
 20
437.2845149819
 11
405.7808213411
 21
436.7538020011
  0
LINE
  5
407
100
AcDbEntity
  8
0
100
AcDbLine
 62
7
  6
CONTINUOUS
 10
406.7000639838
 20
436.2230890202
 11
407.6193066264
 21
435.6923760393
  0
LINE
  5
408
100
AcDbEntity
  8
0
100
AcDbLine
 62
7
  6
CONTINUOUS
 10
408.5385492691
 20
435.1616630584
 11
409.4577919118
 21
434.6309500776
  0
LINE
  5
409
100
AcDbEntity
  8
0
100
AcDbLine
 62
7
  6
CONTINUOUS
 10
410.3770345545
 20
434.1002370967
 11
411.2962771972
 21
433.5695241158
  0
LINE
  5
40A
100
AcDbEntity
  8
0
100
AcDbLine
 62
7
  6
CONTINUOUS
 10
412.2155198399
 20
433.0388111349
 11
413.1347624826
 21
432.5080981541
  0
LINE
  5
40B
100
AcDbEntity
  8
0
100
AcDbLine
 62
7
  6
CONTINUOUS
 10
414.0540051253
 20
431.9773851732
 11
414.973247768
 21
431.4466721923
  0
LINE
  5
40C
100
AcDbEntity
  8
0
100
AcDbLine
 62
7
  6
CONTINUOUS
 10
415.8924904107
 20
430.9159592114
 11
416.8117330534
 21
430.3852462305
  0
LINE
  5
40D
100
AcDbEntity
  8
0
100
AcDbLine
 62
7
  6
CONTINUOUS
 10
417.730975696
 20
429.8545332497
 11
418.6502183387
 21
429.3238202688
  0
LINE
  5
40E
100
AcDbEntity
  8
0
100
AcDbLine
 62
7
  6
CONTINUOUS
 10
419.5694609814
 20
428.7931072879
 11
420.4887036241
 21
428.262394307
  0
LINE
  5
40F
100
AcDbEntity
  8
0
100
AcDbLine
 62
7
  6
CONTINUOUS
 10
421.4079462668
 20
427.7316813262
 11
422.3271889095
 21
427.2009683453
  0
LINE
  5
410
100
AcDbEntity
  8
0
100
AcDbLine
 62
7
  6
CONTINUOUS
 10
423.2464315522
 20
426.6702553644
 11
424.1656741949
 21
426.1395423835
  0
LINE
  5
411
100
AcDbEntity
  8
0
100
AcDbLine
 62
7
  6
CONTINUOUS
 10
425.0849168376
 20
425.6088294027
 11
426.0041594803
 21
425.0781164218
  0
LINE
  5
412
100
AcDbEntity
  8
0
100
AcDbLine
 62
7
  6
CONTINUOUS
 10
426.923402123
 20
424.5474034409
 11
427.8426447656
 21
424.01669046
  0
LINE
  5
413
100
AcDbEntity
  8
0
100
AcDbLine
 62
7
  6
CONTINUOUS
 10
428.7618874083
 20
423.4859774792
 11
429.681130051
 21
422.9552644983
  0
LINE
  5
414
100
AcDbEntity
  8
0
100
AcDbLine
 62
7
  6
CONTINUOUS
 10
81.8538444754
 20
625.4018614636
 11
137.998356652
 21
592.9875455547
  0
LINE
  5
415
100
AcDbEntity
  8
0
100
AcDbLine
 62
7
  6
CONTINUOUS
 10
378.8399290371
 20
453.9407445651
 11
434.9844412138
 21
421.5264286562
  0
LINE
  5
416
100
AcDbEntity
  8
0
100
AcDbLine
 62
7
  6
CONTINUOUS
 10
98.4001873145
 20
616.7688983403
 11
102.2892908028
 21
614.5235741905
  0
LINE
  5
417
100
AcDbEntity
  8
0
100
AcDbLine
 62
7
  6
CONTINUOUS
 10
123.1490276946
 20
602.4804719321
 11
127.0381311829
 21
600.2351477822
  0
LINE
  5
418
100
AcDbEntity
  8
0
100
AcDbLine
 62
7
  6
CONTINUOUS
 10
395.7398267388
 20
445.1036610645
 11
399.6289302271
 21
442.8583369147
  0
LINE
  5
419
100
AcDbEntity
  8
0
100
AcDbLine
 62
7
  6
CONTINUOUS
 10
420.4886671189
 20
430.8152346563
 11
424.3777706072
 21
428.5699105065
  0
LINE
  5
41A
100
AcDbEntity
  8
0
100
AcDbLine
 62
7
  6
CONTINUOUS
 10
380.3241346923
 20
455.5324854616
 11
140.7553598125
 21
593.8444530931
  0
LINE
  5
41B
100
AcDbEntity
  8
0
100
AcDbLine
 62
7
  6
CONTINUOUS
 10
429.3275180755
 20
428.5200400447
 11
421.2211535061
 21
433.2001459329
  0
LINE
  5
41C
100
AcDbEntity
  8
0
100
AcDbLine
 62
7
  6
CONTINUOUS
 10
404.5786776954
 20
442.8084664529
 11
396.4723131259
 21
447.4885723411
  0
LINE
  5
41D
100
AcDbEntity
  8
0
100
AcDbLine
 62
7
  6
CONTINUOUS
 10
131.2553716563
 20
600.6081808638
 11
123.1490070869
 21
605.288286752
  0
LINE
  5
41E
100
AcDbEntity
  8
0
100
AcDbLine
 62
7
  6
CONTINUOUS
 10
106.5065312761
 20
614.8966072721
 11
98.4001667067
 21
619.5767131602
  0
LINE
  5
41F
100
AcDbEntity
  8
0
100
AcDbLine
 62
7
  6
CONTINUOUS
 10
428.4083354897
 20
334.3572544582
 11
427.489092847
 21
335.7786323792
  0
LINE
  5
420
100
AcDbEntity
  8
0
100
AcDbLine
 62
7
  6
CONTINUOUS
 10
426.5698502043
 20
337.2000103003
 11
425.6506075617
 21
338.6213882214
  0
LINE
  5
421
100
AcDbEntity
  8
0
100
AcDbLine
 62
7
  6
CONTINUOUS
 10
424.731364919
 20
340.0427661424
 11
423.8121222763
 21
341.4641440635
  0
LINE
  5
422
100
AcDbEntity
  8
0
100
AcDbLine
 62
7
  6
CONTINUOUS
 10
422.8928796336
 20
342.8855219845
 11
421.9736369909
 21
344.3068999056
  0
LINE
  5
423
100
AcDbEntity
  8
0
100
AcDbLine
 62
7
  6
CONTINUOUS
 10
421.0543943482
 20
345.7282778267
 11
420.9005725794
 21
345.9661245668
  0
LINE
  5
424
100
AcDbEntity
  8
0
100
AcDbLine
 62
7
  6
CONTINUOUS
 10
421.2720216086
 20
346.1425732563
 11
421.4079462668
 21
345.9323999036
  0
LINE
  5
425
100
AcDbEntity
  8
0
100
AcDbLine
 62
7
  6
CONTINUOUS
 10
422.3271889095
 20
344.5110219825
 11
423.2464315522
 21
343.0896440615
  0
LINE
  5
426
100
AcDbEntity
  8
0
100
AcDbLine
 62
7
  6
CONTINUOUS
 10
424.1656741949
 20
341.6682661404
 11
425.0849168376
 21
340.2468882194
  0
LINE
  5
427
100
AcDbEntity
  8
0
100
AcDbLine
 62
7
  6
CONTINUOUS
 10
426.0041594803
 20
338.8255102983
 11
426.923402123
 21
337.4041323772
  0
LINE
  5
428
100
AcDbEntity
  8
0
100
AcDbLine
 62
7
  6
CONTINUOUS
 10
427.8426447656
 20
335.9827544562
 11
428.7618874083
 21
334.5613765351
  0
LINE
  5
429
100
AcDbEntity
  8
0
100
AcDbLine
 62
7
  6
CONTINUOUS
 10
337.2595303052
 20
544.4849634993
 11
337.2595303052
 21
602.8652731232
  0
LINE
  5
42A
100
AcDbEntity
  8
0
100
AcDbLine
 62
7
  6
CONTINUOUS
 10
337.2595303052
 20
626.1352052123
 11
337.2595303052
 21
684.5155148361
  0
LINE
  5
42B
100
AcDbEntity
  8
0
100
AcDbLine
 62
7
  6
CONTINUOUS
 10
393.8298215158
 20
456.716289727
 11
392.7691569281
 21
457.3286508588
  0
LINE
  5
42C
100
AcDbEntity
  8
0
100
AcDbLine
 62
7
  6
CONTINUOUS
 10
391.3549580856
 20
458.1451936484
 11
389.1629236039
 21
459.4107785322
  0
LINE
  5
42D
100
AcDbEntity
  8
0
100
AcDbLine
 62
7
  6
CONTINUOUS
 10
390.2235748332
 20
460.0231264683
 11
391.2842441691
 21
459.4107625952
  0
LINE
  5
42E
100
AcDbEntity
  8
0
100
AcDbLine
 62
7
  6
CONTINUOUS
 10
150.6548135335
 20
599.5598712473
 11
390.2235884133
 21
461.2479036158
  0
LINE
  5
42F
100
AcDbEntity
  8
0
100
AcDbLine
 62
7
  6
CONTINUOUS
 10
393.8298215158
 20
459.574048187
 11
392.7691569281
 21
460.1864093188
  0
LINE
  5
430
100
AcDbEntity
  8
0
100
AcDbLine
 62
7
  6
CONTINUOUS
 10
391.7235629627
 20
461.3964872695
 11
152.1547880829
 21
599.708454901
  0
LINE
  5
431
100
AcDbEntity
  8
0
100
AcDbLine
 62
7
  6
CONTINUOUS
 10
394.536925353
 20
460.798794758
 11
393.4762607653
 21
461.4111558898
  0
LINE
  5
432
100
AcDbEntity
  8
0
100
AcDbLine
 62
7
  6
CONTINUOUS
 10
155.1802833908
 20
598.9882901631
 11
154.119618803
 21
599.6006512949
  0
LINE
  5
433
100
AcDbEntity
  8
0
100
AcDbLine
 62
7
  6
CONTINUOUS
 10
156.9480429838
 20
599.1923981307
 11
155.1802745589
 21
600.2130175257
  0
LINE
  5
434
100
AcDbEntity
  8
0
100
AcDbLine
 62
7
  6
CONTINUOUS
 10
396.3046849461
 20
461.0029027255
 11
394.5369165211
 21
462.0235221206
  0
LINE
  5
435
100
AcDbEntity
  8
0
100
AcDbLine
 62
7
  6
CONTINUOUS
 10
379.3654200046
 20
454.1254254498
 11
380.1037686573
 21
453.3715924615
  0
LINE
  5
436
100
AcDbEntity
  8
0
100
AcDbLine
 62
7
  6
CONTINUOUS
 10
376.5057598403
 20
452.8380235594
 11
376.5057598403
 21
376.0867963493
  0
LINE
  5
437
100
AcDbEntity
  8
0
100
AcDbLine
 62
7
  6
CONTINUOUS
 10
376.5057598403
 20
371.1877818465
 11
376.5057598403
 21
294.4365546363
  0
LINE
  5
438
100
AcDbEntity
  8
0
100
AcDbLine
 62
7
  6
CONTINUOUS
 10
378.6457706022
 20
453.8286478095
 11
378.6457706022
 21
290.5281643836
  0
LINE
  5
439
100
AcDbEntity
  8
0
100
AcDbLine
 62
7
  6
CONTINUOUS
 10
380.3241346923
 20
454.3077318359
 11
380.3241346922
 21
455.5324854616
  0
LINE
  5
43A
100
AcDbEntity
  8
0
100
AcDbLine
 62
7
  6
CONTINUOUS
 10
380.7484005274
 20
452.8389129632
 11
380.7484005274
 21
453.6545361746
  0
LINE
  5
43B
100
AcDbEntity
  8
0
100
AcDbLine
 62
7
  6
CONTINUOUS
 10
381.2617590679
 20
287.200844778
 11
381.2617590679
 21
450.501328204
  0
LINE
  5
43C
100
AcDbEntity
  8
0
100
AcDbLine
 62
7
  6
CONTINUOUS
 10
574.0529379021
 20
566.493088113
 11
574.9580631476
 21
566.8010639439
  0
LINE
  5
43D
100
AcDbEntity
  8
0
100
AcDbLine
 62
7
  6
CONTINUOUS
 10
139.8410194521
 20
592.0842172924
 11
140.1510054512
 21
591.9830159403
  0
LINE
  5
43E
100
AcDbEntity
  8
0
100
AcDbLine
 62
7
  6
CONTINUOUS
 10
318.5212609553
 20
536.932450564
 11
320.2890293802
 21
535.911831169
  0
LINE
  5
43F
100
AcDbEntity
  8
0
100
AcDbLine
 62
7
  6
CONTINUOUS
 10
557.8779029175
 20
398.7429551589
 11
559.6456713425
 21
397.7223357638
  0
LINE
  5
440
100
AcDbEntity
  8
0
100
AcDbLine
 62
7
  6
CONTINUOUS
 10
562.6711578184
 20
398.2268983886
 11
561.1508383071
 21
399.1046354107
  0
LINE
  5
441
100
AcDbEntity
  8
0
100
AcDbLine
 62
7
  6
CONTINUOUS
 10
557.8779029175
 20
400.9942227907
 11
323.1023829386
 21
536.5388660201
  0
LINE
  5
442
100
AcDbEntity
  8
0
100
AcDbLine
 62
7
  6
CONTINUOUS
 10
562.0498208562
 20
399.600256832
 11
561.4134309355
 21
399.9676684121
  0
LINE
  5
443
100
AcDbEntity
  8
0
100
AcDbLine
 62
7
  6
CONTINUOUS
 10
557.8779029175
 20
402.0088602871
 11
322.4810459764
 21
537.9122244635
  0
LINE
  5
444
100
AcDbEntity
  8
0
100
AcDbLine
 62
7
  6
CONTINUOUS
 10
564.1711323679
 20
399.600235668
 11
563.110463032
 21
400.212599541
  0
LINE
  5
445
100
AcDbEntity
  8
0
100
AcDbLine
 62
7
  6
CONTINUOUS
 10
563.110476612
 20
401.4373662345
 11
565.3025020402
 21
400.1717865777
  0
LINE
  5
446
100
AcDbEntity
  8
0
100
AcDbLine
 62
7
  6
CONTINUOUS
 10
322.7638837569
 20
541.0149413575
 11
557.8779029175
 21
405.2748699556
  0
LINE
  5
447
100
AcDbEntity
  8
0
100
AcDbLine
 62
7
  6
CONTINUOUS
 10
323.8245395127
 20
541.6273075884
 11
557.8779029175
 21
406.4995922192
  0
LINE
  5
448
100
AcDbEntity
  8
0
100
AcDbLine
 62
7
  6
CONTINUOUS
 10
616.4257791946
 20
378.3586401293
 11
608.3194146252
 21
383.0387460175
  0
LINE
  5
449
100
AcDbEntity
  8
0
100
AcDbLine
 62
7
  6
CONTINUOUS
 10
591.6769388145
 20
392.6470665375
 11
583.570574245
 21
397.3271724257
  0
LINE
  5
44A
100
AcDbEntity
  8
0
100
AcDbLine
 62
7
  6
CONTINUOUS
 10
318.3536327754
 20
550.4467809485
 11
310.247268206
 21
555.1268868366
  0
LINE
  5
44B
100
AcDbEntity
  8
0
100
AcDbLine
 62
7
  6
CONTINUOUS
 10
293.6047923953
 20
564.7352073567
 11
285.4984278258
 21
569.4153132448
  0
LINE
  5
44C
100
AcDbEntity
  8
0
100
AcDbLine
 62
7
  6
CONTINUOUS
 10
285.4984278258
 20
570.1756337637
 11
293.6047923953
 21
565.4955278756
  0
LINE
  5
44D
100
AcDbEntity
  8
0
100
AcDbLine
 62
7
  6
CONTINUOUS
 10
310.247268206
 20
555.8872073555
 11
318.3536327754
 21
551.2071014674
  0
LINE
  5
44E
100
AcDbEntity
  8
0
100
AcDbLine
 62
7
  6
CONTINUOUS
 10
583.570574245
 20
398.0874929446
 11
591.6769388145
 21
393.4073870564
  0
LINE
  5
44F
100
AcDbEntity
  8
0
100
AcDbLine
 62
7
  6
CONTINUOUS
 10
608.3194146252
 20
383.7990665364
 11
616.4257791946
 21
379.1189606482
  0
LINE
  5
450
100
AcDbEntity
  8
0
100
AcDbLine
 62
7
  6
CONTINUOUS
 10
318.5212609553
 20
552.7717907055
 11
314.2849112385
 21
555.2175930234
  0
LINE
  5
451
100
AcDbEntity
  8
0
100
AcDbLine
 62
7
  6
CONTINUOUS
 10
294.2669345312
 20
566.774715807
 11
289.5360708584
 21
569.5060194316
  0
LINE
  5
452
100
AcDbEntity
  8
0
100
AcDbLine
 62
7
  6
CONTINUOUS
 10
585.736847458
 20
398.4982900395
 11
590.4677111308
 21
395.7669864148
  0
LINE
  5
453
100
AcDbEntity
  8
0
100
AcDbLine
 62
7
  6
CONTINUOUS
 10
610.4856878381
 20
384.2098636312
 11
615.2165515109
 21
381.4785600066
  0
LINE
  5
454
100
AcDbEntity
  8
0
100
AcDbLine
 62
7
  6
CONTINUOUS
 10
334.7846489895
 20
543.4643286791
 11
557.8779029175
 21
414.6642923156
  0
LINE
  5
455
100
AcDbEntity
  8
0
100
AcDbLine
 62
7
  6
CONTINUOUS
 10
390.9735594186
 20
460.0974136368
 11
391.2842441691
 21
459.4107625952
  0
LINE
  5
456
100
AcDbEntity
  8
0
100
AcDbLine
 62
7
  6
CONTINUOUS
 10
391.2842441691
 20
459.4107625952
 11
391.2842441691
 21
458.1860215145
  0
LINE
  5
457
100
AcDbEntity
  8
0
100
AcDbLine
 62
7
  6
CONTINUOUS
 10
391.3549580856
 20
458.1451936484
 11
391.3549580856
 21
455.2874351885
  0
LINE
  5
458
100
AcDbEntity
  8
0
100
AcDbLine
 62
7
  6
CONTINUOUS
 10
392.3448999249
 20
456.7571191575
 11
392.3448999249
 21
460.023128826
  0
LINE
  5
459
100
AcDbEntity
  8
0
100
AcDbLine
 62
7
  6
CONTINUOUS
 10
392.7691569281
 20
457.3286508588
 11
392.7691569281
 21
460.1864093188
  0
LINE
  5
45A
100
AcDbEntity
  8
0
100
AcDbLine
 62
7
  6
CONTINUOUS
 10
393.8298215158
 20
456.716289727
 11
393.8298215158
 21
459.574048187
  0
LINE
  5
45B
100
AcDbEntity
  8
0
100
AcDbLine
 62
7
  6
CONTINUOUS
 10
395.7398267388
 20
444.1838048092
 11
395.7398267388
 21
445.1036610645
  0
LINE
  5
45C
100
AcDbEntity
  8
0
100
AcDbLine
 62
7
  6
CONTINUOUS
 10
396.3046849461
 20
447.542971851
 11
396.3046849461
 21
461.0029027255
  0
LINE
  5
45D
100
AcDbEntity
  8
0
100
AcDbLine
 62
7
  6
CONTINUOUS
 10
399.6289302271
 20
442.8583369147
 11
399.6289302271
 21
441.9384806593
  0
LINE
  5
45E
100
AcDbEntity
  8
0
100
AcDbLine
 62
7
  6
CONTINUOUS
 10
402.6695414944
 20
274.8413354408
 11
402.6695414944
 21
438.1418188668
  0
LINE
  5
45F
100
AcDbEntity
  8
0
100
AcDbLine
 62
7
  6
CONTINUOUS
 10
402.8109181023
 20
441.823486325
 11
402.8109181023
 21
440.1014006633
  0
LINE
  5
460
100
AcDbEntity
  8
0
100
AcDbLine
 62
7
  6
CONTINUOUS
 10
403.023093413
 20
275.0454575178
 11
403.023093413
 21
438.3459409437
  0
LINE
  5
461
100
AcDbEntity
  8
0
100
AcDbLine
 62
7
  6
CONTINUOUS
 10
403.5887841371
 20
274.31062246
 11
403.5887841371
 21
437.6111058859
  0
LINE
  5
462
100
AcDbEntity
  8
0
100
AcDbLine
 62
7
  6
CONTINUOUS
 10
403.914016739
 20
441.6510094017
 11
403.914016739
 21
439.4645407762
  0
LINE
  5
463
100
AcDbEntity
  8
0
100
AcDbLine
 62
7
  6
CONTINUOUS
 10
404.5080267798
 20
273.7799094791
 11
404.5080267798
 21
437.080392905
  0
LINE
  5
464
100
AcDbEntity
  8
0
100
AcDbLine
 62
7
  6
CONTINUOUS
 10
404.5786776954
 20
442.048145934
 11
404.5786776954
 21
442.8084664529
  0
LINE
  5
465
100
AcDbEntity
  8
0
100
AcDbLine
 62
7
  6
CONTINUOUS
 10
404.8615786984
 20
273.984031556
 11
404.8615786984
 21
437.2845149819
  0
LINE
  5
466
100
AcDbEntity
  8
0
100
AcDbLine
 62
7
  6
CONTINUOUS
 10
405.4272694225
 20
273.2491964982
 11
405.4272694225
 21
436.5496799241
  0
LINE
  5
467
100
AcDbEntity
  8
0
100
AcDbLine
 62
7
  6
CONTINUOUS
 10
406.3465120651
 20
272.7184835173
 11
406.3465120651
 21
436.0189669433
  0
LINE
  5
468
100
AcDbEntity
  8
0
100
AcDbLine
 62
7
  6
CONTINUOUS
 10
406.7000639838
 20
272.9226055943
 11
406.7000639838
 21
436.2230890202
  0
LINE
  5
469
100
AcDbEntity
  8
0
100
AcDbLine
 62
7
  6
CONTINUOUS
 10
407.2657547078
 20
272.1877705365
 11
407.2657547078
 21
435.4882539624
  0
LINE
  5
46A
100
AcDbEntity
  8
0
100
AcDbLine
 62
7
  6
CONTINUOUS
 10
408.1849973505
 20
271.6570575556
 11
408.1849973505
 21
434.9575409815
  0
LINE
  5
46B
100
AcDbEntity
  8
0
100
AcDbLine
 62
7
  6
CONTINUOUS
 10
408.5385492691
 20
271.8611796325
 11
408.5385492691
 21
435.1616630584
  0
LINE
  5
46C
100
AcDbEntity
  8
0
100
AcDbLine
 62
7
  6
CONTINUOUS
 10
409.1042399932
 20
271.1263445747
 11
409.1042399932
 21
434.4268280006
  0
LINE
  5
46D
100
AcDbEntity
  8
0
100
AcDbLine
 62
7
  6
CONTINUOUS
 10
392.7691569281
 20
460.1864093188
 11
393.4762607653
 21
461.4111558898
  0
LINE
  5
46E
100
AcDbEntity
  8
0
100
AcDbLine
 62
7
  6
CONTINUOUS
 10
394.536925353
 20
460.798794758
 11
393.8298215158
 21
459.574048187
  0
LINE
  5
46F
100
AcDbEntity
  8
0
100
AcDbLine
 62
7
  6
CONTINUOUS
 10
377.103888709
 20
452.5705849353
 11
377.8654800304
 21
453.3166704782
  0
LINE
  5
470
100
AcDbEntity
  8
0
100
AcDbLine
 62
7
  6
CONTINUOUS
 10
574.0705860889
 20
567.3913836224
 11
564.1711323679
 21
561.6759654682
  0
LINE
  5
471
100
AcDbEntity
  8
0
100
AcDbLine
 62
7
  6
CONTINUOUS
 10
390.2235884133
 20
461.2479036158
 11
380.3241346922
 21
455.5324854616
  0
LINE
  5
472
100
AcDbEntity
  8
0
100
AcDbLine
 62
7
  6
CONTINUOUS
 10
376.5057598403
 20
452.8380235595
 11
377.5466057677
 21
453.4389526488
  0
LINE
  5
473
100
AcDbEntity
  8
0
100
AcDbLine
 62
7
  6
CONTINUOUS
 10
574.1750618274
 20
566.9617670454
 11
574.4948342601
 21
567.1463866435
  0
LINE
  5
474
100
AcDbEntity
  8
0
100
AcDbLine
 62
7
  6
CONTINUOUS
 10
577.0217476842
 20
568.3603879163
 11
576.8275892493
 21
568.2482911608
  0
LINE
  5
475
100
AcDbEntity
  8
0
100
AcDbLine
 62
7
  6
CONTINUOUS
 10
378.6457706022
 20
453.8286478095
 11
378.8399290371
 21
453.9407445651
  0
LINE
  5
476
100
AcDbEntity
  8
0
100
AcDbLine
 62
7
  6
CONTINUOUS
 10
574.0705860889
 20
566.1666299967
 11
564.1711323679
 21
560.4512118425
  0
LINE
  5
477
100
AcDbEntity
  8
0
100
AcDbLine
 62
7
  6
CONTINUOUS
 10
390.2235884133
 20
460.0231499901
 11
380.3241346923
 21
454.3077318359
  0
LINE
  5
478
100
AcDbEntity
  8
0
100
AcDbLine
 62
7
  6
CONTINUOUS
 10
393.4762607653
 20
461.4111558898
 11
394.5369165211
 21
462.0235221206
  0
LINE
  5
479
100
AcDbEntity
  8
0
100
AcDbLine
 62
7
  6
CONTINUOUS
 10
558.5850067547
 20
556.7361658188
 11
559.6456625106
 21
557.3485320496
  0
LINE
  5
47A
100
AcDbEntity
  8
0
100
AcDbLine
 62
7
  6
CONTINUOUS
 10
380.7484005274
 20
453.6545361746
 11
389.9407504111
 21
458.961710175
  0
LINE
  5
47B
100
AcDbEntity
  8
0
100
AcDbLine
 62
7
  6
CONTINUOUS
 10
565.3025020402
 20
560.2062603351
 11
574.4948519239
 21
565.5134343354
  0
LINE
  5
47C
100
AcDbEntity
  8
0
100
AcDbLine
 62
7
  6
CONTINUOUS
 10
394.536925353
 20
460.798794758
 11
395.5975811088
 21
461.4111609888
  0
LINE
  5
47D
100
AcDbEntity
  8
0
100
AcDbLine
 62
7
  6
CONTINUOUS
 10
559.6456713425
 20
556.123804687
 11
560.7063270983
 21
556.7361709178
  0
LINE
  5
47E
100
AcDbEntity
  8
0
100
AcDbLine
 62
7
  6
CONTINUOUS
 10
377.5466057677
 20
453.4389526488
 11
377.5862440825
 21
453.4614225742
  0
LINE
  5
47F
100
AcDbEntity
  8
0
100
AcDbLine
 62
7
  6
CONTINUOUS
 10
314.2849112385
 20
555.2175930234
 11
310.9119291623
 21
556.2843438879
  0
LINE
  5
480
100
AcDbEntity
  8
0
100
AcDbLine
 62
7
  6
CONTINUOUS
 10
289.5360708584
 20
569.5060194316
 11
286.1630887821
 21
570.5727702961
  0
LINE
  5
481
100
AcDbEntity
  8
0
100
AcDbLine
 62
7
  6
CONTINUOUS
 10
316.2576714301
 20
563.7560672683
 11
313.0756835548
 21
564.7624136526
  0
LINE
  5
482
100
AcDbEntity
  8
0
100
AcDbLine
 62
7
  6
CONTINUOUS
 10
310.9119291623
 20
560.5448507651
 11
314.2849112385
 21
559.4629923362
  0
LINE
  5
483
100
AcDbEntity
  8
0
100
AcDbLine
 62
7
  6
CONTINUOUS
 10
312.5914656759
 20
560.9587156849
 11
311.9725849181
 21
561.1572169959
  0
LINE
  5
484
100
AcDbEntity
  8
0
100
AcDbLine
 62
7
  6
CONTINUOUS
 10
286.1630887821
 20
574.8332771733
 11
289.5360708584
 21
573.7514187444
  0
LINE
  5
485
100
AcDbEntity
  8
0
100
AcDbLine
 62
7
  6
CONTINUOUS
 10
287.8426252958
 20
575.2471420931
 11
287.223744538
 21
575.4456434042
  0
LINE
  5
486
100
AcDbEntity
  8
0
100
AcDbLine
 62
7
  6
CONTINUOUS
 10
279.8415046876
 20
576.4089246334
 11
286.1630887821
 21
572.7592389216
  0
LINE
  5
487
100
AcDbEntity
  8
0
100
AcDbLine
 62
7
  6
CONTINUOUS
 10
298.6564626707
 20
565.5463493213
 11
310.9119291623
 21
558.4708125134
  0
LINE
  5
488
100
AcDbEntity
  8
0
100
AcDbLine
 62
7
  6
CONTINUOUS
 10
335.8258855212
 20
544.087058507
 11
335.9860168642
 21
543.9946087245
  0
LINE
  5
489
100
AcDbEntity
  8
0
100
AcDbLine
 62
7
  6
CONTINUOUS
 10
576.8275892493
 20
404.9478077349
 11
584.4642828533
 21
400.5388603706
  0
LINE
  5
48A
100
AcDbEntity
  8
0
100
AcDbLine
 62
7
  6
CONTINUOUS
 10
593.4446984075
 20
395.3541323272
 11
609.2131232334
 21
386.2504339624
  0
LINE
  5
48B
100
AcDbEntity
  8
0
100
AcDbLine
 62
7
  6
CONTINUOUS
 10
618.1935387876
 20
381.0657059189
 11
632.972101426
 21
372.533491826
  0
LINE
  5
48C
100
AcDbEntity
  8
0
100
AcDbLine
 62
7
  6
CONTINUOUS
 10
564.065070325
 20
412.3172723782
 11
563.7115138798
 21
412.5213936692
  0
LINE
  5
48D
100
AcDbEntity
  8
0
100
AcDbLine
 62
7
  6
CONTINUOUS
 10
324.7084283628
 20
550.5067677833
 11
324.3548719175
 21
550.7108890743
  0
LINE
  5
48E
100
AcDbEntity
  8
0
100
AcDbLine
 62
7
  6
CONTINUOUS
 10
564.0647944124
 20
413.5418455426
 11
563.7115184064
 21
413.7458049255
  0
LINE
  5
48F
100
AcDbEntity
  8
0
100
AcDbLine
 62
7
  6
CONTINUOUS
 10
557.8779029175
 20
417.1137682049
 11
337.2595303052
 21
544.4849634993
  0
LINE
  5
490
100
AcDbEntity
  8
0
100
AcDbLine
 62
7
  6
CONTINUOUS
 10
615.2165515109
 20
385.7239593194
 11
610.4856878381
 21
388.455262944
  0
LINE
  5
491
100
AcDbEntity
  8
0
100
AcDbLine
 62
7
  6
CONTINUOUS
 10
590.4677111308
 20
400.0123857276
 11
585.736847458
 21
402.7436893522
  0
LINE
  5
492
100
AcDbEntity
  8
0
100
AcDbLine
 62
7
  6
CONTINUOUS
 10
289.5360708584
 20
573.7514187444
 11
294.2669345312
 21
571.0201151198
  0
LINE
  5
493
100
AcDbEntity
  8
0
100
AcDbLine
 62
7
  6
CONTINUOUS
 10
314.2849112385
 20
559.4629923362
 11
318.5212609553
 21
557.0171900183
  0
LINE
  5
494
100
AcDbEntity
  8
0
100
AcDbLine
 62
7
  6
CONTINUOUS
 10
325.9450587671
 20
553.2209375906
 11
324.3548764442
 21
554.1390090133
  0
LINE
  5
495
100
AcDbEntity
  8
0
100
AcDbLine
 62
7
  6
CONTINUOUS
 10
301.196218387
 20
567.5093639988
 11
298.3677794864
 21
569.1423270169
  0
LINE
  5
496
100
AcDbEntity
  8
0
100
AcDbLine
 62
7
  6
CONTINUOUS
 10
616.4257791946
 20
385.5438614001
 11
608.3194146252
 21
390.2239672882
  0
LINE
  5
497
100
AcDbEntity
  8
0
100
AcDbLine
 62
7
  6
CONTINUOUS
 10
591.6769388145
 20
399.8322878083
 11
583.570574245
 21
404.5123936964
  0
LINE
  5
498
100
AcDbEntity
  8
0
100
AcDbLine
 62
7
  6
CONTINUOUS
 10
318.3536327754
 20
557.6320022192
 11
310.247268206
 21
562.3121081074
  0
LINE
  5
499
100
AcDbEntity
  8
0
100
AcDbLine
 62
7
  6
CONTINUOUS
 10
293.6047923953
 20
571.9204286274
 11
285.4984278258
 21
576.6005345156
  0
LINE
  5
49A
100
AcDbEntity
  8
0
100
AcDbLine
 62
7
  6
CONTINUOUS
 10
616.4257791946
 20
386.304181919
 11
608.3194146252
 21
390.9842878071
  0
LINE
  5
49B
100
AcDbEntity
  8
0
100
AcDbLine
 62
7
  6
CONTINUOUS
 10
591.6769388145
 20
400.5926083272
 11
583.570574245
 21
405.2727142153
  0
LINE
  5
49C
100
AcDbEntity
  8
0
100
AcDbLine
 62
7
  6
CONTINUOUS
 10
318.3536327754
 20
558.3923227381
 11
310.247268206
 21
563.0724286263
  0
LINE
  5
49D
100
AcDbEntity
  8
0
100
AcDbLine
 62
7
  6
CONTINUOUS
 10
293.6047923953
 20
572.6807491463
 11
285.4984278258
 21
577.3608550345
  0
LINE
  5
49E
100
AcDbEntity
  8
0
100
AcDbLine
 62
7
  6
CONTINUOUS
 10
328.9510425542
 20
554.1809600691
 11
330.0117071419
 21
553.5685989374
  0
LINE
  5
49F
100
AcDbEntity
  8
0
100
AcDbLine
 62
7
  6
CONTINUOUS
 10
568.3076845164
 20
415.991464664
 11
569.3683491041
 21
415.3791035322
  0
LINE
  5
4A0
100
AcDbEntity
  8
0
100
AcDbLine
 62
7
  6
CONTINUOUS
 10
569.7219010228
 20
415.9914768177
 11
568.661236435
 21
416.6038379495
  0
LINE
  5
4A1
100
AcDbEntity
  8
0
100
AcDbLine
 62
7
  6
CONTINUOUS
 10
330.3652590605
 20
554.1809722229
 11
329.3045944728
 21
554.7933333546
  0
LINE
  5
4A2
100
AcDbEntity
  8
0
100
AcDbLine
 62
7
  6
CONTINUOUS
 10
617.4864143427
 20
389.8455058427
 11
613.5973108544
 21
392.0908299925
  0
LINE
  5
4A3
100
AcDbEntity
  8
0
100
AcDbLine
 62
7
  6
CONTINUOUS
 10
592.7375739625
 20
404.1339322509
 11
588.8484704742
 21
406.3792564007
  0
LINE
  5
4A4
100
AcDbEntity
  8
0
100
AcDbLine
 62
7
  6
CONTINUOUS
 10
291.5088310499
 20
578.0444936765
 11
295.3979345382
 21
575.7991695267
  0
LINE
  5
4A5
100
AcDbEntity
  8
0
100
AcDbLine
 62
7
  6
CONTINUOUS
 10
316.2576714301
 20
563.7560672683
 11
318.5212609553
 21
562.4492128116
  0
LINE
  5
4A6
100
AcDbEntity
  8
0
100
AcDbLine
 62
7
  6
CONTINUOUS
 10
615.5064912148
 20
393.2315698853
 11
611.6173877265
 21
395.4768940351
  0
LINE
  5
4A7
100
AcDbEntity
  8
0
100
AcDbLine
 62
7
  6
CONTINUOUS
 10
590.7576508347
 20
407.5199962935
 11
586.8685473464
 21
409.7653204434
  0
LINE
  5
4A8
100
AcDbEntity
  8
0
100
AcDbLine
 62
7
  6
CONTINUOUS
 10
297.3071148987
 20
576.9399094194
 11
301.196218387
 21
574.6945852696
  0
LINE
  5
4A9
100
AcDbEntity
  8
0
100
AcDbLine
 62
7
  6
CONTINUOUS
 10
330.0117026152
 20
560.5088616424
 11
330.3652590605
 21
560.3047403513
  0
LINE
  5
4AA
100
AcDbEntity
  8
0
100
AcDbLine
 62
7
  6
CONTINUOUS
 10
569.3683445775
 20
422.3193662372
 11
569.7219010228
 21
422.1152449462
  0
LINE
  5
4AB
100
AcDbEntity
  8
0
100
AcDbLine
 62
7
  6
CONTINUOUS
 10
325.9672131082
 20
574.3243182912
 11
326.4621899158
 21
574.038549763
  0
LINE
  5
4AC
100
AcDbEntity
  8
0
100
AcDbLine
 62
7
  6
CONTINUOUS
 10
410.0234826359
 20
270.5956315938
 11
410.0234826359
 21
433.8961150197
  0
LINE
  5
4AD
100
AcDbEntity
  8
0
100
AcDbLine
 62
7
  6
CONTINUOUS
 10
410.3770345545
 20
270.7997536708
 11
410.3770345545
 21
434.1002370967
  0
LINE
  5
4AE
100
AcDbEntity
  8
0
100
AcDbLine
 62
7
  6
CONTINUOUS
 10
410.9427252786
 20
270.064918613
 11
410.9427252786
 21
433.3654020389
  0
LINE
  5
4AF
100
AcDbEntity
  8
0
100
AcDbLine
 62
7
  6
CONTINUOUS
 10
411.8619679213
 20
269.5342056321
 11
411.8619679213
 21
432.834689058
  0
LINE
  5
4B0
100
AcDbEntity
  8
0
100
AcDbLine
 62
7
  6
CONTINUOUS
 10
412.2155198399
 20
269.738327709
 11
412.2155198399
 21
433.0388111349
  0
LINE
  5
4B1
100
AcDbEntity
  8
0
100
AcDbLine
 62
7
  6
CONTINUOUS
 10
412.781210564
 20
269.0034926512
 11
412.781210564
 21
432.3039760771
  0
LINE
  5
4B2
100
AcDbEntity
  8
0
100
AcDbLine
 62
7
  6
CONTINUOUS
 10
413.7004532067
 20
268.4727796703
 11
413.7004532067
 21
431.7732630962
  0
LINE
  5
4B3
100
AcDbEntity
  8
0
100
AcDbLine
 62
7
  6
CONTINUOUS
 10
414.0540051253
 20
268.6769017473
 11
414.0540051253
 21
431.9773851732
  0
LINE
  5
4B4
100
AcDbEntity
  8
0
100
AcDbLine
 62
7
  6
CONTINUOUS
 10
414.6196958494
 20
267.9420666894
 11
414.6196958494
 21
431.2425501154
  0
LINE
  5
4B5
100
AcDbEntity
  8
0
100
AcDbLine
 62
7
  6
CONTINUOUS
 10
415.5389384921
 20
267.4113537086
 11
415.5389384921
 21
430.7118371345
  0
LINE
  5
4B6
100
AcDbEntity
  8
0
100
AcDbLine
 62
7
  6
CONTINUOUS
 10
415.8924904107
 20
267.6154757855
 11
415.8924904107
 21
430.9159592114
  0
LINE
  5
4B7
100
AcDbEntity
  8
0
100
AcDbLine
 62
7
  6
CONTINUOUS
 10
416.4581811347
 20
266.8806407277
 11
416.4581811347
 21
430.1811241536
  0
LINE
  5
4B8
100
AcDbEntity
  8
0
100
AcDbLine
 62
7
  6
CONTINUOUS
 10
417.3774237774
 20
266.3499277468
 11
417.3774237774
 21
429.6504111727
  0
LINE
  5
4B9
100
AcDbEntity
  8
0
100
AcDbLine
 62
7
  6
CONTINUOUS
 10
417.730975696
 20
266.5540498238
 11
417.730975696
 21
429.8545332497
  0
LINE
  5
4BA
100
AcDbEntity
  8
0
100
AcDbLine
 62
7
  6
CONTINUOUS
 10
418.2966664201
 20
265.8192147659
 11
418.2966664201
 21
429.1196981919
  0
LINE
  5
4BB
100
AcDbEntity
  8
0
100
AcDbLine
 62
7
  6
CONTINUOUS
 10
419.2159090628
 20
265.2885017851
 11
419.2159090628
 21
428.588985211
  0
LINE
  5
4BC
100
AcDbEntity
  8
0
100
AcDbLine
 62
7
  6
CONTINUOUS
 10
419.5694609814
 20
265.492623862
 11
419.5694609814
 21
428.7931072879
  0
LINE
  5
4BD
100
AcDbEntity
  8
0
100
AcDbLine
 62
7
  6
CONTINUOUS
 10
420.1351517055
 20
264.7577888042
 11
420.1351517055
 21
428.0582722301
  0
LINE
  5
4BE
100
AcDbEntity
  8
0
100
AcDbLine
 62
7
  6
CONTINUOUS
 10
420.4886671189
 20
429.895378401
 11
420.4886671189
 21
430.8152346563
  0
LINE
  5
4BF
100
AcDbEntity
  8
0
100
AcDbLine
 62
7
  6
CONTINUOUS
 10
421.0543943482
 20
264.2270758233
 11
421.0543943482
 21
345.7282778267
  0
LINE
  5
4C0
100
AcDbEntity
  8
0
100
AcDbLine
 62
7
  6
CONTINUOUS
 10
421.0543943482
 20
346.0263572459
 11
421.0543943482
 21
427.5275592492
  0
LINE
  5
4C1
100
AcDbEntity
  8
0
100
AcDbLine
 62
7
  6
CONTINUOUS
 10
421.4079462668
 20
264.4311979002
 11
421.4079462668
 21
345.9323999036
  0
LINE
  5
4C2
100
AcDbEntity
  8
0
100
AcDbLine
 62
7
  6
CONTINUOUS
 10
421.4079462668
 20
346.2304793228
 11
421.4079462668
 21
427.7316813262
  0
LINE
  5
4C3
100
AcDbEntity
  8
0
100
AcDbLine
 62
7
  6
CONTINUOUS
 10
421.9736369909
 20
263.6963628424
 11
421.9736369909
 21
344.3068999056
  0
LINE
  5
4C4
100
AcDbEntity
  8
0
100
AcDbLine
 62
7
  6
CONTINUOUS
 10
421.9736369909
 20
346.3863092052
 11
421.9736369909
 21
426.9968462684
  0
LINE
  5
4C5
100
AcDbEntity
  8
0
100
AcDbLine
 62
7
  6
CONTINUOUS
 10
422.8928796336
 20
263.1656498616
 11
422.8928796336
 21
342.8855219845
  0
LINE
  5
4C6
100
AcDbEntity
  8
0
100
AcDbLine
 62
7
  6
CONTINUOUS
 10
422.8928796336
 20
346.7462611645
 11
422.8928796336
 21
426.4661332875
  0
LINE
  5
4C7
100
AcDbEntity
  8
0
100
AcDbLine
 62
7
  6
CONTINUOUS
 10
423.2464315522
 20
263.3697719385
 11
423.2464315522
 21
343.0896440615
  0
LINE
  5
4C8
100
AcDbEntity
  8
0
100
AcDbLine
 62
7
  6
CONTINUOUS
 10
423.2464315522
 20
346.9503832414
 11
423.2464315522
 21
426.6702553644
  0
LINE
  5
4C9
100
AcDbEntity
  8
0
100
AcDbLine
 62
7
  6
CONTINUOUS
 10
423.8121222763
 20
262.6349368807
 11
423.8121222763
 21
341.4641440635
  0
LINE
  5
4CA
100
AcDbEntity
  8
0
100
AcDbLine
 62
7
  6
CONTINUOUS
 10
423.8121222763
 20
347.1062131238
 11
423.8121222763
 21
425.9354203066
  0
LINE
  5
4CB
100
AcDbEntity
  8
0
100
AcDbLine
 62
7
  6
CONTINUOUS
 10
424.3777706072
 20
428.5699105065
 11
424.3777706072
 21
427.6500542511
  0
LINE
  5
4CC
100
AcDbEntity
  8
0
100
AcDbLine
 62
7
  6
CONTINUOUS
 10
424.731364919
 20
262.1042238998
 11
424.731364919
 21
340.0427661424
  0
LINE
  5
4CD
100
AcDbEntity
  8
0
100
AcDbLine
 62
7
  6
CONTINUOUS
 10
424.731364919
 20
347.4661650831
 11
424.731364919
 21
425.4047073257
  0
LINE
  5
4CE
100
AcDbEntity
  8
0
100
AcDbLine
 62
7
  6
CONTINUOUS
 10
425.0849168376
 20
262.3083459767
 11
425.0849168376
 21
340.2468882194
  0
LINE
  5
4CF
100
AcDbEntity
  8
0
100
AcDbLine
 62
7
  6
CONTINUOUS
 10
425.0849168376
 20
347.67028716
 11
425.0849168376
 21
425.6088294027
  0
LINE
  5
4D0
100
AcDbEntity
  8
0
100
AcDbLine
 62
7
  6
CONTINUOUS
 10
425.6506075617
 20
261.5735109189
 11
425.6506075617
 21
338.6213882214
  0
LINE
  5
4D1
100
AcDbEntity
  8
0
100
AcDbLine
 62
7
  6
CONTINUOUS
 10
425.6506075617
 20
347.8261170424
 11
425.6506075617
 21
424.8739943448
  0
LINE
  5
4D2
100
AcDbEntity
  8
0
100
AcDbLine
 62
7
  6
CONTINUOUS
 10
426.5698502043
 20
261.0427979381
 11
426.5698502043
 21
337.2000103003
  0
LINE
  5
4D3
100
AcDbEntity
  8
0
100
AcDbLine
 62
7
  6
CONTINUOUS
 10
426.5698502043
 20
348.1860690017
 11
426.5698502043
 21
424.343281364
  0
LINE
  5
4D4
100
AcDbEntity
  8
0
100
AcDbLine
 62
7
  6
CONTINUOUS
 10
426.923402123
 20
261.246920015
 11
426.923402123
 21
337.4041323772
  0
LINE
  5
4D5
100
AcDbEntity
  8
0
100
AcDbLine
 62
7
  6
CONTINUOUS
 10
426.923402123
 20
348.3901910787
 11
426.923402123
 21
424.5474034409
  0
LINE
  5
4D6
100
AcDbEntity
  8
0
100
AcDbLine
 62
7
  6
CONTINUOUS
 10
427.489092847
 20
260.5120849572
 11
427.489092847
 21
335.7786323792
  0
LINE
  5
4D7
100
AcDbEntity
  8
0
100
AcDbLine
 62
7
  6
CONTINUOUS
 10
427.489092847
 20
348.5460209611
 11
427.489092847
 21
423.8125683831
  0
LINE
  5
4D8
100
AcDbEntity
  8
0
100
AcDbLine
 62
7
  6
CONTINUOUS
 10
427.5597584825
 20
427.5350599168
 11
427.5597584825
 21
425.8129742551
  0
LINE
  5
4D9
100
AcDbEntity
  8
0
100
AcDbLine
 62
7
  6
CONTINUOUS
 10
428.4083354897
 20
259.9813719763
 11
428.4083354897
 21
334.3572544582
  0
LINE
  5
4DA
100
AcDbEntity
  8
0
100
AcDbLine
 62
7
  6
CONTINUOUS
 10
428.4083354897
 20
348.9059729204
 11
428.4083354897
 21
423.2818554022
  0
LINE
  5
4DB
100
AcDbEntity
  8
0
100
AcDbLine
 62
7
  6
CONTINUOUS
 10
428.6628571192
 20
427.3625829935
 11
428.6628571192
 21
425.1761143679
  0
LINE
  5
4DC
100
AcDbEntity
  8
0
100
AcDbLine
 62
7
  6
CONTINUOUS
 10
428.7618874083
 20
260.1854940532
 11
428.7618874083
 21
334.5613765351
  0
LINE
  5
4DD
100
AcDbEntity
  8
0
100
AcDbLine
 62
7
  6
CONTINUOUS
 10
428.7618874083
 20
349.1100949973
 11
428.7618874083
 21
423.4859774792
  0
LINE
  5
4DE
100
AcDbEntity
  8
0
100
AcDbLine
 62
7
  6
CONTINUOUS
 10
429.3275180755
 20
427.7597195258
 11
429.3275180755
 21
428.5200400447
  0
LINE
  5
4DF
100
AcDbEntity
  8
0
100
AcDbLine
 62
7
  6
CONTINUOUS
 10
429.3346760051
 20
422.7552403556
 11
429.3346760051
 21
349.2700228139
  0
LINE
  5
4E0
100
AcDbEntity
  8
0
100
AcDbLine
 62
7
  6
CONTINUOUS
 10
429.3346760051
 20
332.9399744713
 11
429.3346760051
 21
259.4547569297
  0
LINE
  5
4E1
100
AcDbEntity
  8
0
100
AcDbLine
 62
7
  6
CONTINUOUS
 10
431.4723026902
 20
348.435936346
 11
431.4723026902
 21
332.1058880034
  0
LINE
  5
4E2
100
AcDbEntity
  8
0
100
AcDbLine
 62
7
  6
CONTINUOUS
 10
590.7576508347
 20
557.7564410453
 11
587.7878147184
 21
555.9819567677
  0
LINE
  5
4E3
100
AcDbEntity
  8
0
100
AcDbLine
 62
7
  6
CONTINUOUS
 10
403.914016739
 20
441.6510094017
 11
404.5786776954
 21
442.048145934
  0
LINE
  5
4E4
100
AcDbEntity
  8
0
100
AcDbLine
 62
7
  6
CONTINUOUS
 10
593.4446984075
 20
551.8852937205
 11
591.6769388145
 21
550.829053079
  0
LINE
  5
4E5
100
AcDbEntity
  8
0
100
AcDbLine
 62
7
  6
CONTINUOUS
 10
392.3448999249
 20
457.0837074259
 11
392.7691569281
 21
457.3286508588
  0
LINE
  5
4E6
100
AcDbEntity
  8
0
100
AcDbLine
 62
7
  6
CONTINUOUS
 10
561.4134309355
 20
554.6948866562
 11
561.7669830758
 21
554.8990088612
  0
LINE
  5
4E7
100
AcDbEntity
  8
0
100
AcDbLine
 62
7
  6
CONTINUOUS
 10
392.3448999249
 20
456.7571191575
 11
391.3549580856
 21
456.1855793817
  0
LINE
  5
4E8
100
AcDbEntity
  8
0
100
AcDbLine
 62
7
  6
CONTINUOUS
 10
562.0498208562
 20
554.7357160867
 11
563.110476612
 21
555.3480823175
  0
LINE
  5
4E9
100
AcDbEntity
  8
0
100
AcDbLine
 62
7
  6
CONTINUOUS
 10
391.3549580856
 20
455.2874351885
 11
393.8298215158
 21
456.716289727
  0
LINE
  5
4EA
100
AcDbEntity
  8
0
100
AcDbLine
 62
7
  6
CONTINUOUS
 10
561.4134309355
 20
553.4701541946
 11
563.8882943657
 21
554.8990087331
  0
LINE
  5
4EB
100
AcDbEntity
  8
0
100
AcDbLine
 62
7
  6
CONTINUOUS
 10
564.065070325
 20
546.631919996
 11
569.3683491041
 21
549.6937511501
  0
LINE
  5
4EC
100
AcDbEntity
  8
0
100
AcDbLine
 62
7
  6
CONTINUOUS
 10
563.7115184064
 20
540.7122598351
 11
568.3076845164
 21
543.3658417362
  0
LINE
  5
4ED
100
AcDbEntity
  8
0
100
AcDbLine
 62
7
  6
CONTINUOUS
 10
569.3683491041
 20
542.7534806045
 11
564.065070325
 21
539.6916494504
  0
LINE
  5
4EE
100
AcDbEntity
  8
0
100
AcDbLine
 62
7
  6
CONTINUOUS
 10
403.023093413
 20
438.3459409437
 11
402.6695414944
 21
438.1418188668
  0
LINE
  5
4EF
100
AcDbEntity
  8
0
100
AcDbLine
 62
7
  6
CONTINUOUS
 10
603.839168974
 20
554.2864641549
 11
604.1927208927
 21
554.4905862318
  0
LINE
  5
4F0
100
AcDbEntity
  8
0
100
AcDbLine
 62
7
  6
CONTINUOUS
 10
593.4446984075
 20
547.8768925689
 11
594.5053541633
 21
548.4892587997
  0
LINE
  5
4F1
100
AcDbEntity
  8
0
100
AcDbLine
 62
7
  6
CONTINUOUS
 10
403.9423360557
 20
437.8152279628
 11
403.5887841371
 21
437.6111058859
  0
LINE
  5
4F2
100
AcDbEntity
  8
0
100
AcDbLine
 62
7
  6
CONTINUOUS
 10
604.7584116167
 20
553.755751174
 11
605.1119635353
 21
553.9598732509
  0
LINE
  5
4F3
100
AcDbEntity
  8
0
100
AcDbLine
 62
7
  6
CONTINUOUS
 10
395.7398267388
 20
445.1036610645
 11
394.9290438347
 21
444.6518999474
  0
LINE
  5
4F4
100
AcDbEntity
  8
0
100
AcDbLine
 62
7
  6
CONTINUOUS
 10
592.3415997708
 20
550.4390758106
 11
591.6769388145
 21
550.0687325601
  0
LINE
  5
4F5
100
AcDbEntity
  8
0
100
AcDbLine
 62
7
  6
CONTINUOUS
 10
404.5786776954
 20
442.8084664529
 11
402.8109181023
 21
441.823486325
  0
LINE
  5
4F6
100
AcDbEntity
  8
0
100
AcDbLine
 62
7
  6
CONTINUOUS
 10
591.6769388145
 20
542.8835112894
 11
594.5053541633
 21
544.459479494
  0
LINE
  5
4F7
100
AcDbEntity
  8
0
100
AcDbLine
 62
7
  6
CONTINUOUS
 10
566.1989298056
 20
524.9319803357
 11
566.5764946562
 21
525.0939757822
  0
LINE
  5
4F8
100
AcDbEntity
  8
0
100
AcDbLine
 62
7
  6
CONTINUOUS
 10
391.4206428505
 20
446.6774303764
 11
393.9109457579
 21
447.6414975625
  0
LINE
  5
4F9
100
AcDbEntity
  8
0
100
AcDbLine
 62
7
  6
CONTINUOUS
 10
291.5088310499
 20
578.0444936765
 11
288.3268431747
 21
579.0508400608
  0
LINE
  5
4FA
100
AcDbEntity
  8
0
100
AcDbLine
 62
7
  6
CONTINUOUS
 10
574.9849264492
 20
484.2353680416
 11
574.0690246549
 21
484.5343831591
  0
LINE
  5
4FB
100
AcDbEntity
  8
0
100
AcDbLine
 62
7
  6
CONTINUOUS
 10
330.1671418467
 20
581.5989728253
 11
330.6621186543
 21
581.3132042972
  0
LINE
  5
4FC
100
AcDbEntity
  8
0
100
AcDbLine
 62
7
  6
CONTINUOUS
 10
564.065070325
 20
458.0414077375
 11
563.7115138798
 21
458.2455290285
  0
LINE
  5
4FD
100
AcDbEntity
  8
0
100
AcDbLine
 62
7
  6
CONTINUOUS
 10
324.7084283628
 20
596.2309031426
 11
324.3548719175
 21
596.4350244336
  0
LINE
  5
4FE
100
AcDbEntity
  8
0
100
AcDbLine
 62
7
  6
CONTINUOUS
 10
328.9510425542
 20
599.9050954284
 11
330.0117071419
 21
599.2927342966
  0
LINE
  5
4FF
100
AcDbEntity
  8
0
100
AcDbLine
 62
7
  6
CONTINUOUS
 10
568.3076845164
 20
461.7156000233
 11
569.3683491041
 21
461.1032388915
  0
LINE
  5
500
100
AcDbEntity
  8
0
100
AcDbLine
 62
7
  6
CONTINUOUS
 10
569.7219010228
 20
461.715612177
 11
568.661236435
 21
462.3279733088
  0
LINE
  5
501
100
AcDbEntity
  8
0
100
AcDbLine
 62
7
  6
CONTINUOUS
 10
330.3652590605
 20
599.9051075821
 11
329.3045944728
 21
600.5174687139
  0
LINE
  5
502
100
AcDbEntity
  8
0
100
AcDbLine
 62
7
  6
CONTINUOUS
 10
434.7902827789
 20
258.1138484747
 11
434.7902827789
 21
421.4143319006
  0
LINE
  5
503
100
AcDbEntity
  8
0
100
AcDbLine
 62
7
  6
CONTINUOUS
 10
434.9844412138
 20
258.2259452302
 11
434.9844412138
 21
421.5264286562
  0
LINE
  5
504
100
AcDbEntity
  8
0
100
AcDbLine
 62
7
  6
CONTINUOUS
 10
593.4022555266
 20
544.6747127255
 11
591.6769388145
 21
543.6438318083
  0
LINE
  5
505
100
AcDbEntity
  8
0
100
AcDbLine
 62
7
  6
CONTINUOUS
 10
615.5064912148
 20
543.4680146371
 11
612.5366550985
 21
541.6935303595
  0
LINE
  5
506
100
AcDbEntity
  8
0
100
AcDbLine
 62
7
  6
CONTINUOUS
 10
428.6628571192
 20
427.3625829935
 11
429.3275180755
 21
427.7597195258
  0
LINE
  5
507
100
AcDbEntity
  8
0
100
AcDbLine
 62
7
  6
CONTINUOUS
 10
618.1935387876
 20
537.5968673122
 11
616.4257791946
 21
536.5406266708
  0
LINE
  5
508
100
AcDbEntity
  8
0
100
AcDbLine
 62
7
  6
CONTINUOUS
 10
593.4022555266
 20
546.7909351642
 11
592.3415997708
 21
546.1785689334
  0
LINE
  5
509
100
AcDbEntity
  8
0
100
AcDbLine
 62
7
  6
CONTINUOUS
 10
404.8615786984
 20
437.2845149819
 11
404.5080267798
 21
437.080392905
  0
LINE
  5
50A
100
AcDbEntity
  8
0
100
AcDbLine
 62
7
  6
CONTINUOUS
 10
605.6776542594
 20
553.2250381931
 11
606.031206178
 21
553.4291602701
  0
LINE
  5
50B
100
AcDbEntity
  8
0
100
AcDbLine
 62
7
  6
CONTINUOUS
 10
405.7808213411
 20
436.7538020011
 11
405.4272694225
 21
436.5496799241
  0
LINE
  5
50C
100
AcDbEntity
  8
0
100
AcDbLine
 62
7
  6
CONTINUOUS
 10
606.5968969021
 20
552.6943252123
 11
606.9504488207
 21
552.8984472892
  0
LINE
  5
50D
100
AcDbEntity
  8
0
100
AcDbLine
 62
7
  6
CONTINUOUS
 10
406.7000639838
 20
436.2230890202
 11
406.3465120651
 21
436.0189669433
  0
LINE
  5
50E
100
AcDbEntity
  8
0
100
AcDbLine
 62
7
  6
CONTINUOUS
 10
607.5161395448
 20
552.1636122314
 11
607.8696914634
 21
552.3677343083
  0
LINE
  5
50F
100
AcDbEntity
  8
0
100
AcDbLine
 62
7
  6
CONTINUOUS
 10
407.6193066264
 20
435.6923760393
 11
407.2657547078
 21
435.4882539624
  0
LINE
  5
510
100
AcDbEntity
  8
0
100
AcDbLine
 62
7
  6
CONTINUOUS
 10
608.4353821875
 20
551.6328992505
 11
608.7889341061
 21
551.8370213274
  0
LINE
  5
511
100
AcDbEntity
  8
0
100
AcDbLine
 62
7
  6
CONTINUOUS
 10
408.5385492691
 20
435.1616630584
 11
408.1849973505
 21
434.9575409815
  0
LINE
  5
512
100
AcDbEntity
  8
0
100
AcDbLine
 62
7
  6
CONTINUOUS
 10
609.3546248302
 20
551.1021862696
 11
609.7081767488
 21
551.3063083466
  0
LINE
  5
513
100
AcDbEntity
  8
0
100
AcDbLine
 62
7
  6
CONTINUOUS
 10
409.4577919118
 20
434.6309500776
 11
409.1042399932
 21
434.4268280006
  0
LINE
  5
514
100
AcDbEntity
  8
0
100
AcDbLine
 62
7
  6
CONTINUOUS
 10
610.2738674729
 20
550.5714732888
 11
610.6274193915
 21
550.7755953657
  0
LINE
  5
515
100
AcDbEntity
  8
0
100
AcDbLine
 62
7
  6
CONTINUOUS
 10
410.3770345545
 20
434.1002370967
 11
410.0234826359
 21
433.8961150197
  0
LINE
  5
516
100
AcDbEntity
  8
0
100
AcDbLine
 62
7
  6
CONTINUOUS
 10
611.1931101156
 20
550.0407603079
 11
611.5466620342
 21
550.2448823848
  0
LINE
  5
517
100
AcDbEntity
  8
0
100
AcDbLine
 62
7
  6
CONTINUOUS
 10
411.2962771972
 20
433.5695241158
 11
410.9427252786
 21
433.3654020389
  0
LINE
  5
518
100
AcDbEntity
  8
0
100
AcDbLine
 62
7
  6
CONTINUOUS
 10
612.1123527583
 20
549.510047327
 11
612.4659046769
 21
549.7141694039
  0
LINE
  5
519
100
AcDbEntity
  8
0
100
AcDbLine
 62
7
  6
CONTINUOUS
 10
412.2155198399
 20
433.0388111349
 11
411.8619679213
 21
432.834689058
  0
LINE
  5
51A
100
AcDbEntity
  8
0
100
AcDbLine
 62
7
  6
CONTINUOUS
 10
613.031595401
 20
548.9793343461
 11
613.3851473196
 21
549.1834564231
  0
LINE
  5
51B
100
AcDbEntity
  8
0
100
AcDbLine
 62
7
  6
CONTINUOUS
 10
413.1347624826
 20
432.5080981541
 11
412.781210564
 21
432.3039760771
  0
LINE
  5
51C
100
AcDbEntity
  8
0
100
AcDbLine
 62
7
  6
CONTINUOUS
 10
613.9508380436
 20
548.4486213652
 11
614.3043899623
 21
548.6527434422
  0
LINE
  5
51D
100
AcDbEntity
  8
0
100
AcDbLine
 62
7
  6
CONTINUOUS
 10
414.0540051253
 20
431.9773851732
 11
413.7004532067
 21
431.7732630962
  0
LINE
  5
51E
100
AcDbEntity
  8
0
100
AcDbLine
 62
7
  6
CONTINUOUS
 10
614.8700806863
 20
547.9179083844
 11
615.2236326049
 21
548.1220304613
  0
LINE
  5
51F
100
AcDbEntity
  8
0
100
AcDbLine
 62
7
  6
CONTINUOUS
 10
414.973247768
 20
431.4466721923
 11
414.6196958494
 21
431.2425501154
  0
LINE
  5
520
100
AcDbEntity
  8
0
100
AcDbLine
 62
7
  6
CONTINUOUS
 10
615.789323329
 20
547.3871954035
 11
616.1428752476
 21
547.5913174804
  0
LINE
  5
521
100
AcDbEntity
  8
0
100
AcDbLine
 62
7
  6
CONTINUOUS
 10
415.8924904107
 20
430.9159592114
 11
415.5389384921
 21
430.7118371345
  0
LINE
  5
522
100
AcDbEntity
  8
0
100
AcDbLine
 62
7
  6
CONTINUOUS
 10
616.7085659717
 20
546.8564824226
 11
617.0621178903
 21
547.0606044996
  0
LINE
  5
523
100
AcDbEntity
  8
0
100
AcDbLine
 62
7
  6
CONTINUOUS
 10
416.8117330534
 20
430.3852462305
 11
416.4581811347
 21
430.1811241536
  0
LINE
  5
524
100
AcDbEntity
  8
0
100
AcDbLine
 62
7
  6
CONTINUOUS
 10
617.6278086144
 20
546.3257694417
 11
617.981360533
 21
546.5298915187
  0
LINE
  5
525
100
AcDbEntity
  8
0
100
AcDbLine
 62
7
  6
CONTINUOUS
 10
417.730975696
 20
429.8545332497
 11
417.3774237774
 21
429.6504111727
  0
LINE
  5
526
100
AcDbEntity
  8
0
100
AcDbLine
 62
7
  6
CONTINUOUS
 10
618.5470512571
 20
545.7950564609
 11
618.9006031757
 21
545.9991785378
  0
LINE
  5
527
100
AcDbEntity
  8
0
100
AcDbLine
 62
7
  6
CONTINUOUS
 10
418.6502183387
 20
429.3238202688
 11
418.2966664201
 21
429.1196981919
  0
LINE
  5
528
100
AcDbEntity
  8
0
100
AcDbLine
 62
7
  6
CONTINUOUS
 10
619.4662938998
 20
545.26434348
 11
619.8198458184
 21
545.4684655569
  0
LINE
  5
529
100
AcDbEntity
  8
0
100
AcDbLine
 62
7
  6
CONTINUOUS
 10
419.5694609814
 20
428.7931072879
 11
419.2159090628
 21
428.588985211
  0
LINE
  5
52A
100
AcDbEntity
  8
0
100
AcDbLine
 62
7
  6
CONTINUOUS
 10
620.3855365425
 20
544.7336304991
 11
620.7390884611
 21
544.937752576
  0
LINE
  5
52B
100
AcDbEntity
  8
0
100
AcDbLine
 62
7
  6
CONTINUOUS
 10
420.4887036241
 20
428.262394307
 11
420.1351517055
 21
428.0582722301
  0
LINE
  5
52C
100
AcDbEntity
  8
0
100
AcDbLine
 62
7
  6
CONTINUOUS
 10
621.3047791852
 20
544.2029175182
 11
621.6583311038
 21
544.4070395952
  0
LINE
  5
52D
100
AcDbEntity
  8
0
100
AcDbLine
 62
7
  6
CONTINUOUS
 10
421.4079462668
 20
427.7316813262
 11
421.0543943482
 21
427.5275592492
  0
LINE
  5
52E
100
AcDbEntity
  8
0
100
AcDbLine
 62
7
  6
CONTINUOUS
 10
622.2240218279
 20
543.6722045374
 11
622.5775737465
 21
543.8763266143
  0
LINE
  5
52F
100
AcDbEntity
  8
0
100
AcDbLine
 62
7
  6
CONTINUOUS
 10
422.3271889095
 20
427.2009683453
 11
421.9736369909
 21
426.9968462684
  0
LINE
  5
530
100
AcDbEntity
  8
0
100
AcDbLine
 62
7
  6
CONTINUOUS
 10
623.1432644706
 20
543.1414915565
 11
623.4968163892
 21
543.3456136334
  0
LINE
  5
531
100
AcDbEntity
  8
0
100
AcDbLine
 62
7
  6
CONTINUOUS
 10
423.2464315522
 20
426.6702553644
 11
422.8928796336
 21
426.4661332875
  0
LINE
  5
532
100
AcDbEntity
  8
0
100
AcDbLine
 62
7
  6
CONTINUOUS
 10
624.0625071132
 20
542.6107785756
 11
624.4160590319
 21
542.8149006525
  0
LINE
  5
533
100
AcDbEntity
  8
0
100
AcDbLine
 62
7
  6
CONTINUOUS
 10
424.1656741949
 20
426.1395423835
 11
423.8121222763
 21
425.9354203066
  0
LINE
  5
534
100
AcDbEntity
  8
0
100
AcDbLine
 62
7
  6
CONTINUOUS
 10
624.9817497559
 20
542.0800655947
 11
625.3353016745
 21
542.2841876717
  0
LINE
  5
535
100
AcDbEntity
  8
0
100
AcDbLine
 62
7
  6
CONTINUOUS
 10
425.0849168376
 20
425.6088294027
 11
424.731364919
 21
425.4047073257
  0
LINE
  5
536
100
AcDbEntity
  8
0
100
AcDbLine
 62
7
  6
CONTINUOUS
 10
625.9009923986
 20
541.5493526139
 11
626.2545443172
 21
541.7534746908
  0
LINE
  5
537
100
AcDbEntity
  8
0
100
AcDbLine
 62
7
  6
CONTINUOUS
 10
426.0041594803
 20
425.0781164218
 11
425.6506075617
 21
424.8739943448
  0
LINE
  5
538
100
AcDbEntity
  8
0
100
AcDbLine
 62
7
  6
CONTINUOUS
 10
626.8202350413
 20
541.018639633
 11
627.1737869599
 21
541.2227617099
  0
LINE
  5
539
100
AcDbEntity
  8
0
100
AcDbLine
 62
7
  6
CONTINUOUS
 10
426.923402123
 20
424.5474034409
 11
426.5698502043
 21
424.343281364
  0
LINE
  5
53A
100
AcDbEntity
  8
0
100
AcDbLine
 62
7
  6
CONTINUOUS
 10
627.739477684
 20
540.4879266521
 11
628.0930296026
 21
540.692048729
  0
LINE
  5
53B
100
AcDbEntity
  8
0
100
AcDbLine
 62
7
  6
CONTINUOUS
 10
427.8426447656
 20
424.01669046
 11
427.489092847
 21
423.8125683831
  0
LINE
  5
53C
100
AcDbEntity
  8
0
100
AcDbLine
 62
7
  6
CONTINUOUS
 10
628.6587203267
 20
539.9572136712
 11
629.0122722453
 21
540.1613357482
  0
LINE
  5
53D
100
AcDbEntity
  8
0
100
AcDbLine
 62
7
  6
CONTINUOUS
 10
618.1935387876
 20
533.5884661607
 11
619.2541945435
 21
534.2008323915
  0
LINE
  5
53E
100
AcDbEntity
  8
0
100
AcDbLine
 62
7
  6
CONTINUOUS
 10
420.4886671189
 20
430.8152346563
 11
419.6778842148
 21
430.3634735392
  0
LINE
  5
53F
100
AcDbEntity
  8
0
100
AcDbLine
 62
7
  6
CONTINUOUS
 10
617.0904401509
 20
536.1506494024
 11
616.4257791946
 21
535.7803061519
  0
LINE
  5
540
100
AcDbEntity
  8
0
100
AcDbLine
 62
7
  6
CONTINUOUS
 10
429.3275180755
 20
428.5200400447
 11
427.5597584825
 21
427.5350599168
  0
LINE
  5
541
100
AcDbEntity
  8
0
100
AcDbLine
 62
7
  6
CONTINUOUS
 10
616.4257791946
 20
528.5950848812
 11
619.2541945435
 21
530.1710530858
  0
LINE
  5
542
100
AcDbEntity
  8
0
100
AcDbLine
 62
7
  6
CONTINUOUS
 10
416.1694832307
 20
432.3890039682
 11
418.659786138
 21
433.3530711542
  0
LINE
  5
543
100
AcDbEntity
  8
0
100
AcDbLine
 62
7
  6
CONTINUOUS
 10
574.0529379021
 20
484.8428464001
 11
574.9580631476
 21
485.1508222309
  0
LINE
  5
544
100
AcDbEntity
  8
0
100
AcDbLine
 62
7
  6
CONTINUOUS
 10
318.5212609553
 20
612.0506729399
 11
319.581925543
 21
611.4383118081
  0
LINE
  5
545
100
AcDbEntity
  8
0
100
AcDbLine
 62
7
  6
CONTINUOUS
 10
557.8779029175
 20
473.8611775348
 11
558.9385675052
 21
473.248816403
  0
LINE
  5
546
100
AcDbEntity
  8
0
100
AcDbLine
 62
7
  6
CONTINUOUS
 10
330.0117026152
 20
606.2329970016
 11
330.3652590605
 21
606.0288757106
  0
LINE
  5
547
100
AcDbEntity
  8
0
100
AcDbLine
 62
7
  6
CONTINUOUS
 10
569.3683445775
 20
468.0435015965
 11
569.7219010228
 21
467.8393803055
  0
LINE
  5
548
100
AcDbEntity
  8
0
100
AcDbLine
 62
7
  6
CONTINUOUS
 10
562.0498208562
 20
473.0854743737
 11
561.4134309355
 21
473.4528859538
  0
LINE
  5
549
100
AcDbEntity
  8
0
100
AcDbLine
 62
7
  6
CONTINUOUS
 10
320.2890293802
 20
612.6630583792
 11
319.2283647925
 21
613.2754195109
  0
LINE
  5
54A
100
AcDbEntity
  8
0
100
AcDbLine
 62
7
  6
CONTINUOUS
 10
322.4810459764
 20
611.3974420052
 11
559.6456713425
 21
474.473562974
  0
LINE
  5
54B
100
AcDbEntity
  8
0
100
AcDbLine
 62
7
  6
CONTINUOUS
 10
563.8882943657
 20
473.2487670202
 11
563.1104720854
 21
473.6978327639
  0
LINE
  5
54C
100
AcDbEntity
  8
0
100
AcDbLine
 62
7
  6
CONTINUOUS
 10
322.0567889732
 20
612.8671663467
 11
320.2890205483
 21
613.8877857417
  0
LINE
  5
54D
100
AcDbEntity
  8
0
100
AcDbLine
 62
7
  6
CONTINUOUS
 10
561.4134309355
 20
474.6776709416
 11
559.6456625106
 21
475.6982903366
  0
LINE
  5
54E
100
AcDbEntity
  8
0
100
AcDbLine
 62
7
  6
CONTINUOUS
 10
322.4810459764
 20
614.6634516737
 11
562.0498208562
 21
476.3514840422
  0
LINE
  5
54F
100
AcDbEntity
  8
0
100
AcDbLine
 62
7
  6
CONTINUOUS
 10
563.8882943657
 20
476.1065254801
 11
563.110476612
 21
476.5555886104
  0
LINE
  5
550
100
AcDbEntity
  8
0
100
AcDbLine
 62
7
  6
CONTINUOUS
 10
318.5212609553
 20
618.582692277
 11
320.2890293802
 21
617.5620728819
  0
LINE
  5
551
100
AcDbEntity
  8
0
100
AcDbLine
 62
7
  6
CONTINUOUS
 10
557.8779029175
 20
480.3931968718
 11
559.6456713425
 21
479.3725774768
  0
LINE
  5
552
100
AcDbEntity
  8
0
100
AcDbLine
 62
7
  6
CONTINUOUS
 10
562.6711578184
 20
479.8771401016
 11
561.1508383071
 21
480.7548771236
  0
LINE
  5
553
100
AcDbEntity
  8
0
100
AcDbLine
 62
7
  6
CONTINUOUS
 10
557.8779029175
 20
482.6444645036
 11
323.1023829386
 21
618.189107733
  0
LINE
  5
554
100
AcDbEntity
  8
0
100
AcDbLine
 62
7
  6
CONTINUOUS
 10
564.5246752329
 20
479.0050869794
 11
565.3025020402
 21
478.5560186221
  0
LINE
  5
555
100
AcDbEntity
  8
0
100
AcDbLine
 62
7
  6
CONTINUOUS
 10
562.0498208562
 20
481.250498545
 11
561.4134309355
 21
481.6179101251
  0
LINE
  5
556
100
AcDbEntity
  8
0
100
AcDbLine
 62
7
  6
CONTINUOUS
 10
557.8779029175
 20
483.6591020001
 11
322.4810459764
 21
619.5624661765
  0
LINE
  5
557
100
AcDbEntity
  8
0
100
AcDbLine
 62
7
  6
CONTINUOUS
 10
564.1711323679
 20
481.2504773809
 11
563.110463032
 21
481.862841254
  0
LINE
  5
558
100
AcDbEntity
  8
0
100
AcDbLine
 62
7
  6
CONTINUOUS
 10
563.110476612
 20
483.0876079475
 11
565.3025020402
 21
481.8220282906
  0
LINE
  5
559
100
AcDbEntity
  8
0
100
AcDbLine
 62
7
  6
CONTINUOUS
 10
322.7638837569
 20
622.6651830705
 11
557.8779029175
 21
486.9251116686
  0
LINE
  5
55A
100
AcDbEntity
  8
0
100
AcDbLine
 62
7
  6
CONTINUOUS
 10
323.8245395127
 20
623.2775493013
 11
557.8779029175
 21
488.1498339322
  0
LINE
  5
55B
100
AcDbEntity
  8
0
100
AcDbLine
 62
7
  6
CONTINUOUS
 10
574.7220407978
 20
486.3796076388
 11
574.3726760397
 21
486.5813089129
  0
LINE
  5
55C
100
AcDbEntity
  8
0
100
AcDbLine
 62
7
  6
CONTINUOUS
 10
334.7846489895
 20
625.1145703921
 11
557.8779029175
 21
496.3145340285
  0
LINE
  5
55D
100
AcDbEntity
  8
0
100
AcDbLine
 62
7
  6
CONTINUOUS
 10
564.065070325
 20
493.9675140912
 11
563.7115138798
 21
494.1716353822
  0
LINE
  5
55E
100
AcDbEntity
  8
0
100
AcDbLine
 62
7
  6
CONTINUOUS
 10
324.7084283628
 20
632.1570094963
 11
324.3548719175
 21
632.3611307873
  0
LINE
  5
55F
100
AcDbEntity
  8
0
100
AcDbLine
 62
7
  6
CONTINUOUS
 10
564.0647944124
 20
495.1920872555
 11
563.7115184064
 21
495.3960466385
  0
LINE
  5
560
100
AcDbEntity
  8
0
100
AcDbLine
 62
7
  6
CONTINUOUS
 10
557.8779029175
 20
498.7640099178
 11
337.2595303052
 21
626.1352052123
  0
LINE
  5
561
100
AcDbEntity
  8
0
100
AcDbLine
 62
7
  6
CONTINUOUS
 10
590.4677111308
 20
400.0123857276
 11
592.3415997708
 21
398.0650304661
  0
LINE
  5
562
100
AcDbEntity
  8
0
100
AcDbLine
 62
7
  6
CONTINUOUS
 10
593.4022555266
 20
398.6773966969
 11
592.0766310787
 21
400.0549928294
  0
LINE
  5
563
100
AcDbEntity
  8
0
100
AcDbLine
 62
7
  6
CONTINUOUS
 10
592.3415997708
 20
393.8045235888
 11
590.4677111308
 21
395.7669864148
  0
LINE
  5
564
100
AcDbEntity
  8
0
100
AcDbLine
 62
7
  6
CONTINUOUS
 10
377.103888709
 20
370.9203432224
 11
377.8654800304
 21
371.6664287652
  0
LINE
  5
565
100
AcDbEntity
  8
0
100
AcDbLine
 62
7
  6
CONTINUOUS
 10
586.8685473464
 20
560.0017651952
 11
583.3464730548
 21
557.0114973906
  0
LINE
  5
566
100
AcDbEntity
  8
0
100
AcDbLine
 62
7
  6
CONTINUOUS
 10
585.736847458
 20
551.8557221301
 11
583.3464730548
 21
549.8262761198
  0
LINE
  5
567
100
AcDbEntity
  8
0
100
AcDbLine
 62
7
  6
CONTINUOUS
 10
618.1510959067
 20
530.3862863173
 11
616.4257791946
 21
529.3554054001
  0
LINE
  5
568
100
AcDbEntity
  8
0
100
AcDbLine
 62
7
  6
CONTINUOUS
 10
428.7618874083
 20
423.4859774792
 11
428.4083354897
 21
423.2818554022
  0
LINE
  5
569
100
AcDbEntity
  8
0
100
AcDbLine
 62
7
  6
CONTINUOUS
 10
629.5779629694
 20
539.4265006903
 11
629.931514888
 21
539.6306227673
  0
LINE
  5
56A
100
AcDbEntity
  8
0
100
AcDbLine
 62
7
  6
CONTINUOUS
 10
618.1510959067
 20
532.502508756
 11
617.0904401509
 21
531.8901425251
  0
LINE
  5
56B
100
AcDbEntity
  8
0
100
AcDbLine
 62
7
  6
CONTINUOUS
 10
564.065070325
 20
500.9077846368
 11
569.3683491041
 21
503.9696157908
  0
LINE
  5
56C
100
AcDbEntity
  8
0
100
AcDbLine
 62
7
  6
CONTINUOUS
 10
429.681130051
 20
422.9552644983
 11
429.3346760051
 21
422.7552403556
  0
LINE
  5
56D
100
AcDbEntity
  8
0
100
AcDbLine
 62
7
  6
CONTINUOUS
 10
630.4972056121
 20
538.8957877095
 11
630.843659658
 21
539.0958118522
  0
LINE
  5
56E
100
AcDbEntity
  8
0
100
AcDbLine
 62
7
  6
CONTINUOUS
 10
633.1662598609
 20
535.9460720074
 11
632.972101426
 21
535.8339752519
  0
LINE
  5
56F
100
AcDbEntity
  8
0
100
AcDbLine
 62
7
  6
CONTINUOUS
 10
434.7902827789
 20
421.4143319006
 11
434.9844412138
 21
421.5264286562
  0
LINE
  5
570
100
AcDbEntity
  8
0
100
AcDbLine
 62
7
  6
CONTINUOUS
 10
563.7115184064
 20
494.9881244759
 11
568.3076845164
 21
497.641706377
  0
LINE
  5
571
100
AcDbEntity
  8
0
100
AcDbLine
 62
7
  6
CONTINUOUS
 10
569.3683491041
 20
497.0293452452
 11
564.065070325
 21
493.9675140912
  0
LINE
  5
572
100
AcDbEntity
  8
0
100
AcDbLine
 62
7
  6
CONTINUOUS
 10
563.8882943657
 20
485.4963032771
 11
561.4134309355
 21
484.0674487386
  0
LINE
  5
573
100
AcDbEntity
  8
0
100
AcDbLine
 62
7
  6
CONTINUOUS
 10
560.7063270983
 20
479.9849437076
 11
559.6456713425
 21
479.3725774768
  0
LINE
  5
574
100
AcDbEntity
  8
0
100
AcDbLine
 62
7
  6
CONTINUOUS
 10
564.1711323679
 20
481.2504773809
 11
565.2317989878
 21
481.8628498841
  0
LINE
  5
575
100
AcDbEntity
  8
0
100
AcDbLine
 62
7
  6
CONTINUOUS
 10
574.4948519239
 20
487.129202291
 11
565.3025020402
 21
481.8220282906
  0
LINE
  5
576
100
AcDbEntity
  8
0
100
AcDbLine
 62
7
  6
CONTINUOUS
 10
574.0705860889
 20
485.7411419094
 11
564.1711323679
 21
480.0257237552
  0
LINE
  5
577
100
AcDbEntity
  8
0
100
AcDbLine
 62
7
  6
CONTINUOUS
 10
376.5057598403
 20
371.1877818465
 11
377.5466057677
 21
371.7887109358
  0
LINE
  5
578
100
AcDbEntity
  8
0
100
AcDbLine
 62
7
  6
CONTINUOUS
 10
574.1750618274
 20
485.3115253324
 11
574.4948342601
 21
485.4961449305
  0
LINE
  5
579
100
AcDbEntity
  8
0
100
AcDbLine
 62
7
  6
CONTINUOUS
 10
574.0705860889
 20
484.5163882837
 11
564.1711323679
 21
478.8009701295
  0
LINE
  5
57A
100
AcDbEntity
  8
0
100
AcDbLine
 62
7
  6
CONTINUOUS
 10
558.5850067547
 20
475.0859241058
 11
559.6456625106
 21
475.6982903366
  0
LINE
  5
57B
100
AcDbEntity
  8
0
100
AcDbLine
 62
7
  6
CONTINUOUS
 10
565.3025020402
 20
478.5560186221
 11
574.4948519239
 21
483.8631926225
  0
LINE
  5
57C
100
AcDbEntity
  8
0
100
AcDbLine
 62
7
  6
CONTINUOUS
 10
559.6456713425
 20
474.473562974
 11
560.7063270983
 21
475.0859292048
  0
LINE
  5
57D
100
AcDbEntity
  8
0
100
AcDbLine
 62
7
  6
CONTINUOUS
 10
561.4134309355
 20
473.0446449433
 11
561.7669830758
 21
473.2487671482
  0
LINE
  5
57E
100
AcDbEntity
  8
0
100
AcDbLine
 62
7
  6
CONTINUOUS
 10
562.0498208562
 20
473.0854743737
 11
563.110476612
 21
473.6978406045
  0
LINE
  5
57F
100
AcDbEntity
  8
0
100
AcDbLine
 62
7
  6
CONTINUOUS
 10
377.5466057677
 20
371.7887109358
 11
377.5862440825
 21
371.8111808612
  0
LINE
  5
580
100
AcDbEntity
  8
0
100
AcDbLine
 62
7
  6
CONTINUOUS
 10
328.9510425542
 20
635.8312017821
 11
330.0117071419
 21
635.2188406503
  0
LINE
  5
581
100
AcDbEntity
  8
0
100
AcDbLine
 62
7
  6
CONTINUOUS
 10
568.3076845164
 20
497.641706377
 11
569.3683491041
 21
497.0293452452
  0
LINE
  5
582
100
AcDbEntity
  8
0
100
AcDbLine
 62
7
  6
CONTINUOUS
 10
569.7219010228
 20
497.6417185307
 11
568.661236435
 21
498.2540796625
  0
LINE
  5
583
100
AcDbEntity
  8
0
100
AcDbLine
 62
7
  6
CONTINUOUS
 10
330.3652590605
 20
635.8312139358
 11
329.3045944728
 21
636.4435750676
  0
LINE
  5
584
100
AcDbEntity
  8
0
100
AcDbLine
 62
7
  6
CONTINUOUS
 10
330.0117026152
 20
642.1591033553
 11
330.3652590605
 21
641.9549820643
  0
LINE
  5
585
100
AcDbEntity
  8
0
100
AcDbLine
 62
7
  6
CONTINUOUS
 10
569.3683445775
 20
503.9696079502
 11
569.7219010228
 21
503.7654866592
  0
LINE
  5
586
100
AcDbEntity
  8
0
100
AcDbLine
 62
7
  6
CONTINUOUS
 10
325.9672131082
 20
655.9745600041
 11
326.4621899158
 21
655.688791476
  0
LINE
  5
587
100
AcDbEntity
  8
0
100
AcDbLine
 62
7
  6
CONTINUOUS
 10
615.2165515109
 20
385.7239593194
 11
617.0904401509
 21
383.7766040578
  0
LINE
  5
588
100
AcDbEntity
  8
0
100
AcDbLine
 62
7
  6
CONTINUOUS
 10
618.1510959067
 20
384.3889702886
 11
616.8254714589
 21
385.7665664212
  0
LINE
  5
589
100
AcDbEntity
  8
0
100
AcDbLine
 62
7
  6
CONTINUOUS
 10
594.5053541633
 20
402.2825933535
 11
592.7375739625
 21
404.1339322509
  0
LINE
  5
58A
100
AcDbEntity
  8
0
100
AcDbLine
 62
7
  6
CONTINUOUS
 10
617.0904401509
 20
379.5160971806
 11
615.2165515109
 21
381.4785600066
  0
LINE
  5
58B
100
AcDbEntity
  8
0
100
AcDbLine
 62
7
  6
CONTINUOUS
 10
619.2541945435
 20
387.9941669453
 11
617.4864143427
 21
389.8455058427
  0
LINE
  5
58C
100
AcDbEntity
  8
0
100
AcDbLine
 62
7
  6
CONTINUOUS
 10
557.8779029175
 20
555.5114192478
 11
558.5850067547
 21
556.7361658188
  0
LINE
  5
58D
100
AcDbEntity
  8
0
100
AcDbLine
 62
7
  6
CONTINUOUS
 10
559.6456713425
 20
556.123804687
 11
558.9385675052
 21
554.899058116
  0
LINE
  5
58E
100
AcDbEntity
  8
0
100
AcDbLine
 62
7
  6
CONTINUOUS
 10
563.2604909247
 20
559.1188699854
 11
563.808992602
 21
560.0689080323
  0
LINE
  5
58F
100
AcDbEntity
  8
0
100
AcDbLine
 62
7
  6
CONTINUOUS
 10
565.3025020402
 20
560.2062603351
 11
563.8882943657
 21
557.7567671931
  0
LINE
  5
590
100
AcDbEntity
  8
0
100
AcDbLine
 62
7
  6
CONTINUOUS
 10
611.6173877265
 20
545.713338787
 11
608.095313435
 21
542.7230709824
  0
LINE
  5
591
100
AcDbEntity
  8
0
100
AcDbLine
 62
7
  6
CONTINUOUS
 10
610.4856878381
 20
537.5672957219
 11
608.095313435
 21
535.5378497116
  0
LINE
  5
592
100
AcDbEntity
  8
0
100
AcDbLine
 62
7
  6
CONTINUOUS
 10
561.4134309355
 20
471.8199124816
 11
563.8882943657
 21
473.2487670202
  0
LINE
  5
593
100
AcDbEntity
  8
0
100
AcDbLine
 62
7
  6
CONTINUOUS
 10
564.065070325
 20
464.9816782831
 11
569.3683491041
 21
468.0435094371
  0
LINE
  5
594
100
AcDbEntity
  8
0
100
AcDbLine
 62
7
  6
CONTINUOUS
 10
563.7115184064
 20
459.0620181222
 11
568.3076845164
 21
461.7156000233
  0
LINE
  5
595
100
AcDbEntity
  8
0
100
AcDbLine
 62
7
  6
CONTINUOUS
 10
569.3683491041
 20
461.1032388915
 11
564.065070325
 21
458.0414077375
  0
LINE
  5
596
100
AcDbEntity
  8
0
100
AcDbLine
 62
7
  6
CONTINUOUS
 10
566.1989298056
 20
443.2817386228
 11
566.5764946562
 21
443.4437340692
  0
LINE
  5
597
100
AcDbEntity
  8
0
100
AcDbLine
 62
7
  6
CONTINUOUS
 10
574.9849264492
 20
565.8856097545
 11
574.0690246549
 21
566.1846248721
  0
LINE
  5
598
100
AcDbEntity
  8
0
100
AcDbLine
 62
7
  6
CONTINUOUS
 10
330.1671418467
 20
663.2492145383
 11
330.6621186543
 21
662.9634460101
  0
LINE
  5
599
100
AcDbEntity
  8
0
100
AcDbLine
 62
7
  6
CONTINUOUS
 10
564.065070325
 20
539.6916494504
 11
563.7115138798
 21
539.8957707414
  0
LINE
  5
59A
100
AcDbEntity
  8
0
100
AcDbLine
 62
7
  6
CONTINUOUS
 10
324.7084283628
 20
677.8811448555
 11
324.3548719175
 21
678.0852661466
  0
LINE
  5
59B
100
AcDbEntity
  8
0
100
AcDbLine
 62
7
  6
CONTINUOUS
 10
328.9510425542
 20
681.5553371414
 11
330.0117071419
 21
680.9429760096
  0
LINE
  5
59C
100
AcDbEntity
  8
0
100
AcDbLine
 62
7
  6
CONTINUOUS
 10
568.3076845164
 20
543.3658417362
 11
569.3683491041
 21
542.7534806045
  0
LINE
  5
59D
100
AcDbEntity
  8
0
100
AcDbLine
 62
7
  6
CONTINUOUS
 10
569.7219010228
 20
543.36585389
 11
568.661236435
 21
543.9782150217
  0
LINE
  5
59E
100
AcDbEntity
  8
0
100
AcDbLine
 62
7
  6
CONTINUOUS
 10
330.3652590605
 20
681.5553492951
 11
329.3045944728
 21
682.1677104269
  0
LINE
  5
59F
100
AcDbEntity
  8
0
100
AcDbLine
 62
7
  6
CONTINUOUS
 10
318.5212609553
 20
693.7009146529
 11
319.581925543
 21
693.0885535211
  0
LINE
  5
5A0
100
AcDbEntity
  8
0
100
AcDbLine
 62
7
  6
CONTINUOUS
 10
557.8779029175
 20
555.5114192478
 11
558.9385675052
 21
554.899058116
  0
LINE
  5
5A1
100
AcDbEntity
  8
0
100
AcDbLine
 62
7
  6
CONTINUOUS
 10
563.4211613625
 20
399.5259720213
 11
563.110476612
 21
400.2126230629
  0
LINE
  5
5A2
100
AcDbEntity
  8
0
100
AcDbLine
 62
7
  6
CONTINUOUS
 10
574.295566347
 20
567.290244692
 11
574.3017992821
 21
567.3019319347
  0
LINE
  5
5A3
100
AcDbEntity
  8
0
100
AcDbLine
 62
7
  6
CONTINUOUS
 10
421.0543943482
 20
346.0263572459
 11
421.4079462668
 21
346.2304793228
  0
LINE
  5
5A4
100
AcDbEntity
  8
0
100
AcDbLine
 62
7
  6
CONTINUOUS
 10
421.0543943482
 20
345.7282778267
 11
421.4079462668
 21
345.9323999036
  0
LINE
  5
5A5
100
AcDbEntity
  8
0
100
AcDbLine
 62
7
  6
CONTINUOUS
 10
422.8928796336
 20
346.7462611645
 11
423.2464315522
 21
346.9503832414
  0
LINE
  5
5A6
100
AcDbEntity
  8
0
100
AcDbLine
 62
7
  6
CONTINUOUS
 10
424.731364919
 20
347.4661650831
 11
425.0849168376
 21
347.67028716
  0
LINE
  5
5A7
100
AcDbEntity
  8
0
100
AcDbLine
 62
7
  6
CONTINUOUS
 10
426.5698502043
 20
348.1860690017
 11
426.923402123
 21
348.3901910787
  0
LINE
  5
5A8
100
AcDbEntity
  8
0
100
AcDbLine
 62
7
  6
CONTINUOUS
 10
428.4083354897
 20
348.9059729204
 11
428.7618874083
 21
349.1100949973
  0
LINE
  5
5A9
100
AcDbEntity
  8
0
100
AcDbLine
 62
7
  6
CONTINUOUS
 10
421.9736369909
 20
344.3068999056
 11
422.3271889095
 21
344.5110219825
  0
LINE
  5
5AA
100
AcDbEntity
  8
0
100
AcDbLine
 62
7
  6
CONTINUOUS
 10
422.8928796336
 20
342.8855219845
 11
423.2464315522
 21
343.0896440615
  0
LINE
  5
5AB
100
AcDbEntity
  8
0
100
AcDbLine
 62
7
  6
CONTINUOUS
 10
423.8121222763
 20
341.4641440635
 11
424.1656741949
 21
341.6682661404
  0
LINE
  5
5AC
100
AcDbEntity
  8
0
100
AcDbLine
 62
7
  6
CONTINUOUS
 10
424.731364919
 20
340.0427661424
 11
425.0849168376
 21
340.2468882194
  0
LINE
  5
5AD
100
AcDbEntity
  8
0
100
AcDbLine
 62
7
  6
CONTINUOUS
 10
564.065070325
 20
419.2575429238
 11
569.3683491041
 21
422.3193740778
  0
LINE
  5
5AE
100
AcDbEntity
  8
0
100
AcDbLine
 62
7
  6
CONTINUOUS
 10
425.6506075617
 20
338.6213882214
 11
426.0041594803
 21
338.8255102983
  0
LINE
  5
5AF
100
AcDbEntity
  8
0
100
AcDbLine
 62
7
  6
CONTINUOUS
 10
420.9005725794
 20
345.9661245668
 11
421.0543943482
 21
346.0263572459
  0
LINE
  5
5B0
100
AcDbEntity
  8
0
100
AcDbLine
 62
7
  6
CONTINUOUS
 10
421.9736369909
 20
346.3863092052
 11
422.8928796336
 21
346.7462611645
  0
LINE
  5
5B1
100
AcDbEntity
  8
0
100
AcDbLine
 62
7
  6
CONTINUOUS
 10
423.8121222763
 20
347.1062131238
 11
424.731364919
 21
347.4661650831
  0
LINE
  5
5B2
100
AcDbEntity
  8
0
100
AcDbLine
 62
7
  6
CONTINUOUS
 10
425.6506075617
 20
347.8261170424
 11
426.5698502043
 21
348.1860690017
  0
LINE
  5
5B3
100
AcDbEntity
  8
0
100
AcDbLine
 62
7
  6
CONTINUOUS
 10
427.489092847
 20
348.5460209611
 11
428.4083354897
 21
348.9059729204
  0
LINE
  5
5B4
100
AcDbEntity
  8
0
100
AcDbLine
 62
7
  6
CONTINUOUS
 10
330.0117026152
 20
687.8832387146
 11
330.3652590605
 21
687.6791174236
  0
LINE
  5
5B5
100
AcDbEntity
  8
0
100
AcDbLine
 62
7
  6
CONTINUOUS
 10
569.3683445775
 20
549.6937433094
 11
569.7219010228
 21
549.4896220184
  0
LINE
  5
5B6
100
AcDbEntity
  8
0
100
AcDbLine
 62
7
  6
CONTINUOUS
 10
562.0498208562
 20
554.7357160867
 11
561.4134309355
 21
555.1031276667
  0
LINE
  5
5B7
100
AcDbEntity
  8
0
100
AcDbLine
 62
7
  6
CONTINUOUS
 10
320.2890293802
 20
694.3133000921
 11
319.2283647925
 21
694.9256612239
  0
LINE
  5
5B8
100
AcDbEntity
  8
0
100
AcDbLine
 62
7
  6
CONTINUOUS
 10
322.4810459764
 20
693.0476837181
 11
559.6456713425
 21
556.123804687
  0
LINE
  5
5B9
100
AcDbEntity
  8
0
100
AcDbLine
 62
7
  6
CONTINUOUS
 10
563.8882943657
 20
554.8990087331
 11
563.1104720854
 21
555.3480744769
  0
LINE
  5
5BA
100
AcDbEntity
  8
0
100
AcDbLine
 62
7
  6
CONTINUOUS
 10
322.0567889732
 20
694.5174080597
 11
320.2890205483
 21
695.5380274547
  0
LINE
  5
5BB
100
AcDbEntity
  8
0
100
AcDbLine
 62
7
  6
CONTINUOUS
 10
561.4134309355
 20
556.3279126545
 11
559.6456625106
 21
557.3485320496
  0
LINE
  5
5BC
100
AcDbEntity
  8
0
100
AcDbLine
 62
7
  6
CONTINUOUS
 10
322.4810459764
 20
696.3136933867
 11
562.0498208562
 21
558.0017257552
  0
LINE
  5
5BD
100
AcDbEntity
  8
0
100
AcDbLine
 62
7
  6
CONTINUOUS
 10
563.8882943657
 20
557.7567671931
 11
563.110476612
 21
558.2058303234
  0
LINE
  5
5BE
100
AcDbEntity
  8
0
100
AcDbLine
 62
7
  6
CONTINUOUS
 10
285.4984278258
 20
719.6517579967
 11
293.6047923953
 21
714.9716521085
  0
LINE
  5
5BF
100
AcDbEntity
  8
0
100
AcDbLine
 62
7
  6
CONTINUOUS
 10
310.247268206
 20
705.3633315885
 11
318.3536327754
 21
700.6832257003
  0
LINE
  5
5C0
100
AcDbEntity
  8
0
100
AcDbLine
 62
7
  6
CONTINUOUS
 10
583.570574245
 20
547.5636171775
 11
591.6769388145
 21
542.8835112894
  0
LINE
  5
5C1
100
AcDbEntity
  8
0
100
AcDbLine
 62
7
  6
CONTINUOUS
 10
608.3194146252
 20
533.2751907693
 11
616.4257791946
 21
528.5950848812
  0
LINE
  5
5C2
100
AcDbEntity
  8
0
100
AcDbLine
 62
7
  6
CONTINUOUS
 10
285.4984278258
 20
720.4120785156
 11
293.6047923953
 21
715.7319726274
  0
LINE
  5
5C3
100
AcDbEntity
  8
0
100
AcDbLine
 62
7
  6
CONTINUOUS
 10
310.247268206
 20
706.1236521074
 11
318.3536327754
 21
701.4435462192
  0
LINE
  5
5C4
100
AcDbEntity
  8
0
100
AcDbLine
 62
7
  6
CONTINUOUS
 10
583.570574245
 20
548.3239376964
 11
591.6769388145
 21
543.6438318083
  0
LINE
  5
5C5
100
AcDbEntity
  8
0
100
AcDbLine
 62
7
  6
CONTINUOUS
 10
608.3194146252
 20
534.0355112882
 11
616.4257791946
 21
529.3554054001
  0
LINE
  5
5C6
100
AcDbEntity
  8
0
100
AcDbLine
 62
7
  6
CONTINUOUS
 10
564.5246752329
 20
560.6553286924
 11
565.3025020402
 21
560.2062603351
  0
LINE
  5
5C7
100
AcDbEntity
  8
0
100
AcDbLine
 62
7
  6
CONTINUOUS
 10
564.1711323679
 20
561.6759654682
 11
324.6023574881
 21
699.9879330997
  0
LINE
  5
5C8
100
AcDbEntity
  8
0
100
AcDbLine
 62
7
  6
CONTINUOUS
 10
616.2772072667
 20
532.3487491433
 11
611.5278296247
 21
535.0907415713
  0
LINE
  5
5C9
100
AcDbEntity
  8
0
100
AcDbLine
 62
7
  6
CONTINUOUS
 10
591.5283668866
 20
546.6371755515
 11
586.7789892446
 21
549.3791679795
  0
LINE
  5
5CA
100
AcDbEntity
  8
0
100
AcDbLine
 62
7
  6
CONTINUOUS
 10
290.5967266142
 20
720.3762085684
 11
295.3461042562
 21
717.6342161404
  0
LINE
  5
5CB
100
AcDbEntity
  8
0
100
AcDbLine
 62
7
  6
CONTINUOUS
 10
315.3455669943
 20
706.0877821601
 11
320.0949446364
 21
703.3457897322
  0
LINE
  5
5CC
100
AcDbEntity
  8
0
100
AcDbLine
 62
7
  6
CONTINUOUS
 10
615.2165515109
 20
533.8374977867
 11
610.4856878381
 21
536.5688014113
  0
LINE
  5
5CD
100
AcDbEntity
  8
0
100
AcDbLine
 62
7
  6
CONTINUOUS
 10
590.4677111308
 20
548.1259241949
 11
585.736847458
 21
550.8572278195
  0
LINE
  5
5CE
100
AcDbEntity
  8
0
100
AcDbLine
 62
7
  6
CONTINUOUS
 10
289.5360708584
 20
721.8649572117
 11
294.2669345312
 21
719.1336535871
  0
LINE
  5
5CF
100
AcDbEntity
  8
0
100
AcDbLine
 62
7
  6
CONTINUOUS
 10
314.2849112385
 20
707.5765308035
 11
319.0157749113
 21
704.8452271789
  0
LINE
  5
5D0
100
AcDbEntity
  8
0
100
AcDbLine
 62
7
  6
CONTINUOUS
 10
298.3677794864
 20
719.3787717687
 11
301.196218387
 21
717.7458087507
  0
LINE
  5
5D1
100
AcDbEntity
  8
0
100
AcDbLine
 62
7
  6
CONTINUOUS
 10
323.1166198666
 20
705.0903453605
 11
325.9450587671
 21
703.4573823425
  0
LINE
  5
5D2
100
AcDbEntity
  8
0
100
AcDbLine
 62
7
  6
CONTINUOUS
 10
616.4257791946
 20
535.7803061519
 11
608.3194146252
 21
540.4604120401
  0
LINE
  5
5D3
100
AcDbEntity
  8
0
100
AcDbLine
 62
7
  6
CONTINUOUS
 10
591.6769388145
 20
550.0687325601
 11
583.570574245
 21
554.7488384483
  0
LINE
  5
5D4
100
AcDbEntity
  8
0
100
AcDbLine
 62
7
  6
CONTINUOUS
 10
318.3536327754
 20
707.868446971
 11
310.247268206
 21
712.5485528592
  0
LINE
  5
5D5
100
AcDbEntity
  8
0
100
AcDbLine
 62
7
  6
CONTINUOUS
 10
293.6047923953
 20
722.1568733792
 11
285.4984278258
 21
726.8369792674
  0
LINE
  5
5D6
100
AcDbEntity
  8
0
100
AcDbLine
 62
7
  6
CONTINUOUS
 10
285.4984278258
 20
727.5972997863
 11
293.6047923953
 21
722.9171938981
  0
LINE
  5
5D7
100
AcDbEntity
  8
0
100
AcDbLine
 62
7
  6
CONTINUOUS
 10
310.247268206
 20
713.3088733781
 11
318.3536327754
 21
708.6287674899
  0
LINE
  5
5D8
100
AcDbEntity
  8
0
100
AcDbLine
 62
7
  6
CONTINUOUS
 10
583.570574245
 20
555.5091589672
 11
591.6769388145
 21
550.829053079
  0
LINE
  5
5D9
100
AcDbEntity
  8
0
100
AcDbLine
 62
7
  6
CONTINUOUS
 10
608.3194146252
 20
541.220732559
 11
616.4257791946
 21
536.5406266708
  0
LINE
  5
5DA
100
AcDbEntity
  8
0
100
AcDbLine
 62
7
  6
CONTINUOUS
 10
616.4257585868
 20
539.4482062096
 11
612.5366550985
 21
541.6935303595
  0
LINE
  5
5DB
100
AcDbEntity
  8
0
100
AcDbLine
 62
7
  6
CONTINUOUS
 10
591.6769182067
 20
553.7366326179
 11
587.7878147184
 21
555.9819567677
  0
LINE
  5
5DC
100
AcDbEntity
  8
0
100
AcDbLine
 62
7
  6
CONTINUOUS
 10
319.0861191625
 20
711.1134434854
 11
315.1970156742
 21
713.3587676353
  0
LINE
  5
5DD
100
AcDbEntity
  8
0
100
AcDbLine
 62
7
  6
CONTINUOUS
 10
294.3372787824
 20
725.4018698936
 11
290.4481752941
 21
727.6471940435
  0
LINE
  5
5DE
100
AcDbEntity
  8
0
100
AcDbLine
 62
7
  6
CONTINUOUS
 10
615.5064912148
 20
543.4680146371
 11
611.6173877265
 21
545.713338787
  0
LINE
  5
5DF
100
AcDbEntity
  8
0
100
AcDbLine
 62
7
  6
CONTINUOUS
 10
590.7576508347
 20
557.7564410453
 11
586.8685473464
 21
560.0017651952
  0
LINE
  5
5E0
100
AcDbEntity
  8
0
100
AcDbLine
 62
7
  6
CONTINUOUS
 10
297.3071148987
 20
727.1763541713
 11
301.196218387
 21
724.9310300214
  0
LINE
  5
5E1
100
AcDbEntity
  8
0
100
AcDbLine
 62
7
  6
CONTINUOUS
 10
322.0559552788
 20
712.8879277631
 11
325.9450587671
 21
710.6426036132
  0
LINE
  5
5E2
100
AcDbEntity
  8
0
100
AcDbLine
 62
7
  6
CONTINUOUS
 10
334.5018112091
 20
705.7033512539
 11
574.0705860889
 21
567.3913836224
  0
LINE
  5
5E3
100
AcDbEntity
  8
0
100
AcDbLine
 62
7
  6
CONTINUOUS
 10
574.7220407978
 20
568.0298493518
 11
336.8503015939
 21
705.3620551441
  0
LINE
  5
5E4
100
AcDbEntity
  8
0
100
AcDbLine
 62
7
  6
CONTINUOUS
 10
632.972101426
 20
535.8339752519
 11
576.8275892493
 21
568.2482911608
  0
LINE
  5
5E5
100
AcDbEntity
  8
0
100
AcDbLine
 62
7
  6
CONTINUOUS
 10
335.9860168642
 20
707.2950921504
 11
279.8415046876
 21
739.7094080593
  0
LINE
  5
5E6
100
AcDbEntity
  8
0
100
AcDbLine
 62
7
  6
CONTINUOUS
 10
311.8028524883
 20
722.8898957718
 11
310.8836098456
 21
723.4206087526
  0
LINE
  5
5E7
100
AcDbEntity
  8
0
100
AcDbLine
 62
7
  6
CONTINUOUS
 10
309.964367203
 20
723.9513217335
 11
309.0451245603
 21
724.4820347144
  0
LINE
  5
5E8
100
AcDbEntity
  8
0
100
AcDbLine
 62
7
  6
CONTINUOUS
 10
308.1258819176
 20
725.0127476953
 11
307.2066392749
 21
725.5434606762
  0
LINE
  5
5E9
100
AcDbEntity
  8
0
100
AcDbLine
 62
7
  6
CONTINUOUS
 10
306.2873966322
 20
726.074173657
 11
305.3681539895
 21
726.6048866379
  0
LINE
  5
5EA
100
AcDbEntity
  8
0
100
AcDbLine
 62
7
  6
CONTINUOUS
 10
304.4489113468
 20
727.1355996188
 11
303.5296687041
 21
727.6663125997
  0
LINE
  5
5EB
100
AcDbEntity
  8
0
100
AcDbLine
 62
7
  6
CONTINUOUS
 10
302.6104260614
 20
728.1970255805
 11
301.6911834187
 21
728.7277385614
  0
LINE
  5
5EC
100
AcDbEntity
  8
0
100
AcDbLine
 62
7
  6
CONTINUOUS
 10
300.771940776
 20
729.2584515423
 11
299.8526981334
 21
729.7891645232
  0
LINE
  5
5ED
100
AcDbEntity
  8
0
100
AcDbLine
 62
7
  6
CONTINUOUS
 10
298.9334554907
 20
730.319877504
 11
298.014212848
 21
730.8505904849
  0
LINE
  5
5EE
100
AcDbEntity
  8
0
100
AcDbLine
 62
7
  6
CONTINUOUS
 10
297.0949702053
 20
731.3813034658
 11
296.1757275626
 21
731.9120164467
  0
LINE
  5
5EF
100
AcDbEntity
  8
0
100
AcDbLine
 62
7
  6
CONTINUOUS
 10
295.2564849199
 20
732.4427294275
 11
294.3372422772
 21
732.9734424084
  0
LINE
  5
5F0
100
AcDbEntity
  8
0
100
AcDbLine
 62
7
  6
CONTINUOUS
 10
293.4179996345
 20
733.5041553893
 11
292.4987569918
 21
734.0348683702
  0
LINE
  5
5F1
100
AcDbEntity
  8
0
100
AcDbLine
 62
7
  6
CONTINUOUS
 10
291.5795143491
 20
734.5655813511
 11
290.6602717064
 21
735.0962943319
  0
LINE
  5
5F2
100
AcDbEntity
  8
0
100
AcDbLine
 62
7
  6
CONTINUOUS
 10
289.7410290638
 20
735.6270073128
 11
288.8217864211
 21
736.1577202937
  0
LINE
  5
5F3
100
AcDbEntity
  8
0
100
AcDbLine
 62
7
  6
CONTINUOUS
 10
287.9025437784
 20
736.6884332746
 11
286.9833011357
 21
737.2191462554
  0
LINE
  5
5F4
100
AcDbEntity
  8
0
100
AcDbLine
 62
7
  6
CONTINUOUS
 10
286.064058493
 20
737.7498592363
 11
285.1448158503
 21
738.2805722172
  0
LINE
  5
5F5
100
AcDbEntity
  8
0
100
AcDbLine
 62
7
  6
CONTINUOUS
 10
603.839168974
 20
554.2864641549
 11
604.7584116167
 21
553.755751174
  0
LINE
  5
5F6
100
AcDbEntity
  8
0
100
AcDbLine
 62
7
  6
CONTINUOUS
 10
605.6776542594
 20
553.2250381931
 11
606.5968969021
 21
552.6943252123
  0
LINE
  5
5F7
100
AcDbEntity
  8
0
100
AcDbLine
 62
7
  6
CONTINUOUS
 10
607.5161395448
 20
552.1636122314
 11
608.4353821875
 21
551.6328992505
  0
LINE
  5
5F8
100
AcDbEntity
  8
0
100
AcDbLine
 62
7
  6
CONTINUOUS
 10
609.3546248302
 20
551.1021862696
 11
610.2738674729
 21
550.5714732888
  0
LINE
  5
5F9
100
AcDbEntity
  8
0
100
AcDbLine
 62
7
  6
CONTINUOUS
 10
611.1931101156
 20
550.0407603079
 11
612.1123527583
 21
549.510047327
  0
LINE
  5
5FA
100
AcDbEntity
  8
0
100
AcDbLine
 62
7
  6
CONTINUOUS
 10
613.031595401
 20
548.9793343461
 11
613.9508380436
 21
548.4486213652
  0
LINE
  5
5FB
100
AcDbEntity
  8
0
100
AcDbLine
 62
7
  6
CONTINUOUS
 10
614.8700806863
 20
547.9179083844
 11
615.789323329
 21
547.3871954035
  0
LINE
  5
5FC
100
AcDbEntity
  8
0
100
AcDbLine
 62
7
  6
CONTINUOUS
 10
616.7085659717
 20
546.8564824226
 11
617.6278086144
 21
546.3257694417
  0
LINE
  5
5FD
100
AcDbEntity
  8
0
100
AcDbLine
 62
7
  6
CONTINUOUS
 10
618.5470512571
 20
545.7950564609
 11
619.4662938998
 21
545.26434348
  0
LINE
  5
5FE
100
AcDbEntity
  8
0
100
AcDbLine
 62
7
  6
CONTINUOUS
 10
620.3855365425
 20
544.7336304991
 11
621.3047791852
 21
544.2029175182
  0
LINE
  5
5FF
100
AcDbEntity
  8
0
100
AcDbLine
 62
7
  6
CONTINUOUS
 10
622.2240218279
 20
543.6722045374
 11
623.1432644706
 21
543.1414915565
  0
LINE
  5
600
100
AcDbEntity
  8
0
100
AcDbLine
 62
7
  6
CONTINUOUS
 10
624.0625071132
 20
542.6107785756
 11
624.9817497559
 21
542.0800655947
  0
LINE
  5
601
100
AcDbEntity
  8
0
100
AcDbLine
 62
7
  6
CONTINUOUS
 10
625.9009923986
 20
541.5493526139
 11
626.8202350413
 21
541.018639633
  0
LINE
  5
602
100
AcDbEntity
  8
0
100
AcDbLine
 62
7
  6
CONTINUOUS
 10
627.739477684
 20
540.4879266521
 11
628.6587203267
 21
539.9572136712
  0
LINE
  5
603
100
AcDbEntity
  8
0
100
AcDbLine
 62
7
  6
CONTINUOUS
 10
629.5779629694
 20
539.4265006903
 11
630.4972056121
 21
538.8957877095
  0
LINE
  5
604
100
AcDbEntity
  8
0
100
AcDbLine
 62
7
  6
CONTINUOUS
 10
629.931514888
 20
539.6306227673
 11
629.0122722453
 21
540.1613357482
  0
LINE
  5
605
100
AcDbEntity
  8
0
100
AcDbLine
 62
7
  6
CONTINUOUS
 10
628.0930296026
 20
540.692048729
 11
627.1737869599
 21
541.2227617099
  0
LINE
  5
606
100
AcDbEntity
  8
0
100
AcDbLine
 62
7
  6
CONTINUOUS
 10
626.2545443172
 20
541.7534746908
 11
625.3353016745
 21
542.2841876717
  0
LINE
  5
607
100
AcDbEntity
  8
0
100
AcDbLine
 62
7
  6
CONTINUOUS
 10
624.4160590319
 20
542.8149006525
 11
623.4968163892
 21
543.3456136334
  0
LINE
  5
608
100
AcDbEntity
  8
0
100
AcDbLine
 62
7
  6
CONTINUOUS
 10
622.5775737465
 20
543.8763266143
 11
621.6583311038
 21
544.4070395952
  0
LINE
  5
609
100
AcDbEntity
  8
0
100
AcDbLine
 62
7
  6
CONTINUOUS
 10
620.7390884611
 20
544.937752576
 11
619.8198458184
 21
545.4684655569
  0
LINE
  5
60A
100
AcDbEntity
  8
0
100
AcDbLine
 62
7
  6
CONTINUOUS
 10
618.9006031757
 20
545.9991785378
 11
617.981360533
 21
546.5298915187
  0
LINE
  5
60B
100
AcDbEntity
  8
0
100
AcDbLine
 62
7
  6
CONTINUOUS
 10
617.0621178903
 20
547.0606044996
 11
616.1428752476
 21
547.5913174804
  0
LINE
  5
60C
100
AcDbEntity
  8
0
100
AcDbLine
 62
7
  6
CONTINUOUS
 10
615.2236326049
 20
548.1220304613
 11
614.3043899623
 21
548.6527434422
  0
LINE
  5
60D
100
AcDbEntity
  8
0
100
AcDbLine
 62
7
  6
CONTINUOUS
 10
613.3851473196
 20
549.1834564231
 11
612.4659046769
 21
549.7141694039
  0
LINE
  5
60E
100
AcDbEntity
  8
0
100
AcDbLine
 62
7
  6
CONTINUOUS
 10
611.5466620342
 20
550.2448823848
 11
610.6274193915
 21
550.7755953657
  0
LINE
  5
60F
100
AcDbEntity
  8
0
100
AcDbLine
 62
7
  6
CONTINUOUS
 10
609.7081767488
 20
551.3063083466
 11
608.7889341061
 21
551.8370213274
  0
LINE
  5
610
100
AcDbEntity
  8
0
100
AcDbLine
 62
7
  6
CONTINUOUS
 10
607.8696914634
 20
552.3677343083
 11
606.9504488207
 21
552.8984472892
  0
LINE
  5
611
100
AcDbEntity
  8
0
100
AcDbLine
 62
7
  6
CONTINUOUS
 10
606.031206178
 20
553.4291602701
 11
605.1119635353
 21
553.9598732509
  0
LINE
  5
612
100
AcDbEntity
  8
0
100
AcDbLine
 62
7
  6
CONTINUOUS
 10
604.1927208927
 20
554.4905862318
 11
582.7849384662
 21
566.850095569
  0
LINE
  5
613
100
AcDbEntity
  8
0
100
AcDbLine
 62
7
  6
CONTINUOUS
 10
333.5641868334
 20
710.7345085115
 11
312.1564044069
 21
723.0940178487
  0
LINE
  5
614
100
AcDbEntity
  8
0
100
AcDbLine
 62
7
  6
CONTINUOUS
 10
311.2371617643
 20
723.6247308296
 11
310.3179191216
 21
724.1554438105
  0
LINE
  5
615
100
AcDbEntity
  8
0
100
AcDbLine
 62
7
  6
CONTINUOUS
 10
309.3986764789
 20
724.6861567913
 11
308.4794338362
 21
725.2168697722
  0
LINE
  5
616
100
AcDbEntity
  8
0
100
AcDbLine
 62
7
  6
CONTINUOUS
 10
307.5601911935
 20
725.7475827531
 11
306.6409485508
 21
726.278295734
  0
LINE
  5
617
100
AcDbEntity
  8
0
100
AcDbLine
 62
7
  6
CONTINUOUS
 10
305.7217059081
 20
726.8090087148
 11
304.8024632654
 21
727.3397216957
  0
LINE
  5
618
100
AcDbEntity
  8
0
100
AcDbLine
 62
7
  6
CONTINUOUS
 10
303.8832206227
 20
727.8704346766
 11
302.96397798
 21
728.4011476575
  0
LINE
  5
619
100
AcDbEntity
  8
0
100
AcDbLine
 62
7
  6
CONTINUOUS
 10
302.0447353373
 20
728.9318606383
 11
301.1254926947
 21
729.4625736192
  0
LINE
  5
61A
100
AcDbEntity
  8
0
100
AcDbLine
 62
7
  6
CONTINUOUS
 10
300.206250052
 20
729.9932866001
 11
299.2870074093
 21
730.523999581
  0
LINE
  5
61B
100
AcDbEntity
  8
0
100
AcDbLine
 62
7
  6
CONTINUOUS
 10
298.3677647666
 20
731.0547125619
 11
297.4485221239
 21
731.5854255427
  0
LINE
  5
61C
100
AcDbEntity
  8
0
100
AcDbLine
 62
7
  6
CONTINUOUS
 10
296.5292794812
 20
732.1161385236
 11
295.6100368385
 21
732.6468515045
  0
LINE
  5
61D
100
AcDbEntity
  8
0
100
AcDbLine
 62
7
  6
CONTINUOUS
 10
294.6907941958
 20
733.1775644854
 11
293.7715515531
 21
733.7082774662
  0
LINE
  5
61E
100
AcDbEntity
  8
0
100
AcDbLine
 62
7
  6
CONTINUOUS
 10
292.8523089104
 20
734.2389904471
 11
291.9330662677
 21
734.769703428
  0
LINE
  5
61F
100
AcDbEntity
  8
0
100
AcDbLine
 62
7
  6
CONTINUOUS
 10
291.0138236251
 20
735.3004164089
 11
290.0945809824
 21
735.8311293897
  0
LINE
  5
620
100
AcDbEntity
  8
0
100
AcDbLine
 62
7
  6
CONTINUOUS
 10
289.1753383397
 20
736.3618423706
 11
288.256095697
 21
736.8925553515
  0
LINE
  5
621
100
AcDbEntity
  8
0
100
AcDbLine
 62
7
  6
CONTINUOUS
 10
287.3368530543
 20
737.4232683324
 11
286.4176104116
 21
737.9539813132
  0
LWPOLYLINE
  5
622
100
AcDbEntity
  8
0
100
AcDbPolyline
 62
7
  6
CONTINUOUS
 90
5
 70
0
 10
574.1924226829
 20
567.0242041251
 10
574.2260901319
 20
567.1255724452
 10
574.2559079914
 20
567.2031007217
 10
574.2796852195
 20
567.2576257078
 10
574.295566347
 20
567.290244692
  0
LINE
  5
623
100
AcDbEntity
  8
0
100
AcDbLine
 62
7
  6
CONTINUOUS
 10
574.2955663458
 20
485.6400029766
 11
574.3017992817
 21
485.651690221
  0
LINE
  5
624
100
AcDbEntity
  8
0
100
AcDbLine
 62
7
  6
CONTINUOUS
 10
560.7063270983
 20
479.9849437076
 11
561.4134309355
 21
481.2096902786
  0
LINE
  5
625
100
AcDbEntity
  8
0
100
AcDbLine
 62
7
  6
CONTINUOUS
 10
557.8779029175
 20
473.8611775348
 11
558.5850067547
 21
475.0859241058
  0
LINE
  5
626
100
AcDbEntity
  8
0
100
AcDbLine
 62
7
  6
CONTINUOUS
 10
559.6456713425
 20
474.473562974
 11
558.9385675052
 21
473.248816403
  0
LINE
  5
627
100
AcDbEntity
  8
0
100
AcDbLine
 62
7
  6
CONTINUOUS
 10
563.2604909247
 20
477.4686282725
 11
563.808992602
 21
478.4186663193
  0
LINE
  5
628
100
AcDbEntity
  8
0
100
AcDbLine
 62
7
  6
CONTINUOUS
 10
565.3025020402
 20
478.5560186221
 11
563.8882943657
 21
476.1065254801
  0
LINE
  5
629
100
AcDbEntity
  8
0
100
AcDbLine
 62
7
  6
CONTINUOUS
 10
590.7576508347
 20
407.5199962935
 11
588.8484704742
 21
406.3792564007
  0
LINE
  5
62A
100
AcDbEntity
  8
0
100
AcDbLine
 62
7
  6
CONTINUOUS
 10
426.5698502043
 20
337.2000103003
 11
426.923402123
 21
337.4041323772
  0
LINE
  5
62B
100
AcDbEntity
  8
0
100
AcDbLine
 62
7
  6
CONTINUOUS
 10
427.489092847
 20
335.7786323792
 11
427.8426447656
 21
335.9827544562
  0
LINE
  5
62C
100
AcDbEntity
  8
0
100
AcDbLine
 62
7
  6
CONTINUOUS
 10
563.7115184064
 20
413.3378827629
 11
568.3076845164
 21
415.991464664
  0
LINE
  5
62D
100
AcDbEntity
  8
0
100
AcDbLine
 62
7
  6
CONTINUOUS
 10
428.4083354897
 20
334.3572544582
 11
428.7618874083
 21
334.5613765351
  0
LINE
  5
62E
100
AcDbEntity
  8
0
100
AcDbLine
 62
7
  6
CONTINUOUS
 10
569.3683491041
 20
415.3791035322
 11
564.065070325
 21
412.3172723782
  0
LINE
  5
62F
100
AcDbEntity
  8
0
100
AcDbLine
 62
7
  6
CONTINUOUS
 10
429.3346760051
 20
332.9399744713
 11
429.681130051
 21
333.139998614
  0
LINE
  5
630
100
AcDbEntity
  8
0
100
AcDbLine
 62
7
  6
CONTINUOUS
 10
563.8882943657
 20
403.8460615642
 11
561.4134309355
 21
402.4172070256
  0
LINE
  5
631
100
AcDbEntity
  8
0
100
AcDbLine
 62
7
  6
CONTINUOUS
 10
560.7063270983
 20
398.3347019947
 11
559.6456713425
 21
397.7223357638
  0
LINE
  5
632
100
AcDbEntity
  8
0
100
AcDbLine
 62
7
  6
CONTINUOUS
 10
564.1711323679
 20
399.600235668
 11
565.2317989878
 21
400.2126081711
  0
LINE
  5
633
100
AcDbEntity
  8
0
100
AcDbLine
 62
7
  6
CONTINUOUS
 10
574.4948519239
 20
405.478960578
 11
565.3025020402
 21
400.1717865777
  0
LINE
  5
634
100
AcDbEntity
  8
0
100
AcDbLine
 62
7
  6
CONTINUOUS
 10
564.1711323679
 20
398.3754820423
 11
574.0705860889
 21
404.0909001965
  0
LINE
  5
635
100
AcDbEntity
  8
0
100
AcDbLine
 62
7
  6
CONTINUOUS
 10
315.3455669943
 20
706.0877821601
 11
311.9725849181
 21
707.1545330246
  0
LINE
  5
636
100
AcDbEntity
  8
0
100
AcDbLine
 62
7
  6
CONTINUOUS
 10
290.5967266142
 20
720.3762085684
 11
287.223744538
 21
721.4429594328
  0
LINE
  5
637
100
AcDbEntity
  8
0
100
AcDbLine
 62
7
  6
CONTINUOUS
 10
315.1970156742
 20
713.3587676353
 11
312.015027799
 21
714.3651140195
  0
LINE
  5
638
100
AcDbEntity
  8
0
100
AcDbLine
 62
7
  6
CONTINUOUS
 10
290.4481752941
 20
727.6471940435
 11
287.2661874189
 21
728.6535404278
  0
LINE
  5
639
100
AcDbEntity
  8
0
100
AcDbLine
 62
7
  6
CONTINUOUS
 10
314.2849112385
 20
707.5765308035
 11
310.9119291623
 21
708.6583892324
  0
LINE
  5
63A
100
AcDbEntity
  8
0
100
AcDbLine
 62
7
  6
CONTINUOUS
 10
289.5360708584
 20
721.8649572117
 11
286.1630887821
 21
722.9468156407
  0
LINE
  5
63B
100
AcDbEntity
  8
0
100
AcDbLine
 62
7
  6
CONTINUOUS
 10
563.4211613625
 20
481.1762137342
 11
563.110476612
 21
481.8628647758
  0
LINE
  5
63C
100
AcDbEntity
  8
0
100
AcDbLine
 62
7
  6
CONTINUOUS
 10
557.8779029175
 20
398.7429551589
 11
557.8779029175
 21
473.8611775348
  0
LINE
  5
63D
100
AcDbEntity
  8
0
100
AcDbLine
 62
7
  6
CONTINUOUS
 10
557.8779029175
 20
480.3931968718
 11
557.8779029175
 21
555.5114192478
  0
LINE
  5
63E
100
AcDbEntity
  8
0
100
AcDbLine
 62
7
  6
CONTINUOUS
 10
558.9385675052
 20
554.899058116
 11
558.9385675052
 21
479.7808357401
  0
LINE
  5
63F
100
AcDbEntity
  8
0
100
AcDbLine
 62
7
  6
CONTINUOUS
 10
558.9385675052
 20
473.248816403
 11
558.9385675052
 21
398.1305940271
  0
LINE
  5
640
100
AcDbEntity
  8
0
100
AcDbLine
 62
7
  6
CONTINUOUS
 10
561.4134309355
 20
556.3279126545
 11
561.4134309355
 21
553.4701541946
  0
LINE
  5
641
100
AcDbEntity
  8
0
100
AcDbLine
 62
7
  6
CONTINUOUS
 10
561.4134309355
 20
484.0674487386
 11
561.4134309355
 21
481.2096902786
  0
LINE
  5
642
100
AcDbEntity
  8
0
100
AcDbLine
 62
7
  6
CONTINUOUS
 10
561.4134309355
 20
474.6776709416
 11
561.4134309355
 21
471.8199124816
  0
LINE
  5
643
100
AcDbEntity
  8
0
100
AcDbLine
 62
7
  6
CONTINUOUS
 10
561.4134309355
 20
402.4172070256
 11
561.4134309355
 21
399.5594485657
  0
LINE
  5
644
100
AcDbEntity
  8
0
100
AcDbLine
 62
7
  6
CONTINUOUS
 10
562.0498208562
 20
558.0017257552
 11
562.0498208562
 21
554.7357160867
  0
LINE
  5
645
100
AcDbEntity
  8
0
100
AcDbLine
 62
7
  6
CONTINUOUS
 10
562.0498208562
 20
484.4348664374
 11
562.0498208562
 21
481.250498545
  0
LINE
  5
646
100
AcDbEntity
  8
0
100
AcDbLine
 62
7
  6
CONTINUOUS
 10
562.0498208562
 20
476.3514840422
 11
562.0498208562
 21
473.0854743737
  0
LINE
  5
647
100
AcDbEntity
  8
0
100
AcDbLine
 62
7
  6
CONTINUOUS
 10
562.0498208562
 20
402.7846247245
 11
562.0498208562
 21
399.600256832
  0
LINE
  5
648
100
AcDbEntity
  8
0
100
AcDbLine
 62
7
  6
CONTINUOUS
 10
563.110476612
 20
400.2126230629
 11
563.110476612
 21
403.3969909553
  0
LINE
  5
649
100
AcDbEntity
  8
0
100
AcDbLine
 62
7
  6
CONTINUOUS
 10
563.110476612
 20
473.6978406045
 11
563.110476612
 21
476.963850273
  0
LINE
  5
64A
100
AcDbEntity
  8
0
100
AcDbLine
 62
7
  6
CONTINUOUS
 10
563.110476612
 20
481.8628647758
 11
563.110476612
 21
485.0472326682
  0
LINE
  5
64B
100
AcDbEntity
  8
0
100
AcDbLine
 62
7
  6
CONTINUOUS
 10
563.110476612
 20
555.3480823175
 11
563.110476612
 21
558.614091986
  0
LINE
  5
64C
100
AcDbEntity
  8
0
100
AcDbLine
 62
7
  6
CONTINUOUS
 10
563.7115184064
 20
412.5214015098
 11
563.7115184064
 21
418.6451696383
  0
LINE
  5
64D
100
AcDbEntity
  8
0
100
AcDbLine
 62
7
  6
CONTINUOUS
 10
563.7115184064
 20
458.2455368691
 11
563.7115184064
 21
464.3693049976
  0
LINE
  5
64E
100
AcDbEntity
  8
0
100
AcDbLine
 62
7
  6
CONTINUOUS
 10
563.7115184064
 20
494.1716432228
 11
563.7115184064
 21
500.2954113513
  0
LINE
  5
64F
100
AcDbEntity
  8
0
100
AcDbLine
 62
7
  6
CONTINUOUS
 10
563.7115184064
 20
539.895778582
 11
563.7115184064
 21
546.0195467105
  0
LINE
  5
650
100
AcDbEntity
  8
0
100
AcDbLine
 62
7
  6
CONTINUOUS
 10
563.8882943657
 20
400.9883031042
 11
563.8882943657
 21
403.8460615642
  0
LINE
  5
651
100
AcDbEntity
  8
0
100
AcDbLine
 62
7
  6
CONTINUOUS
 10
563.8882943657
 20
473.2487670202
 11
563.8882943657
 21
476.1065254801
  0
LINE
  5
652
100
AcDbEntity
  8
0
100
AcDbLine
 62
7
  6
CONTINUOUS
 10
563.8882943657
 20
482.6385448172
 11
563.8882943657
 21
485.4963032771
  0
LINE
  5
653
100
AcDbEntity
  8
0
100
AcDbLine
 62
7
  6
CONTINUOUS
 10
563.8882943657
 20
554.8990087331
 11
563.8882943657
 21
557.7567671931
  0
LINE
  5
654
100
AcDbEntity
  8
0
100
AcDbLine
 62
7
  6
CONTINUOUS
 10
568.661236435
 20
416.6038379495
 11
568.661236435
 21
421.9111248249
  0
LINE
  5
655
100
AcDbEntity
  8
0
100
AcDbLine
 62
7
  6
CONTINUOUS
 10
568.661236435
 20
462.3279733088
 11
568.661236435
 21
467.6352601842
  0
LINE
  5
656
100
AcDbEntity
  8
0
100
AcDbLine
 62
7
  6
CONTINUOUS
 10
568.661236435
 20
498.2540796625
 11
568.661236435
 21
503.5613665379
  0
LINE
  5
657
100
AcDbEntity
  8
0
100
AcDbLine
 62
7
  6
CONTINUOUS
 10
568.661236435
 20
543.9782150217
 11
568.661236435
 21
549.2855018971
  0
LINE
  5
658
100
AcDbEntity
  8
0
100
AcDbLine
 62
7
  6
CONTINUOUS
 10
569.7219010228
 20
549.4896220184
 11
569.7219010228
 21
543.36585389
  0
LINE
  5
659
100
AcDbEntity
  8
0
100
AcDbLine
 62
7
  6
CONTINUOUS
 10
569.7219010228
 20
503.7654866592
 11
569.7219010228
 21
497.6417185307
  0
LINE
  5
65A
100
AcDbEntity
  8
0
100
AcDbLine
 62
7
  6
CONTINUOUS
 10
569.7219010228
 20
467.8393803055
 11
569.7219010228
 21
461.715612177
  0
LINE
  5
65B
100
AcDbEntity
  8
0
100
AcDbLine
 62
7
  6
CONTINUOUS
 10
569.7219010228
 20
422.1152449462
 11
569.7219010228
 21
415.9914768177
  0
LINE
  5
65C
100
AcDbEntity
  8
0
100
AcDbLine
 62
7
  6
CONTINUOUS
 10
574.0705860889
 20
567.3913836224
 11
574.0705860889
 21
566.1666299967
  0
LINE
  5
65D
100
AcDbEntity
  8
0
100
AcDbLine
 62
7
  6
CONTINUOUS
 10
574.0705860889
 20
486.884253759
 11
574.0705860889
 21
484.5163882837
  0
LINE
  5
65E
100
AcDbEntity
  8
0
100
AcDbLine
 62
7
  6
CONTINUOUS
 10
574.0705860889
 20
405.2340120461
 11
574.0705860889
 21
404.0909001965
  0
LINE
  5
65F
100
AcDbEntity
  8
0
100
AcDbLine
 62
7
  6
CONTINUOUS
 10
574.4948519239
 20
565.5134343354
 11
574.4948519239
 21
487.129202291
  0
LINE
  5
660
100
AcDbEntity
  8
0
100
AcDbLine
 62
7
  6
CONTINUOUS
 10
574.4948519239
 20
483.8631926225
 11
574.4948519239
 21
405.478960578
  0
LINE
  5
661
100
AcDbEntity
  8
0
100
AcDbLine
 62
7
  6
CONTINUOUS
 10
575.3735227485
 20
407.1049476748
 11
575.3735227485
 21
484.6866500517
  0
LINE
  5
662
100
AcDbEntity
  8
0
100
AcDbLine
 62
7
  6
CONTINUOUS
 10
575.3735227485
 20
488.7551893878
 11
575.3735227485
 21
566.3368917647
  0
LINE
  5
663
100
AcDbEntity
  8
0
100
AcDbLine
 62
7
  6
CONTINUOUS
 10
576.8275892493
 20
568.2482911608
 11
576.8275892493
 21
404.9478077349
  0
LWPOLYLINE
  5
664
100
AcDbEntity
  8
0
100
AcDbPolyline
 62
7
  6
CONTINUOUS
 90
4
 70
0
 10
574.0957711664
 20
566.5730309009
 10
574.1240371721
 20
566.7476818484
 10
574.1574241032
 20
566.8983342272
 10
574.1924226829
 20
567.0242041251
  0
LWPOLYLINE
  5
665
100
AcDbEntity
  8
0
100
AcDbPolyline
 62
7
  6
CONTINUOUS
 90
4
 70
0
 10
574.0957711658
 20
484.9227891835
 10
574.124037171
 20
485.0974401297
 10
574.1574241015
 20
485.2480925077
 10
574.1924226809
 20
485.3739624055
  0
LWPOLYLINE
  5
666
100
AcDbEntity
  8
0
100
AcDbPolyline
 62
7
  6
CONTINUOUS
 90
5
 70
0
 10
574.1924226809
 20
485.3739624055
 10
574.2260901296
 20
485.4753307259
 10
574.2559079891
 20
485.5528590033
 10
574.2796852176
 20
485.6073839907
 10
574.2955663458
 20
485.6400029766
  0
LINE
  5
667
100
AcDbEntity
  8
0
100
AcDbLine
 62
7
  6
CONTINUOUS
 10
586.8685473464
 20
409.7653204434
 11
583.3464730548
 21
406.7750526387
  0
LINE
  5
668
100
AcDbEntity
  8
0
100
AcDbLine
 62
7
  6
CONTINUOUS
 10
585.736847458
 20
401.6192773782
 11
583.3464730548
 21
399.589831368
  0
LINE
  5
669
100
AcDbEntity
  8
0
100
AcDbLine
 62
7
  6
CONTINUOUS
 10
586.1776536056
 20
403.0072297772
 11
585.736847458
 21
402.7436893522
  0
LINE
  5
66A
100
AcDbEntity
  8
0
100
AcDbLine
 62
7
  6
CONTINUOUS
 10
594.5053541633
 20
402.2825933535
 11
591.6769388145
 21
400.5926083272
  0
LINE
  5
66B
100
AcDbEntity
  8
0
100
AcDbLine
 62
7
  6
CONTINUOUS
 10
592.3415997708
 20
393.8045235888
 11
591.6769388145
 21
393.4073870564
  0
LINE
  5
66C
100
AcDbEntity
  8
0
100
AcDbLine
 62
7
  6
CONTINUOUS
 10
593.4022555266
 20
398.6773966969
 11
592.3415997708
 21
398.0650304661
  0
LINE
  5
66D
100
AcDbEntity
  8
0
100
AcDbLine
 62
7
  6
CONTINUOUS
 10
593.4446984075
 20
397.640447817
 11
594.5053541633
 21
398.2528140478
  0
LINE
  5
66E
100
AcDbEntity
  8
0
100
AcDbLine
 62
7
  6
CONTINUOUS
 10
403.023093413
 20
275.0454575178
 11
402.6695414944
 21
274.8413354408
  0
LINE
  5
66F
100
AcDbEntity
  8
0
100
AcDbLine
 62
7
  6
CONTINUOUS
 10
404.8615786984
 20
273.984031556
 11
404.5080267798
 21
273.7799094791
  0
LINE
  5
670
100
AcDbEntity
  8
0
100
AcDbLine
 62
7
  6
CONTINUOUS
 10
406.7000639838
 20
272.9226055943
 11
406.3465120651
 21
272.7184835173
  0
LINE
  5
671
100
AcDbEntity
  8
0
100
AcDbLine
 62
7
  6
CONTINUOUS
 10
408.5385492691
 20
271.8611796325
 11
408.1849973505
 21
271.6570575556
  0
LINE
  5
672
100
AcDbEntity
  8
0
100
AcDbLine
 62
7
  6
CONTINUOUS
 10
593.4022555266
 20
400.7936191355
 11
591.6769388145
 21
399.8322878083
  0
LINE
  5
673
100
AcDbEntity
  8
0
100
AcDbLine
 62
7
  6
CONTINUOUS
 10
591.6769388145
 20
392.6470665375
 11
593.4446984075
 21
393.6320466655
  0
LINE
  5
674
100
AcDbEntity
  8
0
100
AcDbLine
 62
7
  6
CONTINUOUS
 10
592.3415997708
 20
546.1785689334
 11
590.4677111308
 21
548.1259241949
  0
LINE
  5
675
100
AcDbEntity
  8
0
100
AcDbLine
 62
7
  6
CONTINUOUS
 10
594.5053541633
 20
548.4892587997
 11
593.4446984075
 21
549.5914980271
  0
LINE
  5
676
100
AcDbEntity
  8
0
100
AcDbLine
 62
7
  6
CONTINUOUS
 10
617.0904401509
 20
531.8901425251
 11
615.2165515109
 21
533.8374977867
  0
LINE
  5
677
100
AcDbEntity
  8
0
100
AcDbLine
 62
7
  6
CONTINUOUS
 10
619.2541945435
 20
534.2008323915
 11
618.1935387876
 21
535.3030716189
  0
LINE
  5
678
100
AcDbEntity
  8
0
100
AcDbLine
 62
7
  6
CONTINUOUS
 10
593.4022555266
 20
544.6747127255
 11
591.5283668866
 21
546.6371755515
  0
LINE
  5
679
100
AcDbEntity
  8
0
100
AcDbLine
 62
7
  6
CONTINUOUS
 10
593.4446984075
 20
551.8852937205
 11
591.6769182067
 21
553.7366326179
  0
LINE
  5
67A
100
AcDbEntity
  8
0
100
AcDbLine
 62
7
  6
CONTINUOUS
 10
618.1510959067
 20
530.3862863173
 11
616.2772072667
 21
532.3487491433
  0
LINE
  5
67B
100
AcDbEntity
  8
0
100
AcDbLine
 62
7
  6
CONTINUOUS
 10
618.1935387876
 20
537.5968673122
 11
616.4257585868
 21
539.4482062096
  0
LINE
  5
67C
100
AcDbEntity
  8
0
100
AcDbLine
 62
7
  6
CONTINUOUS
 10
582.9847819195
 20
398.1353119611
 11
582.9847819195
 21
398.9123300247
  0
LINE
  5
67D
100
AcDbEntity
  8
0
100
AcDbLine
 62
7
  6
CONTINUOUS
 10
582.9847819195
 20
405.3205332318
 11
582.9847819195
 21
406.0975512955
  0
LINE
  5
67E
100
AcDbEntity
  8
0
100
AcDbLine
 62
7
  6
CONTINUOUS
 10
582.9847819195
 20
548.3717567129
 11
582.9847819195
 21
549.1487747766
  0
LINE
  5
67F
100
AcDbEntity
  8
0
100
AcDbLine
 62
7
  6
CONTINUOUS
 10
582.9847819195
 20
555.5569779836
 11
582.9847819195
 21
556.3339960473
  0
LINE
  5
680
100
AcDbEntity
  8
0
100
AcDbLine
 62
7
  6
CONTINUOUS
 10
583.570574245
 20
397.3271724257
 11
583.570574245
 21
398.0874929446
  0
LINE
  5
681
100
AcDbEntity
  8
0
100
AcDbLine
 62
7
  6
CONTINUOUS
 10
583.570574245
 20
404.5123936964
 11
583.570574245
 21
405.2727142153
  0
LINE
  5
682
100
AcDbEntity
  8
0
100
AcDbLine
 62
7
  6
CONTINUOUS
 10
583.570574245
 20
547.5636171775
 11
583.570574245
 21
548.3239376964
  0
LINE
  5
683
100
AcDbEntity
  8
0
100
AcDbLine
 62
7
  6
CONTINUOUS
 10
583.570574245
 20
554.7488384483
 11
583.570574245
 21
555.5091589672
  0
LINE
  5
684
100
AcDbEntity
  8
0
100
AcDbLine
 62
7
  6
CONTINUOUS
 10
585.736847458
 20
402.7436893522
 11
585.736847458
 21
398.4982900395
  0
LINE
  5
685
100
AcDbEntity
  8
0
100
AcDbLine
 62
7
  6
CONTINUOUS
 10
585.736847458
 20
550.8572278195
 11
585.736847458
 21
553.4981683196
  0
LINE
  5
686
100
AcDbEntity
  8
0
100
AcDbLine
 62
7
  6
CONTINUOUS
 10
586.7789892446
 20
550.2555605901
 11
586.7789892446
 21
549.3791679795
  0
LINE
  5
687
100
AcDbEntity
  8
0
100
AcDbLine
 62
7
  6
CONTINUOUS
 10
590.4677111308
 20
400.0123857276
 11
590.4677111308
 21
395.7669864148
  0
LINE
  5
688
100
AcDbEntity
  8
0
100
AcDbLine
 62
7
  6
CONTINUOUS
 10
590.4677111308
 20
548.1259241949
 11
590.4677111308
 21
550.766864695
  0
LINE
  5
689
100
AcDbEntity
  8
0
100
AcDbLine
 62
7
  6
CONTINUOUS
 10
590.7576508347
 20
407.5199962935
 11
590.7576508347
 21
405.2770155417
  0
LINE
  5
68A
100
AcDbEntity
  8
0
100
AcDbLine
 62
7
  6
CONTINUOUS
 10
590.7576508347
 20
554.2673598759
 11
590.7576508347
 21
557.7564410453
  0
LINE
  5
68B
100
AcDbEntity
  8
0
100
AcDbLine
 62
7
  6
CONTINUOUS
 10
591.5283668866
 20
547.0236849675
 11
591.5283668866
 21
546.6371755515
  0
LINE
  5
68C
100
AcDbEntity
  8
0
100
AcDbLine
 62
7
  6
CONTINUOUS
 10
591.6769388145
 20
400.5926083272
 11
591.6769388145
 21
399.8322878083
  0
LINE
  5
68D
100
AcDbEntity
  8
0
100
AcDbLine
 62
7
  6
CONTINUOUS
 10
591.6769388145
 20
393.4073870564
 11
591.6769388145
 21
392.6470665375
  0
LINE
  5
68E
100
AcDbEntity
  8
0
100
AcDbLine
 62
7
  6
CONTINUOUS
 10
591.6769388145
 20
542.8835112894
 11
591.6769388145
 21
543.6438318083
  0
LINE
  5
68F
100
AcDbEntity
  8
0
100
AcDbLine
 62
7
  6
CONTINUOUS
 10
591.6769388145
 20
550.0687325601
 11
591.6769388145
 21
550.829053079
  0
LINE
  5
690
100
AcDbEntity
  8
0
100
AcDbLine
 62
7
  6
CONTINUOUS
 10
592.3415997708
 20
550.4390758106
 11
592.3415997708
 21
546.1785689334
  0
LINE
  5
691
100
AcDbEntity
  8
0
100
AcDbLine
 62
7
  6
CONTINUOUS
 10
592.3415997708
 20
393.8045235888
 11
592.3415997708
 21
398.0650304661
  0
LINE
  5
692
100
AcDbEntity
  8
0
100
AcDbLine
 62
7
  6
CONTINUOUS
 10
593.4022555266
 20
400.7936191355
 11
593.4022555266
 21
398.6773966969
  0
LINE
  5
693
100
AcDbEntity
  8
0
100
AcDbLine
 62
7
  6
CONTINUOUS
 10
593.4022555266
 20
544.6747127255
 11
593.4022555266
 21
546.7909351642
  0
LINE
  5
694
100
AcDbEntity
  8
0
100
AcDbLine
 62
7
  6
CONTINUOUS
 10
593.4446984075
 20
393.6320466655
 11
593.4446984075
 21
397.640447817
  0
LINE
  5
695
100
AcDbEntity
  8
0
100
AcDbLine
 62
7
  6
CONTINUOUS
 10
593.4446984075
 20
547.8768925689
 11
593.4446984075
 21
551.8852937205
  0
LINE
  5
696
100
AcDbEntity
  8
0
100
AcDbLine
 62
7
  6
CONTINUOUS
 10
594.5053541633
 20
398.2528140478
 11
594.5053541633
 21
402.2825933535
  0
LINE
  5
697
100
AcDbEntity
  8
0
100
AcDbLine
 62
7
  6
CONTINUOUS
 10
594.5053541633
 20
544.459479494
 11
594.5053541633
 21
548.4892587997
  0
LINE
  5
698
100
AcDbEntity
  8
0
100
AcDbLine
 62
7
  6
CONTINUOUS
 10
604.1927208927
 20
554.4905862318
 11
604.1927208927
 21
554.0823454773
  0
LINE
  5
699
100
AcDbEntity
  8
0
100
AcDbLine
 62
7
  6
CONTINUOUS
 10
560.7063270983
 20
398.3347019947
 11
561.4134309355
 21
399.5594485657
  0
LINE
  5
69A
100
AcDbEntity
  8
0
100
AcDbLine
 62
7
  6
CONTINUOUS
 10
611.6173877265
 20
395.4768940351
 11
608.095313435
 21
392.4866262305
  0
LINE
  5
69B
100
AcDbEntity
  8
0
100
AcDbLine
 62
7
  6
CONTINUOUS
 10
610.9264939857
 20
388.718803369
 11
610.4856878381
 21
388.455262944
  0
LINE
  5
69C
100
AcDbEntity
  8
0
100
AcDbLine
 62
7
  6
CONTINUOUS
 10
615.5064912148
 20
393.2315698853
 11
613.5973108544
 21
392.0908299925
  0
LINE
  5
69D
100
AcDbEntity
  8
0
100
AcDbLine
 62
7
  6
CONTINUOUS
 10
619.2541945435
 20
387.9941669453
 11
616.4257791946
 21
386.304181919
  0
LINE
  5
69E
100
AcDbEntity
  8
0
100
AcDbLine
 62
7
  6
CONTINUOUS
 10
617.0904401509
 20
379.5160971806
 11
616.4257791946
 21
379.1189606482
  0
LINE
  5
69F
100
AcDbEntity
  8
0
100
AcDbLine
 62
7
  6
CONTINUOUS
 10
410.3770345545
 20
270.7997536708
 11
410.0234826359
 21
270.5956315938
  0
LINE
  5
6A0
100
AcDbEntity
  8
0
100
AcDbLine
 62
7
  6
CONTINUOUS
 10
412.2155198399
 20
269.738327709
 11
411.8619679213
 21
269.5342056321
  0
LINE
  5
6A1
100
AcDbEntity
  8
0
100
AcDbLine
 62
7
  6
CONTINUOUS
 10
414.0540051253
 20
268.6769017473
 11
413.7004532067
 21
268.4727796703
  0
LINE
  5
6A2
100
AcDbEntity
  8
0
100
AcDbLine
 62
7
  6
CONTINUOUS
 10
618.1510959067
 20
384.3889702886
 11
617.0904401509
 21
383.7766040578
  0
LINE
  5
6A3
100
AcDbEntity
  8
0
100
AcDbLine
 62
7
  6
CONTINUOUS
 10
415.8924904107
 20
267.6154757855
 11
415.5389384921
 21
267.4113537086
  0
LINE
  5
6A4
100
AcDbEntity
  8
0
100
AcDbLine
 62
7
  6
CONTINUOUS
 10
618.1935387876
 20
383.3520214088
 11
619.2541945435
 21
383.9643876396
  0
LINE
  5
6A5
100
AcDbEntity
  8
0
100
AcDbLine
 62
7
  6
CONTINUOUS
 10
417.730975696
 20
266.5540498238
 11
417.3774237774
 21
266.3499277468
  0
LINE
  5
6A6
100
AcDbEntity
  8
0
100
AcDbLine
 62
7
  6
CONTINUOUS
 10
419.5694609814
 20
265.492623862
 11
419.2159090628
 21
265.2885017851
  0
LINE
  5
6A7
100
AcDbEntity
  8
0
100
AcDbLine
 62
7
  6
CONTINUOUS
 10
421.4079462668
 20
264.4311979002
 11
421.0543943482
 21
264.2270758233
  0
LINE
  5
6A8
100
AcDbEntity
  8
0
100
AcDbLine
 62
7
  6
CONTINUOUS
 10
423.2464315522
 20
263.3697719385
 11
422.8928796336
 21
263.1656498616
  0
LINE
  5
6A9
100
AcDbEntity
  8
0
100
AcDbLine
 62
7
  6
CONTINUOUS
 10
425.0849168376
 20
262.3083459767
 11
424.731364919
 21
262.1042238998
  0
LINE
  5
6AA
100
AcDbEntity
  8
0
100
AcDbLine
 62
7
  6
CONTINUOUS
 10
426.923402123
 20
261.246920015
 11
426.5698502043
 21
261.0427979381
  0
LINE
  5
6AB
100
AcDbEntity
  8
0
100
AcDbLine
 62
7
  6
CONTINUOUS
 10
428.7618874083
 20
260.1854940532
 11
428.4083354897
 21
259.9813719763
  0
LINE
  5
6AC
100
AcDbEntity
  8
0
100
AcDbLine
 62
7
  6
CONTINUOUS
 10
633.1662598609
 20
372.6455885815
 11
632.972101426
 21
372.533491826
  0
LINE
  5
6AD
100
AcDbEntity
  8
0
100
AcDbLine
 62
7
  6
CONTINUOUS
 10
434.7902827789
 20
258.1138484747
 11
434.9844412138
 21
258.2259452302
  0
LINE
  5
6AE
100
AcDbEntity
  8
0
100
AcDbLine
 62
7
  6
CONTINUOUS
 10
618.1510959067
 20
386.5051927273
 11
616.4257791946
 21
385.5438614001
  0
LINE
  5
6AF
100
AcDbEntity
  8
0
100
AcDbLine
 62
7
  6
CONTINUOUS
 10
616.4257791946
 20
378.3586401293
 11
618.1935387876
 21
379.3436202572
  0
LINE
  5
6B0
100
AcDbEntity
  8
0
100
AcDbLine
 62
7
  6
CONTINUOUS
 10
606.031206178
 20
553.4291602701
 11
606.031206178
 21
553.0209195155
  0
LINE
  5
6B1
100
AcDbEntity
  8
0
100
AcDbLine
 62
7
  6
CONTINUOUS
 10
607.7336222996
 20
383.8468855528
 11
607.7336222996
 21
384.6239036165
  0
LINE
  5
6B2
100
AcDbEntity
  8
0
100
AcDbLine
 62
7
  6
CONTINUOUS
 10
607.7336222996
 20
391.0321068236
 11
607.7336222996
 21
391.8091248873
  0
LINE
  5
6B3
100
AcDbEntity
  8
0
100
AcDbLine
 62
7
  6
CONTINUOUS
 10
607.7336222996
 20
534.0833303047
 11
607.7336222996
 21
534.8603483684
  0
LINE
  5
6B4
100
AcDbEntity
  8
0
100
AcDbLine
 62
7
  6
CONTINUOUS
 10
607.7336222996
 20
541.2685515754
 11
607.7336222996
 21
542.0455696391
  0
LINE
  5
6B5
100
AcDbEntity
  8
0
100
AcDbLine
 62
7
  6
CONTINUOUS
 10
607.8696914634
 20
552.3677343083
 11
607.8696914634
 21
551.9594935538
  0
LINE
  5
6B6
100
AcDbEntity
  8
0
100
AcDbLine
 62
7
  6
CONTINUOUS
 10
608.3194146252
 20
383.0387460175
 11
608.3194146252
 21
383.7990665364
  0
LINE
  5
6B7
100
AcDbEntity
  8
0
100
AcDbLine
 62
7
  6
CONTINUOUS
 10
608.3194146252
 20
390.2239672882
 11
608.3194146252
 21
390.9842878071
  0
LINE
  5
6B8
100
AcDbEntity
  8
0
100
AcDbLine
 62
7
  6
CONTINUOUS
 10
608.3194146252
 20
533.2751907693
 11
608.3194146252
 21
534.0355112882
  0
LINE
  5
6B9
100
AcDbEntity
  8
0
100
AcDbLine
 62
7
  6
CONTINUOUS
 10
608.3194146252
 20
540.4604120401
 11
608.3194146252
 21
541.220732559
  0
LINE
  5
6BA
100
AcDbEntity
  8
0
100
AcDbLine
 62
7
  6
CONTINUOUS
 10
609.7081767488
 20
551.3063083466
 11
609.7081767488
 21
550.898067592
  0
LINE
  5
6BB
100
AcDbEntity
  8
0
100
AcDbLine
 62
7
  6
CONTINUOUS
 10
610.4856878381
 20
388.455262944
 11
610.4856878381
 21
384.2098636312
  0
LINE
  5
6BC
100
AcDbEntity
  8
0
100
AcDbLine
 62
7
  6
CONTINUOUS
 10
610.4856878381
 20
536.5688014113
 11
610.4856878381
 21
539.2097419114
  0
LINE
  5
6BD
100
AcDbEntity
  8
0
100
AcDbLine
 62
7
  6
CONTINUOUS
 10
611.5278296247
 20
535.9671341818
 11
611.5278296247
 21
535.0907415713
  0
LINE
  5
6BE
100
AcDbEntity
  8
0
100
AcDbLine
 62
7
  6
CONTINUOUS
 10
611.5466620342
 20
550.2448823848
 11
611.5466620342
 21
549.8366416303
  0
LINE
  5
6BF
100
AcDbEntity
  8
0
100
AcDbLine
 62
7
  6
CONTINUOUS
 10
613.3851473196
 20
549.1834564231
 11
613.3851473196
 21
548.7752156685
  0
LINE
  5
6C0
100
AcDbEntity
  8
0
100
AcDbLine
 62
7
  6
CONTINUOUS
 10
615.2165515109
 20
385.7239593194
 11
615.2165515109
 21
381.4785600066
  0
LINE
  5
6C1
100
AcDbEntity
  8
0
100
AcDbLine
 62
7
  6
CONTINUOUS
 10
615.2165515109
 20
533.8374977867
 11
615.2165515109
 21
536.4784382867
  0
LINE
  5
6C2
100
AcDbEntity
  8
0
100
AcDbLine
 62
7
  6
CONTINUOUS
 10
615.2236326049
 20
548.1220304613
 11
615.2236326049
 21
547.7137897068
  0
LINE
  5
6C3
100
AcDbEntity
  8
0
100
AcDbLine
 62
7
  6
CONTINUOUS
 10
615.5064912148
 20
393.2315698853
 11
615.5064912148
 21
390.9885891335
  0
LINE
  5
6C4
100
AcDbEntity
  8
0
100
AcDbLine
 62
7
  6
CONTINUOUS
 10
615.5064912148
 20
539.9789334677
 11
615.5064912148
 21
543.4680146371
  0
LINE
  5
6C5
100
AcDbEntity
  8
0
100
AcDbLine
 62
7
  6
CONTINUOUS
 10
616.2772072667
 20
532.7352585593
 11
616.2772072667
 21
532.3487491433
  0
LINE
  5
6C6
100
AcDbEntity
  8
0
100
AcDbLine
 62
7
  6
CONTINUOUS
 10
616.4257791946
 20
386.304181919
 11
616.4257791946
 21
385.5438614001
  0
LINE
  5
6C7
100
AcDbEntity
  8
0
100
AcDbLine
 62
7
  6
CONTINUOUS
 10
616.4257791946
 20
379.1189606482
 11
616.4257791946
 21
378.3586401293
  0
LINE
  5
6C8
100
AcDbEntity
  8
0
100
AcDbLine
 62
7
  6
CONTINUOUS
 10
616.4257791946
 20
528.5950848812
 11
616.4257791946
 21
529.3554054001
  0
LINE
  5
6C9
100
AcDbEntity
  8
0
100
AcDbLine
 62
7
  6
CONTINUOUS
 10
616.4257791946
 20
535.7803061519
 11
616.4257791946
 21
536.5406266708
  0
LINE
  5
6CA
100
AcDbEntity
  8
0
100
AcDbLine
 62
7
  6
CONTINUOUS
 10
617.0621178903
 20
547.0606044996
 11
617.0621178903
 21
546.652363745
  0
LINE
  5
6CB
100
AcDbEntity
  8
0
100
AcDbLine
 62
7
  6
CONTINUOUS
 10
617.0904401509
 20
536.1506494024
 11
617.0904401509
 21
531.8901425251
  0
LINE
  5
6CC
100
AcDbEntity
  8
0
100
AcDbLine
 62
7
  6
CONTINUOUS
 10
617.0904401509
 20
379.5160971806
 11
617.0904401509
 21
383.7766040578
  0
LINE
  5
6CD
100
AcDbEntity
  8
0
100
AcDbLine
 62
7
  6
CONTINUOUS
 10
618.1510959067
 20
386.5051927273
 11
618.1510959067
 21
384.3889702886
  0
LINE
  5
6CE
100
AcDbEntity
  8
0
100
AcDbLine
 62
7
  6
CONTINUOUS
 10
618.1510959067
 20
530.3862863173
 11
618.1510959067
 21
532.502508756
  0
LINE
  5
6CF
100
AcDbEntity
  8
0
100
AcDbLine
 62
7
  6
CONTINUOUS
 10
618.1935387876
 20
379.3436202572
 11
618.1935387876
 21
383.3520214088
  0
LINE
  5
6D0
100
AcDbEntity
  8
0
100
AcDbLine
 62
7
  6
CONTINUOUS
 10
618.1935387876
 20
533.5884661607
 11
618.1935387876
 21
537.5968673122
  0
LINE
  5
6D1
100
AcDbEntity
  8
0
100
AcDbLine
 62
7
  6
CONTINUOUS
 10
618.9006031757
 20
545.9991785378
 11
618.9006031757
 21
545.5909377833
  0
LINE
  5
6D2
100
AcDbEntity
  8
0
100
AcDbLine
 62
7
  6
CONTINUOUS
 10
619.2541945435
 20
383.9643876396
 11
619.2541945435
 21
387.9941669453
  0
LINE
  5
6D3
100
AcDbEntity
  8
0
100
AcDbLine
 62
7
  6
CONTINUOUS
 10
619.2541945435
 20
530.1710530858
 11
619.2541945435
 21
534.2008323915
  0
LINE
  5
6D4
100
AcDbEntity
  8
0
100
AcDbLine
 62
7
  6
CONTINUOUS
 10
620.7390884611
 20
544.937752576
 11
620.7390884611
 21
544.5295118215
  0
LINE
  5
6D5
100
AcDbEntity
  8
0
100
AcDbLine
 62
7
  6
CONTINUOUS
 10
622.5775737465
 20
543.8763266143
 11
622.5775737465
 21
543.4680858598
  0
LINE
  5
6D6
100
AcDbEntity
  8
0
100
AcDbLine
 62
7
  6
CONTINUOUS
 10
624.4160590319
 20
542.8149006525
 11
624.4160590319
 21
542.406659898
  0
LINE
  5
6D7
100
AcDbEntity
  8
0
100
AcDbLine
 62
7
  6
CONTINUOUS
 10
626.2545443172
 20
541.7534746908
 11
626.2545443172
 21
541.3452339363
  0
LINE
  5
6D8
100
AcDbEntity
  8
0
100
AcDbLine
 62
7
  6
CONTINUOUS
 10
628.0930296026
 20
540.692048729
 11
628.0930296026
 21
540.2838079745
  0
LINE
  5
6D9
100
AcDbEntity
  8
0
100
AcDbLine
 62
7
  6
CONTINUOUS
 10
610.4856878381
 20
387.33085097
 11
608.095313435
 21
385.3014049598
  0
LINE
  5
6DA
100
AcDbEntity
  8
0
100
AcDbLine
 62
7
  6
CONTINUOUS
 10
629.931514888
 20
539.6306227673
 11
629.931514888
 21
539.2223820127
  0
LINE
  5
6DB
100
AcDbEntity
  8
0
100
AcDbLine
 62
7
  6
CONTINUOUS
 10
632.972101426
 20
535.8339752519
 11
632.972101426
 21
372.533491826
  0
LINE
  5
6DC
100
AcDbEntity
  8
0
100
AcDbLine
 62
7
  6
CONTINUOUS
 10
633.1662598609
 20
535.9460720074
 11
633.1662598609
 21
372.6455885815
  0
ARC
  5
6DD
100
AcDbEntity
  8
0
100
AcDbCircle
 62
7
  6
CONTINUOUS
 10
143.3260887349
 20
429.0152637205
 40
3.4808346787
100
AcDbArc
 50
149.3648930275
 51
151.4301876357
  0
ARC
  5
6DE
100
AcDbEntity
  8
0
100
AcDbCircle
 62
7
  6
CONTINUOUS
 10
321.6679631357
 20
654.0654037052
 40
31.9873355251
100
AcDbArc
 50
298.86724158
 51
299.1379285931
  0
ARC
  5
6DF
100
AcDbEntity
  8
0
100
AcDbCircle
 62
7
  6
CONTINUOUS
 10
321.6679633874
 20
572.4151615376
 40
31.9873350055
100
AcDbArc
 50
298.8672415773
 51
299.1379285922
  0
ARC
  5
6E0
100
AcDbEntity
  8
0
100
AcDbCircle
 62
7
  6
CONTINUOUS
 10
146.6616283146
 20
509.2682376145
 40
6.6128293485
100
AcDbArc
 50
168.2533607393
 51
177.0695812876
  0
ARC
  5
6E1
100
AcDbEntity
  8
0
100
AcDbCircle
 62
7
  6
CONTINUOUS
 10
146.6616283146
 20
590.9184793275
 40
6.6128293485
100
AcDbArc
 50
168.2533607394
 51
177.0695812876
  0
ARC
  5
6E2
100
AcDbEntity
  8
0
100
AcDbCircle
 62
7
  6
CONTINUOUS
 10
334.0790941278
 20
549.4052868017
 40
5.8369602807
100
AcDbArc
 50
290.2570194202
 51
291.9118100742
  0
ARC
  5
6E3
100
AcDbEntity
  8
0
100
AcDbCircle
 62
7
  6
CONTINUOUS
 10
334.4427023891
 20
548.1821884037
 40
4.5595116824
100
AcDbArc
 50
278.8795703391
 51
283.3587273639
  0
ARC
  5
6E4
100
AcDbEntity
  8
0
100
AcDbCircle
 62
7
  6
CONTINUOUS
 10
334.4427023891
 20
629.8324301166
 40
4.5595116823
100
AcDbArc
 50
278.879570339
 51
283.3587273639
  0
ARC
  5
6E5
100
AcDbEntity
  8
0
100
AcDbCircle
 62
7
  6
CONTINUOUS
 10
337.9222119146
 20
541.0103272354
 40
3.7344753588
100
AcDbArc
 50
112.8334946116
 51
119.2042918367
  0
ARC
  5
6E6
100
AcDbEntity
  8
0
100
AcDbCircle
 62
7
  6
CONTINUOUS
 10
143.326088639
 20
510.6655054886
 40
3.4808345681
100
AcDbArc
 50
149.364893005
 51
151.4301887138
  0
ARC
  5
6E7
100
AcDbEntity
  8
0
100
AcDbCircle
 62
7
  6
CONTINUOUS
 10
327.5817298843
 20
580.6344264952
 40
3.4456217471
100
AcDbArc
 50
10.3549650706
 51
13.8090049563
  0
ARC
  5
6E8
100
AcDbEntity
  8
0
100
AcDbCircle
 62
7
  6
CONTINUOUS
 10
327.5817298844
 20
662.2846682081
 40
3.445621747
100
AcDbArc
 50
10.3549650706
 51
13.8090049564
  0
ARC
  5
6E9
100
AcDbEntity
  8
0
100
AcDbCircle
 62
7
  6
CONTINUOUS
 10
325.3073024503
 20
578.4562031467
 40
2.9855527045
100
AcDbArc
 50
301.8005528586
 51
305.4295716019
  0
ARC
  5
6EA
100
AcDbEntity
  8
0
100
AcDbCircle
 62
7
  6
CONTINUOUS
 10
325.3073024504
 20
660.1064448595
 40
2.9855527043
100
AcDbArc
 50
301.8005528584
 51
305.429571602
  0
ARC
  5
6EB
100
AcDbEntity
  8
0
100
AcDbCircle
 62
7
  6
CONTINUOUS
 10
325.5915592686
 20
578.0020139461
 40
2.4497508508
100
AcDbArc
 50
300.0202132554
 51
301.7480460731
  0
ARC
  5
6EC
100
AcDbEntity
  8
0
100
AcDbCircle
 62
7
  6
CONTINUOUS
 10
325.591559269
 20
659.6522556584
 40
2.44975085
100
AcDbArc
 50
300.0202132552
 51
301.7480460734
  0
ARC
  5
6ED
100
AcDbEntity
  8
0
100
AcDbCircle
 62
7
  6
CONTINUOUS
 10
326.8739337327
 20
580.0847827833
 40
2.3701837134
100
AcDbArc
 50
359.0414278394
 51
359.9935305522
  0
ARC
  5
6EE
100
AcDbEntity
  8
0
100
AcDbCircle
 62
7
  6
CONTINUOUS
 10
326.8739337328
 20
661.7350244963
 40
2.3701837134
100
AcDbArc
 50
359.0414278394
 51
359.9935305522
  0
ARC
  5
6EF
100
AcDbEntity
  8
0
100
AcDbCircle
 62
7
  6
CONTINUOUS
 10
328.8414594284
 20
579.4005253066
 40
1.0746009084
100
AcDbArc
 50
33.8589948757
 51
37.9960502489
  0
ARC
  5
6F0
100
AcDbEntity
  8
0
100
AcDbCircle
 62
7
  6
CONTINUOUS
 10
328.8414594284
 20
661.0507670196
 40
1.0746009084
100
AcDbArc
 50
33.8589948759
 51
37.996050249
  0
ARC
  5
6F1
100
AcDbEntity
  8
0
100
AcDbCircle
 62
7
  6
CONTINUOUS
 10
327.2072791227
 20
576.5614817573
 40
1.0644001035
100
AcDbArc
 50
260.6599042818
 51
266.1569270112
  0
ARC
  5
6F2
100
AcDbEntity
  8
0
100
AcDbCircle
 62
7
  6
CONTINUOUS
 10
327.2072791227
 20
658.2117234702
 40
1.0644001034
100
AcDbArc
 50
260.6599042817
 51
266.1569270113
  0
ARC
  5
6F3
100
AcDbEntity
  8
0
100
AcDbCircle
 62
7
  6
CONTINUOUS
 10
327.1953967864
 20
576.4879465912
 40
0.9899114241
100
AcDbArc
 50
255.3472982629
 51
260.6477761819
  0
ARC
  5
6F4
100
AcDbEntity
  8
0
100
AcDbCircle
 62
7
  6
CONTINUOUS
 10
327.1953967864
 20
658.1381883041
 40
0.989911424
100
AcDbArc
 50
255.3472982627
 51
260.6477761821
  0
ARC
  5
6F5
100
AcDbEntity
  8
0
100
AcDbCircle
 62
7
  6
CONTINUOUS
 10
392.6217755707
 20
426.487560821
 40
30.8812863171
100
AcDbArc
 50
118.860673505
 51
119.1357768094
  0
ARC
  5
6F6
100
AcDbEntity
  8
0
100
AcDbCircle
 62
7
  6
CONTINUOUS
 10
392.6217755565
 20
344.8373191337
 40
30.8812862877
100
AcDbArc
 50
118.8606735049
 51
119.1357768095
  0
ARC
  5
6F7
100
AcDbEntity
  8
0
100
AcDbCircle
 62
7
  6
CONTINUOUS
 10
568.2519812516
 20
406.9992109168
 40
6.523405446
100
AcDbArc
 50
346.893865452
 51
348.2516979894
  0
ARC
  5
6F8
100
AcDbEntity
  8
0
100
AcDbCircle
 62
7
  6
CONTINUOUS
 10
568.2866546497
 20
406.9911445452
 40
6.4878061363
100
AcDbArc
 50
346.0030779115
 51
346.8938113126
  0
ARC
  5
6F9
100
AcDbEntity
  8
0
100
AcDbCircle
 62
7
  6
CONTINUOUS
 10
381.8874955148
 20
367.6528316351
 40
6.4553644894
100
AcDbArc
 50
131.74021436
 51
136.0430863485
  0
ARC
  5
6FA
100
AcDbEntity
  8
0
100
AcDbCircle
 62
7
  6
CONTINUOUS
 10
381.8874955148
 20
449.3030733481
 40
6.4553644894
100
AcDbArc
 50
131.74021436
 51
136.0430863485
  0
ARC
  5
6FB
100
AcDbEntity
  8
0
100
AcDbCircle
 62
7
  6
CONTINUOUS
 10
568.4202203061
 20
406.9567209055
 40
6.3498802719
100
AcDbArc
 50
343.0349964426
 51
346.012967828
  0
ARC
  5
6FC
100
AcDbEntity
  8
0
100
AcDbCircle
 62
7
  6
CONTINUOUS
 10
381.7496194174
 20
367.7877201693
 40
6.2624844295
100
AcDbArc
 50
136.0558854309
 51
136.7609039623
  0
ARC
  5
6FD
100
AcDbEntity
  8
0
100
AcDbCircle
 62
7
  6
CONTINUOUS
 10
381.7496194165
 20
449.4379618832
 40
6.2624844281
100
AcDbArc
 50
136.0558854308
 51
136.7609039624
  0
ARC
  5
6FE
100
AcDbEntity
  8
0
100
AcDbCircle
 62
7
  6
CONTINUOUS
 10
380.7459771787
 20
448.5325813231
 40
5.8342940724
100
AcDbArc
 50
110.2635413273
 51
111.9110668765
  0
ARC
  5
6FF
100
AcDbEntity
  8
0
100
AcDbCircle
 62
7
  6
CONTINUOUS
 10
380.0473930944
 20
298.983618807
 40
5.6510502017
100
AcDbArc
 50
249.6176415535
 51
255.6416369559
  0
ARC
  5
700
100
AcDbEntity
  8
0
100
AcDbCircle
 62
7
  6
CONTINUOUS
 10
380.0473930944
 20
380.6338605198
 40
5.6510502014
100
AcDbArc
 50
249.6176415533
 51
255.641636956
  0
ARC
  5
701
100
AcDbEntity
  8
0
100
AcDbCircle
 62
7
  6
CONTINUOUS
 10
380.664236589
 20
448.7519084889
 40
5.6002312829
100
AcDbArc
 50
109.3207732669
 51
110.2561737895
  0
ARC
  5
702
100
AcDbEntity
  8
0
100
AcDbCircle
 62
7
  6
CONTINUOUS
 10
380.5291582269
 20
449.1563881375
 40
5.1738438399
100
AcDbArc
 50
103.4041318861
 51
109.391136624
  0
ARC
  5
703
100
AcDbEntity
  8
0
100
AcDbCircle
 62
7
  6
CONTINUOUS
 10
377.6508548474
 20
457.297310562
 40
4.6290678762
100
AcDbArc
 50
299.9592134954
 51
301.9996461557
  0
ARC
  5
704
100
AcDbEntity
  8
0
100
AcDbCircle
 62
7
  6
CONTINUOUS
 10
380.3834937642
 20
449.7516838605
 40
4.5609983158
100
AcDbArc
 50
98.8798458584
 51
103.3577004946
  0
ARC
  5
705
100
AcDbEntity
  8
0
100
AcDbCircle
 62
7
  6
CONTINUOUS
 10
380.4011714003
 20
295.800655367
 40
4.127334725
100
AcDbArc
 50
199.2995208866
 51
207.2598657492
  0
ARC
  5
706
100
AcDbEntity
  8
0
100
AcDbCircle
 62
7
  6
CONTINUOUS
 10
380.4011714004
 20
377.4508970799
 40
4.1273347251
100
AcDbArc
 50
199.2995208867
 51
207.2598657492
  0
ARC
  5
707
100
AcDbEntity
  8
0
100
AcDbCircle
 62
7
  6
CONTINUOUS
 10
376.8991135655
 20
375.2845846186
 40
3.7453016898
100
AcDbArc
 50
292.8429514933
 51
297.8015126596
  0
ARC
  5
708
100
AcDbEntity
  8
0
100
AcDbCircle
 62
7
  6
CONTINUOUS
 10
376.8991135655
 20
456.9348263317
 40
3.7453016899
100
AcDbArc
 50
292.8429514934
 51
297.8015126595
  0
ARC
  5
709
100
AcDbEntity
  8
0
100
AcDbCircle
 62
7
  6
CONTINUOUS
 10
376.9358732513
 20
375.1848983683
 40
3.6391664376
100
AcDbArc
 50
284.798940025
 51
292.9188723269
  0
ARC
  5
70A
100
AcDbEntity
  8
0
100
AcDbCircle
 62
7
  6
CONTINUOUS
 10
376.9358732513
 20
456.8351400812
 40
3.6391664376
100
AcDbArc
 50
284.7989400249
 51
292.918872327
  0
ARC
  5
70B
100
AcDbEntity
  8
0
100
AcDbCircle
 62
7
  6
CONTINUOUS
 10
379.4800923171
 20
295.1856457784
 40
3.0144590957
100
AcDbArc
 50
240.0623474587
 51
253.4242064219
  0
ARC
  5
70C
100
AcDbEntity
  8
0
100
AcDbCircle
 62
7
  6
CONTINUOUS
 10
379.4800923171
 20
376.8358874913
 40
3.0144590956
100
AcDbArc
 50
240.0623474587
 51
253.4242064219
  0
ARC
  5
70D
100
AcDbEntity
  8
0
100
AcDbCircle
 62
7
  6
CONTINUOUS
 10
581.5652126319
 20
428.3406370102
 40
3.0
100
AcDbArc
 50
174.7359227835
 51
245.2637656209
  0
ARC
  5
70E
100
AcDbEntity
  8
0
100
AcDbCircle
 62
7
  6
CONTINUOUS
 10
565.0192952096
 20
442.8065187501
 40
1.3154879626
100
AcDbArc
 50
23.1297323172
 51
25.4711159106
  0
ARC
  5
70F
100
AcDbEntity
  8
0
100
AcDbCircle
 62
7
  6
CONTINUOUS
 10
564.0694025452
 20
439.6956752469
 40
0.9573603651
100
AcDbArc
 50
254.3568027489
 51
255.6846298457
  0
ARC
  5
710
100
AcDbEntity
  8
0
100
AcDbCircle
 62
7
  6
CONTINUOUS
 10
565.8135016538
 20
442.7160801746
 40
0.956347097
100
AcDbArc
 50
44.3153880394
 51
45.9307066911
  0
ARC
  5
711
100
AcDbEntity
  8
0
100
AcDbCircle
 62
7
  6
CONTINUOUS
 10
568.2519812528
 20
488.6494526296
 40
6.5234054449
100
AcDbArc
 50
346.8938654518
 51
348.2516979895
  0
ARC
  5
712
100
AcDbEntity
  8
0
100
AcDbCircle
 62
7
  6
CONTINUOUS
 10
568.2866546516
 20
488.6413862577
 40
6.4878061344
100
AcDbArc
 50
346.0030779115
 51
346.8938113129
  0
ARC
  5
713
100
AcDbEntity
  8
0
100
AcDbCircle
 62
7
  6
CONTINUOUS
 10
568.4202203058
 20
488.6069626185
 40
6.3498802722
100
AcDbArc
 50
343.0349964427
 51
346.0129678279
  0
ARC
  5
714
100
AcDbEntity
  8
0
100
AcDbCircle
 62
7
  6
CONTINUOUS
 10
571.4968642309
 20
487.2715953051
 40
3.4842776642
100
AcDbArc
 50
329.3652432428
 51
331.4111056701
  0
ARC
  5
715
100
AcDbEntity
  8
0
100
AcDbCircle
 62
7
  6
CONTINUOUS
 10
571.4968642321
 20
568.9218370174
 40
3.4842776628
100
AcDbArc
 50
329.3652432425
 51
331.4111056894
  0
ARC
  5
716
100
AcDbEntity
  8
0
100
AcDbCircle
 62
7
  6
CONTINUOUS
 10
577.1057074435
 20
484.033381302
 40
3.4826294969
100
AcDbArc
 50
148.5894094935
 51
150.6349995086
  0
ARC
  5
717
100
AcDbEntity
  8
0
100
AcDbCircle
 62
7
  6
CONTINUOUS
 10
577.1057074409
 20
565.6836230164
 40
3.482629494
100
AcDbArc
 50
148.5894094738
 51
150.6349995093
  0
ARC
  5
718
100
AcDbEntity
  8
0
100
AcDbCircle
 62
7
  6
CONTINUOUS
 10
581.5652126319
 20
542.6509754084
 40
3.0
100
AcDbArc
 50
174.7359227835
 51
245.2637656209
  0
ARC
  5
719
100
AcDbEntity
  8
0
100
AcDbCircle
 62
7
  6
CONTINUOUS
 10
565.0192952096
 20
524.4567604631
 40
1.3154879626
100
AcDbArc
 50
23.1297323171
 51
25.4711159106
  0
ARC
  5
71A
100
AcDbEntity
  8
0
100
AcDbCircle
 62
7
  6
CONTINUOUS
 10
564.069402545
 20
521.3459169593
 40
0.9573603646
100
AcDbArc
 50
254.3568027485
 51
255.684629846
  0
ARC
  5
71B
100
AcDbEntity
  8
0
100
AcDbCircle
 62
7
  6
CONTINUOUS
 10
565.8135016544
 20
524.3663218882
 40
0.9563470961
100
AcDbArc
 50
44.3153880382
 51
45.9307066915
  0
SPLINE
  5
71C
100
AcDbEntity
  8
0
100
AcDbSpline
 62
7
  6
CONTINUOUS
 70
0
 71
3
 72
9
 73
5
 74
0
 42
0.0000001
 43
0.0000001
 44
0.0000000001
 40
0.0
 40
0.0
 40
0.0
 40
0.0
 40
0.4775906253
 40
1.0
 40
1.0
 40
1.0
 40
1.0
 10
285.4912698963
 20
738.4805963599
 30
0.0
 10
284.6947758526
 20
738.8989309678
 30
0.0
 10
282.8989224394
 20
739.534623826
 30
0.0
 10
281.0190283569
 20
739.7835239873
 30
0.0
 10
280.0356631225
 20
739.8215048148
 30
0.0
  0
SPLINE
  5
71D
100
AcDbEntity
  8
0
100
AcDbSpline
 62
7
  6
CONTINUOUS
 70
0
 71
3
 72
11
 73
7
 74
0
 42
0.0000001
 43
0.0000001
 44
0.0000000001
 40
0.0
 40
0.0
 40
0.0
 40
0.0
 40
0.2180447938
 40
0.4530141439
 40
0.7126420284
 40
1.0
 40
1.0
 40
1.0
 40
1.0
 10
336.1801752991
 20
707.4071889059
 30
0.0
 10
336.1435438178
 20
707.7232834077
 30
0.0
 10
335.9609948764
 20
708.3708530972
 30
0.0
 10
335.4054771329
 20
709.2627790974
 30
0.0
 10
334.5913063515
 20
710.0738370339
 30
0.0
 10
333.9273689283
 20
710.5248299748
 30
0.0
 10
333.5641868334
 20
710.7345085115
 30
0.0
  0
SPLINE
  5
71E
100
AcDbEntity
  8
0
100
AcDbSpline
 62
7
  6
CONTINUOUS
 70
0
 71
3
 72
11
 73
7
 74
0
 42
0.0000001
 43
0.0000001
 44
0.0000000001
 40
0.0
 40
0.0
 40
0.0
 40
0.0
 40
0.284638289
 40
0.5433922246
 40
0.7794389745
 40
1.0
 40
1.0
 40
1.0
 40
1.0
 10
83.9822862433
 20
458.8395414374
 30
0.0
 10
83.658909295
 20
459.0447648284
 30
0.0
 10
83.0683616614
 20
459.4823156175
 30
0.0
 10
82.347433966
 20
460.2536102623
 30
0.0
 10
81.8567378244
 20
461.0921974667
 30
0.0
 10
81.6938505605
 20
461.6944742866
 30
0.0
 10
81.6596860405
 20
461.9892812822
 30
0.0
  0
SPLINE
  5
71F
100
AcDbEntity
  8
0
100
AcDbSpline
 62
7
  6
CONTINUOUS
 70
0
 71
3
 72
9
 73
5
 74
0
 42
0.0000001
 43
0.0000001
 44
0.0000000001
 40
0.0
 40
0.0
 40
0.0
 40
0.0
 40
0.5253557142
 40
1.0
 40
1.0
 40
1.0
 40
1.0
 10
137.8041982171
 20
429.5749653732
 30
0.0
 10
136.7543629318
 20
429.6155134946
 30
0.0
 10
134.7586409301
 20
429.8918433214
 30
0.0
 10
132.8630470367
 20
430.610663672
 30
0.0
 10
132.0410074351
 20
431.0852577205
 30
0.0
  0
SPLINE
  5
720
100
AcDbEntity
  8
0
100
AcDbSpline
 62
7
  6
CONTINUOUS
 70
0
 71
3
 72
9
 73
5
 74
0
 42
0.0000001
 43
0.0000001
 44
0.0000000001
 40
0.0
 40
0.0
 40
0.0
 40
0.0
 40
0.2657337074
 40
1.0
 40
1.0
 40
1.0
 40
1.0
 10
83.9822862433
 20
548.6548073216
 30
0.0
 10
83.8398811724
 20
548.7451812697
 30
0.0
 10
83.3152935124
 20
549.102110223
 30
0.0
 10
82.8368529917
 20
549.5317013746
 30
0.0
 10
82.5375676501
 20
549.888942075
 30
0.0
  0
SPLINE
  5
721
100
AcDbEntity
  8
0
100
AcDbSpline
 62
7
  6
CONTINUOUS
 70
0
 71
3
 72
9
 73
5
 74
0
 42
0.0000001
 43
0.0000001
 44
0.0000000001
 40
0.0
 40
0.0
 40
0.0
 40
0.0
 40
0.2351633173
 40
1.0
 40
1.0
 40
1.0
 40
1.0
 10
82.5375676501
 20
533.5588937324
 30
0.0
 10
82.6334369981
 20
533.4444596848
 30
0.0
 10
83.0635454722
 20
532.9766670308
 30
0.0
 10
83.5723409938
 20
532.5849208572
 30
0.0
 10
83.9822862433
 20
532.324758979
 30
0.0
  0
SPLINE
  5
722
100
AcDbEntity
  8
0
100
AcDbSpline
 62
7
  6
CONTINUOUS
 70
0
 71
3
 72
11
 73
7
 74
0
 42
0.0000001
 43
0.0000001
 44
0.0000000001
 40
0.0
 40
0.0
 40
0.0
 40
0.0
 40
0.2205610255
 40
0.4566077754
 40
0.715361711
 40
1.0
 40
1.0
 40
1.0
 40
1.0
 10
81.6596860405
 20
625.2897647081
 30
0.0
 10
81.6938505605
 20
624.9949577125
 30
0.0
 10
81.8567378244
 20
624.3926808926
 30
0.0
 10
82.347433966
 20
623.5540936882
 30
0.0
 10
83.0683616614
 20
622.7827990435
 30
0.0
 10
83.658909295
 20
622.3452482543
 30
0.0
 10
83.9822862433
 20
622.1400248633
 30
0.0
  0
SPLINE
  5
723
100
AcDbEntity
  8
0
100
AcDbSpline
 62
7
  6
CONTINUOUS
 70
0
 71
3
 72
9
 73
5
 74
0
 42
0.0000001
 43
0.0000001
 44
0.0000000001
 40
0.0
 40
0.0
 40
0.0
 40
0.0
 40
0.4746442858
 40
1.0
 40
1.0
 40
1.0
 40
1.0
 10
132.0410074351
 20
594.3857411464
 30
0.0
 10
132.8630470367
 20
593.9111470979
 30
0.0
 10
134.7586409301
 20
593.1923267473
 30
0.0
 10
136.7543629318
 20
592.9159969206
 30
0.0
 10
137.8041982171
 20
592.8754487992
 30
0.0
  0
SPLINE
  5
724
100
AcDbEntity
  8
0
100
AcDbSpline
 62
7
  6
CONTINUOUS
 70
0
 71
3
 72
9
 73
5
 74
0
 42
0.0000001
 43
0.0000001
 44
0.0000000001
 40
0.0
 40
0.0
 40
0.0
 40
0.0
 40
0.4746442858
 40
1.0
 40
1.0
 40
1.0
 40
1.0
 10
582.7849384662
 20
566.850095569
 30
0.0
 10
581.9628988646
 20
567.3246896175
 30
0.0
 10
580.0673049712
 20
568.0435099681
 30
0.0
 10
578.0715829695
 20
568.3198397949
 30
0.0
 10
577.0217476842
 20
568.3603879163
 30
0.0
  0
SPLINE
  5
725
100
AcDbEntity
  8
0
100
AcDbSpline
 62
7
  6
CONTINUOUS
 70
0
 71
3
 72
11
 73
7
 74
0
 42
0.0000001
 43
0.0000001
 44
0.0000000001
 40
0.0
 40
0.0
 40
0.0
 40
0.0
 40
0.2205610255
 40
0.4566077754
 40
0.715361711
 40
1.0
 40
1.0
 40
1.0
 40
1.0
 10
633.1662598609
 20
535.9460720074
 30
0.0
 10
633.1320953408
 20
536.240879003
 30
0.0
 10
632.969208077
 20
536.8431558229
 30
0.0
 10
632.4785119353
 20
537.6817430273
 30
0.0
 10
631.7575842399
 20
538.453037672
 30
0.0
 10
631.1670366064
 20
538.8905884612
 30
0.0
 10
630.843659658
 20
539.0958118522
 30
0.0
  0
SPLINE
  5
726
100
AcDbEntity
  8
0
100
AcDbSpline
 62
7
  6
CONTINUOUS
 70
0
 71
3
 72
17
 73
13
 74
0
 42
0.0000001
 43
0.0000001
 44
0.0000000001
 40
0.0
 40
0.0
 40
0.0
 40
0.0
 40
0.1380384292
 40
0.2910005914
 40
0.4450627525
 40
0.5180821751
 40
0.5862647667
 40
0.7041423349
 40
0.7999001018
 40
0.8449934437
 40
0.8919653364
 40
1.0
 40
1.0
 40
1.0
 40
1.0
 10
581.7321503705
 20
426.6112946242
 30
0.0
 10
581.7321503705
 20
426.8614303867
 30
0.0
 10
581.6412164487
 20
427.3891861719
 30
0.0
 10
581.3223441463
 20
428.1356275934
 30
0.0
 10
580.9216923496
 20
428.7034542463
 30
0.0
 10
580.5400279074
 20
429.080585961
 30
0.0
 10
580.1644449892
 20
429.3632197486
 30
0.0
 10
579.6922219708
 20
429.5857645478
 30
0.0
 10
579.1943306699
 20
429.5668270754
 30
0.0
 10
578.9003741814
 20
429.3818978612
 30
0.0
 10
578.6683047708
 20
429.0965248767
 30
0.0
 10
578.5959638198
 20
428.8107683732
 30
0.0
 10
578.5779217805
 20
428.6158347938
 30
0.0
  0
SPLINE
  5
727
100
AcDbEntity
  8
0
100
AcDbSpline
 62
7
  6
CONTINUOUS
 70
0
 71
3
 72
17
 73
13
 74
0
 42
0.0000001
 43
0.0000001
 44
0.0000000001
 40
0.0
 40
0.0
 40
0.0
 40
0.0
 40
0.1380384292
 40
0.2910005914
 40
0.4450627525
 40
0.5180821751
 40
0.5862647667
 40
0.7041423349
 40
0.7999001018
 40
0.8449934437
 40
0.8919653364
 40
1.0
 40
1.0
 40
1.0
 40
1.0
 10
581.7321503705
 20
540.9216330224
 30
0.0
 10
581.7321503705
 20
541.1717687848
 30
0.0
 10
581.6412164487
 20
541.69952457
 30
0.0
 10
581.3223441463
 20
542.4459659916
 30
0.0
 10
580.9216923496
 20
543.0137926444
 30
0.0
 10
580.5400279074
 20
543.3909243591
 30
0.0
 10
580.1644449892
 20
543.6735581467
 30
0.0
 10
579.6922219708
 20
543.8961029459
 30
0.0
 10
579.1943306699
 20
543.8771654735
 30
0.0
 10
578.9003741814
 20
543.6922362593
 30
0.0
 10
578.6683047708
 20
543.4068632749
 30
0.0
 10
578.5959638198
 20
543.1211067713
 30
0.0
 10
578.5779217805
 20
542.926173192
 30
0.0
  0
SPLINE
  5
728
100
AcDbEntity
  8
0
100
AcDbSpline
 62
7
  6
CONTINUOUS
 70
0
 71
3
 72
11
 73
7
 74
0
 42
0.0000001
 43
0.0000001
 44
0.0000000001
 40
0.0
 40
0.0
 40
0.0
 40
0.0
 40
0.2809151768
 40
0.5116547813
 40
0.7347355008
 40
1.0
 40
1.0
 40
1.0
 40
1.0
 10
581.7321503705
 20
426.6112946242
 30
0.0
 10
581.7321503705
 20
426.4098458628
 30
0.0
 10
581.6843852824
 20
426.0365005656
 30
0.0
 10
581.3626623277
 20
425.5782893519
 30
0.0
 10
580.8309667623
 20
425.4316976686
 30
0.0
 10
580.4826901086
 20
425.5364706194
 30
0.0
 10
580.3098814772
 20
425.6159871818
 30
0.0
  0
SPLINE
  5
729
100
AcDbEntity
  8
0
100
AcDbSpline
 62
7
  6
CONTINUOUS
 70
0
 71
3
 72
11
 73
7
 74
0
 42
0.0000001
 43
0.0000001
 44
0.0000000001
 40
0.0
 40
0.0
 40
0.0
 40
0.0
 40
0.2652282381
 40
0.4883192769
 40
0.7190712823
 40
1.0
 40
1.0
 40
1.0
 40
1.0
 10
580.3098816567
 20
539.9263231745
 30
0.0
 10
580.4826661796
 20
539.8468145358
 30
0.0
 10
580.8309199069
 20
539.7420780573
 30
0.0
 10
581.3626343676
 20
539.888564996
 30
0.0
 10
581.6843962906
 20
540.346808643
 30
0.0
 10
581.7321503705
 20
540.7201737138
 30
0.0
 10
581.7321503705
 20
540.9216330224
 30
0.0
  0
SPLINE
  5
72A
100
AcDbEntity
  8
0
100
AcDbSpline
 62
7
  6
CONTINUOUS
 70
0
 71
3
 72
11
 73
7
 74
0
 42
0.0000001
 43
0.0000001
 44
0.0000000001
 40
0.0
 40
0.0
 40
0.0
 40
0.0
 40
0.2873579716
 40
0.5469858561
 40
0.7819552062
 40
1.0
 40
1.0
 40
1.0
 40
1.0
 10
381.2617590679
 20
287.200844778
 30
0.0
 10
380.8985769731
 20
287.4105233147
 30
0.0
 10
380.2346395498
 20
287.8615162557
 30
0.0
 10
379.4204687684
 20
288.6725741922
 30
0.0
 10
378.864951025
 20
289.5645001923
 30
0.0
 10
378.6824020835
 20
290.2120698818
 30
0.0
 10
378.6457706022
 20
290.5281643836
 30
0.0
  0
SPLINE
  5
72B
100
AcDbEntity
  8
0
100
AcDbSpline
 62
7
  6
CONTINUOUS
 70
0
 71
3
 72
9
 73
5
 74
0
 42
0.0000001
 43
0.0000001
 44
0.0000000001
 40
0.0
 40
0.0
 40
0.0
 40
0.0
 40
0.5224093747
 40
1.0
 40
1.0
 40
1.0
 40
1.0
 10
434.7902827789
 20
258.1138484747
 30
0.0
 10
433.8069175444
 20
258.1518293022
 30
0.0
 10
431.9270234619
 20
258.4007294635
 30
0.0
 10
430.1311700488
 20
259.0364223217
 30
0.0
 10
429.3346760051
 20
259.4547569297
 30
0.0
  0
SPLINE
  5
72C
100
AcDbEntity
  8
0
100
AcDbSpline
 62
7
  6
CONTINUOUS
 70
0
 71
3
 72
9
 73
5
 74
0
 42
0.0000001
 43
0.0000001
 44
0.0000000001
 40
0.0
 40
0.0
 40
0.0
 40
0.0
 40
0.260384544
 40
1.0
 40
1.0
 40
1.0
 40
1.0
 10
431.4723026902
 20
348.435936346
 30
0.0
 10
431.2802889071
 20
348.489554767
 30
0.0
 10
430.5479508522
 20
348.7127518933
 30
0.0
 10
429.8360097859
 20
349.0067122816
 30
0.0
 10
429.3346760051
 20
349.2700228139
 30
0.0
  0
SPLINE
  5
72D
100
AcDbEntity
  8
0
100
AcDbSpline
 62
7
  6
CONTINUOUS
 70
0
 71
3
 72
11
 73
7
 74
0
 42
0.0000001
 43
0.0000001
 44
0.0000000001
 40
0.0
 40
0.0
 40
0.0
 40
0.0
 40
0.2180447938
 40
0.4530141439
 40
0.7126420284
 40
1.0
 40
1.0
 40
1.0
 40
1.0
 10
378.6457706022
 20
453.8286478095
 30
0.0
 10
378.6824020835
 20
453.5125533078
 30
0.0
 10
378.864951025
 20
452.8649836182
 30
0.0
 10
379.4204687684
 20
451.9730576181
 30
0.0
 10
380.2346395498
 20
451.1619996816
 30
0.0
 10
380.8985769731
 20
450.7110067406
 30
0.0
 10
381.2617590679
 20
450.501328204
 30
0.0
  0
SPLINE
  5
72E
100
AcDbEntity
  8
0
100
AcDbSpline
 62
7
  6
CONTINUOUS
 70
0
 71
3
 72
9
 73
5
 74
0
 42
0.0000001
 43
0.0000001
 44
0.0000000001
 40
0.0
 40
0.0
 40
0.0
 40
0.0
 40
0.4775906253
 40
1.0
 40
1.0
 40
1.0
 40
1.0
 10
429.3346760051
 20
422.7552403556
 30
0.0
 10
430.1311700488
 20
422.3369057476
 30
0.0
 10
431.9270234619
 20
421.7012128894
 30
0.0
 10
433.8069175444
 20
421.4523127282
 30
0.0
 10
434.7902827789
 20
421.4143319006
 30
0.0
  0
SPLINE
  5
72F
100
AcDbEntity
  8
0
100
AcDbSpline
 62
7
  6
CONTINUOUS
 70
0
 71
3
 72
9
 73
5
 74
0
 42
0.0000001
 43
0.0000001
 44
0.0000000001
 40
0.0
 40
0.0
 40
0.0
 40
0.0
 40
0.2393409694
 40
1.0
 40
1.0
 40
1.0
 40
1.0
 10
429.3346760051
 20
332.9399744713
 30
0.0
 10
429.4969180515
 20
332.8547617024
 30
0.0
 10
430.1855139357
 20
332.5192668965
 30
0.0
 10
430.9113417697
 20
332.2625321689
 30
0.0
 10
431.4723026902
 20
332.1058880034
 30
0.0
  0
SPLINE
  5
730
100
AcDbEntity
  8
0
100
AcDbSpline
 62
7
  6
CONTINUOUS
 70
0
 71
3
 72
9
 73
5
 74
0
 42
0.0000001
 43
0.0000001
 44
0.0000000001
 40
0.0
 40
0.0
 40
0.0
 40
0.0
 40
0.2405239971
 40
1.0
 40
1.0
 40
1.0
 40
1.0
 10
563.7115184064
 20
464.3693049976
 30
0.0
 10
563.7115184064
 20
464.4272131935
 30
0.0
 10
563.7544966751
 20
464.665121787
 30
0.0
 10
563.9067170833
 20
464.890253542
 30
0.0
 10
564.065070325
 20
464.9816782831
 30
0.0
  0
SPLINE
  5
731
100
AcDbEntity
  8
0
100
AcDbSpline
 62
7
  6
CONTINUOUS
 70
0
 71
3
 72
9
 73
5
 74
0
 42
0.0000001
 43
0.0000001
 44
0.0000000001
 40
0.0
 40
0.0
 40
0.0
 40
0.0
 40
0.293909939
 40
1.0
 40
1.0
 40
1.0
 40
1.0
 10
569.3683491041
 20
468.0435094371
 30
0.0
 10
569.3901632019
 20
468.0561037371
 30
0.0
 10
569.4663181866
 20
468.0932299232
 30
0.0
 10
569.5659614613
 20
468.0985695149
 30
0.0
 10
569.6183679444
 20
468.0683133378
 30
0.0
  0
SPLINE
  5
732
100
AcDbEntity
  8
0
100
AcDbSpline
 62
7
  6
CONTINUOUS
 70
0
 71
3
 72
9
 73
5
 74
0
 42
0.0000001
 43
0.0000001
 44
0.0000000001
 40
0.0
 40
0.0
 40
0.0
 40
0.0
 40
0.293909939
 40
1.0
 40
1.0
 40
1.0
 40
1.0
 10
569.3683491041
 20
422.3193740778
 30
0.0
 10
569.3901632019
 20
422.3319683779
 30
0.0
 10
569.4663181866
 20
422.3690945639
 30
0.0
 10
569.5659614613
 20
422.3744341556
 30
0.0
 10
569.6183679444
 20
422.3441779786
 30
0.0
  0
SPLINE
  5
733
100
AcDbEntity
  8
0
100
AcDbSpline
 62
7
  6
CONTINUOUS
 70
0
 71
3
 72
9
 73
5
 74
0
 42
0.0000001
 43
0.0000001
 44
0.0000000001
 40
0.0
 40
0.0
 40
0.0
 40
0.0
 40
0.2405239971
 40
1.0
 40
1.0
 40
1.0
 40
1.0
 10
563.7115184064
 20
418.6451696383
 30
0.0
 10
563.7115184064
 20
418.7030778342
 30
0.0
 10
563.7544966751
 20
418.9409864278
 30
0.0
 10
563.9067170833
 20
419.1661181828
 30
0.0
 10
564.065070325
 20
419.2575429238
 30
0.0
  0
SPLINE
  5
734
100
AcDbEntity
  8
0
100
AcDbSpline
 62
7
  6
CONTINUOUS
 70
0
 71
3
 72
11
 73
7
 74
0
 42
0.0000001
 43
0.0000001
 44
0.0000000001
 40
0.0
 40
0.0
 40
0.0
 40
0.0
 40
0.2194485181
 40
0.4999892434
 40
0.7805417917
 40
1.0
 40
1.0
 40
1.0
 40
1.0
 10
563.7719954482
 20
439.0781231938
 30
0.0
 10
563.7719954482
 20
439.444763268
 30
0.0
 10
563.938401103
 20
440.2773389007
 30
0.0
 10
564.4707879742
 20
441.4770356549
 30
0.0
 10
565.2435493319
 20
442.5379732503
 30
0.0
 10
565.8813956928
 20
443.0984113116
 30
0.0
 10
566.1989298056
 20
443.2817386228
 30
0.0
  0
SPLINE
  5
735
100
AcDbEntity
  8
0
100
AcDbSpline
 62
7
  6
CONTINUOUS
 70
0
 71
3
 72
11
 73
7
 74
0
 42
0.0000001
 43
0.0000001
 44
0.0000000001
 40
0.0
 40
0.0
 40
0.0
 40
0.0
 40
0.2253709002
 40
0.4875899527
 40
0.7566874432
 40
1.0
 40
1.0
 40
1.0
 40
1.0
 10
564.1151869187
 20
439.1216374177
 30
0.0
 10
564.4201871923
 20
439.2342359375
 30
0.0
 10
565.0191345172
 20
439.6380412411
 30
0.0
 10
565.7222205459
 20
440.485527168
 30
0.0
 10
566.2168356169
 20
441.4986556728
 30
0.0
 10
566.3631389546
 20
442.2380169472
 30
0.0
 10
566.3631389546
 20
442.5890205377
 30
0.0
  0
SPLINE
  5
736
100
AcDbEntity
  8
0
100
AcDbSpline
 62
7
  6
CONTINUOUS
 70
0
 71
3
 72
9
 73
5
 74
0
 42
0.0000001
 43
0.0000001
 44
0.0000000001
 40
0.0
 40
0.0
 40
0.0
 40
0.0
 40
0.220853087
 40
1.0
 40
1.0
 40
1.0
 40
1.0
 10
563.8150514848
 20
412.2924684775
 30
0.0
 10
563.7985657523
 20
412.3019862931
 30
0.0
 10
563.7311301194
 20
412.3587431868
 30
0.0
 10
563.7115184064
 20
412.4542445677
 30
0.0
 10
563.7115184064
 20
412.5214015098
 30
0.0
  0
SPLINE
  5
737
100
AcDbEntity
  8
0
100
AcDbSpline
 62
7
  6
CONTINUOUS
 70
0
 71
3
 72
9
 73
5
 74
0
 42
0.0000001
 43
0.0000001
 44
0.0000000001
 40
0.0
 40
0.0
 40
0.0
 40
0.0
 40
0.2405215751
 40
1.0
 40
1.0
 40
1.0
 40
1.0
 10
568.3076845164
 20
461.7156000233
 30
0.0
 10
568.3578340628
 20
461.7445537045
 30
0.0
 10
568.542379719
 20
461.9007289305
 30
0.0
 10
568.661236435
 20
462.1451223968
 30
0.0
 10
568.661236435
 20
462.3279733088
 30
0.0
  0
SPLINE
  5
738
100
AcDbEntity
  8
0
100
AcDbSpline
 62
7
  6
CONTINUOUS
 70
0
 71
3
 72
9
 73
5
 74
0
 42
0.0000001
 43
0.0000001
 44
0.0000000001
 40
0.0
 40
0.0
 40
0.0
 40
0.0
 40
0.220853087
 40
1.0
 40
1.0
 40
1.0
 40
1.0
 10
563.8150514848
 20
458.0166038367
 30
0.0
 10
563.7985657523
 20
458.0261216523
 30
0.0
 10
563.7311301194
 20
458.0828785461
 30
0.0
 10
563.7115184064
 20
458.1783799269
 30
0.0
 10
563.7115184064
 20
458.2455368691
 30
0.0
  0
SPLINE
  5
739
100
AcDbEntity
  8
0
100
AcDbSpline
 62
7
  6
CONTINUOUS
 70
0
 71
3
 72
9
 73
5
 74
0
 42
0.0000001
 43
0.0000001
 44
0.0000000001
 40
0.0
 40
0.0
 40
0.0
 40
0.0
 40
0.2405215751
 40
1.0
 40
1.0
 40
1.0
 40
1.0
 10
568.3076845164
 20
415.991464664
 30
0.0
 10
568.3578340628
 20
416.0204183453
 30
0.0
 10
568.542379719
 20
416.1765935713
 30
0.0
 10
568.661236435
 20
416.4209870376
 30
0.0
 10
568.661236435
 20
416.6038379495
 30
0.0
  0
SPLINE
  5
73A
100
AcDbEntity
  8
0
100
AcDbSpline
 62
7
  6
CONTINUOUS
 70
0
 71
3
 72
9
 73
5
 74
0
 42
0.0000001
 43
0.0000001
 44
0.0000000001
 40
0.0
 40
0.0
 40
0.0
 40
0.0
 40
0.3092596201
 40
1.0
 40
1.0
 40
1.0
 40
1.0
 10
574.7219800334
 20
486.3794971047
 30
0.0
 10
574.7950728555
 20
486.3372975566
 30
0.0
 10
574.7576868232
 20
485.9790251791
 30
0.0
 10
574.6464715905
 20
485.7698507267
 30
0.0
 10
574.5563239333
 20
485.6042929418
 30
0.0
  0
SPLINE
  5
73B
100
AcDbEntity
  8
0
100
AcDbSpline
 62
7
  6
CONTINUOUS
 70
0
 71
3
 72
9
 73
5
 74
0
 42
0.0000001
 43
0.0000001
 44
0.0000000001
 40
0.0
 40
0.0
 40
0.0
 40
0.0
 40
0.4491647435
 40
1.0
 40
1.0
 40
1.0
 40
1.0
 10
323.1024668677
 20
536.5390113903
 30
0.0
 10
322.900126823
 20
536.6558299352
 30
0.0
 10
322.5504864158
 20
537.0932642345
 30
0.0
 10
322.4810459764
 20
537.6256978779
 30
0.0
 10
322.4810459764
 20
537.9122244635
 30
0.0
  0
SPLINE
  5
73C
100
AcDbEntity
  8
0
100
AcDbSpline
 62
7
  6
CONTINUOUS
 70
0
 71
3
 72
9
 73
5
 74
0
 42
0.0000001
 43
0.0000001
 44
0.0000000001
 40
0.0
 40
0.0
 40
0.0
 40
0.0
 40
0.4491668937
 40
1.0
 40
1.0
 40
1.0
 40
1.0
 10
562.6712417455
 20
398.22704376
 30
0.0
 10
562.8735748797
 20
398.1102293486
 30
0.0
 10
563.427201032
 20
398.0261560612
 30
0.0
 10
563.9230034031
 20
398.2322255728
 30
0.0
 10
564.1711323679
 20
398.3754820423
 30
0.0
  0
SPLINE
  5
73D
100
AcDbEntity
  8
0
100
AcDbSpline
 62
7
  6
CONTINUOUS
 70
0
 71
3
 72
8
 73
4
 74
0
 42
0.0000001
 43
0.0000001
 44
0.0000000001
 40
0.0
 40
0.0
 40
0.0
 40
0.0
 40
1.0
 40
1.0
 40
1.0
 40
1.0
 10
335.4604630089
 20
543.8099073071
 30
0.0
 10
335.6534012121
 20
543.9881213865
 30
0.0
 10
335.8708290462
 20
544.1418977683
 30
0.0
 10
336.1000678553
 20
544.2700967415
 30
0.0
  0
SPLINE
  5
73E
100
AcDbEntity
  8
0
100
AcDbSpline
 62
7
  6
CONTINUOUS
 70
0
 71
3
 72
9
 73
5
 74
0
 42
0.0000001
 43
0.0000001
 44
0.0000000001
 40
0.0
 40
0.0
 40
0.0
 40
0.0
 40
0.2663877623
 40
1.0
 40
1.0
 40
1.0
 40
1.0
 10
336.4730321954
 20
544.4521558696
 30
0.0
 10
336.5152091965
 20
544.4699199646
 30
0.0
 10
336.6747587848
 20
544.533663081
 30
0.0
 10
336.8386498174
 20
544.586592555
 30
0.0
 10
336.960536621
 20
544.618658737
 30
0.0
  0
SPLINE
  5
73F
100
AcDbEntity
  8
0
100
AcDbSpline
 62
7
  6
CONTINUOUS
 70
0
 71
3
 72
9
 73
5
 74
0
 42
0.0000001
 43
0.0000001
 44
0.0000000001
 40
0.0
 40
0.0
 40
0.0
 40
0.0
 40
0.2405239971
 40
1.0
 40
1.0
 40
1.0
 40
1.0
 10
324.3548764442
 20
556.8346650434
 30
0.0
 10
324.3548764442
 20
556.8925732394
 30
0.0
 10
324.3978547128
 20
557.1304818329
 30
0.0
 10
324.550075121
 20
557.3556135879
 30
0.0
 10
324.7084283628
 20
557.4470383289
 30
0.0
  0
SPLINE
  5
740
100
AcDbEntity
  8
0
100
AcDbSpline
 62
7
  6
CONTINUOUS
 70
0
 71
3
 72
9
 73
5
 74
0
 42
0.0000001
 43
0.0000001
 44
0.0000000001
 40
0.0
 40
0.0
 40
0.0
 40
0.0
 40
0.293909939
 40
1.0
 40
1.0
 40
1.0
 40
1.0
 10
330.0117071419
 20
560.508869483
 30
0.0
 10
330.0335212396
 20
560.521463783
 30
0.0
 10
330.1096762244
 20
560.558589969
 30
0.0
 10
330.209319499
 20
560.5639295608
 30
0.0
 10
330.2617259822
 20
560.5336733837
 30
0.0
  0
SPLINE
  5
741
100
AcDbEntity
  8
0
100
AcDbSpline
 62
7
  6
CONTINUOUS
 70
0
 71
3
 72
9
 73
5
 74
0
 42
0.0000001
 43
0.0000001
 44
0.0000000001
 40
0.0
 40
0.0
 40
0.0
 40
0.0
 40
0.293909939
 40
1.0
 40
1.0
 40
1.0
 40
1.0
 10
330.0117071419
 20
606.2330048422
 30
0.0
 10
330.0335212396
 20
606.2455991422
 30
0.0
 10
330.1096762244
 20
606.2827253283
 30
0.0
 10
330.209319499
 20
606.28806492
 30
0.0
 10
330.2617259822
 20
606.2578087429
 30
0.0
  0
SPLINE
  5
742
100
AcDbEntity
  8
0
100
AcDbSpline
 62
7
  6
CONTINUOUS
 70
0
 71
3
 72
9
 73
5
 74
0
 42
0.0000001
 43
0.0000001
 44
0.0000000001
 40
0.0
 40
0.0
 40
0.0
 40
0.0
 40
0.2405239971
 40
1.0
 40
1.0
 40
1.0
 40
1.0
 10
324.3548764442
 20
602.5588004027
 30
0.0
 10
324.3548764442
 20
602.6167085986
 30
0.0
 10
324.3978547128
 20
602.8546171922
 30
0.0
 10
324.550075121
 20
603.0797489472
 30
0.0
 10
324.7084283628
 20
603.1711736882
 30
0.0
  0
SPLINE
  5
743
100
AcDbEntity
  8
0
100
AcDbSpline
 62
7
  6
CONTINUOUS
 70
0
 71
3
 72
8
 73
4
 74
0
 42
0.0000001
 43
0.0000001
 44
0.0000000001
 40
0.0
 40
0.0
 40
0.0
 40
0.0
 40
1.0
 40
1.0
 40
1.0
 40
1.0
 10
335.4605258967
 20
543.8099278397
 30
0.0
 10
335.3489886039
 20
543.7735093784
 30
0.0
 10
335.2398228784
 20
543.7271218777
 30
0.0
 10
335.1382099617
 20
543.6684559831
 30
0.0
  0
SPLINE
  5
744
100
AcDbEntity
  8
0
100
AcDbSpline
 62
7
  6
CONTINUOUS
 70
0
 71
3
 72
13
 73
9
 74
0
 42
0.0000001
 43
0.0000001
 44
0.0000000001
 40
0.0
 40
0.0
 40
0.0
 40
0.0
 40
0.0871393041
 40
0.186846948
 40
0.3045211001
 40
0.4386554526
 40
0.7300919078
 40
1.0
 40
1.0
 40
1.0
 40
1.0
 10
326.4622761799
 20
574.0386993863
 30
0.0
 10
326.6720503282
 20
573.9175838259
 30
0.0
 10
327.1990780077
 20
573.782068718
 30
0.0
 10
328.047379253
 20
573.9520452439
 30
0.0
 10
328.9142600949
 20
574.4252820808
 30
0.0
 10
330.051339926
 20
575.4339028074
 30
0.0
 10
331.1194785087
 20
577.0848820036
 30
0.0
 10
331.5319904014
 20
578.6402191347
 30
0.0
 10
331.5319904014
 20
579.3905024764
 30
0.0
  0
SPLINE
  5
745
100
AcDbEntity
  8
0
100
AcDbSpline
 62
7
  6
CONTINUOUS
 70
0
 71
3
 72
8
 73
4
 74
0
 42
0.0000001
 43
0.0000001
 44
0.0000000001
 40
0.0
 40
0.0
 40
0.0
 40
0.0
 40
1.0
 40
1.0
 40
1.0
 40
1.0
 10
337.2595303052
 20
544.4849634993
 30
0.0
 10
337.1649603998
 20
544.5395622245
 30
0.0
 10
337.0638435345
 20
544.5835040325
 30
0.0
 10
336.9604658709
 20
544.6186828113
 30
0.0
  0
SPLINE
  5
746
100
AcDbEntity
  8
0
100
AcDbSpline
 62
7
  6
CONTINUOUS
 70
0
 71
3
 72
11
 73
7
 74
0
 42
0.0000001
 43
0.0000001
 44
0.0000000001
 40
0.0
 40
0.0
 40
0.0
 40
0.0
 40
0.2352308687
 40
0.5130880546
 40
0.7848885584
 40
1.0
 40
1.0
 40
1.0
 40
1.0
 10
327.0380327283
 20
576.0234890953
 30
0.0
 10
327.3394232468
 20
576.2373415976
 30
0.0
 10
327.9236297384
 20
576.8063874561
 30
0.0
 10
328.619455625
 20
577.833286546
 30
0.0
 10
329.09024431
 20
578.946071461
 30
0.0
 10
329.2381689103
 20
579.707232994
 30
0.0
 10
329.2437857455
 20
580.04513089
 30
0.0
  0
SPLINE
  5
747
100
AcDbEntity
  8
0
100
AcDbSpline
 62
7
  6
CONTINUOUS
 70
0
 71
3
 72
9
 73
5
 74
0
 42
0.0000001
 43
0.0000001
 44
0.0000000001
 40
0.0
 40
0.0
 40
0.0
 40
0.0
 40
0.4491689328
 40
1.0
 40
1.0
 40
1.0
 40
1.0
 10
327.2122350604
 20
575.3376956802
 30
0.0
 10
327.0300457596
 20
575.4426965176
 30
0.0
 10
326.7155225011
 20
575.836640893
 30
0.0
 10
326.6529739246
 20
576.3157430529
 30
0.0
 10
326.6529739246
 20
576.5736178146
 30
0.0
  0
SPLINE
  5
748
100
AcDbEntity
  8
0
100
AcDbSpline
 62
7
  6
CONTINUOUS
 70
0
 71
3
 72
9
 73
5
 74
0
 42
0.0000001
 43
0.0000001
 44
0.0000000001
 40
0.0
 40
0.0
 40
0.0
 40
0.0
 40
0.2598732784
 40
1.0
 40
1.0
 40
1.0
 40
1.0
 10
574.9848731854
 20
405.8510816175
 30
0.0
 10
575.0470222873
 20
405.9473433528
 30
0.0
 10
575.2632848501
 20
406.3316344909
 30
0.0
 10
575.3736048299
 20
406.778623618
 30
0.0
 10
575.3736057888
 20
407.1049540034
 30
0.0
  0
SPLINE
  5
749
100
AcDbEntity
  8
0
100
AcDbSpline
 62
7
  6
CONTINUOUS
 70
0
 71
3
 72
9
 73
5
 74
0
 42
0.0000001
 43
0.0000001
 44
0.0000000001
 40
0.0
 40
0.0
 40
0.0
 40
0.0
 40
0.3222986028
 40
1.0
 40
1.0
 40
1.0
 40
1.0
 10
574.9580082056
 20
485.1508760511
 30
0.0
 10
575.0201577848
 20
485.1218093841
 30
0.0
 10
575.203204403
 20
485.0242057533
 30
0.0
 10
575.3736054734
 20
484.8309246326
 30
0.0
 10
575.3736058315
 20
484.6866558337
 30
0.0
  0
SPLINE
  5
74A
100
AcDbEntity
  8
0
100
AcDbSpline
 62
7
  6
CONTINUOUS
 70
0
 71
3
 72
9
 73
5
 74
0
 42
0.0000001
 43
0.0000001
 44
0.0000000001
 40
0.0
 40
0.0
 40
0.0
 40
0.0
 40
0.2362307538
 40
1.0
 40
1.0
 40
1.0
 40
1.0
 10
574.9849264492
 20
405.8511359971
 30
0.0
 10
574.9509578425
 20
405.8164572605
 30
0.0
 10
574.8012637212
 20
405.6754491841
 30
0.0
 10
574.6307736824
 20
405.5574345734
 30
0.0
 10
574.4948519239
 20
405.478960578
 30
0.0
  0
SPLINE
  5
74B
100
AcDbEntity
  8
0
100
AcDbSpline
 62
7
  6
CONTINUOUS
 70
0
 71
3
 72
9
 73
5
 74
0
 42
0.0000001
 43
0.0000001
 44
0.0000000001
 40
0.0
 40
0.0
 40
0.0
 40
0.0
 40
0.220853087
 40
1.0
 40
1.0
 40
1.0
 40
1.0
 10
324.4584095225
 20
596.2060992419
 30
0.0
 10
324.44192379
 20
596.2156170574
 30
0.0
 10
324.3744881571
 20
596.2723739512
 30
0.0
 10
324.3548764442
 20
596.367875332
 30
0.0
 10
324.3548764442
 20
596.4350322742
 30
0.0
  0
SPLINE
  5
74C
100
AcDbEntity
  8
0
100
AcDbSpline
 62
7
  6
CONTINUOUS
 70
0
 71
3
 72
9
 73
5
 74
0
 42
0.0000001
 43
0.0000001
 44
0.0000000001
 40
0.0
 40
0.0
 40
0.0
 40
0.0
 40
0.2371666597
 40
1.0
 40
1.0
 40
1.0
 40
1.0
 10
574.9580631476
 20
485.1508222309
 30
0.0
 10
574.9253830524
 20
485.1828337198
 30
0.0
 10
574.7826361973
 20
485.3127378573
 30
0.0
 10
574.6222623284
 20
485.4225759653
 30
0.0
 10
574.4948342601
 20
485.4961449305
 30
0.0
  0
SPLINE
  5
74D
100
AcDbEntity
  8
0
100
AcDbSpline
 62
7
  6
CONTINUOUS
 70
0
 71
3
 72
9
 73
5
 74
0
 42
0.0000001
 43
0.0000001
 44
0.0000000001
 40
0.0
 40
0.0
 40
0.0
 40
0.0
 40
0.220853087
 40
1.0
 40
1.0
 40
1.0
 40
1.0
 10
324.4584095225
 20
550.4819638826
 30
0.0
 10
324.44192379
 20
550.4914816982
 30
0.0
 10
324.3744881571
 20
550.548238592
 30
0.0
 10
324.3548764442
 20
550.6437399728
 30
0.0
 10
324.3548764442
 20
550.710896915
 30
0.0
  0
SPLINE
  5
74E
100
AcDbEntity
  8
0
100
AcDbSpline
 62
7
  6
CONTINUOUS
 70
0
 71
3
 72
9
 73
5
 74
0
 42
0.0000001
 43
0.0000001
 44
0.0000000001
 40
0.0
 40
0.0
 40
0.0
 40
0.0
 40
0.2405215751
 40
1.0
 40
1.0
 40
1.0
 40
1.0
 10
328.9510425542
 20
554.1809600691
 30
0.0
 10
329.0011921005
 20
554.2099137504
 30
0.0
 10
329.1857377568
 20
554.3660889764
 30
0.0
 10
329.3045944728
 20
554.6104824427
 30
0.0
 10
329.3045944728
 20
554.7933333546
 30
0.0
  0
SPLINE
  5
74F
100
AcDbEntity
  8
0
100
AcDbSpline
 62
7
  6
CONTINUOUS
 70
0
 71
3
 72
9
 73
5
 74
0
 42
0.0000001
 43
0.0000001
 44
0.0000000001
 40
0.0
 40
0.0
 40
0.0
 40
0.0
 40
0.2200603929
 40
1.0
 40
1.0
 40
1.0
 40
1.0
 10
337.1108654122
 20
544.4025504882
 30
0.0
 10
337.0499235102
 20
544.3690140603
 30
0.0
 10
336.7721035651
 20
544.2183288157
 30
0.0
 10
336.4860649108
 20
544.0819590458
 30
0.0
 10
336.257325272
 20
543.9899923128
 30
0.0
  0
SPLINE
  5
750
100
AcDbEntity
  8
0
100
AcDbSpline
 62
7
  6
CONTINUOUS
 70
0
 71
3
 72
8
 73
4
 74
0
 42
0.0000001
 43
0.0000001
 44
0.0000000001
 40
0.0
 40
0.0
 40
0.0
 40
0.0
 40
1.0
 40
1.0
 40
1.0
 40
1.0
 10
336.1000365257
 20
543.9293487868
 30
0.0
 10
335.9026763024
 20
543.856546038
 30
0.0
 10
335.7008576461
 20
543.794542518
 30
0.0
 10
335.4961643898
 20
543.7460454174
 30
0.0
  0
SPLINE
  5
751
100
AcDbEntity
  8
0
100
AcDbSpline
 62
7
  6
CONTINUOUS
 70
0
 71
3
 72
9
 73
5
 74
0
 42
0.0000001
 43
0.0000001
 44
0.0000000001
 40
0.0
 40
0.0
 40
0.0
 40
0.0
 40
0.2405215751
 40
1.0
 40
1.0
 40
1.0
 40
1.0
 10
328.9510425542
 20
599.9050954284
 30
0.0
 10
329.0011921005
 20
599.9340491096
 30
0.0
 10
329.1857377568
 20
600.0902243356
 30
0.0
 10
329.3045944728
 20
600.334617802
 30
0.0
 10
329.3045944728
 20
600.5174687139
 30
0.0
  0
SPLINE
  5
752
100
AcDbEntity
  8
0
100
AcDbSpline
 62
7
  6
CONTINUOUS
 70
0
 71
3
 72
10
 73
6
 74
0
 42
0.0000001
 43
0.0000001
 44
0.0000000001
 40
0.0
 40
0.0
 40
0.0
 40
0.0
 40
0.1614850492
 40
0.4965109053
 40
1.0
 40
1.0
 40
1.0
 40
1.0
 10
563.8247244662
 20
438.6531294981
 30
0.0
 10
563.8364720209
 20
438.6332109045
 30
0.0
 10
563.7815169186
 20
438.7853999289
 30
0.0
 10
563.7871792787
 20
438.8625052594
 30
0.0
 10
563.7719954482
 20
439.0060231807
 30
0.0
 10
563.7719954482
 20
439.0781231938
 30
0.0
  0
SPLINE
  5
753
100
AcDbEntity
  8
0
100
AcDbSpline
 62
7
  6
CONTINUOUS
 70
0
 71
3
 72
9
 73
5
 74
0
 42
0.0000001
 43
0.0000001
 44
0.0000000001
 40
0.0
 40
0.0
 40
0.0
 40
0.0
 40
0.2698317846
 40
1.0
 40
1.0
 40
1.0
 40
1.0
 10
566.3631389546
 20
442.5890205377
 30
0.0
 10
566.3631389546
 20
442.6563914373
 30
0.0
 10
566.3530536158
 20
442.9056360187
 30
0.0
 10
566.3006800765
 20
443.1556202045
 30
0.0
 10
566.2290413284
 20
443.3232613436
 30
0.0
  0
SPLINE
  5
754
100
AcDbEntity
  8
0
100
AcDbSpline
 62
7
  6
CONTINUOUS
 70
0
 71
3
 72
9
 73
5
 74
0
 42
0.0000001
 43
0.0000001
 44
0.0000000001
 40
0.0
 40
0.0
 40
0.0
 40
0.0
 40
0.5508521421
 40
1.0
 40
1.0
 40
1.0
 40
1.0
 10
331.5319904014
 20
579.3905024764
 30
0.0
 10
331.5319904014
 20
579.7916561154
 30
0.0
 10
331.4347464821
 20
580.537056011
 30
0.0
 10
330.9452977754
 20
581.1495080876
 30
0.0
 10
330.6620323903
 20
581.3130546739
 30
0.0
  0
SPLINE
  5
755
100
AcDbEntity
  8
0
100
AcDbSpline
 62
7
  6
CONTINUOUS
 70
0
 71
3
 72
13
 73
9
 74
0
 42
0.0000001
 43
0.0000001
 44
0.0000000001
 40
0.0
 40
0.0
 40
0.0
 40
0.0
 40
0.2699047204
 40
0.561308612
 40
0.6954511838
 40
0.813136293
 40
0.9128539772
 40
1.0
 40
1.0
 40
1.0
 40
1.0
 10
326.6529739246
 20
576.5736178146
 30
0.0
 10
326.6529739246
 20
577.0559375893
 30
0.0
 10
326.9181434972
 20
578.0557428883
 30
0.0
 10
327.6047925948
 20
579.1170161473
 30
0.0
 10
328.3357094814
 20
579.7654616666
 30
0.0
 10
328.8929785266
 20
580.0697633517
 30
0.0
 10
329.4384184963
 20
580.1791492541
 30
0.0
 10
329.7771477398
 20
580.0918199104
 30
0.0
 10
329.9120735098
 20
580.01405838
 30
0.0
  0
SPLINE
  5
756
100
AcDbEntity
  8
0
100
AcDbSpline
 62
7
  6
CONTINUOUS
 70
0
 71
3
 72
9
 73
5
 74
0
 42
0.0000001
 43
0.0000001
 44
0.0000000001
 40
0.0
 40
0.0
 40
0.0
 40
0.0
 40
0.2777653093
 40
1.0
 40
1.0
 40
1.0
 40
1.0
 10
574.4937738486
 20
405.1039049854
 30
0.0
 10
574.4640644592
 20
405.0065833105
 30
0.0
 10
574.3483945909
 20
404.6590399201
 30
0.0
 10
574.20039157
 20
404.3214505176
 30
0.0
 10
574.0705683781
 20
404.0909104215
 30
0.0
  0
SPLINE
  5
757
100
AcDbEntity
  8
0
100
AcDbSpline
 62
7
  6
CONTINUOUS
 70
0
 71
3
 72
9
 73
5
 74
0
 42
0.0000001
 43
0.0000001
 44
0.0000000001
 40
0.0
 40
0.0
 40
0.0
 40
0.0
 40
0.4794577887
 40
1.0
 40
1.0
 40
1.0
 40
1.0
 10
322.4810459764
 20
614.6634516737
 30
0.0
 10
322.4810459764
 20
615.177835588
 30
0.0
 10
322.7540247949
 20
616.2477118205
 30
0.0
 10
323.3319128504
 20
617.1729102161
 30
0.0
 10
323.7044154436
 20
617.5889879203
 30
0.0
  0
SPLINE
  5
758
100
AcDbEntity
  8
0
100
AcDbSpline
 62
7
  6
CONTINUOUS
 70
0
 71
3
 72
9
 73
5
 74
0
 42
0.0000001
 43
0.0000001
 44
0.0000000001
 40
0.0
 40
0.0
 40
0.0
 40
0.0
 40
0.5000016721
 40
1.0
 40
1.0
 40
1.0
 40
1.0
 10
563.110476612
 20
476.963850273
 30
0.0
 10
563.110476612
 20
477.327372951
 30
0.0
 10
563.3589056551
 20
478.0451645744
 30
0.0
 10
563.8563141297
 20
478.6192108199
 30
0.0
 10
564.1711323679
 20
478.8009701295
 30
0.0
  0
SPLINE
  5
759
100
AcDbEntity
  8
0
100
AcDbSpline
 62
7
  6
CONTINUOUS
 70
0
 71
3
 72
9
 73
5
 74
0
 42
0.0000001
 43
0.0000001
 44
0.0000000001
 40
0.0
 40
0.0
 40
0.0
 40
0.0
 40
0.2643328839
 40
1.0
 40
1.0
 40
1.0
 40
1.0
 10
574.4948519239
 20
483.8631926225
 30
0.0
 10
574.5418869962
 20
483.890348172
 30
0.0
 10
574.7167623353
 20
483.9981327112
 30
0.0
 10
574.879154115
 20
484.1273872352
 30
0.0
 10
574.9849264492
 20
484.2353680416
 30
0.0
  0
SPLINE
  5
75A
100
AcDbEntity
  8
0
100
AcDbSpline
 62
7
  6
CONTINUOUS
 70
0
 71
3
 72
9
 73
5
 74
0
 42
0.0000001
 43
0.0000001
 44
0.0000000001
 40
0.0
 40
0.0
 40
0.0
 40
0.0
 40
0.220853087
 40
1.0
 40
1.0
 40
1.0
 40
1.0
 10
330.2617259822
 20
606.2578087429
 30
0.0
 10
330.2782117147
 20
606.2482909274
 30
0.0
 10
330.3456473476
 20
606.1915340336
 30
0.0
 10
330.3652590605
 20
606.0960326528
 30
0.0
 10
330.3652590605
 20
606.0288757106
 30
0.0
  0
SPLINE
  5
75B
100
AcDbEntity
  8
0
100
AcDbSpline
 62
7
  6
CONTINUOUS
 70
0
 71
3
 72
8
 73
4
 74
0
 42
0.0000001
 43
0.0000001
 44
0.0000000001
 40
0.0
 40
0.0
 40
0.0
 40
0.0
 40
1.0
 40
1.0
 40
1.0
 40
1.0
 10
566.7167097146
 20
444.4262034768
 30
0.0
 10
566.8537759845
 20
444.5053382523
 30
0.0
 10
566.9949301371
 20
444.5779100703
 30
0.0
 10
567.1396110962
 20
444.6420731056
 30
0.0
  0
SPLINE
  5
75C
100
AcDbEntity
  8
0
100
AcDbSpline
 62
7
  6
CONTINUOUS
 70
0
 71
3
 72
11
 73
7
 74
0
 42
0.0000001
 43
0.0000001
 44
0.0000000001
 40
0.0
 40
0.0
 40
0.0
 40
0.0
 40
0.2636737641
 40
0.4866622371
 40
0.7183292999
 40
1.0
 40
1.0
 40
1.0
 40
1.0
 10
567.1396110962
 20
444.6420731056
 30
0.0
 10
567.5369760155
 20
444.8182962902
 30
0.0
 10
568.3391979966
 20
445.0454177953
 30
0.0
 10
569.5532708383
 20
444.6884620086
 30
0.0
 10
570.2838758876
 20
443.6280176623
 30
0.0
 10
570.3936496681
 20
442.7676177388
 30
0.0
 10
570.3936496681
 20
442.3032605077
 30
0.0
  0
SPLINE
  5
75D
100
AcDbEntity
  8
0
100
AcDbSpline
 62
7
  6
CONTINUOUS
 70
0
 71
3
 72
9
 73
5
 74
0
 42
0.0000001
 43
0.0000001
 44
0.0000000001
 40
0.0
 40
0.0
 40
0.0
 40
0.0
 40
0.220853087
 40
1.0
 40
1.0
 40
1.0
 40
1.0
 10
330.2617259822
 20
560.5336733837
 30
0.0
 10
330.2782117147
 20
560.5241555681
 30
0.0
 10
330.3456473476
 20
560.4673986743
 30
0.0
 10
330.3652590605
 20
560.3718972935
 30
0.0
 10
330.3652590605
 20
560.3047403513
 30
0.0
  0
SPLINE
  5
75E
100
AcDbEntity
  8
0
100
AcDbSpline
 62
7
  6
CONTINUOUS
 70
0
 71
3
 72
9
 73
5
 74
0
 42
0.0000001
 43
0.0000001
 44
0.0000000001
 40
0.0
 40
0.0
 40
0.0
 40
0.0
 40
0.2396649226
 40
1.0
 40
1.0
 40
1.0
 40
1.0
 10
563.039769761
 20
438.0575213076
 30
0.0
 10
563.039769761
 20
438.1449679408
 30
0.0
 10
563.0496544031
 20
438.5098152078
 30
0.0
 10
563.0964622393
 20
438.8732941645
 30
0.0
 10
563.1486338433
 20
439.1457681325
 30
0.0
  0
SPLINE
  5
75F
100
AcDbEntity
  8
0
100
AcDbSpline
 62
7
  6
CONTINUOUS
 70
0
 71
3
 72
9
 73
5
 74
0
 42
0.0000001
 43
0.0000001
 44
0.0000000001
 40
0.0
 40
0.0
 40
0.0
 40
0.0
 40
0.5000005713
 40
1.0
 40
1.0
 40
1.0
 40
1.0
 10
563.1486338433
 20
439.1457681325
 30
0.0
 10
563.3187786998
 20
440.0343749735
 30
0.0
 10
564.0019527299
 20
441.7477600801
 30
0.0
 10
565.1441835221
 20
443.1961130548
 30
0.0
 10
565.8286597827
 20
443.7877716535
 30
0.0
  0
SPLINE
  5
760
100
AcDbEntity
  8
0
100
AcDbSpline
 62
7
  6
CONTINUOUS
 70
0
 71
3
 72
9
 73
5
 74
0
 42
0.0000001
 43
0.0000001
 44
0.0000000001
 40
0.0
 40
0.0
 40
0.0
 40
0.0
 40
0.2600701208
 40
1.0
 40
1.0
 40
1.0
 40
1.0
 10
565.8286597827
 20
443.7877716535
 30
0.0
 10
565.9004488342
 20
443.8498258285
 30
0.0
 10
566.1814954135
 20
444.08248975
 30
0.0
 10
566.482902182
 20
444.2912154407
 30
0.0
 10
566.7167097146
 20
444.4262034768
 30
0.0
  0
SPLINE
  5
761
100
AcDbEntity
  8
0
100
AcDbSpline
 62
7
  6
CONTINUOUS
 70
0
 71
3
 72
11
 73
7
 74
0
 42
0.0000001
 43
0.0000001
 44
0.0000000001
 40
0.0
 40
0.0
 40
0.0
 40
0.0
 40
0.2816683474
 40
0.5133350254
 40
0.7363249105
 40
1.0
 40
1.0
 40
1.0
 40
1.0
 10
566.7167097146
 20
435.9345783387
 30
0.0
 10
566.3145770382
 20
435.7024083156
 30
0.0
 10
565.5145835016
 20
435.3672879229
 30
0.0
 10
564.2309449159
 20
435.4697935966
 30
0.0
 10
563.3147918387
 20
436.3427069569
 30
0.0
 10
563.1103603187
 20
437.1509911859
 30
0.0
 10
563.0642826299
 20
437.5832215628
 30
0.0
  0
SPLINE
  5
762
100
AcDbEntity
  8
0
100
AcDbSpline
 62
7
  6
CONTINUOUS
 70
0
 71
3
 72
8
 73
4
 74
0
 42
0.0000001
 43
0.0000001
 44
0.0000000001
 40
0.0
 40
0.0
 40
0.0
 40
0.0
 40
1.0
 40
1.0
 40
1.0
 40
1.0
 10
563.0642826299
 20
437.5832215628
 30
0.0
 10
563.0475010664
 20
437.7406405158
 30
0.0
 10
563.0397697611
 20
437.8992103869
 30
0.0
 10
563.039769761
 20
438.0575213076
 30
0.0
  0
SPLINE
  5
763
100
AcDbEntity
  8
0
100
AcDbSpline
 62
7
  6
CONTINUOUS
 70
0
 71
3
 72
9
 73
5
 74
0
 42
0.0000001
 43
0.0000001
 44
0.0000000001
 40
0.0
 40
0.0
 40
0.0
 40
0.0
 40
0.5000016719
 40
1.0
 40
1.0
 40
1.0
 40
1.0
 10
566.8581157622
 20
442.3032520095
 30
0.0
 10
566.8581157622
 20
441.6489141821
 30
0.0
 10
566.4108779147
 20
440.3569241242
 30
0.0
 10
565.5156056388
 20
439.3236015288
 30
0.0
 10
564.9489354017
 20
438.9964362678
 30
0.0
  0
SPLINE
  5
764
100
AcDbEntity
  8
0
100
AcDbSpline
 62
7
  6
CONTINUOUS
 70
0
 71
3
 72
9
 73
5
 74
0
 42
0.0000001
 43
0.0000001
 44
0.0000000001
 40
0.0
 40
0.0
 40
0.0
 40
0.0
 40
0.220853087
 40
1.0
 40
1.0
 40
1.0
 40
1.0
 10
569.6183679444
 20
422.3441779786
 30
0.0
 10
569.6348536769
 20
422.334660163
 30
0.0
 10
569.7022893098
 20
422.2779032692
 30
0.0
 10
569.7219010228
 20
422.1824018884
 30
0.0
 10
569.7219010228
 20
422.1152449462
 30
0.0
  0
SPLINE
  5
765
100
AcDbEntity
  8
0
100
AcDbSpline
 62
7
  6
CONTINUOUS
 70
0
 71
3
 72
9
 73
5
 74
0
 42
0.0000001
 43
0.0000001
 44
0.0000000001
 40
0.0
 40
0.0
 40
0.0
 40
0.0
 40
0.220853087
 40
1.0
 40
1.0
 40
1.0
 40
1.0
 10
569.6183679444
 20
468.0683133378
 30
0.0
 10
569.6348536769
 20
468.0587955223
 30
0.0
 10
569.7022893098
 20
468.0020386285
 30
0.0
 10
569.7219010228
 20
467.9065372476
 30
0.0
 10
569.7219010228
 20
467.8393803055
 30
0.0
  0
SPLINE
  5
766
100
AcDbEntity
  8
0
100
AcDbSpline
 62
7
  6
CONTINUOUS
 70
0
 71
3
 72
9
 73
5
 74
0
 42
0.0000001
 43
0.0000001
 44
0.0000000001
 40
0.0
 40
0.0
 40
0.0
 40
0.0
 40
0.2021385489
 40
1.0
 40
1.0
 40
1.0
 40
1.0
 10
575.3736058315
 20
484.6866558337
 30
0.0
 10
575.3736059345
 20
484.6451975919
 30
0.0
 10
575.3272955777
 20
484.4386558537
 30
0.0
 10
575.1316348726
 20
484.3076456604
 30
0.0
 10
574.9848570772
 20
484.2352972172
 30
0.0
  0
SPLINE
  5
767
100
AcDbEntity
  8
0
100
AcDbSpline
 62
7
  6
CONTINUOUS
 70
0
 71
3
 72
9
 73
5
 74
0
 42
0.0000001
 43
0.0000001
 44
0.0000000001
 40
0.0
 40
0.0
 40
0.0
 40
0.0
 40
0.293909939
 40
1.0
 40
1.0
 40
1.0
 40
1.0
 10
324.7084283628
 20
550.5067677833
 30
0.0
 10
324.686614265
 20
550.4941734833
 30
0.0
 10
324.6104592803
 20
550.4570472973
 30
0.0
 10
324.5108160057
 20
550.4517077055
 30
0.0
 10
324.4584095225
 20
550.4819638826
 30
0.0
  0
SPLINE
  5
768
100
AcDbEntity
  8
0
100
AcDbSpline
 62
7
  6
CONTINUOUS
 70
0
 71
3
 72
9
 73
5
 74
0
 42
0.0000001
 43
0.0000001
 44
0.0000000001
 40
0.0
 40
0.0
 40
0.0
 40
0.0
 40
0.2405239971
 40
1.0
 40
1.0
 40
1.0
 40
1.0
 10
330.3652590605
 20
554.1809722229
 30
0.0
 10
330.3652590605
 20
554.1230640269
 30
0.0
 10
330.3222807919
 20
553.8851554334
 30
0.0
 10
330.1700603836
 20
553.6600236784
 30
0.0
 10
330.0117071419
 20
553.5685989374
 30
0.0
  0
SPLINE
  5
769
100
AcDbEntity
  8
0
100
AcDbSpline
 62
7
  6
CONTINUOUS
 70
0
 71
3
 72
9
 73
5
 74
0
 42
0.0000001
 43
0.0000001
 44
0.0000000001
 40
0.0
 40
0.0
 40
0.0
 40
0.0
 40
0.293909939
 40
1.0
 40
1.0
 40
1.0
 40
1.0
 10
324.7084283628
 20
596.2309031426
 30
0.0
 10
324.686614265
 20
596.2183088426
 30
0.0
 10
324.6104592803
 20
596.1811826565
 30
0.0
 10
324.5108160057
 20
596.1758430648
 30
0.0
 10
324.4584095225
 20
596.2060992419
 30
0.0
  0
SPLINE
  5
76A
100
AcDbEntity
  8
0
100
AcDbSpline
 62
7
  6
CONTINUOUS
 70
0
 71
3
 72
9
 73
5
 74
0
 42
0.0000001
 43
0.0000001
 44
0.0000000001
 40
0.0
 40
0.0
 40
0.0
 40
0.0
 40
0.2405239971
 40
1.0
 40
1.0
 40
1.0
 40
1.0
 10
330.3652590605
 20
599.9051075821
 30
0.0
 10
330.3652590605
 20
599.8471993862
 30
0.0
 10
330.3222807919
 20
599.6092907926
 30
0.0
 10
330.1700603836
 20
599.3841590376
 30
0.0
 10
330.0117071419
 20
599.2927342966
 30
0.0
  0
SPLINE
  5
76B
100
AcDbEntity
  8
0
100
AcDbSpline
 62
7
  6
CONTINUOUS
 70
0
 71
3
 72
11
 73
7
 74
0
 42
0.0000001
 43
0.0000001
 44
0.0000000001
 40
0.0
 40
0.0
 40
0.0
 40
0.0
 40
0.2372416196
 40
0.5000015492
 40
0.7627606319
 40
1.0
 40
1.0
 40
1.0
 40
1.0
 10
323.6831277988
 20
576.2470167126
 30
0.0
 10
323.6831277988
 20
576.8498016374
 30
0.0
 10
323.9092273457
 20
578.1210267462
 30
0.0
 10
324.6972280045
 20
579.9073171525
 30
0.0
 10
325.8501887609
 20
581.4828924395
 30
0.0
 10
326.8380448696
 20
582.314310629
 30
0.0
 10
327.3600677523
 20
582.6156988818
 30
0.0
  0
SPLINE
  5
76C
100
AcDbEntity
  8
0
100
AcDbSpline
 62
7
  6
CONTINUOUS
 70
0
 71
3
 72
8
 73
4
 74
0
 42
0.0000001
 43
0.0000001
 44
0.0000000001
 40
0.0
 40
0.0
 40
0.0
 40
0.0
 40
1.0
 40
1.0
 40
1.0
 40
1.0
 10
326.8348115119
 20
573.8644866263
 30
0.0
 10
326.7158889464
 20
573.8156453829
 30
0.0
 10
326.5943701599
 20
573.7725508083
 30
0.0
 10
326.4708930206
 20
573.7367536058
 30
0.0
  0
SPLINE
  5
76D
100
AcDbEntity
  8
0
100
AcDbSpline
 62
7
  6
CONTINUOUS
 70
0
 71
3
 72
8
 73
4
 74
0
 42
0.0000001
 43
0.0000001
 44
0.0000000001
 40
0.0
 40
0.0
 40
0.0
 40
0.0
 40
1.0
 40
1.0
 40
1.0
 40
1.0
 10
326.4708930206
 20
573.7367536058
 30
0.0
 10
326.3401695633
 20
573.6988556265
 30
0.0
 10
326.2067045218
 20
573.6690443178
 30
0.0
 10
326.072014423
 20
573.6494622747
 30
0.0
  0
SPLINE
  5
76E
100
AcDbEntity
  8
0
100
AcDbSpline
 62
7
  6
CONTINUOUS
 70
0
 71
3
 72
11
 73
7
 74
0
 42
0.0000001
 43
0.0000001
 44
0.0000000001
 40
0.0
 40
0.0
 40
0.0
 40
0.0
 40
0.2393311928
 40
0.4628741984
 40
0.7086161938
 40
1.0
 40
1.0
 40
1.0
 40
1.0
 10
326.072014423
 20
573.6494622747
 30
0.0
 10
325.751487165
 20
573.6028621265
 30
0.0
 10
325.0972658218
 20
573.6246056025
 30
0.0
 10
324.2537793482
 20
574.1728005207
 30
0.0
 10
323.7675274238
 20
575.1190060076
 30
0.0
 10
323.6831277988
 20
575.8526746579
 30
0.0
 10
323.6831277988
 20
576.2470167126
 30
0.0
  0
SPLINE
  5
76F
100
AcDbEntity
  8
0
100
AcDbSpline
 62
7
  6
CONTINUOUS
 70
0
 71
3
 72
11
 73
7
 74
0
 42
0.0000001
 43
0.0000001
 44
0.0000000001
 40
0.0
 40
0.0
 40
0.0
 40
0.0
 40
0.2913816606
 40
0.5371230061
 40
0.7606671379
 40
1.0
 40
1.0
 40
1.0
 40
1.0
 10
327.3600677523
 20
582.6156988818
 30
0.0
 10
327.7015668531
 20
582.8128623027
 30
0.0
 10
328.3791218887
 20
583.1065929894
 30
0.0
 10
329.4416549843
 20
583.1585824602
 30
0.0
 10
330.3381268113
 20
582.7022125395
 30
0.0
 10
330.6840691501
 20
582.1465305569
 30
0.0
 10
330.8039795635
 20
581.845654099
 30
0.0
  0
SPLINE
  5
770
100
AcDbEntity
  8
0
100
AcDbSpline
 62
7
  6
CONTINUOUS
 70
0
 71
3
 72
8
 73
4
 74
0
 42
0.0000001
 43
0.0000001
 44
0.0000000001
 40
0.0
 40
0.0
 40
0.0
 40
0.0
 40
1.0
 40
1.0
 40
1.0
 40
1.0
 10
330.8039795635
 20
581.845654099
 30
0.0
 10
330.8543335479
 20
581.719307037
 30
0.0
 10
330.8952294588
 20
581.5889118263
 30
0.0
 10
330.9277620629
 20
581.4568484571
 30
0.0
  0
SPLINE
  5
771
100
AcDbEntity
  8
0
100
AcDbSpline
 62
7
  6
CONTINUOUS
 70
0
 71
3
 72
9
 73
5
 74
0
 42
0.0000001
 43
0.0000001
 44
0.0000000001
 40
0.0
 40
0.0
 40
0.0
 40
0.0
 40
0.293909939
 40
1.0
 40
1.0
 40
1.0
 40
1.0
 10
564.065070325
 20
458.0414077375
 30
0.0
 10
564.0432562273
 20
458.0288134374
 30
0.0
 10
563.9671012426
 20
457.9916872514
 30
0.0
 10
563.8674579679
 20
457.9863476597
 30
0.0
 10
563.8150514848
 20
458.0166038367
 30
0.0
  0
SPLINE
  5
772
100
AcDbEntity
  8
0
100
AcDbSpline
 62
7
  6
CONTINUOUS
 70
0
 71
3
 72
9
 73
5
 74
0
 42
0.0000001
 43
0.0000001
 44
0.0000000001
 40
0.0
 40
0.0
 40
0.0
 40
0.0
 40
0.2405239971
 40
1.0
 40
1.0
 40
1.0
 40
1.0
 10
569.7219010228
 20
461.715612177
 30
0.0
 10
569.7219010228
 20
461.6577039811
 30
0.0
 10
569.6789227541
 20
461.4197953875
 30
0.0
 10
569.5267023459
 20
461.1946636325
 30
0.0
 10
569.3683491041
 20
461.1032388915
 30
0.0
  0
SPLINE
  5
773
100
AcDbEntity
  8
0
100
AcDbSpline
 62
7
  6
CONTINUOUS
 70
0
 71
3
 72
8
 73
4
 74
0
 42
0.0000001
 43
0.0000001
 44
0.0000000001
 40
0.0
 40
0.0
 40
0.0
 40
0.0
 40
1.0
 40
1.0
 40
1.0
 40
1.0
 10
566.2988497789
 20
443.5391659767
 30
0.0
 10
566.3639252328
 20
443.5015954842
 30
0.0
 10
566.4246765835
 20
443.4554767777
 30
0.0
 10
566.4786676741
 20
443.4032147577
 30
0.0
  0
SPLINE
  5
774
100
AcDbEntity
  8
0
100
AcDbSpline
 62
7
  6
CONTINUOUS
 70
0
 71
3
 72
9
 73
5
 74
0
 42
0.0000001
 43
0.0000001
 44
0.0000000001
 40
0.0
 40
0.0
 40
0.0
 40
0.0
 40
0.2332047663
 40
1.0
 40
1.0
 40
1.0
 40
1.0
 10
566.4977729108
 20
443.3841914055
 30
0.0
 10
566.534811477
 20
443.3462593096
 30
0.0
 10
566.6802879595
 20
443.1704383297
 30
0.0
 10
566.7671878686
 20
442.9515229352
 30
0.0
 10
566.8066130865
 20
442.7817189644
 30
0.0
  0
SPLINE
  5
775
100
AcDbEntity
  8
0
100
AcDbSpline
 62
7
  6
CONTINUOUS
 70
0
 71
3
 72
9
 73
5
 74
0
 42
0.0000001
 43
0.0000001
 44
0.0000000001
 40
0.0
 40
0.0
 40
0.0
 40
0.0
 40
0.2387201653
 40
1.0
 40
1.0
 40
1.0
 40
1.0
 10
566.8066130865
 20
442.7817189644
 30
0.0
 10
566.8152844461
 20
442.7443715158
 30
0.0
 10
566.8464591992
 20
442.5867389427
 30
0.0
 10
566.8581157622
 20
442.425521328
 30
0.0
 10
566.8581157622
 20
442.3032520095
 30
0.0
  0
SPLINE
  5
776
100
AcDbEntity
  8
0
100
AcDbSpline
 62
7
  6
CONTINUOUS
 70
0
 71
3
 72
9
 73
5
 74
0
 42
0.0000001
 43
0.0000001
 44
0.0000000001
 40
0.0
 40
0.0
 40
0.0
 40
0.0
 40
0.449173941
 40
1.0
 40
1.0
 40
1.0
 40
1.0
 10
325.9673106684
 20
574.3244872742
 30
0.0
 10
325.6840258339
 20
574.4880382004
 30
0.0
 10
325.1945423136
 20
575.1004750584
 30
0.0
 10
325.0973413612
 20
575.8458854444
 30
0.0
 10
325.0973413612
 20
576.247020112
 30
0.0
  0
SPLINE
  5
777
100
AcDbEntity
  8
0
100
AcDbSpline
 62
7
  6
CONTINUOUS
 70
0
 71
3
 72
13
 73
9
 74
0
 42
0.0000001
 43
0.0000001
 44
0.0000000001
 40
0.0
 40
0.0
 40
0.0
 40
0.0
 40
0.0871393041
 40
0.186846948
 40
0.3045211001
 40
0.4386554526
 40
0.7300919078
 40
1.0
 40
1.0
 40
1.0
 40
1.0
 10
330.6620323903
 20
581.3130546739
 30
0.0
 10
330.452258242
 20
581.4341702343
 30
0.0
 10
329.9252305625
 20
581.5696853422
 30
0.0
 10
329.0769293171
 20
581.3997088163
 30
0.0
 10
328.2100484753
 20
580.9264719794
 30
0.0
 10
327.0729686441
 20
579.9178512528
 30
0.0
 10
326.0048300615
 20
578.2668720565
 30
0.0
 10
325.5923181688
 20
576.7115349255
 30
0.0
 10
325.5923181688
 20
575.9612515838
 30
0.0
  0
SPLINE
  5
778
100
AcDbEntity
  8
0
100
AcDbSpline
 62
7
  6
CONTINUOUS
 70
0
 71
3
 72
9
 73
5
 74
0
 42
0.0000001
 43
0.0000001
 44
0.0000000001
 40
0.0
 40
0.0
 40
0.0
 40
0.0
 40
0.2857554876
 40
1.0
 40
1.0
 40
1.0
 40
1.0
 10
564.9489354017
 20
438.9964362678
 30
0.0
 10
564.8537576579
 20
438.9414856998
 30
0.0
 10
564.5116794726
 20
438.7709115649
 30
0.0
 10
564.0988542084
 20
438.7001139799
 30
0.0
 10
563.8326866248
 20
438.7680414605
 30
0.0
  0
SPLINE
  5
779
100
AcDbEntity
  8
0
100
AcDbSpline
 62
7
  6
CONTINUOUS
 70
0
 71
3
 72
8
 73
4
 74
0
 42
0.0000001
 43
0.0000001
 44
0.0000000001
 40
0.0
 40
0.0
 40
0.0
 40
0.0
 40
1.0
 40
1.0
 40
1.0
 40
1.0
 10
563.8112542427
 20
438.7737759451
 30
0.0
 10
563.737377716
 20
438.7944642205
 30
0.0
 10
563.6654616649
 20
438.8244609457
 30
0.0
 10
563.5990210245
 20
438.8628196115
 30
0.0
  0
SPLINE
  5
77A
100
AcDbEntity
  8
0
100
AcDbSpline
 62
7
  6
CONTINUOUS
 70
0
 71
3
 72
9
 73
5
 74
0
 42
0.0000001
 43
0.0000001
 44
0.0000000001
 40
0.0
 40
0.0
 40
0.0
 40
0.0
 40
0.2784435043
 40
1.0
 40
1.0
 40
1.0
 40
1.0
 10
329.976357838
 20
579.0639047737
 30
0.0
 10
329.976357838
 20
579.1542577059
 30
0.0
 10
329.9593609189
 20
579.4773337041
 30
0.0
 10
329.864342316
 20
579.8048553928
 30
0.0
 10
329.7338200974
 20
579.999240221
 30
0.0
  0
SPLINE
  5
77B
100
AcDbEntity
  8
0
100
AcDbSpline
 62
7
  6
CONTINUOUS
 70
0
 71
3
 72
9
 73
5
 74
0
 42
0.0000001
 43
0.0000001
 44
0.0000000001
 40
0.0
 40
0.0
 40
0.0
 40
0.0
 40
0.4999983281
 40
1.0
 40
1.0
 40
1.0
 40
1.0
 10
328.0671774775
 20
575.757089032
 30
0.0
 10
328.6338477146
 20
576.084254293
 30
0.0
 10
329.5291199905
 20
577.1175768883
 30
0.0
 10
329.976357838
 20
578.4095669463
 30
0.0
 10
329.976357838
 20
579.0639047737
 30
0.0
  0
SPLINE
  5
77C
100
AcDbEntity
  8
0
100
AcDbSpline
 62
7
  6
CONTINUOUS
 70
0
 71
3
 72
9
 73
5
 74
0
 42
0.0000001
 43
0.0000001
 44
0.0000000001
 40
0.0
 40
0.0
 40
0.0
 40
0.0
 40
0.5508521421
 40
1.0
 40
1.0
 40
1.0
 40
1.0
 10
325.5923181688
 20
575.9612515838
 30
0.0
 10
325.5923181688
 20
575.5600979448
 30
0.0
 10
325.689562088
 20
574.8146980492
 30
0.0
 10
326.1790107948
 20
574.2022459726
 30
0.0
 10
326.4622761799
 20
574.0386993863
 30
0.0
  0
SPLINE
  5
77D
100
AcDbEntity
  8
0
100
AcDbSpline
 62
7
  6
CONTINUOUS
 70
0
 71
3
 72
13
 73
9
 74
0
 42
0.0000001
 43
0.0000001
 44
0.0000000001
 40
0.0
 40
0.0
 40
0.0
 40
0.0
 40
0.2699047204
 40
0.561308612
 40
0.6954511838
 40
0.813136293
 40
0.9128539772
 40
1.0
 40
1.0
 40
1.0
 40
1.0
 10
330.4713346456
 20
578.7781362455
 30
0.0
 10
330.4713346456
 20
578.2958164709
 30
0.0
 10
330.206165073
 20
577.2960111718
 30
0.0
 10
329.5195159753
 20
576.2347379129
 30
0.0
 10
328.7885990888
 20
575.5862923936
 30
0.0
 10
328.2313300436
 20
575.2819907085
 30
0.0
 10
327.6858900738
 20
575.1726048061
 30
0.0
 10
327.3471608304
 20
575.2599341498
 30
0.0
 10
327.2122350604
 20
575.3376956802
 30
0.0
  0
SPLINE
  5
77E
100
AcDbEntity
  8
0
100
AcDbSpline
 62
7
  6
CONTINUOUS
 70
0
 71
3
 72
11
 73
7
 74
0
 42
0.0000001
 43
0.0000001
 44
0.0000000001
 40
0.0
 40
0.0
 40
0.0
 40
0.0
 40
0.2372483561
 40
0.5000016178
 40
0.7627539995
 40
1.0
 40
1.0
 40
1.0
 40
1.0
 10
325.0973413612
 20
576.247020112
 30
0.0
 10
325.0973413612
 20
576.7338979771
 30
0.0
 10
325.2798704638
 20
577.7606881462
 30
0.0
 10
325.9166020984
 20
579.203313229
 30
0.0
 10
326.8475767346
 20
580.4760524839
 30
0.0
 10
327.6455324351
 20
581.1475202846
 30
0.0
 10
328.0671774775
 20
581.3909557102
 30
0.0
  0
SPLINE
  5
77F
100
AcDbEntity
  8
0
100
AcDbSpline
 62
7
  6
CONTINUOUS
 70
0
 71
3
 72
9
 73
5
 74
0
 42
0.0000001
 43
0.0000001
 44
0.0000000001
 40
0.0
 40
0.0
 40
0.0
 40
0.0
 40
0.5508239088
 40
1.0
 40
1.0
 40
1.0
 40
1.0
 10
328.0671774775
 20
581.3909557102
 30
0.0
 10
328.4145558179
 20
581.5915134914
 30
0.0
 10
329.1086741517
 20
581.8800260142
 30
0.0
 10
329.8837692142
 20
581.7623491325
 30
0.0
 10
330.1670442865
 20
581.5988038423
 30
0.0
  0
SPLINE
  5
780
100
AcDbEntity
  8
0
100
AcDbSpline
 62
7
  6
CONTINUOUS
 70
0
 71
3
 72
9
 73
5
 74
0
 42
0.0000001
 43
0.0000001
 44
0.0000000001
 40
0.0
 40
0.0
 40
0.0
 40
0.0
 40
0.5508354204
 40
1.0
 40
1.0
 40
1.0
 40
1.0
 10
562.0498208562
 20
399.600256832
 30
0.0
 10
562.0498208562
 20
399.3137301608
 30
0.0
 10
562.1192613604
 20
398.7812965609
 30
0.0
 10
562.4689017121
 20
398.3438621545
 30
0.0
 10
562.6712417455
 20
398.22704376
 30
0.0
  0
SPLINE
  5
781
100
AcDbEntity
  8
0
100
AcDbSpline
 62
7
  6
CONTINUOUS
 70
0
 71
3
 72
9
 73
5
 74
0
 42
0.0000001
 43
0.0000001
 44
0.0000000001
 40
0.0
 40
0.0
 40
0.0
 40
0.0
 40
0.293909939
 40
1.0
 40
1.0
 40
1.0
 40
1.0
 10
564.065070325
 20
412.3172723782
 30
0.0
 10
564.0432562273
 20
412.3046780782
 30
0.0
 10
563.9671012426
 20
412.2675518921
 30
0.0
 10
563.8674579679
 20
412.2622123004
 30
0.0
 10
563.8150514848
 20
412.2924684775
 30
0.0
  0
SPLINE
  5
782
100
AcDbEntity
  8
0
100
AcDbSpline
 62
7
  6
CONTINUOUS
 70
0
 71
3
 72
9
 73
5
 74
0
 42
0.0000001
 43
0.0000001
 44
0.0000000001
 40
0.0
 40
0.0
 40
0.0
 40
0.0
 40
0.2250329352
 40
1.0
 40
1.0
 40
1.0
 40
1.0
 10
327.1359387762
 20
575.4994751023
 30
0.0
 10
327.2088774275
 20
575.4945298155
 30
0.0
 10
327.5353982657
 20
575.5048271388
 30
0.0
 10
327.8491445473
 20
575.6312084124
 30
0.0
 10
328.0671774775
 20
575.757089032
 30
0.0
  0
SPLINE
  5
783
100
AcDbEntity
  8
0
100
AcDbSpline
 62
7
  6
CONTINUOUS
 70
0
 71
3
 72
9
 73
5
 74
0
 42
0.0000001
 43
0.0000001
 44
0.0000000001
 40
0.0
 40
0.0
 40
0.0
 40
0.0
 40
0.4491689328
 40
1.0
 40
1.0
 40
1.0
 40
1.0
 10
329.9120735098
 20
580.01405838
 30
0.0
 10
330.0942628106
 20
579.9090575426
 30
0.0
 10
330.408786069
 20
579.5151131672
 30
0.0
 10
330.4713346456
 20
579.0360110073
 30
0.0
 10
330.4713346456
 20
578.7781362455
 30
0.0
  0
SPLINE
  5
784
100
AcDbEntity
  8
0
100
AcDbSpline
 62
7
  6
CONTINUOUS
 70
0
 71
3
 72
9
 73
5
 74
0
 42
0.0000001
 43
0.0000001
 44
0.0000000001
 40
0.0
 40
0.0
 40
0.0
 40
0.0
 40
0.2405239971
 40
1.0
 40
1.0
 40
1.0
 40
1.0
 10
569.7219010228
 20
415.9914768177
 30
0.0
 10
569.7219010228
 20
415.9335686218
 30
0.0
 10
569.6789227541
 20
415.6956600283
 30
0.0
 10
569.5267023459
 20
415.4705282733
 30
0.0
 10
569.3683491041
 20
415.3791035322
 30
0.0
  0
SPLINE
  5
785
100
AcDbEntity
  8
0
100
AcDbSpline
 62
7
  6
CONTINUOUS
 70
0
 71
3
 72
9
 73
5
 74
0
 42
0.0000001
 43
0.0000001
 44
0.0000000001
 40
0.0
 40
0.0
 40
0.0
 40
0.0
 40
0.6907394186
 40
1.0
 40
1.0
 40
1.0
 40
1.0
 10
574.1334416982
 20
485.8484142362
 30
0.0
 10
574.2317463992
 20
486.0092688513
 30
0.0
 10
574.3573030569
 20
486.2101664854
 30
0.0
 10
574.6488847832
 20
486.4216980547
 30
0.0
 10
574.7219800334
 20
486.3794971047
 30
0.0
  0
SPLINE
  5
786
100
AcDbEntity
  8
0
100
AcDbSpline
 62
7
  6
CONTINUOUS
 70
0
 71
3
 72
11
 73
7
 74
0
 42
0.0000001
 43
0.0000001
 44
0.0000000001
 40
0.0
 40
0.0
 40
0.0
 40
0.0
 40
0.2372416196
 40
0.5000015492
 40
0.7627606319
 40
1.0
 40
1.0
 40
1.0
 40
1.0
 10
570.3936496681
 20
442.3032605077
 30
0.0
 10
570.3936496681
 20
441.700475583
 30
0.0
 10
570.1675501211
 20
440.4292504742
 30
0.0
 10
569.3795494624
 20
438.6429600679
 30
0.0
 10
568.2265887059
 20
437.067384781
 30
0.0
 10
567.2387325972
 20
436.2359665915
 30
0.0
 10
566.7167097146
 20
435.9345783387
 30
0.0
  0
SPLINE
  5
787
100
AcDbEntity
  8
0
100
AcDbSpline
 62
7
  6
CONTINUOUS
 70
0
 71
3
 72
9
 73
5
 74
0
 42
0.0000001
 43
0.0000001
 44
0.0000000001
 40
0.0
 40
0.0
 40
0.0
 40
0.0
 40
0.2339599241
 40
1.0
 40
1.0
 40
1.0
 40
1.0
 10
564.1711323679
 20
480.0257237552
 30
0.0
 10
564.0920270514
 20
479.9800525521
 30
0.0
 10
563.763556028
 20
479.7682479478
 30
0.0
 10
563.4731532867
 20
479.5003103572
 30
0.0
 10
563.2736314746
 20
479.2775129751
 30
0.0
  0
SPLINE
  5
788
100
AcDbEntity
  8
0
100
AcDbSpline
 62
7
  6
CONTINUOUS
 70
0
 71
3
 72
9
 73
5
 74
0
 42
0.0000001
 43
0.0000001
 44
0.0000000001
 40
0.0
 40
0.0
 40
0.0
 40
0.0
 40
0.5205358913
 40
1.0
 40
1.0
 40
1.0
 40
1.0
 10
563.2736314746
 20
479.2775129751
 30
0.0
 10
562.9009983202
 20
478.8614096408
 30
0.0
 10
562.3229072098
 20
477.9360681619
 30
0.0
 10
562.0498208562
 20
476.8659787915
 30
0.0
 10
562.0498208562
 20
476.3514840422
 30
0.0
  0
SPLINE
  5
789
100
AcDbEntity
  8
0
100
AcDbSpline
 62
7
  6
CONTINUOUS
 70
0
 71
3
 72
9
 73
5
 74
0
 42
0.0000001
 43
0.0000001
 44
0.0000000001
 40
0.0
 40
0.0
 40
0.0
 40
0.0
 40
0.2405239971
 40
1.0
 40
1.0
 40
1.0
 40
1.0
 10
563.7115184064
 20
546.0195467105
 30
0.0
 10
563.7115184064
 20
546.0774549065
 30
0.0
 10
563.7544966751
 20
546.3153635
 30
0.0
 10
563.9067170833
 20
546.540495255
 30
0.0
 10
564.065070325
 20
546.631919996
 30
0.0
  0
SPLINE
  5
78A
100
AcDbEntity
  8
0
100
AcDbSpline
 62
7
  6
CONTINUOUS
 70
0
 71
3
 72
9
 73
5
 74
0
 42
0.0000001
 43
0.0000001
 44
0.0000000001
 40
0.0
 40
0.0
 40
0.0
 40
0.0
 40
0.293909939
 40
1.0
 40
1.0
 40
1.0
 40
1.0
 10
569.3683491041
 20
549.6937511501
 30
0.0
 10
569.3901632019
 20
549.7063454501
 30
0.0
 10
569.4663181866
 20
549.7434716361
 30
0.0
 10
569.5659614613
 20
549.7488112278
 30
0.0
 10
569.6183679444
 20
549.7185550508
 30
0.0
  0
SPLINE
  5
78B
100
AcDbEntity
  8
0
100
AcDbSpline
 62
7
  6
CONTINUOUS
 70
0
 71
3
 72
9
 73
5
 74
0
 42
0.0000001
 43
0.0000001
 44
0.0000000001
 40
0.0
 40
0.0
 40
0.0
 40
0.0
 40
0.293909939
 40
1.0
 40
1.0
 40
1.0
 40
1.0
 10
569.3683491041
 20
503.9696157908
 30
0.0
 10
569.3901632019
 20
503.9822100908
 30
0.0
 10
569.4663181866
 20
504.0193362769
 30
0.0
 10
569.5659614613
 20
504.0246758686
 30
0.0
 10
569.6183679444
 20
503.9944196915
 30
0.0
  0
SPLINE
  5
78C
100
AcDbEntity
  8
0
100
AcDbSpline
 62
7
  6
CONTINUOUS
 70
0
 71
3
 72
9
 73
5
 74
0
 42
0.0000001
 43
0.0000001
 44
0.0000000001
 40
0.0
 40
0.0
 40
0.0
 40
0.0
 40
0.2405239971
 40
1.0
 40
1.0
 40
1.0
 40
1.0
 10
563.7115184064
 20
500.2954113513
 30
0.0
 10
563.7115184064
 20
500.3533195472
 30
0.0
 10
563.7544966751
 20
500.5912281407
 30
0.0
 10
563.9067170833
 20
500.8163598957
 30
0.0
 10
564.065070325
 20
500.9077846368
 30
0.0
  0
SPLINE
  5
78D
100
AcDbEntity
  8
0
100
AcDbSpline
 62
7
  6
CONTINUOUS
 70
0
 71
3
 72
11
 73
7
 74
0
 42
0.0000001
 43
0.0000001
 44
0.0000000001
 40
0.0
 40
0.0
 40
0.0
 40
0.0
 40
0.2194485181
 40
0.4999892434
 40
0.7805417917
 40
1.0
 40
1.0
 40
1.0
 40
1.0
 10
563.7719954482
 20
520.7283649068
 30
0.0
 10
563.7719954482
 20
521.095004981
 30
0.0
 10
563.938401103
 20
521.9275806136
 30
0.0
 10
564.4707879742
 20
523.1272773678
 30
0.0
 10
565.2435493319
 20
524.1882149633
 30
0.0
 10
565.8813956928
 20
524.7486530246
 30
0.0
 10
566.1989298056
 20
524.9319803357
 30
0.0
  0
SPLINE
  5
78E
100
AcDbEntity
  8
0
100
AcDbSpline
 62
7
  6
CONTINUOUS
 70
0
 71
3
 72
11
 73
7
 74
0
 42
0.0000001
 43
0.0000001
 44
0.0000000001
 40
0.0
 40
0.0
 40
0.0
 40
0.0
 40
0.2253709002
 40
0.4875899527
 40
0.7566874432
 40
1.0
 40
1.0
 40
1.0
 40
1.0
 10
564.1151869187
 20
520.7718791307
 30
0.0
 10
564.4201871923
 20
520.8844776505
 30
0.0
 10
565.0191345172
 20
521.2882829541
 30
0.0
 10
565.7222205459
 20
522.1357688809
 30
0.0
 10
566.2168356169
 20
523.1488973858
 30
0.0
 10
566.3631389546
 20
523.8882586601
 30
0.0
 10
566.3631389546
 20
524.2392622506
 30
0.0
  0
SPLINE
  5
78F
100
AcDbEntity
  8
0
100
AcDbSpline
 62
7
  6
CONTINUOUS
 70
0
 71
3
 72
9
 73
5
 74
0
 42
0.0000001
 43
0.0000001
 44
0.0000000001
 40
0.0
 40
0.0
 40
0.0
 40
0.0
 40
0.220853087
 40
1.0
 40
1.0
 40
1.0
 40
1.0
 10
563.8150514848
 20
493.9427101904
 30
0.0
 10
563.7985657523
 20
493.952228006
 30
0.0
 10
563.7311301194
 20
494.0089848998
 30
0.0
 10
563.7115184064
 20
494.1044862806
 30
0.0
 10
563.7115184064
 20
494.1716432228
 30
0.0
  0
SPLINE
  5
790
100
AcDbEntity
  8
0
100
AcDbSpline
 62
7
  6
CONTINUOUS
 70
0
 71
3
 72
9
 73
5
 74
0
 42
0.0000001
 43
0.0000001
 44
0.0000000001
 40
0.0
 40
0.0
 40
0.0
 40
0.0
 40
0.2405215751
 40
1.0
 40
1.0
 40
1.0
 40
1.0
 10
568.3076845164
 20
543.3658417362
 30
0.0
 10
568.3578340628
 20
543.3947954175
 30
0.0
 10
568.542379719
 20
543.5509706435
 30
0.0
 10
568.661236435
 20
543.7953641098
 30
0.0
 10
568.661236435
 20
543.9782150217
 30
0.0
  0
SPLINE
  5
791
100
AcDbEntity
  8
0
100
AcDbSpline
 62
7
  6
CONTINUOUS
 70
0
 71
3
 72
9
 73
5
 74
0
 42
0.0000001
 43
0.0000001
 44
0.0000000001
 40
0.0
 40
0.0
 40
0.0
 40
0.0
 40
0.220853087
 40
1.0
 40
1.0
 40
1.0
 40
1.0
 10
563.8150514848
 20
539.6668455497
 30
0.0
 10
563.7985657523
 20
539.6763633653
 30
0.0
 10
563.7311301194
 20
539.7331202591
 30
0.0
 10
563.7115184064
 20
539.8286216399
 30
0.0
 10
563.7115184064
 20
539.895778582
 30
0.0
  0
SPLINE
  5
792
100
AcDbEntity
  8
0
100
AcDbSpline
 62
7
  6
CONTINUOUS
 70
0
 71
3
 72
9
 73
5
 74
0
 42
0.0000001
 43
0.0000001
 44
0.0000000001
 40
0.0
 40
0.0
 40
0.0
 40
0.0
 40
0.2405215751
 40
1.0
 40
1.0
 40
1.0
 40
1.0
 10
568.3076845164
 20
497.641706377
 30
0.0
 10
568.3578340628
 20
497.6706600582
 30
0.0
 10
568.542379719
 20
497.8268352842
 30
0.0
 10
568.661236435
 20
498.0712287505
 30
0.0
 10
568.661236435
 20
498.2540796625
 30
0.0
  0
SPLINE
  5
793
100
AcDbEntity
  8
0
100
AcDbSpline
 62
7
  6
CONTINUOUS
 70
0
 71
3
 72
9
 73
5
 74
0
 42
0.0000001
 43
0.0000001
 44
0.0000000001
 40
0.0
 40
0.0
 40
0.0
 40
0.0
 40
0.4871998188
 40
1.0
 40
1.0
 40
1.0
 40
1.0
 10
336.8502396174
 20
705.3619453089
 30
0.0
 10
336.5110546234
 20
705.5577692228
 30
0.0
 10
335.7258665846
 20
705.8184425736
 30
0.0
 10
334.9069875553
 20
705.7793928361
 30
0.0
 10
334.5018289198
 20
705.7033410288
 30
0.0
  0
SPLINE
  5
794
100
AcDbEntity
  8
0
100
AcDbSpline
 62
7
  6
CONTINUOUS
 70
0
 71
3
 72
9
 73
5
 74
0
 42
0.0000001
 43
0.0000001
 44
0.0000000001
 40
0.0
 40
0.0
 40
0.0
 40
0.0
 40
0.3092596202
 40
1.0
 40
1.0
 40
1.0
 40
1.0
 10
574.7219800334
 20
568.0297388177
 30
0.0
 10
574.7950728554
 20
567.9875392696
 30
0.0
 10
574.7576868234
 20
567.6292668927
 30
0.0
 10
574.6464715909
 20
567.4200924405
 30
0.0
 10
574.5563239338
 20
567.2545346557
 30
0.0
  0
SPLINE
  5
795
100
AcDbEntity
  8
0
100
AcDbSpline
 62
7
  6
CONTINUOUS
 70
0
 71
3
 72
9
 73
5
 74
0
 42
0.0000001
 43
0.0000001
 44
0.0000000001
 40
0.0
 40
0.0
 40
0.0
 40
0.0
 40
0.4491647435
 40
1.0
 40
1.0
 40
1.0
 40
1.0
 10
323.1024668677
 20
618.1892531032
 30
0.0
 10
322.900126823
 20
618.3060716481
 30
0.0
 10
322.5504864158
 20
618.7435059475
 30
0.0
 10
322.4810459764
 20
619.2759395909
 30
0.0
 10
322.4810459764
 20
619.5624661765
 30
0.0
  0
SPLINE
  5
796
100
AcDbEntity
  8
0
100
AcDbSpline
 62
7
  6
CONTINUOUS
 70
0
 71
3
 72
9
 73
5
 74
0
 42
0.0000001
 43
0.0000001
 44
0.0000000001
 40
0.0
 40
0.0
 40
0.0
 40
0.0
 40
0.4491668937
 40
1.0
 40
1.0
 40
1.0
 40
1.0
 10
562.6712417455
 20
479.8772854729
 30
0.0
 10
562.8735748797
 20
479.7604710616
 30
0.0
 10
563.427201032
 20
479.6763977742
 30
0.0
 10
563.9230034031
 20
479.8824672858
 30
0.0
 10
564.1711323679
 20
480.0257237552
 30
0.0
  0
SPLINE
  5
797
100
AcDbEntity
  8
0
100
AcDbSpline
 62
7
  6
CONTINUOUS
 70
0
 71
3
 72
9
 73
5
 74
0
 42
0.0000001
 43
0.0000001
 44
0.0000000001
 40
0.0
 40
0.0
 40
0.0
 40
0.0
 40
0.25760664
 40
1.0
 40
1.0
 40
1.0
 40
1.0
 10
335.4604630089
 20
625.4601490201
 30
0.0
 10
335.5363199344
 20
625.5302169067
 30
0.0
 10
335.8449820077
 20
625.786671374
 30
0.0
 10
336.1987661429
 20
625.9868822997
 30
0.0
 10
336.4730321954
 20
626.1023975826
 30
0.0
  0
SPLINE
  5
798
100
AcDbEntity
  8
0
100
AcDbSpline
 62
7
  6
CONTINUOUS
 70
0
 71
3
 72
9
 73
5
 74
0
 42
0.0000001
 43
0.0000001
 44
0.0000000001
 40
0.0
 40
0.0
 40
0.0
 40
0.0
 40
0.2663877623
 40
1.0
 40
1.0
 40
1.0
 40
1.0
 10
336.4730321954
 20
626.1023975826
 30
0.0
 10
336.5152091965
 20
626.1201616776
 30
0.0
 10
336.6747587848
 20
626.1839047939
 30
0.0
 10
336.8386498174
 20
626.2368342679
 30
0.0
 10
336.960536621
 20
626.26890045
 30
0.0
  0
SPLINE
  5
799
100
AcDbEntity
  8
0
100
AcDbSpline
 62
7
  6
CONTINUOUS
 70
0
 71
3
 72
9
 73
5
 74
0
 42
0.0000001
 43
0.0000001
 44
0.0000000001
 40
0.0
 40
0.0
 40
0.0
 40
0.0
 40
0.2405239971
 40
1.0
 40
1.0
 40
1.0
 40
1.0
 10
324.3548764442
 20
638.4849067564
 30
0.0
 10
324.3548764442
 20
638.5428149523
 30
0.0
 10
324.3978547128
 20
638.7807235459
 30
0.0
 10
324.550075121
 20
639.0058553009
 30
0.0
 10
324.7084283628
 20
639.0972800419
 30
0.0
  0
SPLINE
  5
79A
100
AcDbEntity
  8
0
100
AcDbSpline
 62
7
  6
CONTINUOUS
 70
0
 71
3
 72
9
 73
5
 74
0
 42
0.0000001
 43
0.0000001
 44
0.0000000001
 40
0.0
 40
0.0
 40
0.0
 40
0.0
 40
0.293909939
 40
1.0
 40
1.0
 40
1.0
 40
1.0
 10
330.0117071419
 20
642.1591111959
 30
0.0
 10
330.0335212396
 20
642.171705496
 30
0.0
 10
330.1096762244
 20
642.208831682
 30
0.0
 10
330.209319499
 20
642.2141712737
 30
0.0
 10
330.2617259822
 20
642.1839150967
 30
0.0
  0
SPLINE
  5
79B
100
AcDbEntity
  8
0
100
AcDbSpline
 62
7
  6
CONTINUOUS
 70
0
 71
3
 72
9
 73
5
 74
0
 42
0.0000001
 43
0.0000001
 44
0.0000000001
 40
0.0
 40
0.0
 40
0.0
 40
0.0
 40
0.293909939
 40
1.0
 40
1.0
 40
1.0
 40
1.0
 10
330.0117071419
 20
687.8832465552
 30
0.0
 10
330.0335212396
 20
687.8958408552
 30
0.0
 10
330.1096762244
 20
687.9329670412
 30
0.0
 10
330.209319499
 20
687.938306633
 30
0.0
 10
330.2617259822
 20
687.9080504559
 30
0.0
  0
SPLINE
  5
79C
100
AcDbEntity
  8
0
100
AcDbSpline
 62
7
  6
CONTINUOUS
 70
0
 71
3
 72
9
 73
5
 74
0
 42
0.0000001
 43
0.0000001
 44
0.0000000001
 40
0.0
 40
0.0
 40
0.0
 40
0.0
 40
0.2405239971
 40
1.0
 40
1.0
 40
1.0
 40
1.0
 10
324.3548764442
 20
684.2090421156
 30
0.0
 10
324.3548764442
 20
684.2669503116
 30
0.0
 10
324.3978547128
 20
684.5048589051
 30
0.0
 10
324.550075121
 20
684.7299906601
 30
0.0
 10
324.7084283628
 20
684.8214154011
 30
0.0
  0
SPLINE
  5
79D
100
AcDbEntity
  8
0
100
AcDbSpline
 62
7
  6
CONTINUOUS
 70
0
 71
3
 72
8
 73
4
 74
0
 42
0.0000001
 43
0.0000001
 44
0.0000000001
 40
0.0
 40
0.0
 40
0.0
 40
0.0
 40
1.0
 40
1.0
 40
1.0
 40
1.0
 10
335.4605258967
 20
625.4601695527
 30
0.0
 10
335.3489886039
 20
625.4237510913
 30
0.0
 10
335.2398228784
 20
625.3773635907
 30
0.0
 10
335.1382099617
 20
625.3186976961
 30
0.0
  0
SPLINE
  5
79E
100
AcDbEntity
  8
0
100
AcDbSpline
 62
7
  6
CONTINUOUS
 70
0
 71
3
 72
13
 73
9
 74
0
 42
0.0000001
 43
0.0000001
 44
0.0000000001
 40
0.0
 40
0.0
 40
0.0
 40
0.0
 40
0.0871393041
 40
0.186846948
 40
0.3045211001
 40
0.4386554526
 40
0.7300919078
 40
1.0
 40
1.0
 40
1.0
 40
1.0
 10
326.4622761799
 20
655.6889410992
 30
0.0
 10
326.6720503282
 20
655.5678255388
 30
0.0
 10
327.1990780077
 20
655.4323104309
 30
0.0
 10
328.047379253
 20
655.6022869568
 30
0.0
 10
328.9142600949
 20
656.0755237938
 30
0.0
 10
330.051339926
 20
657.0841445203
 30
0.0
 10
331.1194785087
 20
658.7351237166
 30
0.0
 10
331.5319904014
 20
660.2904608477
 30
0.0
 10
331.5319904014
 20
661.0407441893
 30
0.0
  0
SPLINE
  5
79F
100
AcDbEntity
  8
0
100
AcDbSpline
 62
7
  6
CONTINUOUS
 70
0
 71
3
 72
8
 73
4
 74
0
 42
0.0000001
 43
0.0000001
 44
0.0000000001
 40
0.0
 40
0.0
 40
0.0
 40
0.0
 40
1.0
 40
1.0
 40
1.0
 40
1.0
 10
337.2595303052
 20
626.1352052123
 30
0.0
 10
337.1649603998
 20
626.1898039374
 30
0.0
 10
337.0638435345
 20
626.2337457455
 30
0.0
 10
336.9604658709
 20
626.2689245243
 30
0.0
  0
SPLINE
  5
7A0
100
AcDbEntity
  8
0
100
AcDbSpline
 62
7
  6
CONTINUOUS
 70
0
 71
3
 72
11
 73
7
 74
0
 42
0.0000001
 43
0.0000001
 44
0.0000000001
 40
0.0
 40
0.0
 40
0.0
 40
0.0
 40
0.2352308687
 40
0.5130880546
 40
0.7848885584
 40
1.0
 40
1.0
 40
1.0
 40
1.0
 10
327.0380327283
 20
657.6737308082
 30
0.0
 10
327.3394232468
 20
657.8875833106
 30
0.0
 10
327.9236297384
 20
658.4566291691
 30
0.0
 10
328.619455625
 20
659.483528259
 30
0.0
 10
329.09024431
 20
660.5963131739
 30
0.0
 10
329.2381689103
 20
661.3574747069
 30
0.0
 10
329.2437857455
 20
661.695372603
 30
0.0
  0
SPLINE
  5
7A1
100
AcDbEntity
  8
0
100
AcDbSpline
 62
7
  6
CONTINUOUS
 70
0
 71
3
 72
9
 73
5
 74
0
 42
0.0000001
 43
0.0000001
 44
0.0000000001
 40
0.0
 40
0.0
 40
0.0
 40
0.0
 40
0.4491689328
 40
1.0
 40
1.0
 40
1.0
 40
1.0
 10
327.2122350604
 20
656.9879373931
 30
0.0
 10
327.0300457596
 20
657.0929382305
 30
0.0
 10
326.7155225011
 20
657.4868826059
 30
0.0
 10
326.6529739246
 20
657.9659847658
 30
0.0
 10
326.6529739246
 20
658.2238595276
 30
0.0
  0
SPLINE
  5
7A2
100
AcDbEntity
  8
0
100
AcDbSpline
 62
7
  6
CONTINUOUS
 70
0
 71
3
 72
9
 73
5
 74
0
 42
0.0000001
 43
0.0000001
 44
0.0000000001
 40
0.0
 40
0.0
 40
0.0
 40
0.0
 40
0.2598732784
 40
1.0
 40
1.0
 40
1.0
 40
1.0
 10
574.9848731854
 20
487.5013233304
 30
0.0
 10
575.0470222873
 20
487.5975850657
 30
0.0
 10
575.2632848501
 20
487.9818762038
 30
0.0
 10
575.3736048299
 20
488.428865331
 30
0.0
 10
575.3736057888
 20
488.7551957164
 30
0.0
  0
SPLINE
  5
7A3
100
AcDbEntity
  8
0
100
AcDbSpline
 62
7
  6
CONTINUOUS
 70
0
 71
3
 72
9
 73
5
 74
0
 42
0.0000001
 43
0.0000001
 44
0.0000000001
 40
0.0
 40
0.0
 40
0.0
 40
0.0
 40
0.3222986028
 40
1.0
 40
1.0
 40
1.0
 40
1.0
 10
574.9580082056
 20
566.8011177641
 30
0.0
 10
575.0201577848
 20
566.7720510971
 30
0.0
 10
575.203204403
 20
566.6744474662
 30
0.0
 10
575.3736054734
 20
566.4811663456
 30
0.0
 10
575.3736058315
 20
566.3368975466
 30
0.0
  0
SPLINE
  5
7A4
100
AcDbEntity
  8
0
100
AcDbSpline
 62
7
  6
CONTINUOUS
 70
0
 71
3
 72
9
 73
5
 74
0
 42
0.0000001
 43
0.0000001
 44
0.0000000001
 40
0.0
 40
0.0
 40
0.0
 40
0.0
 40
0.2362307538
 40
1.0
 40
1.0
 40
1.0
 40
1.0
 10
574.9849264492
 20
487.5013777101
 30
0.0
 10
574.9509578425
 20
487.4666989734
 30
0.0
 10
574.8012637212
 20
487.3256908971
 30
0.0
 10
574.6307736824
 20
487.2076762864
 30
0.0
 10
574.4948519239
 20
487.129202291
 30
0.0
  0
SPLINE
  5
7A5
100
AcDbEntity
  8
0
100
AcDbSpline
 62
7
  6
CONTINUOUS
 70
0
 71
3
 72
9
 73
5
 74
0
 42
0.0000001
 43
0.0000001
 44
0.0000000001
 40
0.0
 40
0.0
 40
0.0
 40
0.0
 40
0.220853087
 40
1.0
 40
1.0
 40
1.0
 40
1.0
 10
324.4584095225
 20
677.8563409548
 30
0.0
 10
324.44192379
 20
677.8658587704
 30
0.0
 10
324.3744881571
 20
677.9226156642
 30
0.0
 10
324.3548764442
 20
678.018117045
 30
0.0
 10
324.3548764442
 20
678.0852739872
 30
0.0
  0
SPLINE
  5
7A6
100
AcDbEntity
  8
0
100
AcDbSpline
 62
7
  6
CONTINUOUS
 70
0
 71
3
 72
9
 73
5
 74
0
 42
0.0000001
 43
0.0000001
 44
0.0000000001
 40
0.0
 40
0.0
 40
0.0
 40
0.0
 40
0.2371666597
 40
1.0
 40
1.0
 40
1.0
 40
1.0
 10
574.9580631476
 20
566.8010639439
 30
0.0
 10
574.9253830524
 20
566.8330754328
 30
0.0
 10
574.7826361973
 20
566.9629795703
 30
0.0
 10
574.6222623284
 20
567.0728176783
 30
0.0
 10
574.4948342601
 20
567.1463866435
 30
0.0
  0
SPLINE
  5
7A7
100
AcDbEntity
  8
0
100
AcDbSpline
 62
7
  6
CONTINUOUS
 70
0
 71
3
 72
9
 73
5
 74
0
 42
0.0000001
 43
0.0000001
 44
0.0000000001
 40
0.0
 40
0.0
 40
0.0
 40
0.0
 40
0.220853087
 40
1.0
 40
1.0
 40
1.0
 40
1.0
 10
324.4584095225
 20
632.1322055956
 30
0.0
 10
324.44192379
 20
632.1417234111
 30
0.0
 10
324.3744881571
 20
632.1984803049
 30
0.0
 10
324.3548764442
 20
632.2939816857
 30
0.0
 10
324.3548764442
 20
632.3611386279
 30
0.0
  0
SPLINE
  5
7A8
100
AcDbEntity
  8
0
100
AcDbSpline
 62
7
  6
CONTINUOUS
 70
0
 71
3
 72
9
 73
5
 74
0
 42
0.0000001
 43
0.0000001
 44
0.0000000001
 40
0.0
 40
0.0
 40
0.0
 40
0.0
 40
0.2405215751
 40
1.0
 40
1.0
 40
1.0
 40
1.0
 10
328.9510425542
 20
635.8312017821
 30
0.0
 10
329.0011921005
 20
635.8601554633
 30
0.0
 10
329.1857377568
 20
636.0163306893
 30
0.0
 10
329.3045944728
 20
636.2607241557
 30
0.0
 10
329.3045944728
 20
636.4435750676
 30
0.0
  0
SPLINE
  5
7A9
100
AcDbEntity
  8
0
100
AcDbSpline
 62
7
  6
CONTINUOUS
 70
0
 71
3
 72
9
 73
5
 74
0
 42
0.0000001
 43
0.0000001
 44
0.0000000001
 40
0.0
 40
0.0
 40
0.0
 40
0.0
 40
0.2173928951
 40
1.0
 40
1.0
 40
1.0
 40
1.0
 10
337.1108654126
 20
626.0527922014
 30
0.0
 10
337.0399773109
 20
626.0137823636
 30
0.0
 10
336.7126781461
 20
625.8367301761
 30
0.0
 10
336.3733195133
 20
625.6803998338
 30
0.0
 10
336.1000365257
 20
625.5795904997
 30
0.0
  0
SPLINE
  5
7AA
100
AcDbEntity
  8
0
100
AcDbSpline
 62
7
  6
CONTINUOUS
 70
0
 71
3
 72
8
 73
4
 74
0
 42
0.0000001
 43
0.0000001
 44
0.0000000001
 40
0.0
 40
0.0
 40
0.0
 40
0.0
 40
1.0
 40
1.0
 40
1.0
 40
1.0
 10
336.1000365257
 20
625.5795904997
 30
0.0
 10
335.9026763024
 20
625.506787751
 30
0.0
 10
335.7008576461
 20
625.444784231
 30
0.0
 10
335.4961643898
 20
625.3962871303
 30
0.0
  0
SPLINE
  5
7AB
100
AcDbEntity
  8
0
100
AcDbSpline
 62
7
  6
CONTINUOUS
 70
0
 71
3
 72
9
 73
5
 74
0
 42
0.0000001
 43
0.0000001
 44
0.0000000001
 40
0.0
 40
0.0
 40
0.0
 40
0.0
 40
0.2405215751
 40
1.0
 40
1.0
 40
1.0
 40
1.0
 10
328.9510425542
 20
681.5553371414
 30
0.0
 10
329.0011921005
 20
681.5842908226
 30
0.0
 10
329.1857377568
 20
681.7404660486
 30
0.0
 10
329.3045944728
 20
681.9848595149
 30
0.0
 10
329.3045944728
 20
682.1677104269
 30
0.0
  0
SPLINE
  5
7AC
100
AcDbEntity
  8
0
100
AcDbSpline
 62
7
  6
CONTINUOUS
 70
0
 71
3
 72
10
 73
6
 74
0
 42
0.0000001
 43
0.0000001
 44
0.0000000001
 40
0.0
 40
0.0
 40
0.0
 40
0.0
 40
0.1614850492
 40
0.4965109053
 40
1.0
 40
1.0
 40
1.0
 40
1.0
 10
563.8247244662
 20
520.3033712111
 30
0.0
 10
563.8364720209
 20
520.2834526174
 30
0.0
 10
563.7815169186
 20
520.4356416419
 30
0.0
 10
563.7871792787
 20
520.5127469723
 30
0.0
 10
563.7719954482
 20
520.6562648937
 30
0.0
 10
563.7719954482
 20
520.7283649068
 30
0.0
  0
SPLINE
  5
7AD
100
AcDbEntity
  8
0
100
AcDbSpline
 62
7
  6
CONTINUOUS
 70
0
 71
3
 72
9
 73
5
 74
0
 42
0.0000001
 43
0.0000001
 44
0.0000000001
 40
0.0
 40
0.0
 40
0.0
 40
0.0
 40
0.2698317846
 40
1.0
 40
1.0
 40
1.0
 40
1.0
 10
566.3631389546
 20
524.2392622506
 30
0.0
 10
566.3631389546
 20
524.3066331503
 30
0.0
 10
566.3530536158
 20
524.5558777316
 30
0.0
 10
566.3006800765
 20
524.8058619175
 30
0.0
 10
566.2290413284
 20
524.9735030566
 30
0.0
  0
SPLINE
  5
7AE
100
AcDbEntity
  8
0
100
AcDbSpline
 62
7
  6
CONTINUOUS
 70
0
 71
3
 72
9
 73
5
 74
0
 42
0.0000001
 43
0.0000001
 44
0.0000000001
 40
0.0
 40
0.0
 40
0.0
 40
0.0
 40
0.5508521421
 40
1.0
 40
1.0
 40
1.0
 40
1.0
 10
331.5319904014
 20
661.0407441893
 30
0.0
 10
331.5319904014
 20
661.4418978284
 30
0.0
 10
331.4347464821
 20
662.187297724
 30
0.0
 10
330.9452977754
 20
662.7997498006
 30
0.0
 10
330.6620323903
 20
662.9632963869
 30
0.0
  0
SPLINE
  5
7AF
100
AcDbEntity
  8
0
100
AcDbSpline
 62
7
  6
CONTINUOUS
 70
0
 71
3
 72
13
 73
9
 74
0
 42
0.0000001
 43
0.0000001
 44
0.0000000001
 40
0.0
 40
0.0
 40
0.0
 40
0.0
 40
0.2699047204
 40
0.561308612
 40
0.6954511838
 40
0.813136293
 40
0.9128539772
 40
1.0
 40
1.0
 40
1.0
 40
1.0
 10
326.6529739246
 20
658.2238595276
 30
0.0
 10
326.6529739246
 20
658.7061793023
 30
0.0
 10
326.9181434972
 20
659.7059846013
 30
0.0
 10
327.6047925948
 20
660.7672578603
 30
0.0
 10
328.3357094814
 20
661.4157033796
 30
0.0
 10
328.8929785266
 20
661.7200050646
 30
0.0
 10
329.4384184963
 20
661.829390967
 30
0.0
 10
329.7771477398
 20
661.7420616233
 30
0.0
 10
329.9120735098
 20
661.664300093
 30
0.0
  0
SPLINE
  5
7B0
100
AcDbEntity
  8
0
100
AcDbSpline
 62
7
  6
CONTINUOUS
 70
0
 71
3
 72
9
 73
5
 74
0
 42
0.0000001
 43
0.0000001
 44
0.0000000001
 40
0.0
 40
0.0
 40
0.0
 40
0.0
 40
0.2777653093
 40
1.0
 40
1.0
 40
1.0
 40
1.0
 10
574.4937738486
 20
486.7541466983
 30
0.0
 10
574.4640644592
 20
486.6568250234
 30
0.0
 10
574.3483945909
 20
486.3092816331
 30
0.0
 10
574.20039157
 20
485.9716922306
 30
0.0
 10
574.0705683781
 20
485.7411521345
 30
0.0
  0
SPLINE
  5
7B1
100
AcDbEntity
  8
0
100
AcDbSpline
 62
7
  6
CONTINUOUS
 70
0
 71
3
 72
9
 73
5
 74
0
 42
0.0000001
 43
0.0000001
 44
0.0000000001
 40
0.0
 40
0.0
 40
0.0
 40
0.0
 40
0.5000018373
 40
1.0
 40
1.0
 40
1.0
 40
1.0
 10
322.4810459764
 20
696.3136933867
 30
0.0
 10
322.4810459764
 20
697.0407343828
 30
0.0
 10
322.9780049951
 20
698.4762640488
 30
0.0
 10
323.9727252036
 20
699.6244169006
 30
0.0
 10
324.6023574881
 20
699.9879330997
 30
0.0
  0
SPLINE
  5
7B2
100
AcDbEntity
  8
0
100
AcDbSpline
 62
7
  6
CONTINUOUS
 70
0
 71
3
 72
9
 73
5
 74
0
 42
0.0000001
 43
0.0000001
 44
0.0000000001
 40
0.0
 40
0.0
 40
0.0
 40
0.0
 40
0.5000016721
 40
1.0
 40
1.0
 40
1.0
 40
1.0
 10
563.110476612
 20
558.614091986
 30
0.0
 10
563.110476612
 20
558.9776146639
 30
0.0
 10
563.3589056551
 20
559.6954062873
 30
0.0
 10
563.8563141297
 20
560.2694525329
 30
0.0
 10
564.1711323679
 20
560.4512118425
 30
0.0
  0
SPLINE
  5
7B3
100
AcDbEntity
  8
0
100
AcDbSpline
 62
7
  6
CONTINUOUS
 70
0
 71
3
 72
9
 73
5
 74
0
 42
0.0000001
 43
0.0000001
 44
0.0000000001
 40
0.0
 40
0.0
 40
0.0
 40
0.0
 40
0.2643328839
 40
1.0
 40
1.0
 40
1.0
 40
1.0
 10
574.4948519239
 20
565.5134343354
 30
0.0
 10
574.5418869962
 20
565.5405898849
 30
0.0
 10
574.7167623353
 20
565.6483744241
 30
0.0
 10
574.879154115
 20
565.7776289482
 30
0.0
 10
574.9849264492
 20
565.8856097545
 30
0.0
  0
SPLINE
  5
7B4
100
AcDbEntity
  8
0
100
AcDbSpline
 62
7
  6
CONTINUOUS
 70
0
 71
3
 72
9
 73
5
 74
0
 42
0.0000001
 43
0.0000001
 44
0.0000000001
 40
0.0
 40
0.0
 40
0.0
 40
0.0
 40
0.220853087
 40
1.0
 40
1.0
 40
1.0
 40
1.0
 10
330.2617259822
 20
687.9080504559
 30
0.0
 10
330.2782117147
 20
687.8985326403
 30
0.0
 10
330.3456473476
 20
687.8417757465
 30
0.0
 10
330.3652590605
 20
687.7462743657
 30
0.0
 10
330.3652590605
 20
687.6791174236
 30
0.0
  0
SPLINE
  5
7B5
100
AcDbEntity
  8
0
100
AcDbSpline
 62
7
  6
CONTINUOUS
 70
0
 71
3
 72
8
 73
4
 74
0
 42
0.0000001
 43
0.0000001
 44
0.0000000001
 40
0.0
 40
0.0
 40
0.0
 40
0.0
 40
1.0
 40
1.0
 40
1.0
 40
1.0
 10
566.7167097146
 20
526.0764451898
 30
0.0
 10
566.8537759845
 20
526.1555799652
 30
0.0
 10
566.9949301371
 20
526.2281517833
 30
0.0
 10
567.1396110962
 20
526.2923148186
 30
0.0
  0
SPLINE
  5
7B6
100
AcDbEntity
  8
0
100
AcDbSpline
 62
7
  6
CONTINUOUS
 70
0
 71
3
 72
11
 73
7
 74
0
 42
0.0000001
 43
0.0000001
 44
0.0000000001
 40
0.0
 40
0.0
 40
0.0
 40
0.0
 40
0.2636737641
 40
0.4866622371
 40
0.7183292999
 40
1.0
 40
1.0
 40
1.0
 40
1.0
 10
567.1396110962
 20
526.2923148186
 30
0.0
 10
567.5369760155
 20
526.4685380031
 30
0.0
 10
568.3391979966
 20
526.6956595082
 30
0.0
 10
569.5532708383
 20
526.3387037215
 30
0.0
 10
570.2838758876
 20
525.2782593752
 30
0.0
 10
570.3936496681
 20
524.4178594517
 30
0.0
 10
570.3936496681
 20
523.9535022207
 30
0.0
  0
SPLINE
  5
7B7
100
AcDbEntity
  8
0
100
AcDbSpline
 62
7
  6
CONTINUOUS
 70
0
 71
3
 72
9
 73
5
 74
0
 42
0.0000001
 43
0.0000001
 44
0.0000000001
 40
0.0
 40
0.0
 40
0.0
 40
0.0
 40
0.220853087
 40
1.0
 40
1.0
 40
1.0
 40
1.0
 10
330.2617259822
 20
642.1839150967
 30
0.0
 10
330.2782117147
 20
642.1743972811
 30
0.0
 10
330.3456473476
 20
642.1176403873
 30
0.0
 10
330.3652590605
 20
642.0221390065
 30
0.0
 10
330.3652590605
 20
641.9549820643
 30
0.0
  0
SPLINE
  5
7B8
100
AcDbEntity
  8
0
100
AcDbSpline
 62
7
  6
CONTINUOUS
 70
0
 71
3
 72
9
 73
5
 74
0
 42
0.0000001
 43
0.0000001
 44
0.0000000001
 40
0.0
 40
0.0
 40
0.0
 40
0.0
 40
0.2396649226
 40
1.0
 40
1.0
 40
1.0
 40
1.0
 10
563.039769761
 20
519.7077630206
 30
0.0
 10
563.039769761
 20
519.7952096538
 30
0.0
 10
563.0496544031
 20
520.1600569207
 30
0.0
 10
563.0964622393
 20
520.5235358774
 30
0.0
 10
563.1486338433
 20
520.7960098455
 30
0.0
  0
SPLINE
  5
7B9
100
AcDbEntity
  8
0
100
AcDbSpline
 62
7
  6
CONTINUOUS
 70
0
 71
3
 72
9
 73
5
 74
0
 42
0.0000001
 43
0.0000001
 44
0.0000000001
 40
0.0
 40
0.0
 40
0.0
 40
0.0
 40
0.5000005713
 40
1.0
 40
1.0
 40
1.0
 40
1.0
 10
563.1486338433
 20
520.7960098455
 30
0.0
 10
563.3187786998
 20
521.6846166864
 30
0.0
 10
564.0019527299
 20
523.3980017931
 30
0.0
 10
565.1441835221
 20
524.8463547678
 30
0.0
 10
565.8286597827
 20
525.4380133665
 30
0.0
  0
SPLINE
  5
7BA
100
AcDbEntity
  8
0
100
AcDbSpline
 62
7
  6
CONTINUOUS
 70
0
 71
3
 72
9
 73
5
 74
0
 42
0.0000001
 43
0.0000001
 44
0.0000000001
 40
0.0
 40
0.0
 40
0.0
 40
0.0
 40
0.2600701208
 40
1.0
 40
1.0
 40
1.0
 40
1.0
 10
565.8286597827
 20
525.4380133665
 30
0.0
 10
565.9004488342
 20
525.5000675414
 30
0.0
 10
566.1814954135
 20
525.732731463
 30
0.0
 10
566.482902182
 20
525.9414571537
 30
0.0
 10
566.7167097146
 20
526.0764451898
 30
0.0
  0
SPLINE
  5
7BB
100
AcDbEntity
  8
0
100
AcDbSpline
 62
7
  6
CONTINUOUS
 70
0
 71
3
 72
11
 73
7
 74
0
 42
0.0000001
 43
0.0000001
 44
0.0000000001
 40
0.0
 40
0.0
 40
0.0
 40
0.0
 40
0.2816683474
 40
0.5133350254
 40
0.7363249105
 40
1.0
 40
1.0
 40
1.0
 40
1.0
 10
566.7167097146
 20
517.5848200516
 30
0.0
 10
566.3145770382
 20
517.3526500286
 30
0.0
 10
565.5145835016
 20
517.0175296358
 30
0.0
 10
564.2309449159
 20
517.1200353096
 30
0.0
 10
563.3147918387
 20
517.9929486698
 30
0.0
 10
563.1103603187
 20
518.8012328988
 30
0.0
 10
563.0642826299
 20
519.2334632758
 30
0.0
  0
SPLINE
  5
7BC
100
AcDbEntity
  8
0
100
AcDbSpline
 62
7
  6
CONTINUOUS
 70
0
 71
3
 72
8
 73
4
 74
0
 42
0.0000001
 43
0.0000001
 44
0.0000000001
 40
0.0
 40
0.0
 40
0.0
 40
0.0
 40
1.0
 40
1.0
 40
1.0
 40
1.0
 10
563.0642826299
 20
519.2334632758
 30
0.0
 10
563.0475010664
 20
519.3908822288
 30
0.0
 10
563.0397697611
 20
519.5494520998
 30
0.0
 10
563.039769761
 20
519.7077630206
 30
0.0
  0
SPLINE
  5
7BD
100
AcDbEntity
  8
0
100
AcDbSpline
 62
7
  6
CONTINUOUS
 70
0
 71
3
 72
9
 73
5
 74
0
 42
0.0000001
 43
0.0000001
 44
0.0000000001
 40
0.0
 40
0.0
 40
0.0
 40
0.0
 40
0.5000016719
 40
1.0
 40
1.0
 40
1.0
 40
1.0
 10
566.8581157622
 20
523.9534937225
 30
0.0
 10
566.8581157622
 20
523.2991558951
 30
0.0
 10
566.4108779147
 20
522.0071658371
 30
0.0
 10
565.5156056388
 20
520.9738432418
 30
0.0
 10
564.9489354017
 20
520.6466779808
 30
0.0
  0
SPLINE
  5
7BE
100
AcDbEntity
  8
0
100
AcDbSpline
 62
7
  6
CONTINUOUS
 70
0
 71
3
 72
9
 73
5
 74
0
 42
0.0000001
 43
0.0000001
 44
0.0000000001
 40
0.0
 40
0.0
 40
0.0
 40
0.0
 40
0.220853087
 40
1.0
 40
1.0
 40
1.0
 40
1.0
 10
569.6183679444
 20
503.9944196915
 30
0.0
 10
569.6348536769
 20
503.984901876
 30
0.0
 10
569.7022893098
 20
503.9281449822
 30
0.0
 10
569.7219010228
 20
503.8326436013
 30
0.0
 10
569.7219010228
 20
503.7654866592
 30
0.0
  0
SPLINE
  5
7BF
100
AcDbEntity
  8
0
100
AcDbSpline
 62
7
  6
CONTINUOUS
 70
0
 71
3
 72
9
 73
5
 74
0
 42
0.0000001
 43
0.0000001
 44
0.0000000001
 40
0.0
 40
0.0
 40
0.0
 40
0.0
 40
0.220853087
 40
1.0
 40
1.0
 40
1.0
 40
1.0
 10
569.6183679444
 20
549.7185550508
 30
0.0
 10
569.6348536769
 20
549.7090372352
 30
0.0
 10
569.7022893098
 20
549.6522803414
 30
0.0
 10
569.7219010228
 20
549.5567789606
 30
0.0
 10
569.7219010228
 20
549.4896220184
 30
0.0
  0
SPLINE
  5
7C0
100
AcDbEntity
  8
0
100
AcDbSpline
 62
7
  6
CONTINUOUS
 70
0
 71
3
 72
9
 73
5
 74
0
 42
0.0000001
 43
0.0000001
 44
0.0000000001
 40
0.0
 40
0.0
 40
0.0
 40
0.0
 40
0.2021385489
 40
1.0
 40
1.0
 40
1.0
 40
1.0
 10
575.3736058315
 20
566.3368975466
 30
0.0
 10
575.3736059345
 20
566.2954393049
 30
0.0
 10
575.3272955777
 20
566.0888975667
 30
0.0
 10
575.1316348726
 20
565.9578873734
 30
0.0
 10
574.9848570772
 20
565.8855389301
 30
0.0
  0
SPLINE
  5
7C1
100
AcDbEntity
  8
0
100
AcDbSpline
 62
7
  6
CONTINUOUS
 70
0
 71
3
 72
9
 73
5
 74
0
 42
0.0000001
 43
0.0000001
 44
0.0000000001
 40
0.0
 40
0.0
 40
0.0
 40
0.0
 40
0.293909939
 40
1.0
 40
1.0
 40
1.0
 40
1.0
 10
324.7084283628
 20
632.1570094963
 30
0.0
 10
324.686614265
 20
632.1444151963
 30
0.0
 10
324.6104592803
 20
632.1072890102
 30
0.0
 10
324.5108160057
 20
632.1019494185
 30
0.0
 10
324.4584095225
 20
632.1322055956
 30
0.0
  0
SPLINE
  5
7C2
100
AcDbEntity
  8
0
100
AcDbSpline
 62
7
  6
CONTINUOUS
 70
0
 71
3
 72
9
 73
5
 74
0
 42
0.0000001
 43
0.0000001
 44
0.0000000001
 40
0.0
 40
0.0
 40
0.0
 40
0.0
 40
0.2405239971
 40
1.0
 40
1.0
 40
1.0
 40
1.0
 10
330.3652590605
 20
635.8312139358
 30
0.0
 10
330.3652590605
 20
635.7733057399
 30
0.0
 10
330.3222807919
 20
635.5353971463
 30
0.0
 10
330.1700603836
 20
635.3102653913
 30
0.0
 10
330.0117071419
 20
635.2188406503
 30
0.0
  0
SPLINE
  5
7C3
100
AcDbEntity
  8
0
100
AcDbSpline
 62
7
  6
CONTINUOUS
 70
0
 71
3
 72
9
 73
5
 74
0
 42
0.0000001
 43
0.0000001
 44
0.0000000001
 40
0.0
 40
0.0
 40
0.0
 40
0.0
 40
0.293909939
 40
1.0
 40
1.0
 40
1.0
 40
1.0
 10
324.7084283628
 20
677.8811448555
 30
0.0
 10
324.686614265
 20
677.8685505555
 30
0.0
 10
324.6104592803
 20
677.8314243695
 30
0.0
 10
324.5108160057
 20
677.8260847778
 30
0.0
 10
324.4584095225
 20
677.8563409548
 30
0.0
  0
SPLINE
  5
7C4
100
AcDbEntity
  8
0
100
AcDbSpline
 62
7
  6
CONTINUOUS
 70
0
 71
3
 72
9
 73
5
 74
0
 42
0.0000001
 43
0.0000001
 44
0.0000000001
 40
0.0
 40
0.0
 40
0.0
 40
0.0
 40
0.2405239971
 40
1.0
 40
1.0
 40
1.0
 40
1.0
 10
330.3652590605
 20
681.5553492951
 30
0.0
 10
330.3652590605
 20
681.4974410991
 30
0.0
 10
330.3222807919
 20
681.2595325056
 30
0.0
 10
330.1700603836
 20
681.0344007506
 30
0.0
 10
330.0117071419
 20
680.9429760096
 30
0.0
  0
SPLINE
  5
7C5
100
AcDbEntity
  8
0
100
AcDbSpline
 62
7
  6
CONTINUOUS
 70
0
 71
3
 72
11
 73
7
 74
0
 42
0.0000001
 43
0.0000001
 44
0.0000000001
 40
0.0
 40
0.0
 40
0.0
 40
0.0
 40
0.2372416196
 40
0.5000015492
 40
0.7627606319
 40
1.0
 40
1.0
 40
1.0
 40
1.0
 10
323.6831277988
 20
657.8972584256
 30
0.0
 10
323.6831277988
 20
658.5000433504
 30
0.0
 10
323.9092273457
 20
659.7712684592
 30
0.0
 10
324.6972280045
 20
661.5575588655
 30
0.0
 10
325.8501887609
 20
663.1331341525
 30
0.0
 10
326.8380448696
 20
663.964552342
 30
0.0
 10
327.3600677523
 20
664.2659405948
 30
0.0
  0
SPLINE
  5
7C6
100
AcDbEntity
  8
0
100
AcDbSpline
 62
7
  6
CONTINUOUS
 70
0
 71
3
 72
8
 73
4
 74
0
 42
0.0000001
 43
0.0000001
 44
0.0000000001
 40
0.0
 40
0.0
 40
0.0
 40
0.0
 40
1.0
 40
1.0
 40
1.0
 40
1.0
 10
326.8348115119
 20
655.5147283393
 30
0.0
 10
326.7158889464
 20
655.4658870958
 30
0.0
 10
326.5943701599
 20
655.4227925212
 30
0.0
 10
326.4708930206
 20
655.3869953187
 30
0.0
  0
SPLINE
  5
7C7
100
AcDbEntity
  8
0
100
AcDbSpline
 62
7
  6
CONTINUOUS
 70
0
 71
3
 72
8
 73
4
 74
0
 42
0.0000001
 43
0.0000001
 44
0.0000000001
 40
0.0
 40
0.0
 40
0.0
 40
0.0
 40
1.0
 40
1.0
 40
1.0
 40
1.0
 10
326.4708930206
 20
655.3869953187
 30
0.0
 10
326.3401695633
 20
655.3490973395
 30
0.0
 10
326.2067045218
 20
655.3192860307
 30
0.0
 10
326.072014423
 20
655.2997039877
 30
0.0
  0
SPLINE
  5
7C8
100
AcDbEntity
  8
0
100
AcDbSpline
 62
7
  6
CONTINUOUS
 70
0
 71
3
 72
11
 73
7
 74
0
 42
0.0000001
 43
0.0000001
 44
0.0000000001
 40
0.0
 40
0.0
 40
0.0
 40
0.0
 40
0.2393311928
 40
0.4628741984
 40
0.7086161938
 40
1.0
 40
1.0
 40
1.0
 40
1.0
 10
326.072014423
 20
655.2997039877
 30
0.0
 10
325.751487165
 20
655.2531038395
 30
0.0
 10
325.0972658218
 20
655.2748473155
 30
0.0
 10
324.2537793482
 20
655.8230422337
 30
0.0
 10
323.7675274238
 20
656.7692477205
 30
0.0
 10
323.6831277988
 20
657.5029163709
 30
0.0
 10
323.6831277988
 20
657.8972584256
 30
0.0
  0
SPLINE
  5
7C9
100
AcDbEntity
  8
0
100
AcDbSpline
 62
7
  6
CONTINUOUS
 70
0
 71
3
 72
11
 73
7
 74
0
 42
0.0000001
 43
0.0000001
 44
0.0000000001
 40
0.0
 40
0.0
 40
0.0
 40
0.0
 40
0.2913816606
 40
0.5371230061
 40
0.7606671379
 40
1.0
 40
1.0
 40
1.0
 40
1.0
 10
327.3600677523
 20
664.2659405948
 30
0.0
 10
327.7015668531
 20
664.4631040156
 30
0.0
 10
328.3791218887
 20
664.7568347024
 30
0.0
 10
329.4416549843
 20
664.8088241731
 30
0.0
 10
330.3381268113
 20
664.3524542524
 30
0.0
 10
330.6840691501
 20
663.7967722699
 30
0.0
 10
330.8039795635
 20
663.4958958119
 30
0.0
  0
SPLINE
  5
7CA
100
AcDbEntity
  8
0
100
AcDbSpline
 62
7
  6
CONTINUOUS
 70
0
 71
3
 72
8
 73
4
 74
0
 42
0.0000001
 43
0.0000001
 44
0.0000000001
 40
0.0
 40
0.0
 40
0.0
 40
0.0
 40
1.0
 40
1.0
 40
1.0
 40
1.0
 10
330.8039795635
 20
663.4958958119
 30
0.0
 10
330.8543335479
 20
663.3695487499
 30
0.0
 10
330.8952294588
 20
663.2391535392
 30
0.0
 10
330.9277620629
 20
663.1070901701
 30
0.0
  0
SPLINE
  5
7CB
100
AcDbEntity
  8
0
100
AcDbSpline
 62
7
  6
CONTINUOUS
 70
0
 71
3
 72
9
 73
5
 74
0
 42
0.0000001
 43
0.0000001
 44
0.0000000001
 40
0.0
 40
0.0
 40
0.0
 40
0.0
 40
0.293909939
 40
1.0
 40
1.0
 40
1.0
 40
1.0
 10
564.065070325
 20
539.6916494504
 30
0.0
 10
564.0432562273
 20
539.6790551504
 30
0.0
 10
563.9671012426
 20
539.6419289644
 30
0.0
 10
563.8674579679
 20
539.6365893726
 30
0.0
 10
563.8150514848
 20
539.6668455497
 30
0.0
  0
SPLINE
  5
7CC
100
AcDbEntity
  8
0
100
AcDbSpline
 62
7
  6
CONTINUOUS
 70
0
 71
3
 72
9
 73
5
 74
0
 42
0.0000001
 43
0.0000001
 44
0.0000000001
 40
0.0
 40
0.0
 40
0.0
 40
0.0
 40
0.2405239971
 40
1.0
 40
1.0
 40
1.0
 40
1.0
 10
569.7219010228
 20
543.36585389
 30
0.0
 10
569.7219010228
 20
543.307945694
 30
0.0
 10
569.6789227541
 20
543.0700371005
 30
0.0
 10
569.5267023459
 20
542.8449053455
 30
0.0
 10
569.3683491041
 20
542.7534806045
 30
0.0
  0
SPLINE
  5
7CD
100
AcDbEntity
  8
0
100
AcDbSpline
 62
7
  6
CONTINUOUS
 70
0
 71
3
 72
8
 73
4
 74
0
 42
0.0000001
 43
0.0000001
 44
0.0000000001
 40
0.0
 40
0.0
 40
0.0
 40
0.0
 40
1.0
 40
1.0
 40
1.0
 40
1.0
 10
566.2988497789
 20
525.1894076896
 30
0.0
 10
566.3639252328
 20
525.1518371971
 30
0.0
 10
566.4246765835
 20
525.1057184906
 30
0.0
 10
566.4786676741
 20
525.0534564707
 30
0.0
  0
SPLINE
  5
7CE
100
AcDbEntity
  8
0
100
AcDbSpline
 62
7
  6
CONTINUOUS
 70
0
 71
3
 72
9
 73
5
 74
0
 42
0.0000001
 43
0.0000001
 44
0.0000000001
 40
0.0
 40
0.0
 40
0.0
 40
0.0
 40
0.2332047663
 40
1.0
 40
1.0
 40
1.0
 40
1.0
 10
566.4977729108
 20
525.0344331184
 30
0.0
 10
566.534811477
 20
524.9965010225
 30
0.0
 10
566.6802879595
 20
524.8206800427
 30
0.0
 10
566.7671878686
 20
524.6017646482
 30
0.0
 10
566.8066130865
 20
524.4319606774
 30
0.0
  0
SPLINE
  5
7CF
100
AcDbEntity
  8
0
100
AcDbSpline
 62
7
  6
CONTINUOUS
 70
0
 71
3
 72
9
 73
5
 74
0
 42
0.0000001
 43
0.0000001
 44
0.0000000001
 40
0.0
 40
0.0
 40
0.0
 40
0.0
 40
0.2387201653
 40
1.0
 40
1.0
 40
1.0
 40
1.0
 10
566.8066130865
 20
524.4319606774
 30
0.0
 10
566.8152844461
 20
524.3946132287
 30
0.0
 10
566.8464591992
 20
524.2369806557
 30
0.0
 10
566.8581157622
 20
524.0757630409
 30
0.0
 10
566.8581157622
 20
523.9534937225
 30
0.0
  0
SPLINE
  5
7D0
100
AcDbEntity
  8
0
100
AcDbSpline
 62
7
  6
CONTINUOUS
 70
0
 71
3
 72
9
 73
5
 74
0
 42
0.0000001
 43
0.0000001
 44
0.0000000001
 40
0.0
 40
0.0
 40
0.0
 40
0.0
 40
0.449173941
 40
1.0
 40
1.0
 40
1.0
 40
1.0
 10
325.9673106684
 20
655.9747289872
 30
0.0
 10
325.6840258339
 20
656.1382799134
 30
0.0
 10
325.1945423136
 20
656.7507167714
 30
0.0
 10
325.0973413612
 20
657.4961271574
 30
0.0
 10
325.0973413612
 20
657.897261825
 30
0.0
  0
SPLINE
  5
7D1
100
AcDbEntity
  8
0
100
AcDbSpline
 62
7
  6
CONTINUOUS
 70
0
 71
3
 72
13
 73
9
 74
0
 42
0.0000001
 43
0.0000001
 44
0.0000000001
 40
0.0
 40
0.0
 40
0.0
 40
0.0
 40
0.0871393041
 40
0.186846948
 40
0.3045211001
 40
0.4386554526
 40
0.7300919078
 40
1.0
 40
1.0
 40
1.0
 40
1.0
 10
330.6620323903
 20
662.9632963869
 30
0.0
 10
330.452258242
 20
663.0844119473
 30
0.0
 10
329.9252305625
 20
663.2199270552
 30
0.0
 10
329.0769293171
 20
663.0499505293
 30
0.0
 10
328.2100484753
 20
662.5767136923
 30
0.0
 10
327.0729686441
 20
661.5680929658
 30
0.0
 10
326.0048300615
 20
659.9171137695
 30
0.0
 10
325.5923181688
 20
658.3617766384
 30
0.0
 10
325.5923181688
 20
657.6114932968
 30
0.0
  0
SPLINE
  5
7D2
100
AcDbEntity
  8
0
100
AcDbSpline
 62
7
  6
CONTINUOUS
 70
0
 71
3
 72
9
 73
5
 74
0
 42
0.0000001
 43
0.0000001
 44
0.0000000001
 40
0.0
 40
0.0
 40
0.0
 40
0.0
 40
0.2857554876
 40
1.0
 40
1.0
 40
1.0
 40
1.0
 10
564.9489354017
 20
520.6466779808
 30
0.0
 10
564.8537576579
 20
520.5917274128
 30
0.0
 10
564.5116794726
 20
520.4211532778
 30
0.0
 10
564.0988542084
 20
520.3503556929
 30
0.0
 10
563.8326866248
 20
520.4182831734
 30
0.0
  0
SPLINE
  5
7D3
100
AcDbEntity
  8
0
100
AcDbSpline
 62
7
  6
CONTINUOUS
 70
0
 71
3
 72
8
 73
4
 74
0
 42
0.0000001
 43
0.0000001
 44
0.0000000001
 40
0.0
 40
0.0
 40
0.0
 40
0.0
 40
1.0
 40
1.0
 40
1.0
 40
1.0
 10
563.8112542427
 20
520.4240176581
 30
0.0
 10
563.737377716
 20
520.4447059334
 30
0.0
 10
563.6654616649
 20
520.4747026587
 30
0.0
 10
563.5990210245
 20
520.5130613244
 30
0.0
  0
SPLINE
  5
7D4
100
AcDbEntity
  8
0
100
AcDbSpline
 62
7
  6
CONTINUOUS
 70
0
 71
3
 72
9
 73
5
 74
0
 42
0.0000001
 43
0.0000001
 44
0.0000000001
 40
0.0
 40
0.0
 40
0.0
 40
0.0
 40
0.2784435043
 40
1.0
 40
1.0
 40
1.0
 40
1.0
 10
329.976357838
 20
660.7141464867
 30
0.0
 10
329.976357838
 20
660.8044994188
 30
0.0
 10
329.9593609189
 20
661.127575417
 30
0.0
 10
329.864342316
 20
661.4550971058
 30
0.0
 10
329.7338200974
 20
661.649481934
 30
0.0
  0
SPLINE
  5
7D5
100
AcDbEntity
  8
0
100
AcDbSpline
 62
7
  6
CONTINUOUS
 70
0
 71
3
 72
9
 73
5
 74
0
 42
0.0000001
 43
0.0000001
 44
0.0000000001
 40
0.0
 40
0.0
 40
0.0
 40
0.0
 40
0.4999983281
 40
1.0
 40
1.0
 40
1.0
 40
1.0
 10
328.0671774775
 20
657.407330745
 30
0.0
 10
328.6338477146
 20
657.734496006
 30
0.0
 10
329.5291199905
 20
658.7678186013
 30
0.0
 10
329.976357838
 20
660.0598086592
 30
0.0
 10
329.976357838
 20
660.7141464867
 30
0.0
  0
SPLINE
  5
7D6
100
AcDbEntity
  8
0
100
AcDbSpline
 62
7
  6
CONTINUOUS
 70
0
 71
3
 72
9
 73
5
 74
0
 42
0.0000001
 43
0.0000001
 44
0.0000000001
 40
0.0
 40
0.0
 40
0.0
 40
0.0
 40
0.5508521421
 40
1.0
 40
1.0
 40
1.0
 40
1.0
 10
325.5923181688
 20
657.6114932968
 30
0.0
 10
325.5923181688
 20
657.2103396577
 30
0.0
 10
325.689562088
 20
656.4649397621
 30
0.0
 10
326.1790107948
 20
655.8524876855
 30
0.0
 10
326.4622761799
 20
655.6889410992
 30
0.0
  0
SPLINE
  5
7D7
100
AcDbEntity
  8
0
100
AcDbSpline
 62
7
  6
CONTINUOUS
 70
0
 71
3
 72
13
 73
9
 74
0
 42
0.0000001
 43
0.0000001
 44
0.0000000001
 40
0.0
 40
0.0
 40
0.0
 40
0.0
 40
0.2699047204
 40
0.561308612
 40
0.6954511838
 40
0.813136293
 40
0.9128539772
 40
1.0
 40
1.0
 40
1.0
 40
1.0
 10
330.4713346456
 20
660.4283779585
 30
0.0
 10
330.4713346456
 20
659.9460581838
 30
0.0
 10
330.206165073
 20
658.9462528848
 30
0.0
 10
329.5195159753
 20
657.8849796258
 30
0.0
 10
328.7885990888
 20
657.2365341065
 30
0.0
 10
328.2313300436
 20
656.9322324215
 30
0.0
 10
327.6858900738
 20
656.8228465191
 30
0.0
 10
327.3471608304
 20
656.9101758628
 30
0.0
 10
327.2122350604
 20
656.9879373931
 30
0.0
  0
SPLINE
  5
7D8
100
AcDbEntity
  8
0
100
AcDbSpline
 62
7
  6
CONTINUOUS
 70
0
 71
3
 72
11
 73
7
 74
0
 42
0.0000001
 43
0.0000001
 44
0.0000000001
 40
0.0
 40
0.0
 40
0.0
 40
0.0
 40
0.2372483561
 40
0.5000016178
 40
0.7627539995
 40
1.0
 40
1.0
 40
1.0
 40
1.0
 10
325.0973413612
 20
657.897261825
 30
0.0
 10
325.0973413612
 20
658.3841396901
 30
0.0
 10
325.2798704638
 20
659.4109298591
 30
0.0
 10
325.9166020984
 20
660.8535549419
 30
0.0
 10
326.8475767346
 20
662.1262941969
 30
0.0
 10
327.6455324351
 20
662.7977619975
 30
0.0
 10
328.0671774775
 20
663.0411974232
 30
0.0
  0
SPLINE
  5
7D9
100
AcDbEntity
  8
0
100
AcDbSpline
 62
7
  6
CONTINUOUS
 70
0
 71
3
 72
9
 73
5
 74
0
 42
0.0000001
 43
0.0000001
 44
0.0000000001
 40
0.0
 40
0.0
 40
0.0
 40
0.0
 40
0.5508239088
 40
1.0
 40
1.0
 40
1.0
 40
1.0
 10
328.0671774775
 20
663.0411974232
 30
0.0
 10
328.4145558179
 20
663.2417552044
 30
0.0
 10
329.1086741517
 20
663.5302677272
 30
0.0
 10
329.8837692142
 20
663.4125908454
 30
0.0
 10
330.1670442865
 20
663.2490455553
 30
0.0
  0
SPLINE
  5
7DA
100
AcDbEntity
  8
0
100
AcDbSpline
 62
7
  6
CONTINUOUS
 70
0
 71
3
 72
9
 73
5
 74
0
 42
0.0000001
 43
0.0000001
 44
0.0000000001
 40
0.0
 40
0.0
 40
0.0
 40
0.0
 40
0.5508354204
 40
1.0
 40
1.0
 40
1.0
 40
1.0
 10
562.0498208562
 20
481.250498545
 30
0.0
 10
562.0498208562
 20
480.9639718738
 30
0.0
 10
562.1192613604
 20
480.4315382739
 30
0.0
 10
562.4689017121
 20
479.9941038675
 30
0.0
 10
562.6712417455
 20
479.8772854729
 30
0.0
  0
SPLINE
  5
7DB
100
AcDbEntity
  8
0
100
AcDbSpline
 62
7
  6
CONTINUOUS
 70
0
 71
3
 72
9
 73
5
 74
0
 42
0.0000001
 43
0.0000001
 44
0.0000000001
 40
0.0
 40
0.0
 40
0.0
 40
0.0
 40
0.293909939
 40
1.0
 40
1.0
 40
1.0
 40
1.0
 10
564.065070325
 20
493.9675140912
 30
0.0
 10
564.0432562273
 20
493.9549197911
 30
0.0
 10
563.9671012426
 20
493.9177936051
 30
0.0
 10
563.8674579679
 20
493.9124540134
 30
0.0
 10
563.8150514848
 20
493.9427101904
 30
0.0
  0
SPLINE
  5
7DC
100
AcDbEntity
  8
0
100
AcDbSpline
 62
7
  6
CONTINUOUS
 70
0
 71
3
 72
9
 73
5
 74
0
 42
0.0000001
 43
0.0000001
 44
0.0000000001
 40
0.0
 40
0.0
 40
0.0
 40
0.0
 40
0.2250329352
 40
1.0
 40
1.0
 40
1.0
 40
1.0
 10
327.1359387762
 20
657.1497168153
 30
0.0
 10
327.2088774275
 20
657.1447715285
 30
0.0
 10
327.5353982657
 20
657.1550688517
 30
0.0
 10
327.8491445473
 20
657.2814501254
 30
0.0
 10
328.0671774775
 20
657.407330745
 30
0.0
  0
SPLINE
  5
7DD
100
AcDbEntity
  8
0
100
AcDbSpline
 62
7
  6
CONTINUOUS
 70
0
 71
3
 72
9
 73
5
 74
0
 42
0.0000001
 43
0.0000001
 44
0.0000000001
 40
0.0
 40
0.0
 40
0.0
 40
0.0
 40
0.4491689328
 40
1.0
 40
1.0
 40
1.0
 40
1.0
 10
329.9120735098
 20
661.664300093
 30
0.0
 10
330.0942628106
 20
661.5592992556
 30
0.0
 10
330.408786069
 20
661.1653548802
 30
0.0
 10
330.4713346456
 20
660.6862527203
 30
0.0
 10
330.4713346456
 20
660.4283779585
 30
0.0
  0
SPLINE
  5
7DE
100
AcDbEntity
  8
0
100
AcDbSpline
 62
7
  6
CONTINUOUS
 70
0
 71
3
 72
9
 73
5
 74
0
 42
0.0000001
 43
0.0000001
 44
0.0000000001
 40
0.0
 40
0.0
 40
0.0
 40
0.0
 40
0.2405239971
 40
1.0
 40
1.0
 40
1.0
 40
1.0
 10
569.7219010228
 20
497.6417185307
 30
0.0
 10
569.7219010228
 20
497.5838103348
 30
0.0
 10
569.6789227541
 20
497.3459017412
 30
0.0
 10
569.5267023459
 20
497.1207699862
 30
0.0
 10
569.3683491041
 20
497.0293452452
 30
0.0
  0
SPLINE
  5
7DF
100
AcDbEntity
  8
0
100
AcDbSpline
 62
7
  6
CONTINUOUS
 70
0
 71
3
 72
9
 73
5
 74
0
 42
0.0000001
 43
0.0000001
 44
0.0000000001
 40
0.0
 40
0.0
 40
0.0
 40
0.0
 40
0.6907394185
 40
1.0
 40
1.0
 40
1.0
 40
1.0
 10
574.1334416988
 20
567.4986559502
 30
0.0
 10
574.2317463997
 20
567.659510565
 30
0.0
 10
574.3573030573
 20
567.8604081988
 30
0.0
 10
574.6488847832
 20
568.0719397676
 30
0.0
 10
574.7219800334
 20
568.0297388177
 30
0.0
  0
SPLINE
  5
7E0
100
AcDbEntity
  8
0
100
AcDbSpline
 62
7
  6
CONTINUOUS
 70
0
 71
3
 72
11
 73
7
 74
0
 42
0.0000001
 43
0.0000001
 44
0.0000000001
 40
0.0
 40
0.0
 40
0.0
 40
0.0
 40
0.2372416196
 40
0.5000015492
 40
0.7627606319
 40
1.0
 40
1.0
 40
1.0
 40
1.0
 10
570.3936496681
 20
523.9535022207
 30
0.0
 10
570.3936496681
 20
523.3507172959
 30
0.0
 10
570.1675501211
 20
522.0794921871
 30
0.0
 10
569.3795494624
 20
520.2932017809
 30
0.0
 10
568.2265887059
 20
518.7176264939
 30
0.0
 10
567.2387325972
 20
517.8862083044
 30
0.0
 10
566.7167097146
 20
517.5848200516
 30
0.0
  0
SPLINE
  5
7E1
100
AcDbEntity
  8
0
100
AcDbSpline
 62
7
  6
CONTINUOUS
 70
0
 71
3
 72
9
 73
5
 74
0
 42
0.0000001
 43
0.0000001
 44
0.0000000001
 40
0.0
 40
0.0
 40
0.0
 40
0.0
 40
0.4999984935
 40
1.0
 40
1.0
 40
1.0
 40
1.0
 10
564.1711323679
 20
561.6759654682
 30
0.0
 10
563.5414996668
 20
561.3124490286
 30
0.0
 10
562.5467795864
 20
560.1642959175
 30
0.0
 10
562.0498208562
 20
558.7287662702
 30
0.0
 10
562.0498208562
 20
558.0017257552
 30
0.0
  0
SPLINE
  5
7E2
100
AcDbEntity
  8
0
100
AcDbSpline
 62
7
  6
CONTINUOUS
 70
0
 71
3
 72
9
 73
5
 74
0
 42
0.0000001
 43
0.0000001
 44
0.0000000001
 40
0.0
 40
0.0
 40
0.0
 40
0.0
 40
0.2619701782
 40
1.0
 40
1.0
 40
1.0
 40
1.0
 10
140.2319357671
 20
510.7460903852
 30
0.0
 10
140.1950246958
 20
510.7226333333
 30
0.0
 10
140.0564116912
 20
510.6296200233
 30
0.0
 10
139.9272363514
 20
510.5219926434
 30
0.0
 10
139.8410194521
 20
510.4339755795
 30
0.0
  0
SPLINE
  5
7E3
100
AcDbEntity
  8
0
100
AcDbSpline
 62
7
  6
CONTINUOUS
 70
0
 71
3
 72
9
 73
5
 74
0
 42
0.0000001
 43
0.0000001
 44
0.0000000001
 40
0.0
 40
0.0
 40
0.0
 40
0.0
 40
0.2779976154
 40
1.0
 40
1.0
 40
1.0
 40
1.0
 10
378.6320026547
 20
372.3201779187
 30
0.0
 10
378.5442952723
 20
372.2860745262
 30
0.0
 10
378.2316521281
 20
372.1559493479
 30
0.0
 10
377.930085911
 20
372.0008428105
 30
0.0
 10
377.7159539559
 20
371.8830272072
 30
0.0
  0
SPLINE
  5
7E4
100
AcDbEntity
  8
0
100
AcDbSpline
 62
7
  6
CONTINUOUS
 70
0
 71
3
 72
9
 73
5
 74
0
 42
0.0000001
 43
0.0000001
 44
0.0000000001
 40
0.0
 40
0.0
 40
0.0
 40
0.0
 40
0.2444476208
 40
1.0
 40
1.0
 40
1.0
 40
1.0
 10
139.4523400698
 20
509.1801675573
 30
0.0
 10
139.4523399683
 20
509.2880024512
 30
0.0
 10
139.4859037225
 20
509.7291844731
 30
0.0
 10
139.6603018913
 20
510.1540349946
 30
0.0
 10
139.8410888242
 20
510.4340464039
 30
0.0
  0
SPLINE
  5
7E5
100
AcDbEntity
  8
0
100
AcDbSpline
 62
7
  6
CONTINUOUS
 70
0
 71
3
 72
8
 73
4
 74
0
 42
0.0000001
 43
0.0000001
 44
0.0000000001
 40
0.0
 40
0.0
 40
0.0
 40
0.0
 40
1.0
 40
1.0
 40
1.0
 40
1.0
 10
377.8654800304
 20
371.6664287652
 30
0.0
 10
377.7621022053
 20
371.7016070695
 30
0.0
 10
377.6609855015
 20
371.7455493521
 30
0.0
 10
377.5664155961
 20
371.8001480773
 30
0.0
  0
SPLINE
  5
7E6
100
AcDbEntity
  8
0
100
AcDbSpline
 62
7
  6
CONTINUOUS
 70
0
 71
3
 72
8
 73
4
 74
0
 42
0.0000001
 43
0.0000001
 44
0.0000000001
 40
0.0
 40
0.0
 40
0.0
 40
0.0
 40
1.0
 40
1.0
 40
1.0
 40
1.0
 10
377.1037954878
 20
294.1691477321
 30
0.0
 10
377.4090874329
 20
293.9731613895
 30
0.0
 10
377.7392067732
 20
293.8128792955
 30
0.0
 10
378.079225898
 20
293.6863849753
 30
0.0
  0
SPLINE
  5
7E7
100
AcDbEntity
  8
0
100
AcDbSpline
 62
7
  6
CONTINUOUS
 70
0
 71
3
 72
9
 73
5
 74
0
 42
0.0000001
 43
0.0000001
 44
0.0000000001
 40
0.0
 40
0.0
 40
0.0
 40
0.0
 40
0.1999426953
 40
1.0
 40
1.0
 40
1.0
 40
1.0
 10
139.4523401125
 20
431.598471531
 30
0.0
 10
139.4523397796
 20
431.5555289834
 30
0.0
 10
139.5028841488
 20
431.3392819008
 30
0.0
 10
139.7123034292
 20
431.2070131068
 30
0.0
 10
139.8679543115
 20
431.1342192499
 30
0.0
  0
SPLINE
  5
7E8
100
AcDbEntity
  8
0
100
AcDbSpline
 62
7
  6
CONTINUOUS
 70
0
 71
3
 72
9
 73
5
 74
0
 42
0.0000001
 43
0.0000001
 44
0.0000000001
 40
0.0
 40
0.0
 40
0.0
 40
0.0
 40
0.2601173142
 40
1.0
 40
1.0
 40
1.0
 40
1.0
 10
377.1038887089
 20
294.1691160122
 30
0.0
 10
377.050061226
 20
294.1874323892
 30
0.0
 10
376.8447151022
 20
294.2623322276
 30
0.0
 10
376.6458223785
 20
294.3556913215
 30
0.0
 10
376.5057598403
 20
294.4365546363
 30
0.0
  0
SPLINE
  5
7E9
100
AcDbEntity
  8
0
100
AcDbSpline
 62
7
  6
CONTINUOUS
 70
0
 71
3
 72
9
 73
5
 74
0
 42
0.0000001
 43
0.0000001
 44
0.0000000001
 40
0.0
 40
0.0
 40
0.0
 40
0.0
 40
0.2632944674
 40
1.0
 40
1.0
 40
1.0
 40
1.0
 10
140.3311116412
 20
430.7889666461
 30
0.0
 10
140.2871339386
 20
430.8143566101
 30
0.0
 10
140.1227832562
 20
430.9152313931
 30
0.0
 10
139.9693870165
 20
431.0348642511
 30
0.0
 10
139.8678827536
 20
431.1342893457
 30
0.0
  0
SPLINE
  5
7EA
100
AcDbEntity
  8
0
100
AcDbSpline
 62
7
  6
CONTINUOUS
 70
0
 71
3
 72
9
 73
5
 74
0
 42
0.0000001
 43
0.0000001
 44
0.0000000001
 40
0.0
 40
0.0
 40
0.0
 40
0.0
 40
0.2377811461
 40
1.0
 40
1.0
 40
1.0
 40
1.0
 10
140.4201318411
 20
511.4471744228
 30
0.0
 10
140.3970716087
 20
511.3826096772
 30
0.0
 10
140.3049467551
 20
511.1093659741
 30
0.0
 10
140.2320505005
 20
510.8296694768
 30
0.0
 10
140.1872887028
 20
510.6145060067
 30
0.0
  0
SPLINE
  5
7EB
100
AcDbEntity
  8
0
100
AcDbSpline
 62
7
  6
CONTINUOUS
 70
0
 71
3
 72
9
 73
5
 74
0
 42
0.0000001
 43
0.0000001
 44
0.0000000001
 40
0.0
 40
0.0
 40
0.0
 40
0.0
 40
0.7532234589
 40
1.0
 40
1.0
 40
1.0
 40
1.0
 10
140.0574461907
 20
509.6063063454
 30
0.0
 10
140.0310976776
 20
509.0817678991
 30
0.0
 10
140.0816429455
 20
508.3738701337
 30
0.0
 10
140.2740273389
 20
507.7025352585
 30
0.0
 10
140.3310939291
 20
507.5402040821
 30
0.0
  0
SPLINE
  5
7EC
100
AcDbEntity
  8
0
100
AcDbSpline
 62
7
  6
CONTINUOUS
 70
0
 71
3
 72
9
 73
5
 74
0
 42
0.0000001
 43
0.0000001
 44
0.0000000001
 40
0.0
 40
0.0
 40
0.0
 40
0.0
 40
0.6906901911
 40
1.0
 40
1.0
 40
1.0
 40
1.0
 10
140.2690976692
 20
430.6799005231
 30
0.0
 10
140.1791263659
 20
430.5145329654
 30
0.0
 10
140.0681013153
 20
430.305544273
 30
0.0
 10
140.0309536756
 20
429.9477668585
 30
0.0
 10
140.1039664398
 20
429.9056141426
 30
0.0
  0
SPLINE
  5
7ED
100
AcDbEntity
  8
0
100
AcDbSpline
 62
7
  6
CONTINUOUS
 70
0
 71
3
 72
9
 73
5
 74
0
 42
0.0000001
 43
0.0000001
 44
0.0000000001
 40
0.0
 40
0.0
 40
0.0
 40
0.0
 40
0.2605170544
 40
1.0
 40
1.0
 40
1.0
 40
1.0
 10
139.8679376957
 20
507.8854627357
 30
0.0
 10
139.8016461938
 20
507.9843294081
 30
0.0
 10
139.571099299
 20
508.3788458365
 30
0.0
 10
139.4523403877
 20
508.8422860717
 30
0.0
 10
139.4523400698
 20
509.1801675573
 30
0.0
  0
SPLINE
  5
7EE
100
AcDbEntity
  8
0
100
AcDbSpline
 62
7
  6
CONTINUOUS
 70
0
 71
3
 72
9
 73
5
 74
0
 42
0.0000001
 43
0.0000001
 44
0.0000000001
 40
0.0
 40
0.0
 40
0.0
 40
0.0
 40
0.24580168
 40
1.0
 40
1.0
 40
1.0
 40
1.0
 10
377.9757044316
 20
292.5734090492
 30
0.0
 10
377.8451137663
 20
292.6488039987
 30
0.0
 10
377.3367638804
 20
292.9953765553
 30
0.0
 10
376.9447115529
 20
293.4992238656
 30
0.0
 10
376.7322255396
 20
293.9102246743
 30
0.0
  0
SPLINE
  5
7EF
100
AcDbEntity
  8
0
100
AcDbSpline
 62
7
  6
CONTINUOUS
 70
0
 71
3
 72
9
 73
5
 74
0
 42
0.0000001
 43
0.0000001
 44
0.0000000001
 40
0.0
 40
0.0
 40
0.0
 40
0.0
 40
0.2371666597
 40
1.0
 40
1.0
 40
1.0
 40
1.0
 10
139.8678827537
 20
507.8855165559
 30
0.0
 10
139.900562849
 20
507.853505067
 30
0.0
 10
140.043309704
 20
507.7236009295
 30
0.0
 10
140.2036835729
 20
507.6137628214
 30
0.0
 10
140.3311116412
 20
507.5401938563
 30
0.0
  0
SPLINE
  5
7F0
100
AcDbEntity
  8
0
100
AcDbSpline
 62
7
  6
CONTINUOUS
 70
0
 71
3
 72
9
 73
5
 74
0
 42
0.0000001
 43
0.0000001
 44
0.0000000001
 40
0.0
 40
0.0
 40
0.0
 40
0.0
 40
0.2199125997
 40
1.0
 40
1.0
 40
1.0
 40
1.0
 10
376.5057971877
 20
371.1877602844
 30
0.0
 10
376.5476929196
 20
371.258560668
 30
0.0
 10
376.7488925561
 20
371.5741329556
 30
0.0
 10
376.9874811784
 20
371.8652026955
 30
0.0
 10
377.1873910318
 20
372.0777998174
 30
0.0
  0
SPLINE
  5
7F1
100
AcDbEntity
  8
0
100
AcDbSpline
 62
7
  6
CONTINUOUS
 70
0
 71
3
 72
9
 73
5
 74
0
 42
0.0000001
 43
0.0000001
 44
0.0000000001
 40
0.0
 40
0.0
 40
0.0
 40
0.0
 40
0.2427942154
 40
1.0
 40
1.0
 40
1.0
 40
1.0
 10
377.5898092615
 20
372.4696380003
 30
0.0
 10
377.6669476866
 20
372.538492112
 30
0.0
 10
377.9913206046
 20
372.8144907662
 30
0.0
 10
378.3422159603
 20
373.0596442495
 30
0.0
 10
378.6200808136
 20
373.2232841884
 30
0.0
  0
SPLINE
  5
7F2
100
AcDbEntity
  8
0
100
AcDbSpline
 62
7
  6
CONTINUOUS
 70
0
 71
3
 72
9
 73
5
 74
0
 42
0.0000001
 43
0.0000001
 44
0.0000000001
 40
0.0
 40
0.0
 40
0.0
 40
0.0
 40
0.2397596347
 40
1.0
 40
1.0
 40
1.0
 40
1.0
 10
376.5057598403
 20
371.1877818465
 30
0.0
 10
376.5511494326
 20
371.161576746
 30
0.0
 10
376.7434911519
 20
371.0575512246
 30
0.0
 10
376.9465608263
 20
370.9738799754
 30
0.0
 10
377.103888709
 20
370.9203432224
 30
0.0
  0
SPLINE
  5
7F3
100
AcDbEntity
  8
0
100
AcDbSpline
 62
7
  6
CONTINUOUS
 70
0
 71
3
 72
9
 73
5
 74
0
 42
0.0000001
 43
0.0000001
 44
0.0000000001
 40
0.0
 40
0.0
 40
0.0
 40
0.0
 40
0.2655308741
 40
1.0
 40
1.0
 40
1.0
 40
1.0
 10
378.6460153063
 20
371.1006222457
 30
0.0
 10
378.5128558465
 20
371.0655157168
 30
0.0
 10
378.0068972586
 20
370.9515573796
 30
0.0
 10
377.4843939011
 20
370.9056918142
 30
0.0
 10
377.1037672971
 20
370.9203845351
 30
0.0
  0
SPLINE
  5
7F4
100
AcDbEntity
  8
0
100
AcDbSpline
 62
7
  6
CONTINUOUS
 70
0
 71
3
 72
9
 73
5
 74
0
 42
0.0000001
 43
0.0000001
 44
0.0000000001
 40
0.0
 40
0.0
 40
0.0
 40
0.0
 40
0.293909939
 40
1.0
 40
1.0
 40
1.0
 40
1.0
 10
391.1781821263
 20
446.8162243744
 30
0.0
 10
391.199996224
 20
446.8288186745
 30
0.0
 10
391.2761512087
 20
446.8659448605
 30
0.0
 10
391.3757944834
 20
446.8712844522
 30
0.0
 10
391.4282009665
 20
446.8410282752
 30
0.0
  0
SPLINE
  5
7F5
100
AcDbEntity
  8
0
100
AcDbSpline
 62
7
  6
CONTINUOUS
 70
0
 71
3
 72
8
 73
4
 74
0
 42
0.0000001
 43
0.0000001
 44
0.0000000001
 40
0.0
 40
0.0
 40
0.0
 40
0.0
 40
1.0
 40
1.0
 40
1.0
 40
1.0
 10
379.0046749707
 20
453.8383763319
 30
0.0
 10
379.1313203893
 20
453.9254571357
 30
0.0
 10
379.2525905498
 20
454.0211630939
 30
0.0
 10
379.3654914894
 20
454.1254487895
 30
0.0
  0
SPLINE
  5
7F6
100
AcDbEntity
  8
0
100
AcDbSpline
 62
7
  6
CONTINUOUS
 70
0
 71
3
 72
9
 73
5
 74
0
 42
0.0000001
 43
0.0000001
 44
0.0000000001
 40
0.0
 40
0.0
 40
0.0
 40
0.0
 40
0.2619701782
 40
1.0
 40
1.0
 40
1.0
 40
1.0
 10
140.2319357671
 20
592.3963320982
 30
0.0
 10
140.1950246958
 20
592.3728750462
 30
0.0
 10
140.0564116912
 20
592.2798617362
 30
0.0
 10
139.9272363514
 20
592.1722343564
 30
0.0
 10
139.8410194521
 20
592.0842172924
 30
0.0
  0
SPLINE
  5
7F7
100
AcDbEntity
  8
0
100
AcDbSpline
 62
7
  6
CONTINUOUS
 70
0
 71
3
 72
8
 73
4
 74
0
 42
0.0000001
 43
0.0000001
 44
0.0000000001
 40
0.0
 40
0.0
 40
0.0
 40
0.0
 40
1.0
 40
1.0
 40
1.0
 40
1.0
 10
380.3241032775
 20
454.3077499728
 30
0.0
 10
380.1085816895
 20
454.308895507
 30
0.0
 10
379.8924045391
 20
454.2911680317
 30
0.0
 10
379.6794450389
 20
454.2580150767
 30
0.0
  0
SPLINE
  5
7F8
100
AcDbEntity
  8
0
100
AcDbSpline
 62
7
  6
CONTINUOUS
 70
0
 71
3
 72
9
 73
5
 74
0
 42
0.0000001
 43
0.0000001
 44
0.0000000001
 40
0.0
 40
0.0
 40
0.0
 40
0.0
 40
0.2771895279
 40
1.0
 40
1.0
 40
1.0
 40
1.0
 10
378.5688112188
 20
453.9454304532
 30
0.0
 10
378.4875735197
 20
453.9127692905
 30
0.0
 10
378.1969845347
 20
453.7886690937
 30
0.0
 10
377.9159932145
 20
453.6433307086
 30
0.0
 10
377.7159539559
 20
453.5332689202
 30
0.0
  0
SPLINE
  5
7F9
100
AcDbEntity
  8
0
100
AcDbSpline
 62
7
  6
CONTINUOUS
 70
0
 71
3
 72
9
 73
5
 74
0
 42
0.0000001
 43
0.0000001
 44
0.0000000001
 40
0.0
 40
0.0
 40
0.0
 40
0.0
 40
0.2444476208
 40
1.0
 40
1.0
 40
1.0
 40
1.0
 10
139.4523400698
 20
590.8304092702
 30
0.0
 10
139.4523399683
 20
590.9382441642
 30
0.0
 10
139.4859037225
 20
591.3794261861
 30
0.0
 10
139.6603018913
 20
591.8042767076
 30
0.0
 10
139.8410888242
 20
592.0842881168
 30
0.0
  0
SPLINE
  5
7FA
100
AcDbEntity
  8
0
100
AcDbSpline
 62
7
  6
CONTINUOUS
 70
0
 71
3
 72
9
 73
5
 74
0
 42
0.0000001
 43
0.0000001
 44
0.0000000001
 40
0.0
 40
0.0
 40
0.0
 40
0.0
 40
0.1999426953
 40
1.0
 40
1.0
 40
1.0
 40
1.0
 10
139.4523401125
 20
513.2487132439
 30
0.0
 10
139.4523397796
 20
513.2057706964
 30
0.0
 10
139.5028841488
 20
512.9895236137
 30
0.0
 10
139.7123034292
 20
512.8572548197
 30
0.0
 10
139.8679543115
 20
512.7844609629
 30
0.0
  0
SPLINE
  5
7FB
100
AcDbEntity
  8
0
100
AcDbSpline
 62
7
  6
CONTINUOUS
 70
0
 71
3
 72
8
 73
4
 74
0
 42
0.0000001
 43
0.0000001
 44
0.0000000001
 40
0.0
 40
0.0
 40
0.0
 40
0.0
 40
1.0
 40
1.0
 40
1.0
 40
1.0
 10
377.8654800304
 20
453.3166704782
 30
0.0
 10
377.7621022053
 20
453.3518487825
 30
0.0
 10
377.6609855015
 20
453.3957910651
 30
0.0
 10
377.5664155961
 20
453.4503897903
 30
0.0
  0
SPLINE
  5
7FC
100
AcDbEntity
  8
0
100
AcDbSpline
 62
7
  6
CONTINUOUS
 70
0
 71
3
 72
8
 73
4
 74
0
 42
0.0000001
 43
0.0000001
 44
0.0000000001
 40
0.0
 40
0.0
 40
0.0
 40
0.0
 40
1.0
 40
1.0
 40
1.0
 40
1.0
 10
377.1037954878
 20
375.8193894451
 30
0.0
 10
377.409087433
 20
375.6234031024
 30
0.0
 10
377.7392067732
 20
375.4631210084
 30
0.0
 10
378.079225898
 20
375.3366266882
 30
0.0
  0
SPLINE
  5
7FD
100
AcDbEntity
  8
0
100
AcDbSpline
 62
7
  6
CONTINUOUS
 70
0
 71
3
 72
8
 73
4
 74
0
 42
0.0000001
 43
0.0000001
 44
0.0000000001
 40
0.0
 40
0.0
 40
0.0
 40
0.0
 40
1.0
 40
1.0
 40
1.0
 40
1.0
 10
379.6877359396
 20
454.2668973064
 30
0.0
 10
379.586123023
 20
454.2082314118
 30
0.0
 10
379.4769571323
 20
454.1618444169
 30
0.0
 10
379.3654200046
 20
454.1254254498
 30
0.0
  0
SPLINE
  5
7FE
100
AcDbEntity
  8
0
100
AcDbSpline
 62
7
  6
CONTINUOUS
 70
0
 71
3
 72
9
 73
5
 74
0
 42
0.0000001
 43
0.0000001
 44
0.0000000001
 40
0.0
 40
0.0
 40
0.0
 40
0.0
 40
0.2601173142
 40
1.0
 40
1.0
 40
1.0
 40
1.0
 10
377.1038887089
 20
375.8193577252
 30
0.0
 10
377.050061226
 20
375.8376741021
 30
0.0
 10
376.8447151022
 20
375.9125739405
 30
0.0
 10
376.6458223785
 20
376.0059330345
 30
0.0
 10
376.5057598403
 20
376.0867963493
 30
0.0
  0
SPLINE
  5
7FF
100
AcDbEntity
  8
0
100
AcDbSpline
 62
7
  6
CONTINUOUS
 70
0
 71
3
 72
9
 73
5
 74
0
 42
0.0000001
 43
0.0000001
 44
0.0000000001
 40
0.0
 40
0.0
 40
0.0
 40
0.0
 40
0.2632944674
 40
1.0
 40
1.0
 40
1.0
 40
1.0
 10
140.3311116412
 20
512.439208359
 30
0.0
 10
140.2871339386
 20
512.464598323
 30
0.0
 10
140.1227832562
 20
512.5654731061
 30
0.0
 10
139.9693870165
 20
512.6851059641
 30
0.0
 10
139.8678827536
 20
512.7845310587
 30
0.0
  0
SPLINE
  5
800
100
AcDbEntity
  8
0
100
AcDbSpline
 62
7
  6
CONTINUOUS
 70
0
 71
3
 72
9
 73
5
 74
0
 42
0.0000001
 43
0.0000001
 44
0.0000000001
 40
0.0
 40
0.0
 40
0.0
 40
0.0
 40
0.2129425905
 40
1.0
 40
1.0
 40
1.0
 40
1.0
 10
140.7553971509
 20
593.8444315362
 30
0.0
 10
140.6968075551
 20
593.7403881629
 30
0.0
 10
140.4451017849
 20
593.2387827287
 30
0.0
 10
140.2771780706
 20
592.6968328744
 30
0.0
 10
140.1872887028
 20
592.2647477196
 30
0.0
  0
SPLINE
  5
801
100
AcDbEntity
  8
0
100
AcDbSpline
 62
7
  6
CONTINUOUS
 70
0
 71
3
 72
9
 73
5
 74
0
 42
0.0000001
 43
0.0000001
 44
0.0000000001
 40
0.0
 40
0.0
 40
0.0
 40
0.0
 40
0.7532234589
 40
1.0
 40
1.0
 40
1.0
 40
1.0
 10
140.0574461907
 20
591.2565480583
 30
0.0
 10
140.0310976776
 20
590.7320096121
 30
0.0
 10
140.0816429455
 20
590.0241118467
 30
0.0
 10
140.2740273389
 20
589.3527769714
 30
0.0
 10
140.3310939291
 20
589.1904457951
 30
0.0
  0
SPLINE
  5
802
100
AcDbEntity
  8
0
100
AcDbSpline
 62
7
  6
CONTINUOUS
 70
0
 71
3
 72
9
 73
5
 74
0
 42
0.0000001
 43
0.0000001
 44
0.0000000001
 40
0.0
 40
0.0
 40
0.0
 40
0.0
 40
0.5508354204
 40
1.0
 40
1.0
 40
1.0
 40
1.0
 10
392.3448999249
 20
460.023128826
 30
0.0
 10
392.3448999249
 20
460.3096554972
 30
0.0
 10
392.2754594207
 20
460.8420890972
 30
0.0
 10
391.925819069
 20
461.2795235035
 30
0.0
 10
391.7234790356
 20
461.3963418981
 30
0.0
  0
SPLINE
  5
803
100
AcDbEntity
  8
0
100
AcDbSpline
 62
7
  6
CONTINUOUS
 70
0
 71
3
 72
9
 73
5
 74
0
 42
0.0000001
 43
0.0000001
 44
0.0000000001
 40
0.0
 40
0.0
 40
0.0
 40
0.0
 40
0.6906901882
 40
1.0
 40
1.0
 40
1.0
 40
1.0
 10
140.2690976391
 20
512.3301421809
 30
0.0
 10
140.1791263462
 20
512.1647746346
 30
0.0
 10
140.0681013058
 20
511.9557859537
 30
0.0
 10
140.0309536804
 20
511.5980085687
 30
0.0
 10
140.1039664398
 20
511.5558558555
 30
0.0
  0
SPLINE
  5
804
100
AcDbEntity
  8
0
100
AcDbSpline
 62
7
  6
CONTINUOUS
 70
0
 71
3
 72
9
 73
5
 74
0
 42
0.0000001
 43
0.0000001
 44
0.0000000001
 40
0.0
 40
0.0
 40
0.0
 40
0.0
 40
0.5508332701
 40
1.0
 40
1.0
 40
1.0
 40
1.0
 10
150.6548135335
 20
599.5598712473
 30
0.0
 10
150.9029425723
 20
599.7031277595
 30
0.0
 10
151.3987449382
 20
599.9091971933
 30
0.0
 10
151.9523711555
 20
599.8251240075
 30
0.0
 10
152.1547041538
 20
599.7083095308
 30
0.0
  0
SPLINE
  5
805
100
AcDbEntity
  8
0
100
AcDbSpline
 62
7
  6
CONTINUOUS
 70
0
 71
3
 72
8
 73
4
 74
0
 42
0.0000001
 43
0.0000001
 44
0.0000000001
 40
0.0
 40
0.0
 40
0.0
 40
0.0
 40
1.0
 40
1.0
 40
1.0
 40
1.0
 10
391.4282009665
 20
446.8410282752
 30
0.0
 10
391.4713161986
 20
446.8161362768
 30
0.0
 10
391.502077486
 20
446.768276865
 30
0.0
 10
391.516631272
 20
446.7206667597
 30
0.0
  0
SPLINE
  5
806
100
AcDbEntity
  8
0
100
AcDbSpline
 62
7
  6
CONTINUOUS
 70
0
 71
3
 72
9
 73
5
 74
0
 42
0.0000001
 43
0.0000001
 44
0.0000000001
 40
0.0
 40
0.0
 40
0.0
 40
0.0
 40
0.2605170544
 40
1.0
 40
1.0
 40
1.0
 40
1.0
 10
139.8679376957
 20
589.5357044486
 30
0.0
 10
139.8016461938
 20
589.6345711211
 30
0.0
 10
139.571099299
 20
590.0290875495
 30
0.0
 10
139.4523403877
 20
590.4925277847
 30
0.0
 10
139.4523400698
 20
590.8304092702
 30
0.0
  0
SPLINE
  5
807
100
AcDbEntity
  8
0
100
AcDbSpline
 62
7
  6
CONTINUOUS
 70
0
 71
3
 72
9
 73
5
 74
0
 42
0.0000001
 43
0.0000001
 44
0.0000000001
 40
0.0
 40
0.0
 40
0.0
 40
0.0
 40
0.24580168
 40
1.0
 40
1.0
 40
1.0
 40
1.0
 10
377.9757044316
 20
374.2236507621
 30
0.0
 10
377.8451137663
 20
374.2990457117
 30
0.0
 10
377.3367638804
 20
374.6456182683
 30
0.0
 10
376.9447115529
 20
375.1494655785
 30
0.0
 10
376.7322255396
 20
375.5604663873
 30
0.0
  0
SPLINE
  5
808
100
AcDbEntity
  8
0
100
AcDbSpline
 62
7
  6
CONTINUOUS
 70
0
 71
3
 72
9
 73
5
 74
0
 42
0.0000001
 43
0.0000001
 44
0.0000000001
 40
0.0
 40
0.0
 40
0.0
 40
0.0
 40
0.4491668937
 40
1.0
 40
1.0
 40
1.0
 40
1.0
 10
391.7234790356
 20
461.3963418981
 30
0.0
 10
391.5211459015
 20
461.5131563095
 30
0.0
 10
390.9675197491
 20
461.5972295969
 30
0.0
 10
390.471717378
 20
461.3911600853
 30
0.0
 10
390.2235884133
 20
461.2479036158
 30
0.0
  0
SPLINE
  5
809
100
AcDbEntity
  8
0
100
AcDbSpline
 62
7
  6
CONTINUOUS
 70
0
 71
3
 72
9
 73
5
 74
0
 42
0.0000001
 43
0.0000001
 44
0.0000000001
 40
0.0
 40
0.0
 40
0.0
 40
0.0
 40
0.2371666597
 40
1.0
 40
1.0
 40
1.0
 40
1.0
 10
139.8678827537
 20
589.5357582688
 30
0.0
 10
139.900562849
 20
589.5037467799
 30
0.0
 10
140.043309704
 20
589.3738426424
 30
0.0
 10
140.2036835729
 20
589.2640045344
 30
0.0
 10
140.3311116412
 20
589.1904355692
 30
0.0
  0
SPLINE
  5
80A
100
AcDbEntity
  8
0
100
AcDbSpline
 62
7
  6
CONTINUOUS
 70
0
 71
3
 72
9
 73
5
 74
0
 42
0.0000001
 43
0.0000001
 44
0.0000000001
 40
0.0
 40
0.0
 40
0.0
 40
0.0
 40
0.2397596347
 40
1.0
 40
1.0
 40
1.0
 40
1.0
 10
376.5057598403
 20
452.8380235595
 30
0.0
 10
376.5511494326
 20
452.8118184589
 30
0.0
 10
376.7434911519
 20
452.7077929376
 30
0.0
 10
376.9465608263
 20
452.6241216883
 30
0.0
 10
377.103888709
 20
452.5705849353
 30
0.0
  0
SPLINE
  5
80B
100
AcDbEntity
  8
0
100
AcDbSpline
 62
7
  6
CONTINUOUS
 70
0
 71
3
 72
9
 73
5
 74
0
 42
0.0000001
 43
0.0000001
 44
0.0000000001
 40
0.0
 40
0.0
 40
0.0
 40
0.0
 40
0.2199125997
 40
1.0
 40
1.0
 40
1.0
 40
1.0
 10
376.5057971877
 20
452.8380019974
 30
0.0
 10
376.5476929196
 20
452.9088023809
 30
0.0
 10
376.7488925561
 20
453.2243746685
 30
0.0
 10
376.9874811784
 20
453.5154444085
 30
0.0
 10
377.1873910318
 20
453.7280415303
 30
0.0
  0
SPLINE
  5
80C
100
AcDbEntity
  8
0
100
AcDbSpline
 62
7
  6
CONTINUOUS
 70
0
 71
3
 72
9
 73
5
 74
0
 42
0.0000001
 43
0.0000001
 44
0.0000000001
 40
0.0
 40
0.0
 40
0.0
 40
0.0
 40
0.2420688389
 40
1.0
 40
1.0
 40
1.0
 40
1.0
 10
377.5898092615
 20
454.1198797133
 30
0.0
 10
377.7124778588
 20
454.2293742652
 30
0.0
 10
378.2358186971
 20
454.6624014065
 30
0.0
 10
378.8269920381
 20
455.0165295369
 30
0.0
 10
379.3007360085
 20
455.2180753932
 30
0.0
  0
SPLINE
  5
80D
100
AcDbEntity
  8
0
100
AcDbSpline
 62
7
  6
CONTINUOUS
 70
0
 71
3
 72
8
 73
4
 74
0
 42
0.0000001
 43
0.0000001
 44
0.0000000001
 40
0.0
 40
0.0
 40
0.0
 40
0.0
 40
1.0
 40
1.0
 40
1.0
 40
1.0
 10
379.3007360085
 20
455.2180753932
 30
0.0
 10
379.6291181054
 20
455.3577796534
 30
0.0
 10
379.9733783178
 20
455.4666589824
 30
0.0
 10
380.3241169815
 20
455.5324956867
 30
0.0
  0
SPLINE
  5
80E
100
AcDbEntity
  8
0
100
AcDbSpline
 62
7
  6
CONTINUOUS
 70
0
 71
3
 72
9
 73
5
 74
0
 42
0.0000001
 43
0.0000001
 44
0.0000000001
 40
0.0
 40
0.0
 40
0.0
 40
0.0
 40
0.2655308741
 40
1.0
 40
1.0
 40
1.0
 40
1.0
 10
378.6460153063
 20
452.7508639587
 30
0.0
 10
378.5128558465
 20
452.7157574298
 30
0.0
 10
378.0068972586
 20
452.6017990926
 30
0.0
 10
377.4843939011
 20
452.5559335272
 30
0.0
 10
377.1037672971
 20
452.5706262481
 30
0.0
  0
SPLINE
  5
80F
100
AcDbEntity
  8
0
100
AcDbSpline
 62
7
  6
CONTINUOUS
 70
0
 71
3
 72
9
 73
5
 74
0
 42
0.0000001
 43
0.0000001
 44
0.0000000001
 40
0.0
 40
0.0
 40
0.0
 40
0.0
 40
0.2606840215
 40
1.0
 40
1.0
 40
1.0
 40
1.0
 10
380.1037686573
 20
453.3715924615
 30
0.0
 10
380.1619776344
 20
453.3905979572
 30
0.0
 10
380.3835217598
 20
453.4686188804
 30
0.0
 10
380.5980055664
 20
453.5677061217
 30
0.0
 10
380.7484005274
 20
453.6545361746
 30
0.0
  0
ELLIPSE
  5
810
100
AcDbEntity
  8
0
100
AcDbEllipse
 62
7
  6
CONTINUOUS
 10
295.0190000697
 20
722.9448574816
 30
0.0
 11
1.999928985
 21
-0.029715349
 31
0.0
 40
0.5671792875
 41
-2.3477632618
 42
-0.9514998602
  0
ELLIPSE
  5
811
100
AcDbEntity
  8
0
100
AcDbEllipse
 62
7
  6
CONTINUOUS
 10
295.0190000697
 20
715.7596362108
 30
0.0
 11
1.999928985
 21
-0.029715349
 31
0.0
 40
0.5671792875
 41
-2.3477632618
 42
-0.9514998602
  0
ELLIPSE
  5
812
100
AcDbEntity
  8
0
100
AcDbEllipse
 62
7
  6
CONTINUOUS
 10
319.7678404498
 20
708.6564310734
 30
0.0
 11
1.999928985
 21
-0.029715349
 31
0.0
 40
0.5671792875
 41
-2.3477632618
 42
-0.9514998602
  0
ELLIPSE
  5
813
100
AcDbEntity
  8
0
100
AcDbEllipse
 62
7
  6
CONTINUOUS
 10
319.7678404498
 20
701.4712098026
 30
0.0
 11
1.999928985
 21
-0.029715349
 31
0.0
 40
0.5671792875
 41
-2.3477632618
 42
-0.9514998602
  0
ELLIPSE
  5
814
100
AcDbEntity
  8
0
100
AcDbEllipse
 62
7
  6
CONTINUOUS
 10
295.0190000697
 20
572.7084127297
 30
0.0
 11
1.999928985
 21
-0.029715349
 31
0.0
 40
0.5671792875
 41
-2.3477632618
 42
-0.9514998602
  0
ELLIPSE
  5
815
100
AcDbEntity
  8
0
100
AcDbEllipse
 62
7
  6
CONTINUOUS
 10
295.0190000697
 20
565.523191459
 30
0.0
 11
1.999928985
 21
-0.029715349
 31
0.0
 40
0.5671792875
 41
-2.3477632618
 42
-0.9514998602
  0
ELLIPSE
  5
816
100
AcDbEntity
  8
0
100
AcDbEllipse
 62
7
  6
CONTINUOUS
 10
319.7678404498
 20
551.2347650508
 30
0.0
 11
1.999928985
 21
-0.029715349
 31
0.0
 40
0.5671792875
 41
-2.3477632618
 42
-2.2534266949
  0
ELLIPSE
  5
817
100
AcDbEntity
  8
0
100
AcDbEllipse
 62
7
  6
CONTINUOUS
 10
319.7678404498
 20
558.4199863215
 30
0.0
 11
1.999928985
 21
-0.029715349
 31
0.0
 40
0.5671792875
 41
-2.3477632618
 42
-2.2534266949
  0
ELLIPSE
  5
818
100
AcDbEntity
  8
0
100
AcDbEllipse
 62
7
  6
CONTINUOUS
 10
319.7678404498
 20
702.2885387323
 30
0.0
 11
1.9999183438
 21
0.0307707985
 31
0.0
 40
0.587328747
 41
-2.365226737
 42
-0.9689633355
  0
ELLIPSE
  5
819
100
AcDbEntity
  8
0
100
AcDbEllipse
 62
7
  6
CONTINUOUS
 10
295.0190000697
 20
723.7621864113
 30
0.0
 11
1.9999183438
 21
0.0307707985
 31
0.0
 40
0.587328747
 41
-2.365226737
 42
-0.9689633355
  0
ELLIPSE
  5
81A
100
AcDbEntity
  8
0
100
AcDbEllipse
 62
7
  6
CONTINUOUS
 10
295.0190000697
 20
716.5769651406
 30
0.0
 11
1.9999183438
 21
0.0307707985
 31
0.0
 40
0.587328747
 41
-2.365226737
 42
-0.9689633355
  0
ELLIPSE
  5
81B
100
AcDbEntity
  8
0
100
AcDbEllipse
 62
7
  6
CONTINUOUS
 10
295.0190000697
 20
573.5257416595
 30
0.0
 11
1.9999183438
 21
0.0307707985
 31
0.0
 40
0.587328747
 41
-2.365226737
 42
-0.9689633355
  0
ELLIPSE
  5
81C
100
AcDbEntity
  8
0
100
AcDbEllipse
 62
7
  6
CONTINUOUS
 10
295.0190000697
 20
566.3405203887
 30
0.0
 11
1.9999183438
 21
0.0307707985
 31
0.0
 40
0.587328747
 41
-2.365226737
 42
-0.9689633355
  0
ELLIPSE
  5
81D
100
AcDbEntity
  8
0
100
AcDbEllipse
 62
7
  6
CONTINUOUS
 10
319.7678404498
 20
552.0520939805
 30
0.0
 11
1.9999183438
 21
0.0307707985
 31
0.0
 40
0.587328747
 41
-2.365226737
 42
-2.2708900142
  0
ELLIPSE
  5
81E
100
AcDbEntity
  8
0
100
AcDbEllipse
 62
7
  6
CONTINUOUS
 10
319.7678404498
 20
709.4737600031
 30
0.0
 11
1.9999183438
 21
0.0307707985
 31
0.0
 40
0.587328747
 41
-2.365226737
 42
-0.9689633355
  0
ELLIPSE
  5
81F
100
AcDbEntity
  8
0
100
AcDbEllipse
 62
7
  6
CONTINUOUS
 10
319.7678404498
 20
559.2373152512
 30
0.0
 11
1.9999183438
 21
0.0307707985
 31
0.0
 40
0.587328747
 41
-2.365226737
 42
-2.2708900142
  0
ELLIPSE
  5
820
100
AcDbEntity
  8
0
100
AcDbEllipse
 62
7
  6
CONTINUOUS
 10
129.8411639819
 20
599.0028678318
 30
0.0
 11
1.9999183438
 21
0.0307707985
 31
0.0
 40
0.587328747
 41
-0.619897485
 42
-0.0090364921
  0
ELLIPSE
  5
821
100
AcDbEntity
  8
0
100
AcDbEllipse
 62
7
  6
CONTINUOUS
 10
105.0923236017
 20
613.29129424
 30
0.0
 11
1.9999183438
 21
0.0307707985
 31
0.0
 40
0.587328747
 41
-0.619897485
 42
-0.0090364921
  0
ELLIPSE
  5
822
100
AcDbEntity
  8
0
100
AcDbEllipse
 62
7
  6
CONTINUOUS
 10
105.0923236017
 20
614.1086231697
 30
0.0
 11
1.999928985
 21
-0.029715349
 31
0.0
 40
0.5671792875
 41
-0.6024340098
 42
0.7938293918
  0
ELLIPSE
  5
823
100
AcDbEntity
  8
0
100
AcDbEllipse
 62
7
  6
CONTINUOUS
 10
129.8411639819
 20
599.8201967615
 30
0.0
 11
1.999928985
 21
-0.029715349
 31
0.0
 40
0.5671792875
 41
-0.6024340098
 42
0.7938293918
  0
ELLIPSE
  5
824
100
AcDbEntity
  8
0
100
AcDbEllipse
 62
7
  6
CONTINUOUS
 10
609.7336222996
 20
383.8267301198
 30
0.0
 11
1.999928985
 21
-0.029715349
 31
0.0
 40
0.5671792875
 41
-3.1331656705
 42
-2.3477632618
  0
ELLIPSE
  5
825
100
AcDbEntity
  8
0
100
AcDbEllipse
 62
7
  6
CONTINUOUS
 10
609.7336222996
 20
391.0119513906
 30
0.0
 11
1.999928985
 21
-0.029715349
 31
0.0
 40
0.5671792875
 41
-3.1331656705
 42
-2.3477632618
  0
ELLIPSE
  5
826
100
AcDbEntity
  8
0
100
AcDbEllipse
 62
7
  6
CONTINUOUS
 10
584.9847819195
 20
398.115156528
 30
0.0
 11
1.999928985
 21
-0.029715349
 31
0.0
 40
0.5671792875
 41
-3.1331656705
 42
-2.3477632618
  0
ELLIPSE
  5
827
100
AcDbEntity
  8
0
100
AcDbEllipse
 62
7
  6
CONTINUOUS
 10
584.9847819195
 20
405.3003777988
 30
0.0
 11
1.999928985
 21
-0.029715349
 31
0.0
 40
0.5671792875
 41
-3.1331656705
 42
-2.3477632618
  0
ELLIPSE
  5
828
100
AcDbEntity
  8
0
100
AcDbEllipse
 62
7
  6
CONTINUOUS
 10
609.7336222996
 20
534.0631748717
 30
0.0
 11
1.999928985
 21
-0.029715349
 31
0.0
 40
0.5671792875
 41
-3.1331656705
 42
-2.3477632618
  0
ELLIPSE
  5
829
100
AcDbEntity
  8
0
100
AcDbEllipse
 62
7
  6
CONTINUOUS
 10
609.7336222996
 20
541.2483961424
 30
0.0
 11
1.999928985
 21
-0.029715349
 31
0.0
 40
0.5671792875
 41
-3.1331656705
 42
-2.3477632618
  0
ELLIPSE
  5
82A
100
AcDbEntity
  8
0
100
AcDbEllipse
 62
7
  6
CONTINUOUS
 10
584.9847819195
 20
548.3516012799
 30
0.0
 11
1.999928985
 21
-0.029715349
 31
0.0
 40
0.5671792875
 41
-3.1331656705
 42
-2.3477632618
  0
ELLIPSE
  5
82B
100
AcDbEntity
  8
0
100
AcDbEllipse
 62
7
  6
CONTINUOUS
 10
584.9847819195
 20
555.5368225506
 30
0.0
 11
1.999928985
 21
-0.029715349
 31
0.0
 40
0.5671792875
 41
-3.1331656705
 42
-2.3477632618
  0
ELLIPSE
  5
82C
100
AcDbEntity
  8
0
100
AcDbEllipse
 62
7
  6
CONTINUOUS
 10
609.7336222996
 20
534.8805038014
 30
0.0
 11
1.9999183438
 21
0.0307707985
 31
0.0
 40
0.587328747
 41
8.8048804757
 42
10.2011438773
  0
ELLIPSE
  5
82D
100
AcDbEntity
  8
0
100
AcDbEllipse
 62
7
  6
CONTINUOUS
 10
584.9847819195
 20
398.9324854578
 30
0.0
 11
1.9999183438
 21
0.0307707985
 31
0.0
 40
0.587328747
 41
8.8048804757
 42
10.2011438773
  0
ELLIPSE
  5
82E
100
AcDbEntity
  8
0
100
AcDbEllipse
 62
7
  6
CONTINUOUS
 10
609.7336222996
 20
384.6440590495
 30
0.0
 11
1.9999183438
 21
0.0307707985
 31
0.0
 40
0.587328747
 41
8.8048804757
 42
10.2011438773
  0
ELLIPSE
  5
82F
100
AcDbEntity
  8
0
100
AcDbEllipse
 62
7
  6
CONTINUOUS
 10
609.7336222996
 20
542.0657250721
 30
0.0
 11
1.9999183438
 21
0.0307707985
 31
0.0
 40
0.587328747
 41
8.8048804757
 42
10.2011438773
  0
ELLIPSE
  5
830
100
AcDbEntity
  8
0
100
AcDbEllipse
 62
7
  6
CONTINUOUS
 10
584.9847819195
 20
556.3541514803
 30
0.0
 11
1.9999183438
 21
0.0307707985
 31
0.0
 40
0.587328747
 41
8.8048804757
 42
10.2011438773
  0
ELLIPSE
  5
831
100
AcDbEntity
  8
0
100
AcDbEllipse
 62
7
  6
CONTINUOUS
 10
584.9847819195
 20
549.1689302096
 30
0.0
 11
1.9999183438
 21
0.0307707985
 31
0.0
 40
0.587328747
 41
8.8048804757
 42
10.2011438773
  0
ELLIPSE
  5
832
100
AcDbEntity
  8
0
100
AcDbEllipse
 62
7
  6
CONTINUOUS
 10
609.7336222996
 20
391.8292803203
 30
0.0
 11
1.9999183438
 21
0.0307707985
 31
0.0
 40
0.587328747
 41
8.8048804757
 42
10.2011438773
  0
ELLIPSE
  5
833
100
AcDbEntity
  8
0
100
AcDbEllipse
 62
7
  6
CONTINUOUS
 10
584.9847819195
 20
406.1177067285
 30
0.0
 11
1.9999183438
 21
0.0307707985
 31
0.0
 40
0.587328747
 41
8.8048804757
 42
10.2011438773
  0
ELLIPSE
  5
834
100
AcDbEntity
  8
0
100
AcDbEllipse
 62
7
  6
CONTINUOUS
 10
419.8069458316
 20
432.4121618306
 30
0.0
 11
1.999928985
 21
-0.029715349
 31
0.0
 40
0.5671792875
 41
0.7938293918
 42
2.1900927933
  0
ELLIPSE
  5
835
100
AcDbEntity
  8
0
100
AcDbEllipse
 62
7
  6
CONTINUOUS
 10
395.0581054515
 20
446.7005882388
 30
0.0
 11
1.999928985
 21
-0.029715349
 31
0.0
 40
0.5671792875
 41
0.7938293918
 42
2.1900927933
  0
ENDSEC
  0
SECTION
  2
OBJECTS
  0
DICTIONARY
  5
C
100
AcDbDictionary
280
0
281
1
  3
ACAD_GROUP
350
D
  3
ACAD_MLINESTYLE
350
17
  3
ACAD_LAYOUT
350
1A
  3
ACAD_PLOTSETTINGS
350
19
  3
ACAD_PLOTSTYLENAME
350
E
  0
DICTIONARY
  5
D
102
{ACAD_REACTORS
330
C
102
}
100
AcDbDictionary
280
0
281
1
  0
ACDBDICTIONARYWDFLT
  5
E
102
{ACAD_REACTORS
330
C
102
}
100
AcDbDictionary
281
1
  3
Normal
350
F
100
AcDbDictionaryWithDefault
340
F
  0
DICTIONARY
  5
17
102
{ACAD_REACTORS
330
C
102
}
100
AcDbDictionary
280
0
281
1
  3
Standard
350
18
  0
DICTIONARY
  5
19
102
{ACAD_REACTORS
330
C
102
}
100
AcDbDictionary
281
1
  0
DICTIONARY
  5
1A
102
{ACAD_REACTORS
330
C
102
}
100
AcDbDictionary
281
1
  3
Model
350
836
  3
Layout1
350
837
  0
ACDBPLACEHOLDER
  5
F
102
{ACAD_REACTORS
330
E
102
}
  0
MLINESTYLE
  5
18
102
{ACAD_REACTORS
330
17
102
}
100
AcDbMlineStyle
  2
STANDARD
 70
0
  3

 62
256
 51
90.0
 52
90.0
 71
2
 49
0.5
 62
256
  6
BYLAYER
 49
-0.5
 62
256
  6
BYLAYER
  0
LAYOUT
  5
836
102
{ACAD_REACTORS
330
1A
102
}
100
AcDbPlotSettings
  1

  2
none_device
  4

  6

 40
0.0
 41
0.0
 42
0.0
 43
0.0
 44
210.0
 45
297.0
 46
0.0
 47
0.0
 48
0.0
 49
0.0
140
0.0
141
0.0
142
1.0
143
1.0
 70
1024
 72
1
 73
0
 74
0
  7

 75
0
147
1.0
148
0.0
149
0.0
100
AcDbLayout
  1
Model
 70
0
 71
0
 10
0.0
 20
0.0
 11
210.0
 21
297.0
 12
0.0
 22
0.0
 32
0.0
 14
0.0
 24
0.0
 34
0.0
 15
0.0
 25
0.0
 35
0.0
146
0.0
 13
0.0
 23
0.0
 33
0.0
 16
1.0
 26
0.0
 36
0.0
 17
0.0
 27
1.0
 37
0.0
 76
0
330
210
345
0
346
0
  0
LAYOUT
  5
837
102
{ACAD_REACTORS
330
1A
102
}
100
AcDbPlotSettings
  1

  2
none_device
  4

  6

 40
0.0
 41
0.0
 42
0.0
 43
0.0
 44
210.0
 45
297.0
 46
0.0
 47
0.0
 48
0.0
 49
0.0
140
0.0
141
0.0
142
1.0
143
1.0
 70
0
 72
1
 73
0
 74
0
  7

 75
0
147
1.0
148
0.0
149
0.0
100
AcDbLayout
  1
Layout1
 70
0
 71
1
 10
0.0
 20
0.0
 11
210.0
 21
297.0
 12
0.0
 22
0.0
 32
0.0
 14
0.0
 24
0.0
 34
0.0
 15
0.0
 25
0.0
 35
0.0
146
0.0
 13
0.0
 23
0.0
 33
0.0
 16
1.0
 26
0.0
 36
0.0
 17
0.0
 27
1.0
 37
0.0
 76
0
330
211
345
0
346
0
  0
ENDSEC
  0
EOF
