999
DXF file: C:\Users\sesa63760\Dev\_Creo\CAD\MCADID0003537_3D-CAD\drw0001_6.dxf
999
Pro/ENGINEER 2019471 by Parametric Technology Corporation
  0
SECTION
  2
HEADER
  9
$ACADVER
  1
AC1024
  9
$DWGCODEPAGE
  3
ANSI_1252
  9
$EXTMAX
 10
78.2544538142
 20
110.6741561086
 30
0.0
  9
$EXTMIN
 10
0.0
 20
0.0
 30
0.0
  9
$LIMMIN
 10
0.0
 20
0.0
  9
$LIMMAX
 10
78.2544538142
 20
110.6741561086
  9
$VIEWCTR
 10
39.1272269071
 20
55.3370780543
  9
$VIEWSIZE
 40
110.6741561086
  9
$CLAYER
  8
0
  9
$LTSCALE
 40
7.2143153612
  9
$CELTYPE
  6
BYLAYER
  9
$DIMSCALE
 40
1.0
  9
$DIMASZ
 40
0.9316006406
  9
$DIMEXO
 40
1.0
  9
$DIMDLI
 40
4.9844360677
  9
$DIMEXE
 40
1.0
  9
$DIMCEN
 40
1.1805243318
  9
$DIMLFAC
 40
1.0
  9
$DIMBLK
  1
_FILLED
  9
$DIMALT
 70
0
  9
$DIMALTF
 40
0.0393700787
  9
$DIMTXT
 40
1.3042408969
  9
$DIMTOL
 70
1
  9
$DIMLIM
 70
0
  9
$DIMTFAC
 40
1.0
  9
$DIMTP
 40
0.01
  9
$DIMTM
 40
0.01
  9
$DIMGAP
 40
0.625
  9
$DIMDSEP
 70
46
  9
$AUNITS
 70
0
  9
$PDMODE
 70
3
  9
$PDSIZE
 40
0.3125
  9
$HANDSEED
  5
25A
  9
$TILEMODE
 70
1
  9
$MEASUREMENT
 70
1
  9
$INSUNITS
 70
4
  0
ENDSEC
  0
SECTION
  2
CLASSES
  0
CLASS
  1
ACDBDICTIONARYWDFLT
  2
AcDbDictionaryWithDefault
  3
AutoCAD 2000
 90
0
 91
1
280
0
281
0
  0
CLASS
  1
ACDBPLACEHOLDER
  2
AcDbPlaceHolder
  3
AutoCAD 2000
 90
0
 91
1
280
0
281
0
  0
CLASS
  1
LAYOUT
  2
AcDbLayout
  3
AutoCAD 2000
 90
0
 91
0
280
0
281
0
  0
ENDSEC
  0
SECTION
  2
TABLES
  0
TABLE
  2
VPORT
  5
8
100
AcDbSymbolTable
 70
2
  0
VPORT
  5
1F4
100
AcDbSymbolTableRecord
100
AcDbViewportTableRecord
  2
*ACTIVE
 70
0
 10
0.0
 20
0.0
 11
1.0
 21
1.0
 12
39.1272269071
 22
55.3370780543
 13
0.0
 23
0.0
 14
1.0
 24
1.0
 15
0.0
 25
0.0
 16
0.0
 26
0.0
 36
1.0
 17
0.0
 27
0.0
 37
0.0
 40
110.6741561086
 41
0.7070707071
 42
50.0
 43
0.0
 44
0.0
 50
0.0
 51
0.0
 71
0
 72
100
 73
1
 74
1
 75
0
 76
0
 77
0
 78
0
  0
ENDTAB
  0
TABLE
  2
LTYPE
  5
5
100
AcDbSymbolTable
 70
6
  0
LTYPE
  5
14
100
AcDbSymbolTableRecord
100
AcDbLinetypeTableRecord
  2
BYBLOCK
 70
0
  3

 72
65
 73
0
 40
0.0
  0
LTYPE
  5
15
100
AcDbSymbolTableRecord
100
AcDbLinetypeTableRecord
  2
BYLAYER
 70
0
  3

 72
65
 73
0
 40
0.0
  0
LTYPE
  5
16
100
AcDbSymbolTableRecord
100
AcDbLinetypeTableRecord
  2
CONTINUOUS
 70
64
  3
Solid line
 72
65
 73
0
 40
0.0
  0
LTYPE
  5
1F5
100
AcDbSymbolTableRecord
100
AcDbLinetypeTableRecord
  2
CENTER
 70
64
  3
____ _ ____ _ ____ _ ____ _ ____ _ ____ _ ____
 72
65
 73
4
 40
0.6
 49
0.375
 74
0
 49
-0.075
 74
0
 49
0.075
 74
0
 49
-0.075
 74
0
  0
LTYPE
  5
1F6
100
AcDbSymbolTableRecord
100
AcDbLinetypeTableRecord
  2
HIDDEN
 70
64
  3
- - - - - - - - - - - - - - - - - - - -
 72
65
 73
2
 40
0.2
 49
0.1
 74
0
 49
-0.1
 74
0
  0
LTYPE
  5
1F7
100
AcDbSymbolTableRecord
100
AcDbLinetypeTableRecord
  2
PHANTOM
 70
64
  3
_____ _ _ _____ _ _ _____ _ _ _____
 72
65
 73
6
 40
0.8
 49
0.45
 74
0
 49
-0.05
 74
0
 49
0.1
 74
0
 49
-0.05
 74
0
 49
0.1
 74
0
 49
-0.05
 74
0
  0
LTYPE
  5
1F8
100
AcDbSymbolTableRecord
100
AcDbLinetypeTableRecord
  2
DOT
 70
64
  3
. . . . . . . . . . . . . . . . . . . .
 72
65
 73
2
 40
0.2
 49
0.1
 74
0
 49
-0.1
 74
0
  0
LTYPE
  5
1F9
100
AcDbSymbolTableRecord
100
AcDbLinetypeTableRecord
  2
DASHED
 70
64
  3
- - - - - - - - - - - - - - - - - - - -
 72
65
 73
2
 40
0.2
 49
0.1
 74
0
 49
-0.1
 74
0
  0
ENDTAB
  0
TABLE
  2
LAYER
  5
2
100
AcDbSymbolTable
 70
36
  0
LAYER
  5
10
100
AcDbSymbolTableRecord
100
AcDbLayerTableRecord
  2
0
 70
0
 62
7
  6
CONTINUOUS
370
-3
390
F
  0
LAYER
  5
1FA
100
AcDbSymbolTableRecord
100
AcDbLayerTableRecord
  2
DEFAULT_1
 70
0
 62
7
  6
CENTER
370
-3
390
F
  0
LAYER
  5
1FB
100
AcDbSymbolTableRecord
100
AcDbLayerTableRecord
  2
DEFAULT_2
 70
0
 62
7
  6
HIDDEN
370
-3
390
F
  0
LAYER
  5
1FC
100
AcDbSymbolTableRecord
100
AcDbLayerTableRecord
  2
DEFAULT_3
 70
0
 62
7
  6
PHANTOM
370
-3
390
F
  0
LAYER
  5
1FD
100
AcDbSymbolTableRecord
100
AcDbLayerTableRecord
  2
00_COMPONENTS
 70
0
 62
7
  6
CONTINUOUS
370
-3
390
F
  0
LAYER
  5
1FE
100
AcDbSymbolTableRecord
100
AcDbLayerTableRecord
  2
01_1_DEFAULT_DATUMS
 70
0
 62
7
  6
CONTINUOUS
370
-3
390
F
  0
LAYER
  5
1FF
100
AcDbSymbolTableRecord
100
AcDbLayerTableRecord
  2
01_PLANES
 70
0
 62
7
  6
CONTINUOUS
370
-3
390
F
  0
LAYER
  5
200
100
AcDbSymbolTableRecord
100
AcDbLayerTableRecord
  2
02_COORD_SYS
 70
0
 62
7
  6
CONTINUOUS
370
-3
390
F
  0
LAYER
  5
201
100
AcDbSymbolTableRecord
100
AcDbLayerTableRecord
  2
03_AXES
 70
0
 62
7
  6
CONTINUOUS
370
-3
390
F
  0
LAYER
  5
202
100
AcDbSymbolTableRecord
100
AcDbLayerTableRecord
  2
04_POINTS
 70
0
 62
7
  6
CONTINUOUS
370
-3
390
F
  0
LAYER
  5
203
100
AcDbSymbolTableRecord
100
AcDbLayerTableRecord
  2
05_CURVES
 70
0
 62
7
  6
CONTINUOUS
370
-3
390
F
  0
LAYER
  5
204
100
AcDbSymbolTableRecord
100
AcDbLayerTableRecord
  2
06_SURFS
 70
0
 62
7
  6
CONTINUOUS
370
-3
390
F
  0
LAYER
  5
205
100
AcDbSymbolTableRecord
100
AcDbLayerTableRecord
  2
07_COSMETICS
 70
0
 62
7
  6
CONTINUOUS
370
-3
390
F
  0
LAYER
  5
206
100
AcDbSymbolTableRecord
100
AcDbLayerTableRecord
  2
10_NOTES
 70
0
 62
7
  6
CONTINUOUS
370
-3
390
F
  0
LAYER
  5
207
100
AcDbSymbolTableRecord
100
AcDbLayerTableRecord
  2
11_NOTES_PUB
 70
0
 62
7
  6
CONTINUOUS
370
-3
390
F
  0
LAYER
  5
208
100
AcDbSymbolTableRecord
100
AcDbLayerTableRecord
  2
13_REF_GTOL
 70
0
 62
7
  6
CONTINUOUS
370
-3
390
F
  0
LAYER
  5
209
100
AcDbSymbolTableRecord
100
AcDbLayerTableRecord
  2
16_MISC
 70
0
 62
7
  6
CONTINUOUS
370
-3
390
F
  0
LAYER
  5
20A
100
AcDbSymbolTableRecord
100
AcDbLayerTableRecord
  2
17_NO_PRINT
 70
0
 62
7
  6
CONTINUOUS
370
-3
390
F
  0
LAYER
  5
20B
100
AcDbSymbolTableRecord
100
AcDbLayerTableRecord
  2
18_DATUM_CAMS_JOINTS
 70
0
 62
7
  6
CONTINUOUS
370
-3
390
F
  0
LAYER
  5
20C
100
AcDbSymbolTableRecord
100
AcDbLayerTableRecord
  2
19_DATUM_FUNCTIONAL
 70
0
 62
7
  6
CONTINUOUS
370
-3
390
F
  0
LAYER
  5
20D
100
AcDbSymbolTableRecord
100
AcDbLayerTableRecord
  2
20_DATUM_KINEMATIC_SCHEME
 70
0
 62
7
  6
CONTINUOUS
370
-3
390
F
  0
ENDTAB
  0
TABLE
  2
STYLE
  5
3
100
AcDbSymbolTable
 70
1
  0
STYLE
  5
11
100
AcDbSymbolTableRecord
100
AcDbTextStyleTableRecord
  2
STANDARD
 70
0
 40
0.0
 41
1.0
 50
0.0
 71
0
 42
0.2
  3
ARIAL.TTF
  4

  0
STYLE
  5
20E
100
AcDbSymbolTableRecord
100
AcDbTextStyleTableRecord
  2
TEXTSTYLE_1
 70
0
 40
0.0
 41
0.8
 50
0.0
 71
0
 42
0.2
  3
gdt
  4

  0
ENDTAB
  0
TABLE
  2
VIEW
  5
6
100
AcDbSymbolTable
 70
0
  0
ENDTAB
  0
TABLE
  2
UCS
  5
7
100
AcDbSymbolTable
 70
0
  0
ENDTAB
  0
TABLE
  2
APPID
  5
9
100
AcDbSymbolTable
 70
1
  0
APPID
  5
20F
100
AcDbSymbolTableRecord
100
AcDbRegAppTableRecord
  2
ACAD
 70
0
  0
ENDTAB
  0
TABLE
  2
BLOCK_RECORD
  5
1
100
AcDbSymbolTable
 70
0
  0
BLOCK_RECORD
  5
210
100
AcDbSymbolTableRecord
100
AcDbBlockTableRecord
  2
*Model_Space
  0
BLOCK_RECORD
  5
211
100
AcDbSymbolTableRecord
100
AcDbBlockTableRecord
  2
*Paper_Space
  0
BLOCK_RECORD
  5
212
100
AcDbSymbolTableRecord
100
AcDbBlockTableRecord
  2
_FILLED
  0
ENDTAB
  0
TABLE
  2
DIMSTYLE
  5
A
100
AcDbSymbolTable
 70
1
100
AcDbDimStyleTable
 71
0
  0
DIMSTYLE
105
213
100
AcDbSymbolTableRecord
100
AcDbDimStyleTableRecord
  2
STANDARD
 70
0
  3

  4

 40
1.0
 41
0.9316006406
 42
1.0
 43
0.38
 44
1.0
 45
0.0
 46
0.0
 47
0.01
 48
0.01
140
1.3042408969
141
0.09
142
0.0
143
25.4
144
1.0
145
0.0
146
1.0
147
0.625
 71
1
 72
0
 73
0
 74
0
 75
0
 76
0
 77
1
 78
8
 79
2
170
0
171
1
172
0
173
0
174
0
175
0
176
0
177
0
178
0
270
2
179
2
271
2
272
2
273
2
274
2
275
0
280
0
281
0
282
0
283
1
284
8
285
0
286
0
287
3
288
0
340
11
278
46
341
212
342
212
343
212
344
212
  0
ENDTAB
  0
ENDSEC
  0
SECTION
  2
BLOCKS
  0
BLOCK
  5
20
100
AcDbEntity
  8
0
100
AcDbBlockBegin
  2
*Model_Space
 70
0
 10
0.0
 20
0.0
 30
0.0
  3
*Model_Space
  1

  0
ENDBLK
  5
21
100
AcDbEntity
  8
0
100
AcDbBlockEnd
  0
BLOCK
  5
1C
100
AcDbEntity
  8
0
100
AcDbBlockBegin
  2
*Paper_Space
 70
0
 10
0.0
 20
0.0
 30
0.0
  3
*Paper_Space
  1

  0
ENDBLK
  5
1D
100
AcDbEntity
  8
0
100
AcDbBlockEnd
  0
BLOCK
  5
214
100
AcDbEntity
  8
0
100
AcDbBlockBegin
  2
_FILLED
 70
64
 10
0.0
 20
0.0
  3
_FILLED
  1

  0
SOLID
  5
215
100
AcDbEntity
  8
0
  6
BYBLOCK
 62
0
100
AcDbTrace
 10
0.0
 20
0.0
 11
-1.0
 21
0.25
 12
-1.0
 22
-0.25
 13
-1.0
 23
-0.25
  0
ENDBLK
  5
216
100
AcDbEntity
  8
0
  6
BYBLOCK
 62
0
100
AcDbBlockEnd
  0
ENDSEC
  0
SECTION
  2
ENTITIES
  0
LINE
  5
217
100
AcDbEntity
  8
0
100
AcDbLine
 62
7
  6
BYLAYER
 10
44.1723848741
 20
9.1438256271
 11
35.6367097737
 21
9.1438256271
  0
LINE
  5
218
100
AcDbEntity
  8
0
100
AcDbLine
 62
7
  6
BYLAYER
 10
45.9045473239
 20
10.1438256271
 11
33.9045473239
 21
10.1438256271
  0
LINE
  5
219
100
AcDbEntity
  8
0
100
AcDbLine
 62
7
  6
BYLAYER
 10
35.6365981315
 20
9.1438256271
 11
33.9045473239
 21
10.1438256271
  0
LINE
  5
21A
100
AcDbEntity
  8
0
100
AcDbLine
 62
7
  6
BYLAYER
 10
33.9045473239
 20
20.3430911117
 11
45.9045473239
 21
20.3430911117
  0
LINE
  5
21B
100
AcDbEntity
  8
0
100
AcDbLine
 62
7
  6
BYLAYER
 10
35.0045473239
 20
20.7434583694
 11
44.8045473239
 21
20.7434583694
  0
LINE
  5
21C
100
AcDbEntity
  8
0
100
AcDbLine
 62
7
  6
BYLAYER
 10
33.9045473239
 20
21.1438256271
 11
45.9045473239
 21
21.1438256271
  0
LINE
  5
21D
100
AcDbEntity
  8
0
100
AcDbLine
 62
7
  6
BYLAYER
 10
35.0045473239
 20
20.7434583694
 11
33.9045473239
 21
21.1438256271
  0
LINE
  5
21E
100
AcDbEntity
  8
0
100
AcDbLine
 62
7
  6
BYLAYER
 10
46.9045473239
 20
22.1438256271
 11
32.9045473239
 21
22.1438256271
  0
LINE
  5
21F
100
AcDbEntity
  8
0
100
AcDbLine
 62
7
  6
BYLAYER
 10
44.8045473239
 20
20.7434583694
 11
45.9045473239
 21
20.3430911117
  0
LINE
  5
220
100
AcDbEntity
  8
0
100
AcDbLine
 62
7
  6
BYLAYER
 10
33.9045473239
 20
21.1438256271
 11
32.9045473239
 21
22.1438256271
  0
LINE
  5
221
100
AcDbEntity
  8
0
100
AcDbLine
 62
7
  6
BYLAYER
 10
32.6545473239
 20
82.6438256271
 11
32.1545473239
 21
82.1438256271
  0
LINE
  5
222
100
AcDbEntity
  8
0
100
AcDbLine
 62
7
  6
BYLAYER
 10
47.9045473239
 20
31.1438256271
 11
31.9045473239
 21
31.1438256271
  0
LINE
  5
223
100
AcDbEntity
  8
0
100
AcDbLine
 62
7
  6
BYLAYER
 10
33.9045607732
 20
94.2438595014
 11
33.9069165843
 21
94.2533314425
  0
LINE
  5
224
100
AcDbEntity
  8
0
100
AcDbLine
 62
7
  6
BYLAYER
 10
47.9045473239
 20
45.1436991601
 11
31.9045473239
 21
45.1436991601
  0
LINE
  5
225
100
AcDbEntity
  8
0
100
AcDbLine
 62
7
  6
BYLAYER
 10
31.7045473239
 20
78.4253912103
 11
31.7045473239
 21
76.2587994151
  0
LINE
  5
226
100
AcDbEntity
  8
0
100
AcDbLine
 62
7
  6
BYLAYER
 10
31.9045473239
 20
31.1438256271
 11
31.9045473239
 21
81.1438219142
  0
LINE
  5
227
100
AcDbEntity
  8
0
100
AcDbLine
 62
7
  6
BYLAYER
 10
32.1545473239
 20
81.1438256271
 11
32.1545473239
 21
82.1438256271
  0
LINE
  5
228
100
AcDbEntity
  8
0
100
AcDbLine
 62
7
  6
BYLAYER
 10
32.9045473239
 20
22.1438256271
 11
32.9045473239
 21
31.1438256271
  0
LINE
  5
229
100
AcDbEntity
  8
0
100
AcDbLine
 62
7
  6
BYLAYER
 10
33.9045473239
 20
10.1438256271
 11
33.9045473239
 21
20.3430911117
  0
LINE
  5
22A
100
AcDbEntity
  8
0
100
AcDbLine
 62
7
  6
BYLAYER
 10
33.9045473239
 20
82.6438256271
 11
33.9045473239
 21
94.2438256271
  0
LINE
  5
22B
100
AcDbEntity
  8
0
100
AcDbLine
 62
7
  6
BYLAYER
 10
36.4045473239
 20
96.7438256271
 11
36.4045473239
 21
98.4438256271
  0
LINE
  5
22C
100
AcDbEntity
  8
0
100
AcDbLine
 62
7
  6
BYLAYER
 10
37.9045473239
 20
86.9438256271
 11
37.9045473239
 21
95.4899289687
  0
LINE
  5
22D
100
AcDbEntity
  8
0
100
AcDbLine
 62
7
  6
BYLAYER
 10
38.1045473239
 20
89.9438760142
 11
38.1045473239
 21
101.5437752399
  0
LINE
  5
22E
100
AcDbEntity
  8
0
100
AcDbLine
 62
7
  6
BYLAYER
 10
41.7045473239
 20
101.5437752399
 11
41.7045473239
 21
89.9438760142
  0
LINE
  5
22F
100
AcDbEntity
  8
0
100
AcDbLine
 62
7
  6
BYLAYER
 10
41.9045473239
 20
95.4899289687
 11
41.9045473239
 21
86.9438256271
  0
LINE
  5
230
100
AcDbEntity
  8
0
100
AcDbLine
 62
7
  6
BYLAYER
 10
43.4045473239
 20
96.7438256271
 11
43.4045473239
 21
98.4438256271
  0
LINE
  5
231
100
AcDbEntity
  8
0
100
AcDbLine
 62
7
  6
BYLAYER
 10
45.9045473239
 20
10.1438256271
 11
45.9045473239
 21
20.3430911117
  0
LINE
  5
232
100
AcDbEntity
  8
0
100
AcDbLine
 62
7
  6
BYLAYER
 10
45.9045473239
 20
82.6438256271
 11
45.9045473239
 21
94.2438256271
  0
LINE
  5
233
100
AcDbEntity
  8
0
100
AcDbLine
 62
7
  6
BYLAYER
 10
46.9045473239
 20
22.1438256271
 11
46.9045473239
 21
31.1438256271
  0
LINE
  5
234
100
AcDbEntity
  8
0
100
AcDbLine
 62
7
  6
BYLAYER
 10
47.6545473239
 20
81.1438256271
 11
47.6545473239
 21
82.1438256271
  0
LINE
  5
235
100
AcDbEntity
  8
0
100
AcDbLine
 62
7
  6
BYLAYER
 10
47.9045473239
 20
31.1438256271
 11
47.9045473239
 21
81.1438219142
  0
LINE
  5
236
100
AcDbEntity
  8
0
100
AcDbLine
 62
7
  6
BYLAYER
 10
45.902096843
 20
94.2536607408
 11
45.9045473239
 21
94.2439040414
  0
LINE
  5
237
100
AcDbEntity
  8
0
100
AcDbLine
 62
7
  6
BYLAYER
 10
31.9045473239
 20
76.2587994151
 11
31.7045473239
 21
76.2587994151
  0
LINE
  5
238
100
AcDbEntity
  8
0
100
AcDbLine
 62
7
  6
BYLAYER
 10
31.9045473239
 20
78.4253912103
 11
31.7045473239
 21
78.4253912103
  0
LINE
  5
239
100
AcDbEntity
  8
0
100
AcDbLine
 62
7
  6
BYLAYER
 10
31.9045473239
 20
79.1436991601
 11
47.9045473239
 21
79.1436991601
  0
LINE
  5
23A
100
AcDbEntity
  8
0
100
AcDbLine
 62
7
  6
BYLAYER
 10
47.1545473239
 20
82.6438256271
 11
47.6545473239
 21
82.1438256271
  0
LINE
  5
23B
100
AcDbEntity
  8
0
100
AcDbLine
 62
7
  6
BYLAYER
 10
45.9045473239
 20
21.1438256271
 11
46.9045473239
 21
22.1438256271
  0
LINE
  5
23C
100
AcDbEntity
  8
0
100
AcDbLine
 62
7
  6
BYLAYER
 10
47.9045473239
 20
81.1438256271
 11
47.6545473239
 21
81.1438256271
  0
LINE
  5
23D
100
AcDbEntity
  8
0
100
AcDbLine
 62
7
  6
BYLAYER
 10
32.1545473239
 20
81.1438256271
 11
31.9045473239
 21
81.1438256271
  0
LINE
  5
23E
100
AcDbEntity
  8
0
100
AcDbLine
 62
7
  6
BYLAYER
 10
32.1545473239
 20
82.1438256271
 11
47.6545473239
 21
82.1438256271
  0
LINE
  5
23F
100
AcDbEntity
  8
0
100
AcDbLine
 62
7
  6
BYLAYER
 10
32.6547360126
 20
82.6438256271
 11
47.1543586352
 21
82.6438256271
  0
LINE
  5
240
100
AcDbEntity
  8
0
100
AcDbLine
 62
7
  6
BYLAYER
 10
35.0045473239
 20
20.7434583694
 11
33.9045473239
 21
20.3430911117
  0
LINE
  5
241
100
AcDbEntity
  8
0
100
AcDbLine
 62
7
  6
BYLAYER
 10
37.9045473239
 20
86.9438256271
 11
41.9045473239
 21
86.9438256271
  0
LINE
  5
242
100
AcDbEntity
  8
0
100
AcDbLine
 62
7
  6
BYLAYER
 10
44.8045473239
 20
20.7434583694
 11
45.9045473239
 21
21.1438256271
  0
LINE
  5
243
100
AcDbEntity
  8
0
100
AcDbLine
 62
7
  6
BYLAYER
 10
41.7045473239
 20
89.9438256271
 11
38.1045473239
 21
89.9438256271
  0
LINE
  5
244
100
AcDbEntity
  8
0
100
AcDbLine
 62
7
  6
BYLAYER
 10
41.9045473239
 20
93.0438256271
 11
41.7045473239
 21
93.0438256271
  0
LINE
  5
245
100
AcDbEntity
  8
0
100
AcDbLine
 62
7
  6
BYLAYER
 10
38.1045473239
 20
93.0438256271
 11
37.9045473239
 21
93.0438256271
  0
LINE
  5
246
100
AcDbEntity
  8
0
100
AcDbLine
 62
7
  6
BYLAYER
 10
33.9612556376
 20
94.4899289687
 11
37.9045473239
 21
94.4899289687
  0
LINE
  5
247
100
AcDbEntity
  8
0
100
AcDbLine
 62
7
  6
BYLAYER
 10
41.9045473239
 20
94.4899289687
 11
45.8478511026
 21
94.4899289687
  0
LINE
  5
248
100
AcDbEntity
  8
0
100
AcDbLine
 62
7
  6
BYLAYER
 10
35.1280981834
 20
95.4899289687
 11
37.9045473239
 21
95.4899289687
  0
LINE
  5
249
100
AcDbEntity
  8
0
100
AcDbLine
 62
7
  6
BYLAYER
 10
41.9045473239
 20
95.4899289687
 11
44.6809963958
 21
95.4899289687
  0
LINE
  5
24A
100
AcDbEntity
  8
0
100
AcDbLine
 62
7
  6
BYLAYER
 10
44.1724965163
 20
9.1438256271
 11
45.9045473239
 21
10.1438256271
  0
LINE
  5
24B
100
AcDbEntity
  8
0
100
AcDbLine
 62
7
  6
BYLAYER
 10
36.404601702
 20
98.4438256271
 11
38.1045473239
 21
98.4438256271
  0
LINE
  5
24C
100
AcDbEntity
  8
0
100
AcDbLine
 62
7
  6
BYLAYER
 10
41.7045473239
 20
98.4438256271
 11
43.4044929459
 21
98.4438256271
  0
LINE
  5
24D
100
AcDbEntity
  8
0
100
AcDbLine
 62
7
  6
BYLAYER
 10
41.7045473239
 20
101.5438256271
 11
38.1045473239
 21
101.5438256271
  0
ARC
  5
24E
100
AcDbEntity
  8
0
100
AcDbCircle
 62
7
  6
BYLAYER
 10
46.637176998
 20
95.7445477293
 40
3.378527785
100
AcDbArc
 50
180.0122459879
 51
184.3737176563
  0
ARC
  5
24F
100
AcDbEntity
  8
0
100
AcDbCircle
 62
7
  6
BYLAYER
 10
33.1753709599
 20
95.7444235657
 40
3.3750744507
100
AcDbArc
 50
355.6232357157
 51
359.9898493033
  0
SPLINE
  5
250
100
AcDbEntity
  8
0
100
AcDbSpline
 62
7
  6
BYLAYER
 70
0
 71
3
 72
27
 73
23
 74
0
 42
0.0000001
 43
0.0000001
 44
0.0000000001
 40
0.0
 40
0.0
 40
0.0
 40
0.0
 40
0.0003146067
 40
0.0012528981
 40
0.0028145594
 40
0.0049992755
 40
0.0078062582
 40
0.011231831
 40
0.0199196913
 40
0.0310247843
 40
0.0445091203
 40
0.0603326118
 40
0.0784398431
 40
0.1212584457
 40
0.1724614016
 40
0.231459709
 40
0.2976307452
 40
0.3703211091
 40
0.4488626539
 40
0.620576077
 40
0.8066086758
 40
1.0
 40
1.0
 40
1.0
 40
1.0
 10
36.4045519186
 20
96.7438500383
 30
0.0
 10
36.4045579606
 20
96.7437438889
 30
0.0
 10
36.4047280303
 20
96.7433455736
 30
0.0
 10
36.4049344988
 20
96.7424216292
 30
0.0
 10
36.4053964191
 20
96.7409034865
 30
0.0
 10
36.4059875234
 20
96.7387706319
 30
0.0
 10
36.406769168
 20
96.7360349056
 30
0.0
 10
36.4081406025
 20
96.7311829241
 30
0.0
 10
36.410268996
 20
96.7236302103
 30
0.0
 10
36.413288701
 20
96.7127972147
 30
0.0
 10
36.4169184481
 20
96.6996307954
 30
0.0
 10
36.4211285326
 20
96.6841698185
 30
0.0
 10
36.4278421767
 20
96.6591162602
 30
0.0
 10
36.4373702033
 20
96.6224389862
 30
0.0
 10
36.4497929707
 20
96.572238814
 30
0.0
 10
36.4632944076
 20
96.514180693
 30
0.0
 10
36.4773791812
 20
96.4488109372
 30
0.0
 10
36.4915296741
 20
96.3767100371
 30
0.0
 10
36.5103286143
 20
96.2691953642
 30
0.0
 10
36.530655707
 20
96.1230946507
 30
0.0
 10
36.5466712339
 20
95.9374399154
 30
0.0
 10
36.5504453577
 20
95.8091821971
 30
0.0
 10
36.5504453577
 20
95.7438256271
 30
0.0
  0
SPLINE
  5
251
100
AcDbEntity
  8
0
100
AcDbSpline
 62
7
  6
BYLAYER
 70
0
 71
3
 72
26
 73
22
 74
0
 42
0.0000001
 43
0.0000001
 44
0.0000000001
 40
0.0
 40
0.0
 40
0.0
 40
0.0
 40
0.1933853844
 40
0.3794086748
 40
0.5511161331
 40
0.7023422675
 40
0.7685188944
 40
0.82752408
 40
0.8787300654
 40
0.9215485356
 40
0.9396574195
 40
0.9554852476
 40
0.9689761605
 40
0.9800880518
 40
0.9887810892
 40
0.9922080692
 40
0.9950153642
 40
0.997198608
 40
0.998756919
 40
0.9996906112
 40
1.0
 40
1.0
 40
1.0
 40
1.0
 10
43.2586492902
 20
95.7438256271
 30
0.0
 10
43.2586492902
 20
95.8091796604
 30
0.0
 10
43.2624239773
 20
95.9374307286
 30
0.0
 10
43.2784375534
 20
96.1230787006
 30
0.0
 10
43.3021473305
 20
96.2935074302
 30
0.0
 10
43.3261202592
 20
96.4228424706
 30
0.0
 10
43.3457944297
 20
96.5141620891
 30
0.0
 10
43.3592969511
 20
96.5722249711
 30
0.0
 10
43.3717209656
 20
96.6224278598
 30
0.0
 10
43.381250748
 20
96.6591057528
 30
0.0
 10
43.3879654159
 20
96.6841612055
 30
0.0
 10
43.3921764287
 20
96.6996253926
 30
0.0
 10
43.3958062711
 20
96.7128002509
 30
0.0
 10
43.398824949
 20
96.7236333205
 30
0.0
 10
43.4009538253
 20
96.7312058103
 30
0.0
 10
43.402324056
 20
96.7360370914
 30
0.0
 10
43.4031090081
 20
96.7388211743
 30
0.0
 10
43.4036928775
 20
96.7408273972
 30
0.0
 10
43.404171978
 20
96.7426245285
 30
0.0
 10
43.4043483136
 20
96.743049751
 30
0.0
 10
43.4045486709
 20
96.7439544264
 30
0.0
 10
43.4045427292
 20
96.7438500383
 30
0.0
  0
SPLINE
  5
252
100
AcDbEntity
  8
0
100
AcDbSpline
 62
7
  6
BYLAYER
 70
0
 71
3
 72
14
 73
10
 74
0
 42
0.0000001
 43
0.0000001
 44
0.0000000001
 40
0.0
 40
0.0
 40
0.0
 40
0.0
 40
0.0161408254
 40
0.0645363574
 40
0.1449219906
 40
0.2567119643
 40
0.3992998635
 40
0.5717635694
 40
1.0
 40
1.0
 40
1.0
 40
1.0
 10
45.9045339403
 20
94.2438607293
 30
0.0
 10
45.9043065653
 20
94.2452002269
 30
0.0
 10
45.9027505845
 20
94.2504208386
 30
0.0
 10
45.9000386861
 20
94.2623074459
 30
0.0
 10
45.8950544346
 20
94.2819402001
 30
0.0
 10
45.8884844938
 20
94.3093406465
 30
0.0
 10
45.8801812378
 20
94.3442983858
 30
0.0
 10
45.8661181966
 20
94.4052639194
 30
0.0
 10
45.8552931791
 20
94.4546586386
 30
0.0
 10
45.8478511026
 20
94.4899289687
 30
0.0
  0
SPLINE
  5
253
100
AcDbEntity
  8
0
100
AcDbSpline
 62
7
  6
BYLAYER
 70
0
 71
3
 72
9
 73
5
 74
0
 42
0.0000001
 43
0.0000001
 44
0.0000000001
 40
0.0
 40
0.0
 40
0.0
 40
0.0
 40
0.4655613231
 40
1.0
 40
1.0
 40
1.0
 40
1.0
 10
45.8478466997
 20
94.4897167711
 30
0.0
 10
45.6633450641
 20
94.6408825748
 30
0.0
 10
45.2696936613
 20
94.9688116233
 30
0.0
 10
44.8835946049
 20
95.3057416324
 30
0.0
 10
44.6809964046
 20
95.4899287274
 30
0.0
  0
SPLINE
  5
254
100
AcDbEntity
  8
0
100
AcDbSpline
 62
7
  6
BYLAYER
 70
0
 71
3
 72
9
 73
5
 74
0
 42
0.0000001
 43
0.0000001
 44
0.0000000001
 40
0.0
 40
0.0
 40
0.0
 40
0.0
 40
0.5344387973
 40
1.0
 40
1.0
 40
1.0
 40
1.0
 10
35.1280982435
 20
95.4899287276
 30
0.0
 10
34.925499027
 20
95.3057407089
 30
0.0
 10
34.5393982522
 20
94.9688089281
 30
0.0
 10
34.1457445082
 20
94.6408788493
 30
0.0
 10
33.9612418743
 20
94.4897125583
 30
0.0
  0
SPLINE
  5
255
100
AcDbEntity
  8
0
100
AcDbSpline
 62
7
  6
BYLAYER
 70
0
 71
3
 72
14
 73
10
 74
0
 42
0.0000001
 43
0.0000001
 44
0.0000000001
 40
0.0
 40
0.0
 40
0.0
 40
0.0
 40
0.4281887319
 40
0.6006250941
 40
0.7432202359
 40
0.8550390237
 40
0.9354570446
 40
0.9838690289
 40
1.0
 40
1.0
 40
1.0
 40
1.0
 10
33.9612556376
 20
94.4899289687
 30
0.0
 10
33.953813428
 20
94.4546622162
 30
0.0
 10
33.9429658737
 20
94.4051458541
 30
0.0
 10
33.928940788
 20
94.3444723981
 30
0.0
 10
33.9205436501
 20
94.308911974
 30
0.0
 10
33.914213019
 20
94.2830748316
 30
0.0
 10
33.9086821838
 20
94.2598536962
 30
0.0
 10
33.9069329872
 20
94.2542731774
 30
0.0
 10
33.9043783637
 20
94.2425139599
 30
0.0
 10
33.9045607732
 20
94.2438595014
 30
0.0
  0
SPLINE
  5
256
100
AcDbEntity
  8
0
100
AcDbSpline
 62
7
  6
BYLAYER
 70
0
 71
3
 72
25
 73
21
 74
0
 42
0.0000001
 43
0.0000001
 44
0.0000000001
 40
0.0
 40
0.0
 40
0.0
 40
0.0
 40
0.1947046938
 40
0.3819371005
 40
0.7060049739
 40
0.7719666897
 40
0.8305507488
 40
0.8811789502
 40
0.9233270428
 40
0.9410869914
 40
0.9565816812
 40
0.9697697483
 40
0.9806149514
 40
0.9890872837
 40
0.992424359
 40
0.9951570974
 40
0.9972818299
 40
0.9987967137
 40
0.999702467
 40
1.0
 40
1.0
 40
1.0
 40
1.0
 10
39.9045473239
 20
80.6168043727
 30
0.0
 10
39.4000269276
 20
80.6168043727
 30
0.0
 10
38.4102883969
 20
80.6300139472
 30
0.0
 10
36.5821643208
 20
80.7022264685
 30
0.0
 10
35.0898801566
 20
80.8132021302
 30
0.0
 10
33.9332700557
 20
80.9295948342
 30
0.0
 10
33.4820216299
 20
80.9787520245
 30
0.0
 10
33.0924366864
 20
81.0240484437
 30
0.0
 10
32.8081374025
 20
81.0588589329
 30
0.0
 10
32.614293907
 20
81.0833684224
 30
0.0
 10
32.4949415092
 20
81.0987295079
 30
0.0
 10
32.3933593947
 20
81.1119807415
 30
0.0
 10
32.3099014158
 20
81.1229816136
 30
0.0
 10
32.2515991618
 20
81.1307340583
 30
0.0
 10
32.2144233603
 20
81.1357252348
 30
0.0
 10
32.1930174693
 20
81.1385829906
 30
0.0
 10
32.177586243
 20
81.1407181944
 30
0.0
 10
32.1638090539
 20
81.1424544666
 30
0.0
 10
32.1605031703
 20
81.1431187913
 30
0.0
 10
32.1536436949
 20
81.1438265144
 30
0.0
 10
32.1544145977
 20
81.1438163449
 30
0.0
  0
SPLINE
  5
257
100
AcDbEntity
  8
0
100
AcDbSpline
 62
7
  6
BYLAYER
 70
0
 71
3
 72
27
 73
23
 74
0
 42
0.0000001
 43
0.0000001
 44
0.0000000001
 40
0.0
 40
0.0
 40
0.0
 40
0.0
 40
0.0003097846
 40
0.0012259789
 40
0.0027476739
 40
0.004873958
 40
0.0076034756
 40
0.0109338582
 40
0.0193871864
 40
0.0302138922
 40
0.0433936921
 40
0.0588944413
 40
0.076667397
 40
0.1188297637
 40
0.1694447824
 40
0.2280156719
 40
0.293977296
 40
0.3666827354
 40
0.445436433
 40
0.6180626685
 40
0.8052958621
 40
1.0
 40
1.0
 40
1.0
 40
1.0
 10
47.6546800501
 20
81.1438163449
 30
0.0
 10
47.6538773866
 20
81.1438057564
 30
0.0
 10
47.650744386
 20
81.1431618471
 30
0.0
 10
47.6436723457
 20
81.1424299058
 30
0.0
 10
47.6319594341
 20
81.1407327966
 30
0.0
 10
47.615577582
 20
81.1385816294
 30
0.0
 10
47.5945562758
 20
81.1357297806
 30
0.0
 10
47.5572827407
 20
81.1307329391
 30
0.0
 10
47.4992087243
 20
81.122974647
 30
0.0
 10
47.415820336
 20
81.1119665982
 30
0.0
 10
47.3143069896
 20
81.098721425
 30
0.0
 10
47.1949170372
 20
81.0833664186
 30
0.0
 10
47.0009836035
 20
81.0588664905
 30
0.0
 10
46.7166384999
 20
81.0240681965
 30
0.0
 10
46.3270795042
 20
80.9787506617
 30
0.0
 10
45.8758916865
 20
80.929591436
 30
0.0
 10
45.367357512
 20
80.8784241706
 30
0.0
 10
44.8062853107
 20
80.8272197393
 30
0.0
 10
43.9692287148
 20
80.7593606524
 30
0.0
 10
42.8348747879
 20
80.6867448824
 30
0.0
 10
41.3988295375
 20
80.630012262
 30
0.0
 10
40.4090769729
 20
80.6168043727
 30
0.0
 10
39.9045473239
 20
80.6168043727
 30
0.0
  0
ENDSEC
  0
SECTION
  2
OBJECTS
  0
DICTIONARY
  5
C
100
AcDbDictionary
280
0
281
1
  3
ACAD_GROUP
350
D
  3
ACAD_MLINESTYLE
350
17
  3
ACAD_LAYOUT
350
1A
  3
ACAD_PLOTSETTINGS
350
19
  3
ACAD_PLOTSTYLENAME
350
E
  0
DICTIONARY
  5
D
102
{ACAD_REACTORS
330
C
102
}
100
AcDbDictionary
280
0
281
1
  0
ACDBDICTIONARYWDFLT
  5
E
102
{ACAD_REACTORS
330
C
102
}
100
AcDbDictionary
281
1
  3
Normal
350
F
100
AcDbDictionaryWithDefault
340
F
  0
DICTIONARY
  5
17
102
{ACAD_REACTORS
330
C
102
}
100
AcDbDictionary
280
0
281
1
  3
Standard
350
18
  0
DICTIONARY
  5
19
102
{ACAD_REACTORS
330
C
102
}
100
AcDbDictionary
281
1
  0
DICTIONARY
  5
1A
102
{ACAD_REACTORS
330
C
102
}
100
AcDbDictionary
281
1
  3
Model
350
258
  3
Layout1
350
259
  0
ACDBPLACEHOLDER
  5
F
102
{ACAD_REACTORS
330
E
102
}
  0
MLINESTYLE
  5
18
102
{ACAD_REACTORS
330
17
102
}
100
AcDbMlineStyle
  2
STANDARD
 70
0
  3

 62
256
 51
90.0
 52
90.0
 71
2
 49
0.5
 62
256
  6
BYLAYER
 49
-0.5
 62
256
  6
BYLAYER
  0
LAYOUT
  5
258
102
{ACAD_REACTORS
330
1A
102
}
100
AcDbPlotSettings
  1

  2
none_device
  4

  6

 40
0.0
 41
0.0
 42
0.0
 43
0.0
 44
210.0
 45
297.0
 46
0.0
 47
0.0
 48
0.0
 49
0.0
140
0.0
141
0.0
142
1.0
143
1.0
 70
1024
 72
1
 73
0
 74
0
  7

 75
0
147
1.0
148
0.0
149
0.0
100
AcDbLayout
  1
Model
 70
0
 71
0
 10
0.0
 20
0.0
 11
210.0
 21
297.0
 12
0.0
 22
0.0
 32
0.0
 14
0.0
 24
0.0
 34
0.0
 15
0.0
 25
0.0
 35
0.0
146
0.0
 13
0.0
 23
0.0
 33
0.0
 16
1.0
 26
0.0
 36
0.0
 17
0.0
 27
1.0
 37
0.0
 76
0
330
210
345
0
346
0
  0
LAYOUT
  5
259
102
{ACAD_REACTORS
330
1A
102
}
100
AcDbPlotSettings
  1

  2
none_device
  4

  6

 40
0.0
 41
0.0
 42
0.0
 43
0.0
 44
210.0
 45
297.0
 46
0.0
 47
0.0
 48
0.0
 49
0.0
140
0.0
141
0.0
142
1.0
143
1.0
 70
0
 72
1
 73
0
 74
0
  7

 75
0
147
1.0
148
0.0
149
0.0
100
AcDbLayout
  1
Layout1
 70
0
 71
1
 10
0.0
 20
0.0
 11
210.0
 21
297.0
 12
0.0
 22
0.0
 32
0.0
 14
0.0
 24
0.0
 34
0.0
 15
0.0
 25
0.0
 35
0.0
146
0.0
 13
0.0
 23
0.0
 33
0.0
 16
1.0
 26
0.0
 36
0.0
 17
0.0
 27
1.0
 37
0.0
 76
0
330
211
345
0
346
0
  0
ENDSEC
  0
EOF
