999
DXF file: C:\Vinayak\New 2D genarating\updateCreo8 with 3dPdf\CAD\NSYS3D3420T_3D-CAD\drw0001_3.dxf
999
Pro/ENGINEER 2021284 by Parametric Technology Corporation
  0
SECTION
  2
HEADER
  9
$ACADVER
  1
AC1024
  9
$DWGCODEPAGE
  3
ANSI_1252
  9
$EXTMAX
 10
505.6251817726
 20
715.0984713641
 30
0.0
  9
$EXTMIN
 10
0.0
 20
0.0
 30
0.0
  9
$LIMMIN
 10
0.0
 20
0.0
  9
$LIMMAX
 10
505.6251817726
 20
715.0984713641
  9
$VIEWCTR
 10
252.8125908863
 20
357.5492356821
  9
$VIEWSIZE
 40
715.0984713641
  9
$CLAYER
  8
0
  9
$LTSCALE
 40
46.6138262815
  9
$CELTYPE
  6
BYLAYER
  9
$DIMSCALE
 40
1.0
  9
$DIMASZ
 40
6.0193474021
  9
$DIMEXO
 40
1.0
  9
$DIMDLI
 40
32.20591634
  9
$DIMEXE
 40
1.0
  9
$DIMCEN
 40
7.6277170279
  9
$DIMLFAC
 40
1.0
  9
$DIMBLK
  1
_FILLED
  9
$DIMALT
 70
0
  9
$DIMALTF
 40
0.0393700787
  9
$DIMTXT
 40
8.4270863629
  9
$DIMTOL
 70
1
  9
$DIMLIM
 70
0
  9
$DIMTFAC
 40
1.0
  9
$DIMTP
 40
0.01
  9
$DIMTM
 40
0.01
  9
$DIMGAP
 40
0.625
  9
$DIMDSEP
 70
46
  9
$AUNITS
 70
0
  9
$PDMODE
 70
3
  9
$PDSIZE
 40
0.3125
  9
$HANDSEED
  5
56B
  9
$TILEMODE
 70
1
  9
$MEASUREMENT
 70
1
  9
$INSUNITS
 70
4
  0
ENDSEC
  0
SECTION
  2
CLASSES
  0
CLASS
  1
ACDBDICTIONARYWDFLT
  2
AcDbDictionaryWithDefault
  3
AutoCAD 2000
 90
0
 91
1
280
0
281
0
  0
CLASS
  1
ACDBPLACEHOLDER
  2
AcDbPlaceHolder
  3
AutoCAD 2000
 90
0
 91
1
280
0
281
0
  0
CLASS
  1
LAYOUT
  2
AcDbLayout
  3
AutoCAD 2000
 90
0
 91
0
280
0
281
0
  0
ENDSEC
  0
SECTION
  2
TABLES
  0
TABLE
  2
VPORT
  5
8
100
AcDbSymbolTable
 70
2
  0
VPORT
  5
1F4
100
AcDbSymbolTableRecord
100
AcDbViewportTableRecord
  2
*ACTIVE
 70
0
 10
0.0
 20
0.0
 11
1.0
 21
1.0
 12
252.8125908863
 22
357.5492356821
 13
0.0
 23
0.0
 14
1.0
 24
1.0
 15
0.0
 25
0.0
 16
0.0
 26
0.0
 36
1.0
 17
0.0
 27
0.0
 37
0.0
 40
715.0984713641
 41
0.7070707071
 42
50.0
 43
0.0
 44
0.0
 50
0.0
 51
0.0
 71
0
 72
100
 73
1
 74
1
 75
0
 76
0
 77
0
 78
0
  0
ENDTAB
  0
TABLE
  2
LTYPE
  5
5
100
AcDbSymbolTable
 70
6
  0
LTYPE
  5
14
100
AcDbSymbolTableRecord
100
AcDbLinetypeTableRecord
  2
BYBLOCK
 70
0
  3

 72
65
 73
0
 40
0.0
  0
LTYPE
  5
15
100
AcDbSymbolTableRecord
100
AcDbLinetypeTableRecord
  2
BYLAYER
 70
0
  3

 72
65
 73
0
 40
0.0
  0
LTYPE
  5
16
100
AcDbSymbolTableRecord
100
AcDbLinetypeTableRecord
  2
CONTINUOUS
 70
64
  3
Solid line
 72
65
 73
0
 40
0.0
  0
LTYPE
  5
1F5
100
AcDbSymbolTableRecord
100
AcDbLinetypeTableRecord
  2
CENTER
 70
64
  3
____ _ ____ _ ____ _ ____ _ ____ _ ____ _ ____
 72
65
 73
4
 40
0.6
 49
0.375
 74
0
 49
-0.075
 74
0
 49
0.075
 74
0
 49
-0.075
 74
0
  0
LTYPE
  5
1F6
100
AcDbSymbolTableRecord
100
AcDbLinetypeTableRecord
  2
HIDDEN
 70
64
  3
- - - - - - - - - - - - - - - - - - - -
 72
65
 73
2
 40
0.2
 49
0.1
 74
0
 49
-0.1
 74
0
  0
LTYPE
  5
1F7
100
AcDbSymbolTableRecord
100
AcDbLinetypeTableRecord
  2
PHANTOM
 70
64
  3
_____ _ _ _____ _ _ _____ _ _ _____
 72
65
 73
6
 40
0.8
 49
0.45
 74
0
 49
-0.05
 74
0
 49
0.1
 74
0
 49
-0.05
 74
0
 49
0.1
 74
0
 49
-0.05
 74
0
  0
LTYPE
  5
1F8
100
AcDbSymbolTableRecord
100
AcDbLinetypeTableRecord
  2
DOT
 70
64
  3
. . . . . . . . . . . . . . . . . . . .
 72
65
 73
2
 40
0.2
 49
0.1
 74
0
 49
-0.1
 74
0
  0
LTYPE
  5
1F9
100
AcDbSymbolTableRecord
100
AcDbLinetypeTableRecord
  2
DASHED
 70
64
  3
- - - - - - - - - - - - - - - - - - - -
 72
65
 73
2
 40
0.2
 49
0.1
 74
0
 49
-0.1
 74
0
  0
ENDTAB
  0
TABLE
  2
LAYER
  5
2
100
AcDbSymbolTable
 70
36
  0
LAYER
  5
10
100
AcDbSymbolTableRecord
100
AcDbLayerTableRecord
  2
0
 70
0
 62
7
  6
CONTINUOUS
370
-3
390
F
  0
LAYER
  5
1FA
100
AcDbSymbolTableRecord
100
AcDbLayerTableRecord
  2
DEFAULT_1
 70
0
 62
7
  6
CENTER
370
-3
390
F
  0
LAYER
  5
1FB
100
AcDbSymbolTableRecord
100
AcDbLayerTableRecord
  2
DEFAULT_2
 70
0
 62
8
  6
HIDDEN
370
-3
390
F
  0
LAYER
  5
1FC
100
AcDbSymbolTableRecord
100
AcDbLayerTableRecord
  2
DEFAULT_3
 70
0
 62
7
  6
PHANTOM
370
-3
390
F
  0
LAYER
  5
1FD
100
AcDbSymbolTableRecord
100
AcDbLayerTableRecord
  2
00_COMPONENTS
 70
0
 62
7
  6
CONTINUOUS
370
-3
390
F
  0
LAYER
  5
1FE
100
AcDbSymbolTableRecord
100
AcDbLayerTableRecord
  2
00_COMPONENTS_1
 70
0
 62
7
  6
CONTINUOUS
370
-3
390
F
  0
LAYER
  5
1FF
100
AcDbSymbolTableRecord
100
AcDbLayerTableRecord
  2
00_COMPONENTS_10
 70
0
 62
7
  6
CONTINUOUS
370
-3
390
F
  0
LAYER
  5
200
100
AcDbSymbolTableRecord
100
AcDbLayerTableRecord
  2
00_COMPONENTS_12
 70
0
 62
7
  6
CONTINUOUS
370
-3
390
F
  0
LAYER
  5
201
100
AcDbSymbolTableRecord
100
AcDbLayerTableRecord
  2
00_COMPONENTS_13
 70
0
 62
7
  6
CONTINUOUS
370
-3
390
F
  0
LAYER
  5
202
100
AcDbSymbolTableRecord
100
AcDbLayerTableRecord
  2
00_COMPONENTS_15
 70
0
 62
7
  6
CONTINUOUS
370
-3
390
F
  0
LAYER
  5
203
100
AcDbSymbolTableRecord
100
AcDbLayerTableRecord
  2
00_COMPONENTS_18
 70
0
 62
7
  6
CONTINUOUS
370
-3
390
F
  0
LAYER
  5
204
100
AcDbSymbolTableRecord
100
AcDbLayerTableRecord
  2
00_COMPONENTS_2
 70
0
 62
7
  6
CONTINUOUS
370
-3
390
F
  0
LAYER
  5
205
100
AcDbSymbolTableRecord
100
AcDbLayerTableRecord
  2
00_COMPONENTS_20
 70
0
 62
7
  6
CONTINUOUS
370
-3
390
F
  0
LAYER
  5
206
100
AcDbSymbolTableRecord
100
AcDbLayerTableRecord
  2
00_COMPONENTS_21
 70
0
 62
7
  6
CONTINUOUS
370
-3
390
F
  0
LAYER
  5
207
100
AcDbSymbolTableRecord
100
AcDbLayerTableRecord
  2
00_COMPONENTS_24
 70
0
 62
7
  6
CONTINUOUS
370
-3
390
F
  0
LAYER
  5
208
100
AcDbSymbolTableRecord
100
AcDbLayerTableRecord
  2
00_COMPONENTS_25
 70
0
 62
7
  6
CONTINUOUS
370
-3
390
F
  0
LAYER
  5
209
100
AcDbSymbolTableRecord
100
AcDbLayerTableRecord
  2
00_COMPONENTS_29
 70
0
 62
7
  6
CONTINUOUS
370
-3
390
F
  0
LAYER
  5
20A
100
AcDbSymbolTableRecord
100
AcDbLayerTableRecord
  2
00_COMPONENTS_3
 70
0
 62
7
  6
CONTINUOUS
370
-3
390
F
  0
LAYER
  5
20B
100
AcDbSymbolTableRecord
100
AcDbLayerTableRecord
  2
00_COMPONENTS_30
 70
0
 62
7
  6
CONTINUOUS
370
-3
390
F
  0
LAYER
  5
20C
100
AcDbSymbolTableRecord
100
AcDbLayerTableRecord
  2
00_COMPONENTS_4
 70
0
 62
7
  6
CONTINUOUS
370
-3
390
F
  0
LAYER
  5
20D
100
AcDbSymbolTableRecord
100
AcDbLayerTableRecord
  2
00_COMPONENTS_5
 70
0
 62
7
  6
CONTINUOUS
370
-3
390
F
  0
LAYER
  5
20E
100
AcDbSymbolTableRecord
100
AcDbLayerTableRecord
  2
00_COMPONENTS_6
 70
0
 62
7
  6
CONTINUOUS
370
-3
390
F
  0
LAYER
  5
20F
100
AcDbSymbolTableRecord
100
AcDbLayerTableRecord
  2
00_COMPONENTS_7
 70
0
 62
7
  6
CONTINUOUS
370
-3
390
F
  0
LAYER
  5
210
100
AcDbSymbolTableRecord
100
AcDbLayerTableRecord
  2
00_COMPONENTS_8
 70
0
 62
7
  6
CONTINUOUS
370
-3
390
F
  0
LAYER
  5
211
100
AcDbSymbolTableRecord
100
AcDbLayerTableRecord
  2
00_COMPONENTS_9
 70
0
 62
7
  6
CONTINUOUS
370
-3
390
F
  0
LAYER
  5
212
100
AcDbSymbolTableRecord
100
AcDbLayerTableRecord
  2
01_1_DEFAULT_DATUMS
 70
0
 62
7
  6
CONTINUOUS
370
-3
390
F
  0
LAYER
  5
213
100
AcDbSymbolTableRecord
100
AcDbLayerTableRecord
  2
01_PLANES
 70
0
 62
7
  6
CONTINUOUS
370
-3
390
F
  0
LAYER
  5
214
100
AcDbSymbolTableRecord
100
AcDbLayerTableRecord
  2
02_COORD_SYS
 70
0
 62
7
  6
CONTINUOUS
370
-3
390
F
  0
LAYER
  5
215
100
AcDbSymbolTableRecord
100
AcDbLayerTableRecord
  2
03_AXES
 70
0
 62
7
  6
CONTINUOUS
370
-3
390
F
  0
LAYER
  5
216
100
AcDbSymbolTableRecord
100
AcDbLayerTableRecord
  2
04_POINTS
 70
0
 62
7
  6
CONTINUOUS
370
-3
390
F
  0
LAYER
  5
217
100
AcDbSymbolTableRecord
100
AcDbLayerTableRecord
  2
05_CURVES
 70
0
 62
7
  6
CONTINUOUS
370
-3
390
F
  0
LAYER
  5
218
100
AcDbSymbolTableRecord
100
AcDbLayerTableRecord
  2
06_SURFS
 70
0
 62
7
  6
CONTINUOUS
370
-3
390
F
  0
LAYER
  5
219
100
AcDbSymbolTableRecord
100
AcDbLayerTableRecord
  2
07_COSMETICS
 70
0
 62
7
  6
CONTINUOUS
370
-3
390
F
  0
LAYER
  5
21A
100
AcDbSymbolTableRecord
100
AcDbLayerTableRecord
  2
10_NOTES
 70
0
 62
7
  6
CONTINUOUS
370
-3
390
F
  0
LAYER
  5
21B
100
AcDbSymbolTableRecord
100
AcDbLayerTableRecord
  2
11_NOTES_PUB
 70
0
 62
7
  6
CONTINUOUS
370
-3
390
F
  0
LAYER
  5
21C
100
AcDbSymbolTableRecord
100
AcDbLayerTableRecord
  2
13_REF_GTOL
 70
0
 62
7
  6
CONTINUOUS
370
-3
390
F
  0
LAYER
  5
21D
100
AcDbSymbolTableRecord
100
AcDbLayerTableRecord
  2
16_MISC
 70
0
 62
7
  6
CONTINUOUS
370
-3
390
F
  0
LAYER
  5
21E
100
AcDbSymbolTableRecord
100
AcDbLayerTableRecord
  2
17_NO_PRINT
 70
0
 62
7
  6
CONTINUOUS
370
-3
390
F
  0
LAYER
  5
21F
100
AcDbSymbolTableRecord
100
AcDbLayerTableRecord
  2
18_DATUM_CAMS_JOINTS
 70
0
 62
7
  6
CONTINUOUS
370
-3
390
F
  0
LAYER
  5
220
100
AcDbSymbolTableRecord
100
AcDbLayerTableRecord
  2
19_DATUM_FUNCTIONAL
 70
0
 62
7
  6
CONTINUOUS
370
-3
390
F
  0
LAYER
  5
221
100
AcDbSymbolTableRecord
100
AcDbLayerTableRecord
  2
20_DATUM_KINEMATIC_SCHEME
 70
0
 62
7
  6
CONTINUOUS
370
-3
390
F
  0
ENDTAB
  0
TABLE
  2
STYLE
  5
3
100
AcDbSymbolTable
 70
1
  0
STYLE
  5
11
100
AcDbSymbolTableRecord
100
AcDbTextStyleTableRecord
  2
STANDARD
 70
0
 40
0.0
 41
0.8
 50
0.0
 71
0
 42
0.2
  3
txt
  4

  0
STYLE
  5
222
100
AcDbSymbolTableRecord
100
AcDbTextStyleTableRecord
  2
TEXTSTYLE_1
 70
0
 40
0.0
 41
0.8
 50
0.0
 71
0
 42
0.2
  3
gdt
  4

  0
ENDTAB
  0
TABLE
  2
VIEW
  5
6
100
AcDbSymbolTable
 70
0
  0
ENDTAB
  0
TABLE
  2
UCS
  5
7
100
AcDbSymbolTable
 70
0
  0
ENDTAB
  0
TABLE
  2
APPID
  5
9
100
AcDbSymbolTable
 70
1
  0
APPID
  5
223
100
AcDbSymbolTableRecord
100
AcDbRegAppTableRecord
  2
ACAD
 70
0
  0
ENDTAB
  0
TABLE
  2
BLOCK_RECORD
  5
1
100
AcDbSymbolTable
 70
0
  0
BLOCK_RECORD
  5
224
100
AcDbSymbolTableRecord
100
AcDbBlockTableRecord
  2
*Model_Space
  0
BLOCK_RECORD
  5
225
100
AcDbSymbolTableRecord
100
AcDbBlockTableRecord
  2
*Paper_Space
  0
BLOCK_RECORD
  5
226
100
AcDbSymbolTableRecord
100
AcDbBlockTableRecord
  2
_FILLED
  0
ENDTAB
  0
TABLE
  2
DIMSTYLE
  5
A
100
AcDbSymbolTable
 70
1
100
AcDbDimStyleTable
 71
0
  0
DIMSTYLE
105
227
100
AcDbSymbolTableRecord
100
AcDbDimStyleTableRecord
  2
STANDARD
 70
0
  3

  4

 40
1.0
 41
6.0193474021
 42
1.0
 43
0.38
 44
1.0
 45
0.0
 46
0.0
 47
0.01
 48
0.01
140
8.4270863629
141
0.09
142
0.0
143
25.4
144
1.0
145
0.0
146
1.0
147
0.625
 71
1
 72
0
 73
0
 74
0
 75
0
 76
0
 77
1
 78
8
 79
2
170
0
171
1
172
0
173
0
174
0
175
0
176
0
177
0
178
0
270
2
179
2
271
2
272
2
273
2
274
2
275
0
280
0
281
0
282
0
283
1
284
8
285
0
286
0
287
3
288
0
340
11
278
46
341
226
342
226
343
226
344
226
  0
ENDTAB
  0
ENDSEC
  0
SECTION
  2
BLOCKS
  0
BLOCK
  5
20
100
AcDbEntity
  8
0
100
AcDbBlockBegin
  2
*Model_Space
 70
0
 10
0.0
 20
0.0
 30
0.0
  3
*Model_Space
  1

  0
ENDBLK
  5
21
100
AcDbEntity
  8
0
100
AcDbBlockEnd
  0
BLOCK
  5
1C
100
AcDbEntity
  8
0
100
AcDbBlockBegin
  2
*Paper_Space
 70
0
 10
0.0
 20
0.0
 30
0.0
  3
*Paper_Space
  1

  0
ENDBLK
  5
1D
100
AcDbEntity
  8
0
100
AcDbBlockEnd
  0
BLOCK
  5
228
100
AcDbEntity
  8
0
100
AcDbBlockBegin
  2
_FILLED
 70
64
 10
0.0
 20
0.0
  3
_FILLED
  1

  0
SOLID
  5
229
100
AcDbEntity
  8
0
  6
BYBLOCK
 62
0
100
AcDbTrace
 10
0.0
 20
0.0
 11
-1.0
 21
0.25
 12
-1.0
 22
-0.25
 13
-1.0
 23
-0.25
  0
ENDBLK
  5
22A
100
AcDbEntity
  8
0
  6
BYBLOCK
 62
0
100
AcDbBlockEnd
  0
ENDSEC
  0
SECTION
  2
ENTITIES
  0
LINE
  5
22B
100
AcDbEntity
  8
00_COMPONENTS_4
100
AcDbLine
 62
7
  6
CONTINUOUS
 10
62.8147782668
 20
449.7617500241
 11
63.2412018304
 21
450.5809020684
  0
LINE
  5
22C
100
AcDbEntity
  8
00_COMPONENTS_30
100
AcDbLine
 62
7
  6
CONTINUOUS
 10
59.8147782668
 20
257.0049595073
 11
59.8147782668
 21
428.6049595073
  0
LINE
  5
22D
100
AcDbEntity
  8
00_COMPONENTS_4
100
AcDbLine
 62
7
  6
CONTINUOUS
 10
61.8147782668
 20
438.9049595073
 11
61.8147782668
 21
450.8028841252
  0
LINE
  5
22E
100
AcDbEntity
  8
00_COMPONENTS_4
100
AcDbLine
 62
7
  6
CONTINUOUS
 10
62.8147782668
 20
450.2823170746
 11
62.8147782668
 21
438.9049595073
  0
LINE
  5
22F
100
AcDbEntity
  8
00_COMPONENTS_4
100
AcDbLine
 62
7
  6
CONTINUOUS
 10
61.8147782668
 20
450.8028841252
 11
71.6565376298
 21
457.6941582204
  0
LINE
  5
230
100
AcDbEntity
  8
00_COMPONENTS_4
100
AcDbLine
 62
7
  6
CONTINUOUS
 10
62.8147782668
 20
450.2823170746
 11
70.7019290489
 21
455.8049595073
  0
LINE
  5
231
100
AcDbEntity
  8
00_COMPONENTS_1
100
AcDbLine
 62
7
  6
CONTINUOUS
 10
92.9926080387
 20
334.0949391434
 11
92.9963976536
 21
333.9865788941
  0
LINE
  5
232
100
AcDbEntity
  8
00_COMPONENTS_1
100
AcDbLine
 62
7
  6
CONTINUOUS
 10
94.636948495
 20
335.5149798711
 11
94.63315888
 21
335.6233401205
  0
LINE
  5
233
100
AcDbEntity
  8
00_COMPONENTS_30
100
AcDbLine
 62
7
  6
CONTINUOUS
 10
82.0647782668
 20
291.5549595073
 11
82.0647782668
 21
378.0549595073
  0
LINE
  5
234
100
AcDbEntity
  8
00_COMPONENTS_30
100
AcDbLine
 62
7
  6
CONTINUOUS
 10
82.5647782668
 20
291.5549595073
 11
82.5647782668
 21
378.0549595073
  0
LINE
  5
235
100
AcDbEntity
  8
00_COMPONENTS_30
100
AcDbLine
 62
7
  6
CONTINUOUS
 10
83.3865790044
 20
292.5549595079
 11
83.3865788089
 21
377.0549681378
  0
LINE
  5
236
100
AcDbEntity
  8
00_COMPONENTS_30
100
AcDbLine
 62
7
  6
CONTINUOUS
 10
85.3561945105
 20
377.0549595073
 11
85.3561945105
 21
292.5549595077
  0
LINE
  5
237
100
AcDbEntity
  8
00_COMPONENTS_30
100
AcDbLine
 62
7
  6
CONTINUOUS
 10
85.4480510872
 20
292.5549595087
 11
85.4480510872
 21
377.054959509
  0
LINE
  5
238
100
AcDbEntity
  8
00_COMPONENTS_30
100
AcDbLine
 62
7
  6
CONTINUOUS
 10
86.4328588401
 20
377.0549595073
 11
86.4328588401
 21
292.5549595073
  0
LINE
  5
239
100
AcDbEntity
  8
00_COMPONENTS_2
100
AcDbLine
 62
7
  6
CONTINUOUS
 10
87.3147782668
 20
294.8049595073
 11
87.3147782668
 21
374.8049595073
  0
LINE
  5
23A
100
AcDbEntity
  8
00_COMPONENTS_1
100
AcDbLine
 62
7
  6
CONTINUOUS
 10
93.2997782668
 20
332.808197638
 11
93.2997782668
 21
333.8909954647
  0
LINE
  5
23B
100
AcDbEntity
  8
00_COMPONENTS_1
100
AcDbLine
 62
7
  6
CONTINUOUS
 10
93.2997782668
 20
335.7189230502
 11
93.2997782668
 21
336.8017213766
  0
LINE
  5
23C
100
AcDbEntity
  8
00_COMPONENTS_1
100
AcDbLine
 62
7
  6
CONTINUOUS
 10
94.3297782668
 20
333.8909959643
 11
94.3297782668
 21
332.808197638
  0
LINE
  5
23D
100
AcDbEntity
  8
00_COMPONENTS_1
100
AcDbLine
 62
7
  6
CONTINUOUS
 10
94.3297782668
 20
335.71892355
 11
94.3297782668
 21
336.8017213766
  0
LINE
  5
23E
100
AcDbEntity
  8
00_COMPONENTS_25
100
AcDbLine
 62
7
  6
CONTINUOUS
 10
95.8894946749
 20
459.9445574941
 11
95.8147782668
 21
457.8049595073
  0
LINE
  5
23F
100
AcDbEntity
  8
00_COMPONENTS_1
100
AcDbLine
 62
7
  6
CONTINUOUS
 10
92.9924988683
 20
335.4661755518
 11
92.9979413011
 21
335.621796473
  0
LINE
  5
240
100
AcDbEntity
  8
00_COMPONENTS_1
100
AcDbLine
 62
7
  6
CONTINUOUS
 10
94.6316152326
 20
333.9881225415
 11
94.6370576654
 21
334.1437434627
  0
LINE
  5
241
100
AcDbEntity
  8
00_COMPONENTS_30
100
AcDbLine
 62
7
  6
CONTINUOUS
 10
109.0647782668
 20
405.0549595073
 11
109.0647782668
 21
404.5549595073
  0
LINE
  5
242
100
AcDbEntity
  8
00_COMPONENTS_30
100
AcDbLine
 62
7
  6
CONTINUOUS
 10
109.0647782668
 20
265.0549595073
 11
109.0647782668
 21
264.5549595073
  0
LINE
  5
243
100
AcDbEntity
  8
00_COMPONENTS_30
100
AcDbLine
 62
7
  6
CONTINUOUS
 10
110.0647782668
 20
403.7331587697
 11
110.0647782668
 21
400.686878934
  0
LINE
  5
244
100
AcDbEntity
  8
00_COMPONENTS_30
100
AcDbLine
 62
7
  6
CONTINUOUS
 10
110.0647782613
 20
268.9230400806
 11
110.0647782668
 21
265.8767602449
  0
LINE
  5
245
100
AcDbEntity
  8
00_COMPONENTS_30
100
AcDbLine
 62
7
  6
CONTINUOUS
 10
78.648496412
 20
437.8049595073
 11
79.3518386255
 21
434.1865774981
  0
LINE
  5
246
100
AcDbEntity
  8
00_COMPONENTS_30
100
AcDbLine
 62
7
  6
CONTINUOUS
 10
80.333465809
 20
434.1865774981
 11
79.6301235955
 21
437.8049595073
  0
LINE
  5
247
100
AcDbEntity
  8
00_COMPONENTS_25
100
AcDbLine
 62
7
  6
CONTINUOUS
 10
124.2692815515
 20
463.7701617291
 11
124.0947882762
 21
463.7108895402
  0
LINE
  5
248
100
AcDbEntity
  8
00_COMPONENTS_25
100
AcDbLine
 62
7
  6
CONTINUOUS
 10
124.2696850647
 20
463.7700666154
 11
124.263817027
 21
463.7681788979
  0
LINE
  5
249
100
AcDbEntity
  8
00_COMPONENTS_1
100
AcDbLine
 62
7
  6
CONTINUOUS
 10
139.0159736845
 20
276.9340584621
 11
138.9924805639
 21
276.9575515827
  0
LINE
  5
24A
100
AcDbEntity
  8
00_COMPONENTS_1
100
AcDbLine
 62
7
  6
CONTINUOUS
 10
140.4438769747
 20
275.506155172
 11
140.4673703423
 21
275.4826618043
  0
LINE
  5
24B
100
AcDbEntity
  8
00_COMPONENTS_1
100
AcDbLine
 62
7
  6
CONTINUOUS
 10
138.4250137859
 20
277.6947239882
 11
139.0139936757
 21
277.1057440984
  0
LINE
  5
24C
100
AcDbEntity
  8
00_COMPONENTS_1
100
AcDbLine
 62
7
  6
CONTINUOUS
 10
140.615562858
 20
275.5041749161
 11
141.2045427478
 21
274.9151950263
  0
LINE
  5
24D
100
AcDbEntity
  8
00_COMPONENTS_1
100
AcDbLine
 62
7
  6
CONTINUOUS
 10
139.185679559
 20
277.1037638426
 11
139.1621861914
 21
277.1272572102
  0
LINE
  5
24E
100
AcDbEntity
  8
00_COMPONENTS_1
100
AcDbLine
 62
7
  6
CONTINUOUS
 10
140.6135828492
 20
275.6758605524
 11
140.6370759698
 21
275.6523674318
  0
LINE
  5
24F
100
AcDbEntity
  8
00_COMPONENTS_1
100
AcDbLine
 62
7
  6
CONTINUOUS
 10
94.4438769747
 20
334.006155172
 11
94.4673703423
 21
333.9826618043
  0
LINE
  5
250
100
AcDbEntity
  8
00_COMPONENTS_1
100
AcDbLine
 62
7
  6
CONTINUOUS
 10
93.0159736845
 20
335.4340584621
 11
92.9924805639
 21
335.4575515827
  0
LINE
  5
251
100
AcDbEntity
  8
00_COMPONENTS_1
100
AcDbLine
 62
7
  6
CONTINUOUS
 10
92.4250137859
 20
336.1947239882
 11
93.0139936757
 21
335.6057440984
  0
LINE
  5
252
100
AcDbEntity
  8
00_COMPONENTS_1
100
AcDbLine
 62
7
  6
CONTINUOUS
 10
95.2045427478
 20
333.4151950263
 11
94.615562858
 21
334.0041749161
  0
LINE
  5
253
100
AcDbEntity
  8
00_COMPONENTS_1
100
AcDbLine
 62
7
  6
CONTINUOUS
 10
94.6135828492
 20
334.1758605524
 11
94.6370759698
 21
334.1523674318
  0
LINE
  5
254
100
AcDbEntity
  8
00_COMPONENTS_1
100
AcDbLine
 62
7
  6
CONTINUOUS
 10
93.185679559
 20
335.6037638426
 11
93.1621861914
 21
335.6272572102
  0
LINE
  5
255
100
AcDbEntity
  8
00_COMPONENTS_25
100
AcDbLine
 62
7
  6
CONTINUOUS
 10
127.7400618587
 20
459.9445574941
 11
127.8147782668
 21
457.8049595073
  0
LINE
  5
256
100
AcDbEntity
  8
00_COMPONENTS_1
100
AcDbLine
 62
7
  6
CONTINUOUS
 10
138.9926080387
 20
275.5949391434
 11
138.9963976536
 21
275.4865788941
  0
LINE
  5
257
100
AcDbEntity
  8
00_COMPONENTS_1
100
AcDbLine
 62
7
  6
CONTINUOUS
 10
140.636948495
 20
277.0149798711
 11
140.63315888
 21
277.1233401205
  0
LINE
  5
258
100
AcDbEntity
  8
00_COMPONENTS_1
100
AcDbLine
 62
7
  6
CONTINUOUS
 10
138.9926080387
 20
392.5949391434
 11
138.9963976536
 21
392.4865788941
  0
LINE
  5
259
100
AcDbEntity
  8
00_COMPONENTS_1
100
AcDbLine
 62
7
  6
CONTINUOUS
 10
139.2997782668
 20
274.308197638
 11
139.2997782668
 21
275.3909954647
  0
LINE
  5
25A
100
AcDbEntity
  8
00_COMPONENTS_1
100
AcDbLine
 62
7
  6
CONTINUOUS
 10
139.2997782668
 20
277.2189230502
 11
139.2997782668
 21
278.3017213766
  0
LINE
  5
25B
100
AcDbEntity
  8
00_COMPONENTS_1
100
AcDbLine
 62
7
  6
CONTINUOUS
 10
139.2997782668
 20
391.308197638
 11
139.2997782668
 21
392.3909954647
  0
LINE
  5
25C
100
AcDbEntity
  8
00_COMPONENTS_1
100
AcDbLine
 62
7
  6
CONTINUOUS
 10
139.2997782668
 20
394.2189230502
 11
139.2997782668
 21
395.3017213766
  0
LINE
  5
25D
100
AcDbEntity
  8
00_COMPONENTS_1
100
AcDbLine
 62
7
  6
CONTINUOUS
 10
140.3297782668
 20
392.3909959643
 11
140.3297782668
 21
391.308197638
  0
LINE
  5
25E
100
AcDbEntity
  8
00_COMPONENTS_1
100
AcDbLine
 62
7
  6
CONTINUOUS
 10
140.3297782668
 20
275.3909959643
 11
140.3297782668
 21
274.308197638
  0
LINE
  5
25F
100
AcDbEntity
  8
00_COMPONENTS_1
100
AcDbLine
 62
7
  6
CONTINUOUS
 10
140.3297782668
 20
277.21892355
 11
140.3297782668
 21
278.3017213766
  0
LINE
  5
260
100
AcDbEntity
  8
00_COMPONENTS_1
100
AcDbLine
 62
7
  6
CONTINUOUS
 10
140.3297782668
 20
394.21892355
 11
140.3297782668
 21
395.3017213766
  0
LINE
  5
261
100
AcDbEntity
  8
00_COMPONENTS_1
100
AcDbLine
 62
7
  6
CONTINUOUS
 10
138.9924988683
 20
393.9661755518
 11
138.9979413011
 21
394.121796473
  0
LINE
  5
262
100
AcDbEntity
  8
00_COMPONENTS_1
100
AcDbLine
 62
7
  6
CONTINUOUS
 10
140.6316152326
 20
392.4881225415
 11
140.6370576654
 21
392.6437434627
  0
LINE
  5
263
100
AcDbEntity
  8
00_COMPONENTS_1
100
AcDbLine
 62
7
  6
CONTINUOUS
 10
140.636948495
 20
394.0149798711
 11
140.63315888
 21
394.1233401205
  0
LINE
  5
264
100
AcDbEntity
  8
00_COMPONENTS_1
100
AcDbLine
 62
7
  6
CONTINUOUS
 10
138.9924988683
 20
276.9661755518
 11
138.9979413011
 21
277.121796473
  0
LINE
  5
265
100
AcDbEntity
  8
00_COMPONENTS_1
100
AcDbLine
 62
7
  6
CONTINUOUS
 10
140.6316152326
 20
275.4881225415
 11
140.6370576654
 21
275.6437434627
  0
LINE
  5
266
100
AcDbEntity
  8
00_COMPONENTS_1
100
AcDbLine
 62
7
  6
CONTINUOUS
 10
139.0159739315
 20
392.6758607995
 11
138.9924805639
 21
392.6523674318
  0
LINE
  5
267
100
AcDbEntity
  8
00_COMPONENTS_1
100
AcDbLine
 62
7
  6
CONTINUOUS
 10
140.4438772217
 20
394.1037640896
 11
140.4673703423
 21
394.1272572102
  0
LINE
  5
268
100
AcDbEntity
  8
00_COMPONENTS_1
100
AcDbLine
 62
7
  6
CONTINUOUS
 10
138.5697255571
 20
392.0599067975
 11
139.0139936757
 21
392.5041749161
  0
LINE
  5
269
100
AcDbEntity
  8
00_COMPONENTS_1
100
AcDbLine
 62
7
  6
CONTINUOUS
 10
140.615562858
 20
394.1057440984
 11
141.0598309766
 21
394.550012217
  0
LINE
  5
26A
100
AcDbEntity
  8
00_COMPONENTS_1
100
AcDbLine
 62
7
  6
CONTINUOUS
 10
139.185679312
 20
392.5061549249
 11
139.1621861914
 21
392.4826618043
  0
LINE
  5
26B
100
AcDbEntity
  8
00_COMPONENTS_1
100
AcDbLine
 62
7
  6
CONTINUOUS
 10
140.6135826021
 20
393.9340582151
 11
140.6370759698
 21
393.9575515827
  0
LINE
  5
26C
100
AcDbEntity
  8
00_COMPONENTS_30
100
AcDbLine
 62
7
  6
CONTINUOUS
 10
457.6147782668
 20
254.8049595073
 11
62.0147782668
 21
254.8049595073
  0
LINE
  5
26D
100
AcDbEntity
  8
00_COMPONENTS_1
100
AcDbLine
 62
7
  6
CONTINUOUS
 10
93.0159739315
 20
334.1758607995
 11
92.9924805639
 21
334.1523674318
  0
LINE
  5
26E
100
AcDbEntity
  8
00_COMPONENTS_1
100
AcDbLine
 62
7
  6
CONTINUOUS
 10
94.4438772217
 20
335.6037640896
 11
94.4673703423
 21
335.6272572102
  0
LINE
  5
26F
100
AcDbEntity
  8
00_COMPONENTS_1
100
AcDbLine
 62
7
  6
CONTINUOUS
 10
92.5697255571
 20
333.5599067975
 11
93.0139936757
 21
334.0041749161
  0
LINE
  5
270
100
AcDbEntity
  8
00_COMPONENTS_1
100
AcDbLine
 62
7
  6
CONTINUOUS
 10
94.615562858
 20
335.6057440984
 11
95.0598309766
 21
336.050012217
  0
LINE
  5
271
100
AcDbEntity
  8
00_COMPONENTS_1
100
AcDbLine
 62
7
  6
CONTINUOUS
 10
93.185679312
 20
334.0061549249
 11
93.1621861914
 21
333.9826618043
  0
LINE
  5
272
100
AcDbEntity
  8
00_COMPONENTS_1
100
AcDbLine
 62
7
  6
CONTINUOUS
 10
94.6135826021
 20
335.4340582151
 11
94.6370759698
 21
335.4575515827
  0
LINE
  5
273
100
AcDbEntity
  8
00_COMPONENTS_30
100
AcDbLine
 62
7
  6
CONTINUOUS
 10
59.8147782668
 20
257.0049595073
 11
459.8147782668
 21
257.0049595073
  0
LINE
  5
274
100
AcDbEntity
  8
00_COMPONENTS_30
100
AcDbLine
 62
7
  6
CONTINUOUS
 10
410.5647782668
 20
264.5549595073
 11
109.0647782668
 21
264.5549595073
  0
LINE
  5
275
100
AcDbEntity
  8
00_COMPONENTS_30
100
AcDbLine
 62
7
  6
CONTINUOUS
 10
410.5647782668
 20
265.0549595073
 11
109.0647782668
 21
265.0549595073
  0
LINE
  5
276
100
AcDbEntity
  8
00_COMPONENTS_30
100
AcDbLine
 62
7
  6
CONTINUOUS
 10
409.5647782673
 20
265.8767602449
 11
110.0647782668
 21
265.8767602449
  0
LINE
  5
277
100
AcDbEntity
  8
00_COMPONENTS_30
100
AcDbLine
 62
7
  6
CONTINUOUS
 10
110.0647782668
 20
267.8463757509
 11
409.5647782664
 21
267.8463757509
  0
LINE
  5
278
100
AcDbEntity
  8
00_COMPONENTS_30
100
AcDbLine
 62
7
  6
CONTINUOUS
 10
409.5647782654
 20
267.9382323276
 11
110.0647782651
 21
267.9382323276
  0
LINE
  5
279
100
AcDbEntity
  8
00_COMPONENTS_30
100
AcDbLine
 62
7
  6
CONTINUOUS
 10
110.0647782668
 20
268.9230400806
 11
409.5647782668
 21
268.9230400806
  0
LINE
  5
27A
100
AcDbEntity
  8
00_COMPONENTS_2
100
AcDbLine
 62
7
  6
CONTINUOUS
 10
407.3147782668
 20
269.8049595073
 11
112.3147782668
 21
269.8049595073
  0
LINE
  5
27B
100
AcDbEntity
  8
00_COMPONENTS_4
100
AcDbLine
 62
7
  6
CONTINUOUS
 10
68.9584822534
 20
455.8049595073
 11
69.5320586897
 21
454.985807463
  0
LINE
  5
27C
100
AcDbEntity
  8
00_COMPONENTS_4
100
AcDbLine
 62
7
  6
CONTINUOUS
 10
71.4700424028
 20
457.197880018
 11
71.2982229718
 21
457.4432635958
  0
LINE
  5
27D
100
AcDbEntity
  8
00_COMPONENTS_1
100
AcDbLine
 62
7
  6
CONTINUOUS
 10
380.4759943114
 20
275.4826801087
 11
380.6316152326
 21
275.4881225415
  0
LINE
  5
27E
100
AcDbEntity
  8
00_COMPONENTS_1
100
AcDbLine
 62
7
  6
CONTINUOUS
 10
379.1535622223
 20
277.1272389058
 11
378.9979413011
 21
277.121796473
  0
LINE
  5
27F
100
AcDbEntity
  8
00_COMPONENTS_1
100
AcDbLine
 62
7
  6
CONTINUOUS
 10
260.4759943114
 20
275.4826801087
 11
260.6316152326
 21
275.4881225415
  0
LINE
  5
280
100
AcDbEntity
  8
00_COMPONENTS_1
100
AcDbLine
 62
7
  6
CONTINUOUS
 10
259.1535622223
 20
277.1272389058
 11
258.9979413011
 21
277.121796473
  0
LINE
  5
281
100
AcDbEntity
  8
00_COMPONENTS_1
100
AcDbLine
 62
7
  6
CONTINUOUS
 10
140.4759943114
 20
275.4826801087
 11
140.6316152326
 21
275.4881225415
  0
LINE
  5
282
100
AcDbEntity
  8
00_COMPONENTS_1
100
AcDbLine
 62
7
  6
CONTINUOUS
 10
139.1535622223
 20
277.1272389058
 11
138.9979413011
 21
277.121796473
  0
LINE
  5
283
100
AcDbEntity
  8
00_COMPONENTS_1
100
AcDbLine
 62
7
  6
CONTINUOUS
 10
137.8180163975
 20
275.7899595073
 11
138.9008147239
 21
275.7899595073
  0
LINE
  5
284
100
AcDbEntity
  8
00_COMPONENTS_1
100
AcDbLine
 62
7
  6
CONTINUOUS
 10
140.7287423096
 20
275.7899595073
 11
141.8115401361
 21
275.7899595073
  0
LINE
  5
285
100
AcDbEntity
  8
00_COMPONENTS_1
100
AcDbLine
 62
7
  6
CONTINUOUS
 10
257.8180163975
 20
275.7899595073
 11
258.9008147239
 21
275.7899595073
  0
LINE
  5
286
100
AcDbEntity
  8
00_COMPONENTS_1
100
AcDbLine
 62
7
  6
CONTINUOUS
 10
260.7287423096
 20
275.7899595073
 11
261.8115401361
 21
275.7899595073
  0
LINE
  5
287
100
AcDbEntity
  8
00_COMPONENTS_1
100
AcDbLine
 62
7
  6
CONTINUOUS
 10
377.8180163975
 20
275.7899595073
 11
378.9008147239
 21
275.7899595073
  0
LINE
  5
288
100
AcDbEntity
  8
00_COMPONENTS_1
100
AcDbLine
 62
7
  6
CONTINUOUS
 10
380.7287423096
 20
275.7899595073
 11
381.8115401361
 21
275.7899595073
  0
LINE
  5
289
100
AcDbEntity
  8
00_COMPONENTS_1
100
AcDbLine
 62
7
  6
CONTINUOUS
 10
378.9008142241
 20
276.8199595073
 11
377.8180163975
 21
276.8199595073
  0
LINE
  5
28A
100
AcDbEntity
  8
00_COMPONENTS_1
100
AcDbLine
 62
7
  6
CONTINUOUS
 10
258.9008142241
 20
276.8199595073
 11
257.8180163975
 21
276.8199595073
  0
LINE
  5
28B
100
AcDbEntity
  8
00_COMPONENTS_1
100
AcDbLine
 62
7
  6
CONTINUOUS
 10
138.9008142241
 20
276.8199595073
 11
137.8180163975
 21
276.8199595073
  0
LINE
  5
28C
100
AcDbEntity
  8
00_COMPONENTS_1
100
AcDbLine
 62
7
  6
CONTINUOUS
 10
140.7287418098
 20
276.8199595073
 11
141.8115401361
 21
276.8199595073
  0
LINE
  5
28D
100
AcDbEntity
  8
00_COMPONENTS_1
100
AcDbLine
 62
7
  6
CONTINUOUS
 10
260.7287418098
 20
276.8199595073
 11
261.8115401361
 21
276.8199595073
  0
LINE
  5
28E
100
AcDbEntity
  8
00_COMPONENTS_1
100
AcDbLine
 62
7
  6
CONTINUOUS
 10
380.7287418098
 20
276.8199595073
 11
381.8115401361
 21
276.8199595073
  0
LINE
  5
28F
100
AcDbEntity
  8
00_COMPONENTS_1
100
AcDbLine
 62
7
  6
CONTINUOUS
 10
139.104757903
 20
275.4827892791
 11
138.9963976536
 21
275.4865788941
  0
LINE
  5
290
100
AcDbEntity
  8
00_COMPONENTS_1
100
AcDbLine
 62
7
  6
CONTINUOUS
 10
140.5247986307
 20
277.1271297354
 11
140.63315888
 21
277.1233401205
  0
LINE
  5
291
100
AcDbEntity
  8
00_COMPONENTS_1
100
AcDbLine
 62
7
  6
CONTINUOUS
 10
259.104757903
 20
275.4827892791
 11
258.9963976536
 21
275.4865788941
  0
LINE
  5
292
100
AcDbEntity
  8
00_COMPONENTS_1
100
AcDbLine
 62
7
  6
CONTINUOUS
 10
260.5247986307
 20
277.1271297354
 11
260.63315888
 21
277.1233401205
  0
LINE
  5
293
100
AcDbEntity
  8
00_COMPONENTS_1
100
AcDbLine
 62
7
  6
CONTINUOUS
 10
379.104757903
 20
275.4827892791
 11
378.9963976536
 21
275.4865788941
  0
LINE
  5
294
100
AcDbEntity
  8
00_COMPONENTS_1
100
AcDbLine
 62
7
  6
CONTINUOUS
 10
380.5247986307
 20
277.1271297354
 11
380.63315888
 21
277.1233401205
  0
LINE
  5
295
100
AcDbEntity
  8
00_COMPONENTS_30
100
AcDbLine
 62
7
  6
CONTINUOUS
 10
82.0647782668
 20
291.5549595073
 11
82.5647782668
 21
291.5549595073
  0
LINE
  5
296
100
AcDbEntity
  8
00_COMPONENTS_30
100
AcDbLine
 62
7
  6
CONTINUOUS
 10
437.0647782668
 20
291.5549595073
 11
437.5647782668
 21
291.5549595073
  0
LINE
  5
297
100
AcDbEntity
  8
00_COMPONENTS_30
100
AcDbLine
 62
7
  6
CONTINUOUS
 10
433.1966976935
 20
292.5549595017
 11
436.2429775292
 21
292.5549595073
  0
LINE
  5
298
100
AcDbEntity
  8
00_COMPONENTS_30
100
AcDbLine
 62
7
  6
CONTINUOUS
 10
83.3865790044
 20
292.5549595073
 11
86.4328588401
 21
292.5549595073
  0
LINE
  5
299
100
AcDbEntity
  8
00_COMPONENTS_1
100
AcDbLine
 62
7
  6
CONTINUOUS
 10
140.4438769747
 20
392.506155172
 11
140.4673703423
 21
392.4826618043
  0
LINE
  5
29A
100
AcDbEntity
  8
00_COMPONENTS_1
100
AcDbLine
 62
7
  6
CONTINUOUS
 10
139.0159736845
 20
393.9340584621
 11
138.9924805639
 21
393.9575515827
  0
LINE
  5
29B
100
AcDbEntity
  8
00_COMPONENTS_1
100
AcDbLine
 62
7
  6
CONTINUOUS
 10
138.4250137859
 20
394.6947239882
 11
139.0139936757
 21
394.1057440984
  0
LINE
  5
29C
100
AcDbEntity
  8
00_COMPONENTS_1
100
AcDbLine
 62
7
  6
CONTINUOUS
 10
141.2045427478
 20
391.9151950263
 11
140.615562858
 21
392.5041749161
  0
LINE
  5
29D
100
AcDbEntity
  8
00_COMPONENTS_1
100
AcDbLine
 62
7
  6
CONTINUOUS
 10
140.6135828492
 20
392.6758605524
 11
140.6370759698
 21
392.6523674318
  0
LINE
  5
29E
100
AcDbEntity
  8
00_COMPONENTS_1
100
AcDbLine
 62
7
  6
CONTINUOUS
 10
139.185679559
 20
394.1037638426
 11
139.1621861914
 21
394.1272572102
  0
LINE
  5
29F
100
AcDbEntity
  8
00_COMPONENTS_1
100
AcDbLine
 62
7
  6
CONTINUOUS
 10
259.0159736845
 20
276.9340584621
 11
258.9924805639
 21
276.9575515827
  0
LINE
  5
2A0
100
AcDbEntity
  8
00_COMPONENTS_1
100
AcDbLine
 62
7
  6
CONTINUOUS
 10
260.4438769747
 20
275.506155172
 11
260.4673703423
 21
275.4826618043
  0
LINE
  5
2A1
100
AcDbEntity
  8
00_COMPONENTS_1
100
AcDbLine
 62
7
  6
CONTINUOUS
 10
258.4250137859
 20
277.6947239882
 11
259.0139936757
 21
277.1057440984
  0
LINE
  5
2A2
100
AcDbEntity
  8
00_COMPONENTS_1
100
AcDbLine
 62
7
  6
CONTINUOUS
 10
260.615562858
 20
275.5041749161
 11
261.2045427478
 21
274.9151950263
  0
LINE
  5
2A3
100
AcDbEntity
  8
00_COMPONENTS_1
100
AcDbLine
 62
7
  6
CONTINUOUS
 10
259.185679559
 20
277.1037638426
 11
259.1621861914
 21
277.1272572102
  0
LINE
  5
2A4
100
AcDbEntity
  8
00_COMPONENTS_1
100
AcDbLine
 62
7
  6
CONTINUOUS
 10
260.6135828492
 20
275.6758605524
 11
260.6370759698
 21
275.6523674318
  0
LINE
  5
2A5
100
AcDbEntity
  8
00_COMPONENTS_1
100
AcDbLine
 62
7
  6
CONTINUOUS
 10
426.4759943114
 20
333.9826801087
 11
426.6316152326
 21
333.9881225415
  0
LINE
  5
2A6
100
AcDbEntity
  8
00_COMPONENTS_1
100
AcDbLine
 62
7
  6
CONTINUOUS
 10
425.1535622223
 20
335.6272389058
 11
424.9979413011
 21
335.621796473
  0
LINE
  5
2A7
100
AcDbEntity
  8
00_COMPONENTS_1
100
AcDbLine
 62
7
  6
CONTINUOUS
 10
93.104757903
 20
333.9827892791
 11
92.9963976536
 21
333.9865788941
  0
LINE
  5
2A8
100
AcDbEntity
  8
00_COMPONENTS_1
100
AcDbLine
 62
7
  6
CONTINUOUS
 10
94.5247986307
 20
335.6271297354
 11
94.63315888
 21
335.6233401205
  0
LINE
  5
2A9
100
AcDbEntity
  8
00_COMPONENTS_1
100
AcDbLine
 62
7
  6
CONTINUOUS
 10
139.0159739315
 20
275.6758607995
 11
138.9924805639
 21
275.6523674318
  0
LINE
  5
2AA
100
AcDbEntity
  8
00_COMPONENTS_1
100
AcDbLine
 62
7
  6
CONTINUOUS
 10
140.4438772217
 20
277.1037640896
 11
140.4673703423
 21
277.1272572102
  0
LINE
  5
2AB
100
AcDbEntity
  8
00_COMPONENTS_1
100
AcDbLine
 62
7
  6
CONTINUOUS
 10
138.5697255571
 20
275.0599067975
 11
139.0139936757
 21
275.5041749161
  0
LINE
  5
2AC
100
AcDbEntity
  8
00_COMPONENTS_1
100
AcDbLine
 62
7
  6
CONTINUOUS
 10
140.615562858
 20
277.1057440984
 11
141.0598309766
 21
277.550012217
  0
LINE
  5
2AD
100
AcDbEntity
  8
00_COMPONENTS_1
100
AcDbLine
 62
7
  6
CONTINUOUS
 10
139.185679312
 20
275.5061549249
 11
139.1621861914
 21
275.4826618043
  0
LINE
  5
2AE
100
AcDbEntity
  8
00_COMPONENTS_1
100
AcDbLine
 62
7
  6
CONTINUOUS
 10
140.6135826021
 20
276.9340582151
 11
140.6370759698
 21
276.9575515827
  0
LINE
  5
2AF
100
AcDbEntity
  8
00_COMPONENTS_1
100
AcDbLine
 62
7
  6
CONTINUOUS
 10
259.0159739315
 20
392.6758607995
 11
258.9924805639
 21
392.6523674318
  0
LINE
  5
2B0
100
AcDbEntity
  8
00_COMPONENTS_1
100
AcDbLine
 62
7
  6
CONTINUOUS
 10
260.4438772217
 20
394.1037640896
 11
260.4673703423
 21
394.1272572102
  0
LINE
  5
2B1
100
AcDbEntity
  8
00_COMPONENTS_1
100
AcDbLine
 62
7
  6
CONTINUOUS
 10
258.5697255571
 20
392.0599067975
 11
259.0139936757
 21
392.5041749161
  0
LINE
  5
2B2
100
AcDbEntity
  8
00_COMPONENTS_1
100
AcDbLine
 62
7
  6
CONTINUOUS
 10
260.615562858
 20
394.1057440984
 11
261.0598309766
 21
394.550012217
  0
LINE
  5
2B3
100
AcDbEntity
  8
00_COMPONENTS_1
100
AcDbLine
 62
7
  6
CONTINUOUS
 10
259.185679312
 20
392.5061549249
 11
259.1621861914
 21
392.4826618043
  0
LINE
  5
2B4
100
AcDbEntity
  8
00_COMPONENTS_1
100
AcDbLine
 62
7
  6
CONTINUOUS
 10
260.6135826021
 20
393.9340582151
 11
260.6370759698
 21
393.9575515827
  0
LINE
  5
2B5
100
AcDbEntity
  8
00_COMPONENTS_1
100
AcDbLine
 62
7
  6
CONTINUOUS
 10
94.4759943114
 20
333.9826801087
 11
94.6316152326
 21
333.9881225415
  0
LINE
  5
2B6
100
AcDbEntity
  8
00_COMPONENTS_1
100
AcDbLine
 62
7
  6
CONTINUOUS
 10
93.1535622223
 20
335.6272389058
 11
92.9979413011
 21
335.621796473
  0
LINE
  5
2B7
100
AcDbEntity
  8
00_COMPONENTS_1
100
AcDbLine
 62
7
  6
CONTINUOUS
 10
91.8180163975
 20
334.2899595073
 11
92.9008147239
 21
334.2899595073
  0
LINE
  5
2B8
100
AcDbEntity
  8
00_COMPONENTS_1
100
AcDbLine
 62
7
  6
CONTINUOUS
 10
94.7287423096
 20
334.2899595073
 11
95.8115401361
 21
334.2899595073
  0
LINE
  5
2B9
100
AcDbEntity
  8
00_COMPONENTS_1
100
AcDbLine
 62
7
  6
CONTINUOUS
 10
423.8180163975
 20
334.2899595073
 11
424.9008147239
 21
334.2899595073
  0
LINE
  5
2BA
100
AcDbEntity
  8
00_COMPONENTS_1
100
AcDbLine
 62
7
  6
CONTINUOUS
 10
426.7287423096
 20
334.2899595073
 11
427.8115401361
 21
334.2899595073
  0
LINE
  5
2BB
100
AcDbEntity
  8
00_COMPONENTS_1
100
AcDbLine
 62
7
  6
CONTINUOUS
 10
424.9008142241
 20
335.3199595073
 11
423.8180163975
 21
335.3199595073
  0
LINE
  5
2BC
100
AcDbEntity
  8
00_COMPONENTS_1
100
AcDbLine
 62
7
  6
CONTINUOUS
 10
92.9008142241
 20
335.3199595073
 11
91.8180163975
 21
335.3199595073
  0
LINE
  5
2BD
100
AcDbEntity
  8
00_COMPONENTS_1
100
AcDbLine
 62
7
  6
CONTINUOUS
 10
94.7287418098
 20
335.3199595073
 11
95.8115401361
 21
335.3199595073
  0
LINE
  5
2BE
100
AcDbEntity
  8
00_COMPONENTS_1
100
AcDbLine
 62
7
  6
CONTINUOUS
 10
426.7287418098
 20
335.3199595073
 11
427.8115401361
 21
335.3199595073
  0
LINE
  5
2BF
100
AcDbEntity
  8
00_COMPONENTS_1
100
AcDbLine
 62
7
  6
CONTINUOUS
 10
425.104757903
 20
333.9827892791
 11
424.9963976536
 21
333.9865788941
  0
LINE
  5
2C0
100
AcDbEntity
  8
00_COMPONENTS_1
100
AcDbLine
 62
7
  6
CONTINUOUS
 10
426.5247986307
 20
335.6271297354
 11
426.63315888
 21
335.6233401205
  0
LINE
  5
2C1
100
AcDbEntity
  8
00_COMPONENTS_1
100
AcDbLine
 62
7
  6
CONTINUOUS
 10
258.9926080387
 20
275.5949391434
 11
258.9963976536
 21
275.4865788941
  0
LINE
  5
2C2
100
AcDbEntity
  8
00_COMPONENTS_1
100
AcDbLine
 62
7
  6
CONTINUOUS
 10
260.636948495
 20
277.0149798711
 11
260.63315888
 21
277.1233401205
  0
LINE
  5
2C3
100
AcDbEntity
  8
00_COMPONENTS_1
100
AcDbLine
 62
7
  6
CONTINUOUS
 10
258.9926080387
 20
392.5949391434
 11
258.9963976536
 21
392.4865788941
  0
LINE
  5
2C4
100
AcDbEntity
  8
00_COMPONENTS_1
100
AcDbLine
 62
7
  6
CONTINUOUS
 10
259.2997782668
 20
274.308197638
 11
259.2997782668
 21
275.3909954647
  0
LINE
  5
2C5
100
AcDbEntity
  8
00_COMPONENTS_1
100
AcDbLine
 62
7
  6
CONTINUOUS
 10
259.2997782668
 20
277.2189230502
 11
259.2997782668
 21
278.3017213766
  0
LINE
  5
2C6
100
AcDbEntity
  8
00_COMPONENTS_1
100
AcDbLine
 62
7
  6
CONTINUOUS
 10
259.2997782668
 20
391.308197638
 11
259.2997782668
 21
392.3909954647
  0
LINE
  5
2C7
100
AcDbEntity
  8
00_COMPONENTS_1
100
AcDbLine
 62
7
  6
CONTINUOUS
 10
259.2997782668
 20
394.2189230502
 11
259.2997782668
 21
395.3017213766
  0
LINE
  5
2C8
100
AcDbEntity
  8
00_COMPONENTS_1
100
AcDbLine
 62
7
  6
CONTINUOUS
 10
260.3297782668
 20
392.3909959643
 11
260.3297782668
 21
391.308197638
  0
LINE
  5
2C9
100
AcDbEntity
  8
00_COMPONENTS_1
100
AcDbLine
 62
7
  6
CONTINUOUS
 10
260.3297782668
 20
275.3909959643
 11
260.3297782668
 21
274.308197638
  0
LINE
  5
2CA
100
AcDbEntity
  8
00_COMPONENTS_1
100
AcDbLine
 62
7
  6
CONTINUOUS
 10
260.3297782668
 20
277.21892355
 11
260.3297782668
 21
278.3017213766
  0
LINE
  5
2CB
100
AcDbEntity
  8
00_COMPONENTS_1
100
AcDbLine
 62
7
  6
CONTINUOUS
 10
260.3297782668
 20
394.21892355
 11
260.3297782668
 21
395.3017213766
  0
LINE
  5
2CC
100
AcDbEntity
  8
00_COMPONENTS_1
100
AcDbLine
 62
7
  6
CONTINUOUS
 10
258.9924988683
 20
393.9661755518
 11
258.9979413011
 21
394.121796473
  0
LINE
  5
2CD
100
AcDbEntity
  8
00_COMPONENTS_1
100
AcDbLine
 62
7
  6
CONTINUOUS
 10
260.6316152326
 20
392.4881225415
 11
260.6370576654
 21
392.6437434627
  0
LINE
  5
2CE
100
AcDbEntity
  8
00_COMPONENTS_1
100
AcDbLine
 62
7
  6
CONTINUOUS
 10
260.636948495
 20
394.0149798711
 11
260.63315888
 21
394.1233401205
  0
LINE
  5
2CF
100
AcDbEntity
  8
00_COMPONENTS_1
100
AcDbLine
 62
7
  6
CONTINUOUS
 10
258.9924988683
 20
276.9661755518
 11
258.9979413011
 21
277.121796473
  0
LINE
  5
2D0
100
AcDbEntity
  8
00_COMPONENTS_1
100
AcDbLine
 62
7
  6
CONTINUOUS
 10
260.6316152326
 20
275.4881225415
 11
260.6370576654
 21
275.6437434627
  0
LINE
  5
2D1
100
AcDbEntity
  8
00_COMPONENTS_1
100
AcDbLine
 62
7
  6
CONTINUOUS
 10
380.4759943114
 20
392.4826801087
 11
380.6316152326
 21
392.4881225415
  0
LINE
  5
2D2
100
AcDbEntity
  8
00_COMPONENTS_1
100
AcDbLine
 62
7
  6
CONTINUOUS
 10
379.1535622223
 20
394.1272389058
 11
378.9979413011
 21
394.121796473
  0
LINE
  5
2D3
100
AcDbEntity
  8
00_COMPONENTS_30
100
AcDbLine
 62
7
  6
CONTINUOUS
 10
436.2429775292
 20
377.0549595073
 11
433.1966976935
 21
377.0549595073
  0
LINE
  5
2D4
100
AcDbEntity
  8
00_COMPONENTS_30
100
AcDbLine
 62
7
  6
CONTINUOUS
 10
86.4328588401
 20
377.0549595128
 11
83.3865790044
 21
377.0549595073
  0
LINE
  5
2D5
100
AcDbEntity
  8
00_COMPONENTS_30
100
AcDbLine
 62
7
  6
CONTINUOUS
 10
437.5647782668
 20
378.0549595073
 11
437.0647782668
 21
378.0549595073
  0
LINE
  5
2D6
100
AcDbEntity
  8
00_COMPONENTS_30
100
AcDbLine
 62
7
  6
CONTINUOUS
 10
82.5647782668
 20
378.0549595073
 11
82.0647782668
 21
378.0549595073
  0
LINE
  5
2D7
100
AcDbEntity
  8
00_COMPONENTS_1
100
AcDbLine
 62
7
  6
CONTINUOUS
 10
139.104757903
 20
392.4827892791
 11
138.9963976536
 21
392.4865788941
  0
LINE
  5
2D8
100
AcDbEntity
  8
00_COMPONENTS_1
100
AcDbLine
 62
7
  6
CONTINUOUS
 10
140.5247986307
 20
394.1271297354
 11
140.63315888
 21
394.1233401205
  0
LINE
  5
2D9
100
AcDbEntity
  8
00_COMPONENTS_1
100
AcDbLine
 62
7
  6
CONTINUOUS
 10
259.0159736845
 20
393.9340584621
 11
258.9924805639
 21
393.9575515827
  0
LINE
  5
2DA
100
AcDbEntity
  8
00_COMPONENTS_1
100
AcDbLine
 62
7
  6
CONTINUOUS
 10
260.4438769747
 20
392.506155172
 11
260.4673703423
 21
392.4826618043
  0
LINE
  5
2DB
100
AcDbEntity
  8
00_COMPONENTS_1
100
AcDbLine
 62
7
  6
CONTINUOUS
 10
258.4250137859
 20
394.6947239882
 11
259.0139936757
 21
394.1057440984
  0
LINE
  5
2DC
100
AcDbEntity
  8
00_COMPONENTS_1
100
AcDbLine
 62
7
  6
CONTINUOUS
 10
260.615562858
 20
392.5041749161
 11
261.2045427478
 21
391.9151950263
  0
LINE
  5
2DD
100
AcDbEntity
  8
00_COMPONENTS_1
100
AcDbLine
 62
7
  6
CONTINUOUS
 10
259.185679559
 20
394.1037638426
 11
259.1621861914
 21
394.1272572102
  0
LINE
  5
2DE
100
AcDbEntity
  8
00_COMPONENTS_1
100
AcDbLine
 62
7
  6
CONTINUOUS
 10
260.6135828492
 20
392.6758605524
 11
260.6370759698
 21
392.6523674318
  0
LINE
  5
2DF
100
AcDbEntity
  8
00_COMPONENTS_1
100
AcDbLine
 62
7
  6
CONTINUOUS
 10
379.0159736845
 20
276.9340584621
 11
378.9924805639
 21
276.9575515827
  0
LINE
  5
2E0
100
AcDbEntity
  8
00_COMPONENTS_1
100
AcDbLine
 62
7
  6
CONTINUOUS
 10
380.4438769747
 20
275.506155172
 11
380.4673703423
 21
275.4826618043
  0
LINE
  5
2E1
100
AcDbEntity
  8
00_COMPONENTS_1
100
AcDbLine
 62
7
  6
CONTINUOUS
 10
378.4250137859
 20
277.6947239882
 11
379.0139936757
 21
277.1057440984
  0
LINE
  5
2E2
100
AcDbEntity
  8
00_COMPONENTS_1
100
AcDbLine
 62
7
  6
CONTINUOUS
 10
380.615562858
 20
275.5041749161
 11
381.2045427478
 21
274.9151950263
  0
LINE
  5
2E3
100
AcDbEntity
  8
00_COMPONENTS_1
100
AcDbLine
 62
7
  6
CONTINUOUS
 10
379.185679559
 20
277.1037638426
 11
379.1621861914
 21
277.1272572102
  0
LINE
  5
2E4
100
AcDbEntity
  8
00_COMPONENTS_1
100
AcDbLine
 62
7
  6
CONTINUOUS
 10
380.6135828492
 20
275.6758605524
 11
380.6370759698
 21
275.6523674318
  0
LINE
  5
2E5
100
AcDbEntity
  8
00_COMPONENTS_1
100
AcDbLine
 62
7
  6
CONTINUOUS
 10
260.4759943114
 20
392.4826801087
 11
260.6316152326
 21
392.4881225415
  0
LINE
  5
2E6
100
AcDbEntity
  8
00_COMPONENTS_1
100
AcDbLine
 62
7
  6
CONTINUOUS
 10
259.1535622223
 20
394.1272389058
 11
258.9979413011
 21
394.121796473
  0
LINE
  5
2E7
100
AcDbEntity
  8
00_COMPONENTS_1
100
AcDbLine
 62
7
  6
CONTINUOUS
 10
140.4759943114
 20
392.4826801087
 11
140.6316152326
 21
392.4881225415
  0
LINE
  5
2E8
100
AcDbEntity
  8
00_COMPONENTS_1
100
AcDbLine
 62
7
  6
CONTINUOUS
 10
139.1535622223
 20
394.1272389058
 11
138.9979413011
 21
394.121796473
  0
LINE
  5
2E9
100
AcDbEntity
  8
00_COMPONENTS_1
100
AcDbLine
 62
7
  6
CONTINUOUS
 10
137.8180163975
 20
392.7899595073
 11
138.9008147239
 21
392.7899595073
  0
LINE
  5
2EA
100
AcDbEntity
  8
00_COMPONENTS_1
100
AcDbLine
 62
7
  6
CONTINUOUS
 10
140.7287423096
 20
392.7899595073
 11
141.8115401361
 21
392.7899595073
  0
LINE
  5
2EB
100
AcDbEntity
  8
00_COMPONENTS_1
100
AcDbLine
 62
7
  6
CONTINUOUS
 10
257.8180163975
 20
392.7899595073
 11
258.9008147239
 21
392.7899595073
  0
LINE
  5
2EC
100
AcDbEntity
  8
00_COMPONENTS_1
100
AcDbLine
 62
7
  6
CONTINUOUS
 10
260.7287423096
 20
392.7899595073
 11
261.8115401361
 21
392.7899595073
  0
LINE
  5
2ED
100
AcDbEntity
  8
00_COMPONENTS_1
100
AcDbLine
 62
7
  6
CONTINUOUS
 10
377.8180163975
 20
392.7899595073
 11
378.9008147239
 21
392.7899595073
  0
LINE
  5
2EE
100
AcDbEntity
  8
00_COMPONENTS_1
100
AcDbLine
 62
7
  6
CONTINUOUS
 10
380.7287423096
 20
392.7899595073
 11
381.8115401361
 21
392.7899595073
  0
LINE
  5
2EF
100
AcDbEntity
  8
00_COMPONENTS_1
100
AcDbLine
 62
7
  6
CONTINUOUS
 10
378.9008142241
 20
393.8199595073
 11
377.8180163975
 21
393.8199595073
  0
LINE
  5
2F0
100
AcDbEntity
  8
00_COMPONENTS_1
100
AcDbLine
 62
7
  6
CONTINUOUS
 10
258.9008142241
 20
393.8199595073
 11
257.8180163975
 21
393.8199595073
  0
LINE
  5
2F1
100
AcDbEntity
  8
00_COMPONENTS_1
100
AcDbLine
 62
7
  6
CONTINUOUS
 10
138.9008142241
 20
393.8199595073
 11
137.8180163975
 21
393.8199595073
  0
LINE
  5
2F2
100
AcDbEntity
  8
00_COMPONENTS_1
100
AcDbLine
 62
7
  6
CONTINUOUS
 10
140.7287418098
 20
393.8199595073
 11
141.8115401361
 21
393.8199595073
  0
LINE
  5
2F3
100
AcDbEntity
  8
00_COMPONENTS_1
100
AcDbLine
 62
7
  6
CONTINUOUS
 10
260.7287418098
 20
393.8199595073
 11
261.8115401361
 21
393.8199595073
  0
LINE
  5
2F4
100
AcDbEntity
  8
00_COMPONENTS_1
100
AcDbLine
 62
7
  6
CONTINUOUS
 10
380.7287418098
 20
393.8199595073
 11
381.8115401361
 21
393.8199595073
  0
LINE
  5
2F5
100
AcDbEntity
  8
00_COMPONENTS_2
100
AcDbLine
 62
7
  6
CONTINUOUS
 10
112.3147782668
 20
399.8049595073
 11
407.3147782668
 21
399.8049595073
  0
LINE
  5
2F6
100
AcDbEntity
  8
00_COMPONENTS_30
100
AcDbLine
 62
7
  6
CONTINUOUS
 10
409.5647782668
 20
400.686878934
 11
110.0647782668
 21
400.686878934
  0
LINE
  5
2F7
100
AcDbEntity
  8
00_COMPONENTS_30
100
AcDbLine
 62
7
  6
CONTINUOUS
 10
110.0647782682
 20
401.6716866869
 11
409.5647782685
 21
401.6716866869
  0
LINE
  5
2F8
100
AcDbEntity
  8
00_COMPONENTS_30
100
AcDbLine
 62
7
  6
CONTINUOUS
 10
409.5647782669
 20
401.7635432636
 11
110.0647782673
 21
401.7635432636
  0
LINE
  5
2F9
100
AcDbEntity
  8
00_COMPONENTS_30
100
AcDbLine
 62
7
  6
CONTINUOUS
 10
110.0647799933
 20
403.7331589652
 11
409.5647868974
 21
403.7331589652
  0
LINE
  5
2FA
100
AcDbEntity
  8
00_COMPONENTS_30
100
AcDbLine
 62
7
  6
CONTINUOUS
 10
109.0647782668
 20
404.5549595073
 11
410.5647782668
 21
404.5549595073
  0
LINE
  5
2FB
100
AcDbEntity
  8
00_COMPONENTS_30
100
AcDbLine
 62
7
  6
CONTINUOUS
 10
109.0647782668
 20
405.0549595073
 11
410.5647782668
 21
405.0549595073
  0
LINE
  5
2FC
100
AcDbEntity
  8
00_COMPONENTS_1
100
AcDbLine
 62
7
  6
CONTINUOUS
 10
259.104757903
 20
392.4827892791
 11
258.9963976536
 21
392.4865788941
  0
LINE
  5
2FD
100
AcDbEntity
  8
00_COMPONENTS_1
100
AcDbLine
 62
7
  6
CONTINUOUS
 10
260.5247986307
 20
394.1271297354
 11
260.63315888
 21
394.1233401205
  0
LINE
  5
2FE
100
AcDbEntity
  8
00_COMPONENTS_1
100
AcDbLine
 62
7
  6
CONTINUOUS
 10
379.104757903
 20
392.4827892791
 11
378.9963976536
 21
392.4865788941
  0
LINE
  5
2FF
100
AcDbEntity
  8
00_COMPONENTS_1
100
AcDbLine
 62
7
  6
CONTINUOUS
 10
380.5247986307
 20
394.1271297354
 11
380.63315888
 21
394.1233401205
  0
LINE
  5
300
100
AcDbEntity
  8
00_COMPONENTS_25
100
AcDbLine
 62
7
  6
CONTINUOUS
 10
99.3661106274
 20
463.768048236
 11
99.3602749821
 21
463.7701617292
  0
LINE
  5
301
100
AcDbEntity
  8
00_COMPONENTS_1
100
AcDbLine
 62
7
  6
CONTINUOUS
 10
259.0159739315
 20
275.6758607995
 11
258.9924805639
 21
275.6523674318
  0
LINE
  5
302
100
AcDbEntity
  8
00_COMPONENTS_1
100
AcDbLine
 62
7
  6
CONTINUOUS
 10
260.4438772217
 20
277.1037640896
 11
260.4673703423
 21
277.1272572102
  0
LINE
  5
303
100
AcDbEntity
  8
00_COMPONENTS_1
100
AcDbLine
 62
7
  6
CONTINUOUS
 10
258.5697255571
 20
275.0599067975
 11
259.0139936757
 21
275.5041749161
  0
LINE
  5
304
100
AcDbEntity
  8
00_COMPONENTS_1
100
AcDbLine
 62
7
  6
CONTINUOUS
 10
260.615562858
 20
277.1057440984
 11
261.0598309766
 21
277.550012217
  0
LINE
  5
305
100
AcDbEntity
  8
00_COMPONENTS_1
100
AcDbLine
 62
7
  6
CONTINUOUS
 10
259.185679312
 20
275.5061549249
 11
259.1621861914
 21
275.4826618043
  0
LINE
  5
306
100
AcDbEntity
  8
00_COMPONENTS_1
100
AcDbLine
 62
7
  6
CONTINUOUS
 10
260.6135826021
 20
276.9340582151
 11
260.6370759698
 21
276.9575515827
  0
LINE
  5
307
100
AcDbEntity
  8
00_COMPONENTS_1
100
AcDbLine
 62
7
  6
CONTINUOUS
 10
379.0159739315
 20
392.6758607995
 11
378.9924805639
 21
392.6523674318
  0
LINE
  5
308
100
AcDbEntity
  8
00_COMPONENTS_1
100
AcDbLine
 62
7
  6
CONTINUOUS
 10
380.4438772217
 20
394.1037640896
 11
380.4673703423
 21
394.1272572102
  0
LINE
  5
309
100
AcDbEntity
  8
00_COMPONENTS_1
100
AcDbLine
 62
7
  6
CONTINUOUS
 10
378.5697255571
 20
392.0599067975
 11
379.0139936757
 21
392.5041749161
  0
LINE
  5
30A
100
AcDbEntity
  8
00_COMPONENTS_1
100
AcDbLine
 62
7
  6
CONTINUOUS
 10
380.615562858
 20
394.1057440984
 11
381.0598309766
 21
394.550012217
  0
LINE
  5
30B
100
AcDbEntity
  8
00_COMPONENTS_1
100
AcDbLine
 62
7
  6
CONTINUOUS
 10
379.185679312
 20
392.5061549249
 11
379.1621861914
 21
392.4826618043
  0
LINE
  5
30C
100
AcDbEntity
  8
00_COMPONENTS_1
100
AcDbLine
 62
7
  6
CONTINUOUS
 10
380.6135826021
 20
393.9340582151
 11
380.6370759698
 21
393.9575515827
  0
LINE
  5
30D
100
AcDbEntity
  8
00_COMPONENTS_25
100
AcDbLine
 62
7
  6
CONTINUOUS
 10
104.4840473231
 20
463.7511892949
 11
104.3627411319
 21
463.7871031942
  0
LINE
  5
30E
100
AcDbEntity
  8
00_COMPONENTS_25
100
AcDbLine
 62
7
  6
CONTINUOUS
 10
119.3207048872
 20
463.7939579777
 11
119.3733782264
 21
463.7777813119
  0
LINE
  5
30F
100
AcDbEntity
  8
00_COMPONENTS_25
100
AcDbLine
 62
7
  6
CONTINUOUS
 10
104.4843140065
 20
463.7513592874
 11
104.3741399901
 21
463.7857204491
  0
LINE
  5
310
100
AcDbEntity
  8
00_COMPONENTS_25
100
AcDbLine
 62
7
  6
CONTINUOUS
 10
114.3162282643
 20
463.7944430453
 11
114.318707136
 21
463.7936640228
  0
LINE
  5
311
100
AcDbEntity
  8
00_COMPONENTS_25
100
AcDbLine
 62
7
  6
CONTINUOUS
 10
114.3162282643
 20
463.7944430453
 11
114.3177390462
 21
463.7939579092
  0
LINE
  5
312
100
AcDbEntity
  8
00_COMPONENTS_25
100
AcDbLine
 62
7
  6
CONTINUOUS
 10
99.3661106274
 20
463.768048236
 11
99.3598714687
 21
463.7700666154
  0
LINE
  5
313
100
AcDbEntity
  8
00_COMPONENTS_25
100
AcDbLine
 62
7
  6
CONTINUOUS
 10
99.5367339753
 20
463.7102637838
 11
99.3661106274
 21
463.768048236
  0
LINE
  5
314
100
AcDbEntity
  8
00_COMPONENTS_30
100
AcDbLine
 62
7
  6
CONTINUOUS
 10
459.8147782668
 20
428.6049595073
 11
59.8147782668
 21
428.6049595073
  0
LINE
  5
315
100
AcDbEntity
  8
00_COMPONENTS_10
100
AcDbLine
 62
7
  6
CONTINUOUS
 10
458.0141749228
 20
431.7946628959
 11
456.6396310971
 21
431.7946628959
  0
LINE
  5
316
100
AcDbEntity
  8
00_COMPONENTS_30
100
AcDbLine
 62
7
  6
CONTINUOUS
 10
63.0147782668
 20
431.8049595073
 11
456.6147782668
 21
431.8049595073
  0
LINE
  5
317
100
AcDbEntity
  8
00_COMPONENTS_10
100
AcDbLine
 62
7
  6
CONTINUOUS
 10
442.5141749228
 20
433.2946628959
 11
456.2141749228
 21
433.2946628959
  0
LINE
  5
318
100
AcDbEntity
  8
00_COMPONENTS_10
100
AcDbLine
 62
7
  6
CONTINUOUS
 10
448.5827228037
 20
433.9946628959
 11
455.377777597
 21
433.9946628959
  0
LINE
  5
319
100
AcDbEntity
  8
00_COMPONENTS_30
100
AcDbLine
 62
7
  6
CONTINUOUS
 10
80.333465809
 20
434.1865774981
 11
439.2960907246
 21
434.1865774981
  0
LINE
  5
31A
100
AcDbEntity
  8
00_COMPONENTS_4
100
AcDbLine
 62
7
  6
CONTINUOUS
 10
63.7065315508
 20
437.8049595073
 11
455.9230249829
 21
437.8049595073
  0
LINE
  5
31B
100
AcDbEntity
  8
00_COMPONENTS_4
100
AcDbLine
 62
7
  6
CONTINUOUS
 10
61.8147782668
 20
438.9049595073
 11
457.8147782668
 21
438.9049595073
  0
LWPOLYLINE
  5
31C
100
AcDbEntity
  8
00_COMPONENTS_25
100
AcDbPolyline
 62
7
  6
CONTINUOUS
 90
3
 70
0
 10
124.2695746538
 20
463.7703781213
 10
124.2516834223
 20
463.771963901
 10
124.1838536738
 20
463.7632107142
  0
LWPOLYLINE
  5
31D
100
AcDbEntity
  8
00_COMPONENTS_25
100
AcDbPolyline
 62
7
  6
CONTINUOUS
 90
3
 70
0
 10
99.4457028599
 20
463.7632107142
 10
99.3778720298
 20
463.7719638539
 10
99.3599818799
 20
463.7703781213
  0
LINE
  5
31E
100
AcDbEntity
  8
00_COMPONENTS_4
100
AcDbLine
 62
7
  6
CONTINUOUS
 10
448.3313335618
 20
457.4432635958
 11
448.1597072897
 21
457.1981558774
  0
LINE
  5
31F
100
AcDbEntity
  8
00_COMPONENTS_4
100
AcDbLine
 62
7
  6
CONTINUOUS
 10
450.097497844
 20
454.9858074629
 11
450.6710742803
 21
455.8049595072
  0
LINE
  5
320
100
AcDbEntity
  8
00_COMPONENTS_4
100
AcDbLine
 62
7
  6
CONTINUOUS
 10
71.6981753867
 20
457.8049595073
 11
447.9313811469
 21
457.8049595073
  0
LINE
  5
321
100
AcDbEntity
  8
00_COMPONENTS_25
100
AcDbLine
 62
7
  6
CONTINUOUS
 10
123.4356492027
 20
458.6435747912
 11
100.1939036957
 21
458.6435747912
  0
LINE
  5
322
100
AcDbEntity
  8
00_COMPONENTS_25
100
AcDbLine
 62
7
  6
CONTINUOUS
 10
100.2734908121
 20
459.3860266993
 11
123.356072666
 21
459.3860266993
  0
LINE
  5
323
100
AcDbEntity
  8
00_COMPONENTS_25
100
AcDbLine
 62
7
  6
CONTINUOUS
 10
127.7400618525
 20
459.9445576721
 11
126.3826894926
 21
459.9445576721
  0
LINE
  5
324
100
AcDbEntity
  8
00_COMPONENTS_25
100
AcDbLine
 62
7
  6
CONTINUOUS
 10
97.2468672209
 20
459.9445576721
 11
95.8894946811
 21
459.9445576721
  0
LINE
  5
325
100
AcDbEntity
  8
00_COMPONENTS_1
100
AcDbLine
 62
7
  6
CONTINUOUS
 10
425.0159736845
 20
335.4340584621
 11
424.9924805639
 21
335.4575515827
  0
LINE
  5
326
100
AcDbEntity
  8
00_COMPONENTS_1
100
AcDbLine
 62
7
  6
CONTINUOUS
 10
426.4438769747
 20
334.006155172
 11
426.4673703423
 21
333.9826618043
  0
LINE
  5
327
100
AcDbEntity
  8
00_COMPONENTS_1
100
AcDbLine
 62
7
  6
CONTINUOUS
 10
424.4250137859
 20
336.1947239882
 11
425.0139936757
 21
335.6057440984
  0
LINE
  5
328
100
AcDbEntity
  8
00_COMPONENTS_1
100
AcDbLine
 62
7
  6
CONTINUOUS
 10
426.615562858
 20
334.0041749161
 11
427.2045427478
 21
333.4151950263
  0
LINE
  5
329
100
AcDbEntity
  8
00_COMPONENTS_1
100
AcDbLine
 62
7
  6
CONTINUOUS
 10
425.185679559
 20
335.6037638426
 11
425.1621861914
 21
335.6272572102
  0
LINE
  5
32A
100
AcDbEntity
  8
00_COMPONENTS_1
100
AcDbLine
 62
7
  6
CONTINUOUS
 10
426.6135828492
 20
334.1758605524
 11
426.6370759698
 21
334.1523674318
  0
LINE
  5
32B
100
AcDbEntity
  8
00_COMPONENTS_1
100
AcDbLine
 62
7
  6
CONTINUOUS
 10
378.9926080387
 20
275.5949391434
 11
378.9963976536
 21
275.4865788941
  0
LINE
  5
32C
100
AcDbEntity
  8
00_COMPONENTS_1
100
AcDbLine
 62
7
  6
CONTINUOUS
 10
380.636948495
 20
277.0149798711
 11
380.63315888
 21
277.1233401205
  0
LINE
  5
32D
100
AcDbEntity
  8
00_COMPONENTS_1
100
AcDbLine
 62
7
  6
CONTINUOUS
 10
378.9926080387
 20
392.5949391434
 11
378.9963976536
 21
392.4865788941
  0
LINE
  5
32E
100
AcDbEntity
  8
00_COMPONENTS_1
100
AcDbLine
 62
7
  6
CONTINUOUS
 10
380.636948495
 20
394.0149798711
 11
380.63315888
 21
394.1233401205
  0
LINE
  5
32F
100
AcDbEntity
  8
00_COMPONENTS_1
100
AcDbLine
 62
7
  6
CONTINUOUS
 10
379.2997782668
 20
274.308197638
 11
379.2997782668
 21
275.3909954647
  0
LINE
  5
330
100
AcDbEntity
  8
00_COMPONENTS_1
100
AcDbLine
 62
7
  6
CONTINUOUS
 10
379.2997782668
 20
277.2189230502
 11
379.2997782668
 21
278.3017213766
  0
LINE
  5
331
100
AcDbEntity
  8
00_COMPONENTS_1
100
AcDbLine
 62
7
  6
CONTINUOUS
 10
379.2997782668
 20
391.308197638
 11
379.2997782668
 21
392.3909954647
  0
LINE
  5
332
100
AcDbEntity
  8
00_COMPONENTS_1
100
AcDbLine
 62
7
  6
CONTINUOUS
 10
379.2997782668
 20
394.2189230502
 11
379.2997782668
 21
395.3017213766
  0
LINE
  5
333
100
AcDbEntity
  8
00_COMPONENTS_1
100
AcDbLine
 62
7
  6
CONTINUOUS
 10
380.3297782668
 20
392.3909959643
 11
380.3297782668
 21
391.308197638
  0
LINE
  5
334
100
AcDbEntity
  8
00_COMPONENTS_1
100
AcDbLine
 62
7
  6
CONTINUOUS
 10
380.3297782668
 20
275.3909959643
 11
380.3297782668
 21
274.308197638
  0
LINE
  5
335
100
AcDbEntity
  8
00_COMPONENTS_1
100
AcDbLine
 62
7
  6
CONTINUOUS
 10
380.3297782668
 20
277.21892355
 11
380.3297782668
 21
278.3017213766
  0
LINE
  5
336
100
AcDbEntity
  8
00_COMPONENTS_1
100
AcDbLine
 62
7
  6
CONTINUOUS
 10
380.3297782668
 20
394.21892355
 11
380.3297782668
 21
395.3017213766
  0
LINE
  5
337
100
AcDbEntity
  8
00_COMPONENTS_1
100
AcDbLine
 62
7
  6
CONTINUOUS
 10
378.9924988683
 20
393.9661755518
 11
378.9979413011
 21
394.121796473
  0
LINE
  5
338
100
AcDbEntity
  8
00_COMPONENTS_1
100
AcDbLine
 62
7
  6
CONTINUOUS
 10
380.6316152326
 20
392.4881225415
 11
380.6370576654
 21
392.6437434627
  0
LINE
  5
339
100
AcDbEntity
  8
00_COMPONENTS_1
100
AcDbLine
 62
7
  6
CONTINUOUS
 10
378.9924988683
 20
276.9661755518
 11
378.9979413011
 21
277.121796473
  0
LINE
  5
33A
100
AcDbEntity
  8
00_COMPONENTS_30
100
AcDbLine
 62
7
  6
CONTINUOUS
 10
79.3518386255
 20
434.186577498
 11
80.333465809
 21
434.3773864934
  0
LINE
  5
33B
100
AcDbEntity
  8
00_COMPONENTS_30
100
AcDbLine
 62
7
  6
CONTINUOUS
 10
439.2960907246
 20
434.3773864933
 11
440.2777182051
 21
434.1865790256
  0
LINE
  5
33C
100
AcDbEntity
  8
00_COMPONENTS_1
100
AcDbLine
 62
7
  6
CONTINUOUS
 10
379.0159736845
 20
393.9340584621
 11
378.9924805639
 21
393.9575515827
  0
LINE
  5
33D
100
AcDbEntity
  8
00_COMPONENTS_1
100
AcDbLine
 62
7
  6
CONTINUOUS
 10
380.4438769747
 20
392.506155172
 11
380.4673703423
 21
392.4826618043
  0
LINE
  5
33E
100
AcDbEntity
  8
00_COMPONENTS_1
100
AcDbLine
 62
7
  6
CONTINUOUS
 10
378.4250137859
 20
394.6947239882
 11
379.0139936757
 21
394.1057440984
  0
LINE
  5
33F
100
AcDbEntity
  8
00_COMPONENTS_1
100
AcDbLine
 62
7
  6
CONTINUOUS
 10
380.615562858
 20
392.5041749161
 11
381.2045427478
 21
391.9151950263
  0
LINE
  5
340
100
AcDbEntity
  8
00_COMPONENTS_1
100
AcDbLine
 62
7
  6
CONTINUOUS
 10
379.185679559
 20
394.1037638426
 11
379.1621861914
 21
394.1272572102
  0
LINE
  5
341
100
AcDbEntity
  8
00_COMPONENTS_1
100
AcDbLine
 62
7
  6
CONTINUOUS
 10
380.6135828492
 20
392.6758605524
 11
380.6370759698
 21
392.6523674318
  0
LINE
  5
342
100
AcDbEntity
  8
00_COMPONENTS_1
100
AcDbLine
 62
7
  6
CONTINUOUS
 10
380.6316152326
 20
275.4881225415
 11
380.6370576654
 21
275.6437434627
  0
LINE
  5
343
100
AcDbEntity
  8
00_COMPONENTS_1
100
AcDbLine
 62
7
  6
CONTINUOUS
 10
425.0159739315
 20
334.1758607995
 11
424.9924805639
 21
334.1523674318
  0
LINE
  5
344
100
AcDbEntity
  8
00_COMPONENTS_1
100
AcDbLine
 62
7
  6
CONTINUOUS
 10
426.4438772217
 20
335.6037640896
 11
426.4673703423
 21
335.6272572102
  0
LINE
  5
345
100
AcDbEntity
  8
00_COMPONENTS_1
100
AcDbLine
 62
7
  6
CONTINUOUS
 10
424.5697255571
 20
333.5599067975
 11
425.0139936757
 21
334.0041749161
  0
LINE
  5
346
100
AcDbEntity
  8
00_COMPONENTS_1
100
AcDbLine
 62
7
  6
CONTINUOUS
 10
426.615562858
 20
335.6057440984
 11
427.0598309766
 21
336.050012217
  0
LINE
  5
347
100
AcDbEntity
  8
00_COMPONENTS_1
100
AcDbLine
 62
7
  6
CONTINUOUS
 10
425.185679312
 20
334.0061549249
 11
425.1621861914
 21
333.9826618043
  0
LINE
  5
348
100
AcDbEntity
  8
00_COMPONENTS_1
100
AcDbLine
 62
7
  6
CONTINUOUS
 10
426.6135826021
 20
335.4340582151
 11
426.6370759698
 21
335.4575515827
  0
LINE
  5
349
100
AcDbEntity
  8
00_COMPONENTS_30
100
AcDbLine
 62
7
  6
CONTINUOUS
 10
409.5647782668
 20
265.8767602449
 11
409.5647782668
 21
268.9230400806
  0
LINE
  5
34A
100
AcDbEntity
  8
00_COMPONENTS_30
100
AcDbLine
 62
7
  6
CONTINUOUS
 10
409.5647782724
 20
400.686878934
 11
409.5647782668
 21
403.7331587697
  0
LINE
  5
34B
100
AcDbEntity
  8
00_COMPONENTS_30
100
AcDbLine
 62
7
  6
CONTINUOUS
 10
410.5647782668
 20
264.5549595073
 11
410.5647782668
 21
265.0549595073
  0
LINE
  5
34C
100
AcDbEntity
  8
00_COMPONENTS_30
100
AcDbLine
 62
7
  6
CONTINUOUS
 10
410.5647782668
 20
404.5549595073
 11
410.5647782668
 21
405.0549595073
  0
LINE
  5
34D
100
AcDbEntity
  8
00_COMPONENTS_1
100
AcDbLine
 62
7
  6
CONTINUOUS
 10
379.0159739315
 20
275.6758607995
 11
378.9924805639
 21
275.6523674318
  0
LINE
  5
34E
100
AcDbEntity
  8
00_COMPONENTS_1
100
AcDbLine
 62
7
  6
CONTINUOUS
 10
380.4438772217
 20
277.1037640896
 11
380.4673703423
 21
277.1272572102
  0
LINE
  5
34F
100
AcDbEntity
  8
00_COMPONENTS_1
100
AcDbLine
 62
7
  6
CONTINUOUS
 10
378.5697255571
 20
275.0599067975
 11
379.0139936757
 21
275.5041749161
  0
LINE
  5
350
100
AcDbEntity
  8
00_COMPONENTS_1
100
AcDbLine
 62
7
  6
CONTINUOUS
 10
380.615562858
 20
277.1057440984
 11
381.0598309766
 21
277.550012217
  0
LINE
  5
351
100
AcDbEntity
  8
00_COMPONENTS_1
100
AcDbLine
 62
7
  6
CONTINUOUS
 10
379.185679312
 20
275.5061549249
 11
379.1621861914
 21
275.4826618043
  0
LINE
  5
352
100
AcDbEntity
  8
00_COMPONENTS_1
100
AcDbLine
 62
7
  6
CONTINUOUS
 10
380.6135826021
 20
276.9340582151
 11
380.6370759698
 21
276.9575515827
  0
LINE
  5
353
100
AcDbEntity
  8
00_COMPONENTS_1
100
AcDbLine
 62
7
  6
CONTINUOUS
 10
424.9926080387
 20
334.0949391434
 11
424.9963976536
 21
333.9865788941
  0
LINE
  5
354
100
AcDbEntity
  8
00_COMPONENTS_1
100
AcDbLine
 62
7
  6
CONTINUOUS
 10
426.636948495
 20
335.5149798711
 11
426.63315888
 21
335.6233401205
  0
LINE
  5
355
100
AcDbEntity
  8
00_COMPONENTS_1
100
AcDbLine
 62
7
  6
CONTINUOUS
 10
425.2997782668
 20
332.808197638
 11
425.2997782668
 21
333.8909954647
  0
LINE
  5
356
100
AcDbEntity
  8
00_COMPONENTS_1
100
AcDbLine
 62
7
  6
CONTINUOUS
 10
425.2997782668
 20
335.7189230502
 11
425.2997782668
 21
336.8017213766
  0
LINE
  5
357
100
AcDbEntity
  8
00_COMPONENTS_1
100
AcDbLine
 62
7
  6
CONTINUOUS
 10
426.3297782668
 20
333.8909959643
 11
426.3297782668
 21
332.808197638
  0
LINE
  5
358
100
AcDbEntity
  8
00_COMPONENTS_1
100
AcDbLine
 62
7
  6
CONTINUOUS
 10
426.3297782668
 20
335.71892355
 11
426.3297782668
 21
336.8017213766
  0
LINE
  5
359
100
AcDbEntity
  8
00_COMPONENTS_1
100
AcDbLine
 62
7
  6
CONTINUOUS
 10
424.9924988683
 20
335.4661755518
 11
424.9979413011
 21
335.621796473
  0
LINE
  5
35A
100
AcDbEntity
  8
00_COMPONENTS_30
100
AcDbLine
 62
7
  6
CONTINUOUS
 10
439.9994329382
 20
437.8049595073
 11
439.2960907246
 21
434.1865774981
  0
LINE
  5
35B
100
AcDbEntity
  8
00_COMPONENTS_30
100
AcDbLine
 62
7
  6
CONTINUOUS
 10
440.2777182743
 20
434.1865793815
 11
440.9810601217
 21
437.8049595073
  0
LINE
  5
35C
100
AcDbEntity
  8
00_COMPONENTS_10
100
AcDbLine
 62
7
  6
CONTINUOUS
 10
440.83194572
 20
432.5016084911
 11
441.86281273
 21
437.8049595073
  0
LINE
  5
35D
100
AcDbEntity
  8
00_COMPONENTS_10
100
AcDbLine
 62
7
  6
CONTINUOUS
 10
443.3908877724
 20
437.8049595073
 11
442.5141749228
 21
433.2946628959
  0
LINE
  5
35E
100
AcDbEntity
  8
00_COMPONENTS_10
100
AcDbLine
 62
7
  6
CONTINUOUS
 10
448.3827228037
 20
433.2946628959
 11
448.5827228037
 21
433.9946628959
  0
LINE
  5
35F
100
AcDbEntity
  8
00_COMPONENTS_2
100
AcDbLine
 62
7
  6
CONTINUOUS
 10
432.3147782668
 20
374.8049595073
 11
432.3147782668
 21
294.8049595073
  0
LINE
  5
360
100
AcDbEntity
  8
00_COMPONENTS_30
100
AcDbLine
 62
7
  6
CONTINUOUS
 10
433.1966976935
 20
292.5549595073
 11
433.1966976935
 21
377.0549595073
  0
LINE
  5
361
100
AcDbEntity
  8
00_COMPONENTS_30
100
AcDbLine
 62
7
  6
CONTINUOUS
 10
434.1815054465
 20
377.0549595059
 11
434.1815054465
 21
292.5549595056
  0
LINE
  5
362
100
AcDbEntity
  8
00_COMPONENTS_30
100
AcDbLine
 62
7
  6
CONTINUOUS
 10
434.2733620231
 20
292.5549595073
 11
434.2733620231
 21
377.0549595068
  0
LINE
  5
363
100
AcDbEntity
  8
00_COMPONENTS_30
100
AcDbLine
 62
7
  6
CONTINUOUS
 10
436.2429777247
 20
377.0549577809
 11
436.2429775292
 21
292.5549595081
  0
LINE
  5
364
100
AcDbEntity
  8
00_COMPONENTS_30
100
AcDbLine
 62
7
  6
CONTINUOUS
 10
437.0647782668
 20
378.0549595073
 11
437.0647782668
 21
291.5549595073
  0
LINE
  5
365
100
AcDbEntity
  8
00_COMPONENTS_30
100
AcDbLine
 62
7
  6
CONTINUOUS
 10
437.5647782668
 20
378.0549595073
 11
437.5647782668
 21
291.5549595073
  0
LINE
  5
366
100
AcDbEntity
  8
00_COMPONENTS_1
100
AcDbLine
 62
7
  6
CONTINUOUS
 10
426.6316152326
 20
333.9881225415
 11
426.6370576654
 21
334.1437434627
  0
LINE
  5
367
100
AcDbEntity
  8
00_COMPONENTS_4
100
AcDbLine
 62
7
  6
CONTINUOUS
 10
456.8147782668
 20
438.9049595073
 11
456.8147782668
 21
450.2823170746
  0
LINE
  5
368
100
AcDbEntity
  8
00_COMPONENTS_4
100
AcDbLine
 62
7
  6
CONTINUOUS
 10
448.9276274847
 20
455.8049595073
 11
456.8147782668
 21
450.2823170746
  0
LINE
  5
369
100
AcDbEntity
  8
00_COMPONENTS_4
100
AcDbLine
 62
7
  6
CONTINUOUS
 10
447.9730924916
 20
457.6941066937
 11
457.8147782668
 21
450.8028841252
  0
LINE
  5
36A
100
AcDbEntity
  8
00_COMPONENTS_10
100
AcDbLine
 62
7
  6
CONTINUOUS
 10
456.177777597
 20
433.2946628959
 11
455.377777597
 21
433.9946628959
  0
LINE
  5
36B
100
AcDbEntity
  8
00_COMPONENTS_4
100
AcDbLine
 62
7
  6
CONTINUOUS
 10
457.8147782668
 20
450.8028841252
 11
457.8147782668
 21
438.9049595073
  0
LINE
  5
36C
100
AcDbEntity
  8
00_COMPONENTS_10
100
AcDbLine
 62
7
  6
CONTINUOUS
 10
458.0141749228
 20
432.2946628959
 11
458.0141749228
 21
431.7946628959
  0
LINE
  5
36D
100
AcDbEntity
  8
00_COMPONENTS_30
100
AcDbLine
 62
7
  6
CONTINUOUS
 10
459.8147782668
 20
257.0049595073
 11
459.8147782668
 21
428.6049595073
  0
LINE
  5
36E
100
AcDbEntity
  8
00_COMPONENTS_4
100
AcDbLine
 62
7
  6
CONTINUOUS
 10
456.3883547032
 20
450.5809020684
 11
456.8147782668
 21
449.7617500241
  0
ARC
  5
36F
100
AcDbEntity
  8
00_COMPONENTS_1
100
AcDbCircle
 62
7
  6
CONTINUOUS
 10
61.0958209805
 20
302.0742224005
 40
45.2704246977
100
AcDbArc
 50
45.162418485
 51
45.3675923527
  0
ARC
  5
370
100
AcDbEntity
  8
00_COMPONENTS_1
100
AcDbCircle
 62
7
  6
CONTINUOUS
 10
107.0958209805
 20
243.5742224005
 40
45.2704246977
100
AcDbArc
 50
45.162418485
 51
45.3675923527
  0
ARC
  5
371
100
AcDbEntity
  8
00_COMPONENTS_1
100
AcDbCircle
 62
7
  6
CONTINUOUS
 10
126.5323865345
 20
302.0755828078
 40
45.2685083929
100
AcDbArc
 50
134.6324017196
 51
134.8375848321
  0
ARC
  5
372
100
AcDbEntity
  8
00_COMPONENTS_1
100
AcDbCircle
 62
7
  6
CONTINUOUS
 10
107.0854025467
 20
243.5873519747
 40
45.2685071797
100
AcDbArc
 50
44.6324019286
 51
44.8375850464
  0
ARC
  5
373
100
AcDbEntity
  8
00_COMPONENTS_30
100
AcDbCircle
 62
7
  6
CONTINUOUS
 10
109.0647782668
 20
291.5549595073
 40
27.0
100
AcDbArc
 50
180.0
 51
270.0
  0
ARC
  5
374
100
AcDbEntity
  8
00_COMPONENTS_30
100
AcDbCircle
 62
7
  6
CONTINUOUS
 10
110.0647782668
 20
292.5549595073
 40
26.6781992624
100
AcDbArc
 50
179.9999999987
 51
270.0
  0
ARC
  5
375
100
AcDbEntity
  8
00_COMPONENTS_30
100
AcDbCircle
 62
7
  6
CONTINUOUS
 10
109.0647782668
 20
291.5549595073
 40
26.5
100
AcDbArc
 50
180.0
 51
270.0
  0
ARC
  5
376
100
AcDbEntity
  8
00_COMPONENTS_2
100
AcDbCircle
 62
7
  6
CONTINUOUS
 10
112.3147782668
 20
294.8049595073
 40
25.0
100
AcDbArc
 50
180.0
 51
270.0
  0
ARC
  5
377
100
AcDbEntity
  8
00_COMPONENTS_30
100
AcDbCircle
 62
7
  6
CONTINUOUS
 10
110.0647782668
 20
292.5549595073
 40
24.7085837563
100
AcDbArc
 50
179.9999999978
 51
270.0
  0
ARC
  5
378
100
AcDbEntity
  8
00_COMPONENTS_30
100
AcDbCircle
 62
7
  6
CONTINUOUS
 10
110.0647782668
 20
292.5549595073
 40
24.6167271797
100
AcDbArc
 50
179.9999999978
 51
270.0
  0
ARC
  5
379
100
AcDbEntity
  8
00_COMPONENTS_30
100
AcDbCircle
 62
7
  6
CONTINUOUS
 10
110.0647782668
 20
292.5549595073
 40
23.6319194267
100
AcDbArc
 50
180.0
 51
270.0
  0
ARC
  5
37A
100
AcDbEntity
  8
00_COMPONENTS_1
100
AcDbCircle
 62
7
  6
CONTINUOUS
 10
148.1628829317
 20
268.0133032525
 40
11.8912642284
100
AcDbArc
 50
126.6791702633
 51
129.9655842409
  0
ARC
  5
37B
100
AcDbEntity
  8
00_COMPONENTS_1
100
AcDbCircle
 62
7
  6
CONTINUOUS
 10
131.4666736018
 20
284.5966157622
 40
11.8912642287
100
AcDbArc
 50
306.6791702634
 51
309.9655842409
  0
ARC
  5
37C
100
AcDbEntity
  8
00_COMPONENTS_1
100
AcDbCircle
 62
7
  6
CONTINUOUS
 10
131.5968189759
 20
284.5948150678
 40
11.7973659488
100
AcDbArc
 50
320.0213334208
 51
323.333912075
  0
ARC
  5
37D
100
AcDbEntity
  8
00_COMPONENTS_1
100
AcDbCircle
 62
7
  6
CONTINUOUS
 10
148.0327375576
 20
268.0151039468
 40
11.7973659487
100
AcDbArc
 50
140.0213334208
 51
143.333912075
  0
ARC
  5
37E
100
AcDbEntity
  8
00_COMPONENTS_1
100
AcDbCircle
 62
7
  6
CONTINUOUS
 10
148.0423820229
 20
284.4451515862
 40
11.7292846323
100
AcDbArc
 50
229.8279375784
 51
234.3401815967
  0
ARC
  5
37F
100
AcDbEntity
  8
00_COMPONENTS_1
100
AcDbCircle
 62
7
  6
CONTINUOUS
 10
131.5871745107
 20
268.1647674283
 40
11.7292846324
100
AcDbArc
 50
49.8279375784
 51
54.3401815967
  0
ARC
  5
380
100
AcDbEntity
  8
00_COMPONENTS_1
100
AcDbCircle
 62
7
  6
CONTINUOUS
 10
131.6748454022
 20
268.0775576599
 40
11.7289563156
100
AcDbArc
 50
35.6597552173
 51
40.1721256076
  0
ARC
  5
381
100
AcDbEntity
  8
00_COMPONENTS_1
100
AcDbCircle
 62
7
  6
CONTINUOUS
 10
147.9538026895
 20
284.5316537459
 40
11.7278056977
100
AcDbArc
 50
215.6595337479
 51
220.172347077
  0
CIRCLE
  5
382
100
AcDbEntity
  8
00_COMPONENTS_1
100
AcDbCircle
 62
7
  6
CONTINUOUS
 10
139.8147782668
 20
276.3049595073
 40
4.75
  0
ARC
  5
383
100
AcDbEntity
  8
00_COMPONENTS_30
100
AcDbCircle
 62
7
  6
CONTINUOUS
 10
62.0147782668
 20
257.0049595073
 40
2.2
100
AcDbArc
 50
180.0000000001
 51
270.0
  0
ARC
  5
384
100
AcDbEntity
  8
00_COMPONENTS_1
100
AcDbCircle
 62
7
  6
CONTINUOUS
 10
139.8147782668
 20
276.3049595073
 40
2.0621064383
100
AcDbArc
 50
255.5375990462
 51
284.4624009538
  0
ARC
  5
385
100
AcDbEntity
  8
00_COMPONENTS_1
100
AcDbCircle
 62
7
  6
CONTINUOUS
 10
139.8147782668
 20
276.3049595073
 40
2.0621064383
100
AcDbArc
 50
345.5375990462
 51
14.4624009538
  0
ARC
  5
386
100
AcDbEntity
  8
00_COMPONENTS_1
100
AcDbCircle
 62
7
  6
CONTINUOUS
 10
139.8147782668
 20
276.3049595073
 40
2.0621064383
100
AcDbArc
 50
75.5375990462
 51
104.4624009538
  0
ARC
  5
387
100
AcDbEntity
  8
00_COMPONENTS_1
100
AcDbCircle
 62
7
  6
CONTINUOUS
 10
139.8147782668
 20
276.3049595073
 40
2.0621064383
100
AcDbArc
 50
165.5375990462
 51
194.4624009538
  0
ARC
  5
388
100
AcDbEntity
  8
00_COMPONENTS_1
100
AcDbCircle
 62
7
  6
CONTINUOUS
 10
107.0840408566
 20
309.0239172872
 40
45.2704252609
100
AcDbArc
 50
315.1624183128
 51
315.3675921773
  0
ARC
  5
389
100
AcDbEntity
  8
00_COMPONENTS_1
100
AcDbCircle
 62
7
  6
CONTINUOUS
 10
126.5455156554
 20
302.0860017349
 40
45.2704252403
100
AcDbArc
 50
135.1624183002
 51
135.3675921648
  0
ARC
  5
38A
100
AcDbEntity
  8
00_COMPONENTS_1
100
AcDbCircle
 62
7
  6
CONTINUOUS
 10
107.0958209805
 20
360.5742224005
 40
45.2704246977
100
AcDbArc
 50
45.162418485
 51
45.3675923527
  0
ARC
  5
38B
100
AcDbEntity
  8
00_COMPONENTS_1
100
AcDbCircle
 62
7
  6
CONTINUOUS
 10
107.0971700217
 20
309.0343361697
 40
45.2685083507
100
AcDbArc
 50
314.6324017322
 51
314.8375848449
  0
ARC
  5
38C
100
AcDbEntity
  8
00_COMPONENTS_1
100
AcDbCircle
 62
7
  6
CONTINUOUS
 10
61.0854025467
 20
302.0873519747
 40
45.2685071797
100
AcDbArc
 50
44.6324019286
 51
44.8375850464
  0
ARC
  5
38D
100
AcDbEntity
  8
00_COMPONENTS_1
100
AcDbCircle
 62
7
  6
CONTINUOUS
 10
107.0854025467
 20
360.5873519747
 40
45.2685071797
100
AcDbArc
 50
44.6324019286
 51
44.8375850464
  0
ARC
  5
38E
100
AcDbEntity
  8
00_COMPONENTS_1
100
AcDbCircle
 62
7
  6
CONTINUOUS
 10
102.1628829318
 20
326.5133032524
 40
11.8912642285
100
AcDbArc
 50
126.6791702634
 51
129.9655842409
  0
ARC
  5
38F
100
AcDbEntity
  8
00_COMPONENTS_1
100
AcDbCircle
 62
7
  6
CONTINUOUS
 10
85.4666736017
 20
343.0966157623
 40
11.8912642288
100
AcDbArc
 50
306.6791702634
 51
309.9655842408
  0
ARC
  5
390
100
AcDbEntity
  8
00_COMPONENTS_1
100
AcDbCircle
 62
7
  6
CONTINUOUS
 10
85.5968189759
 20
343.0948150678
 40
11.7973659488
100
AcDbArc
 50
320.0213334208
 51
323.333912075
  0
ARC
  5
391
100
AcDbEntity
  8
00_COMPONENTS_1
100
AcDbCircle
 62
7
  6
CONTINUOUS
 10
102.0327375577
 20
326.5151039468
 40
11.7973659488
100
AcDbArc
 50
140.0213334208
 51
143.333912075
  0
ARC
  5
392
100
AcDbEntity
  8
00_COMPONENTS_1
100
AcDbCircle
 62
7
  6
CONTINUOUS
 10
102.0423820229
 20
342.9451515862
 40
11.7292846323
100
AcDbArc
 50
229.8279375784
 51
234.3401815967
  0
ARC
  5
393
100
AcDbEntity
  8
00_COMPONENTS_1
100
AcDbCircle
 62
7
  6
CONTINUOUS
 10
85.5871745107
 20
326.6647674282
 40
11.7292846325
100
AcDbArc
 50
49.8279375784
 51
54.3401815967
  0
ARC
  5
394
100
AcDbEntity
  8
00_COMPONENTS_1
100
AcDbCircle
 62
7
  6
CONTINUOUS
 10
85.6748454022
 20
326.5775576599
 40
11.7289563156
100
AcDbArc
 50
35.6597552173
 51
40.1721256076
  0
ARC
  5
395
100
AcDbEntity
  8
00_COMPONENTS_1
100
AcDbCircle
 62
7
  6
CONTINUOUS
 10
101.9538026895
 20
343.0316537459
 40
11.7278056977
100
AcDbArc
 50
215.6595337479
 51
220.172347077
  0
CIRCLE
  5
396
100
AcDbEntity
  8
00_COMPONENTS_1
100
AcDbCircle
 62
7
  6
CONTINUOUS
 10
93.8147782668
 20
334.8049595073
 40
4.75
  0
ARC
  5
397
100
AcDbEntity
  8
00_COMPONENTS_1
100
AcDbCircle
 62
7
  6
CONTINUOUS
 10
93.8147782668
 20
334.8049595073
 40
2.0621064383
100
AcDbArc
 50
255.5375990462
 51
284.4624009538
  0
ARC
  5
398
100
AcDbEntity
  8
00_COMPONENTS_1
100
AcDbCircle
 62
7
  6
CONTINUOUS
 10
93.8147782668
 20
334.8049595073
 40
2.0621064383
100
AcDbArc
 50
345.5375990462
 51
14.4624009538
  0
ARC
  5
399
100
AcDbEntity
  8
00_COMPONENTS_1
100
AcDbCircle
 62
7
  6
CONTINUOUS
 10
93.8147782668
 20
334.8049595073
 40
2.0621064383
100
AcDbArc
 50
75.5375990462
 51
104.4624009538
  0
ARC
  5
39A
100
AcDbEntity
  8
00_COMPONENTS_1
100
AcDbCircle
 62
7
  6
CONTINUOUS
 10
93.8147782668
 20
334.8049595073
 40
2.0621064383
100
AcDbArc
 50
165.5375990462
 51
194.4624009538
  0
ARC
  5
39B
100
AcDbEntity
  8
00_COMPONENTS_1
100
AcDbCircle
 62
7
  6
CONTINUOUS
 10
172.5455156554
 20
243.5860017349
 40
45.2704252403
100
AcDbArc
 50
135.1624183002
 51
135.3675921648
  0
ARC
  5
39C
100
AcDbEntity
  8
00_COMPONENTS_1
100
AcDbCircle
 62
7
  6
CONTINUOUS
 10
227.0958209954
 20
243.5742224155
 40
45.2704246766
100
AcDbArc
 50
45.162418485
 51
45.3675923527
  0
ARC
  5
39D
100
AcDbEntity
  8
00_COMPONENTS_1
100
AcDbCircle
 62
7
  6
CONTINUOUS
 10
172.5323865345
 20
243.5755828078
 40
45.2685083929
100
AcDbArc
 50
134.6324017196
 51
134.8375848321
  0
ARC
  5
39E
100
AcDbEntity
  8
00_COMPONENTS_1
100
AcDbCircle
 62
7
  6
CONTINUOUS
 10
227.0854025467
 20
243.5873519747
 40
45.2685071797
100
AcDbArc
 50
44.6324019286
 51
44.8375850464
  0
ARC
  5
39F
100
AcDbEntity
  8
00_COMPONENTS_1
100
AcDbCircle
 62
7
  6
CONTINUOUS
 10
251.4666736017
 20
284.5966157623
 40
11.8912642288
100
AcDbArc
 50
306.6791702634
 51
309.9655842408
  0
ARC
  5
3A0
100
AcDbEntity
  8
00_COMPONENTS_1
100
AcDbCircle
 62
7
  6
CONTINUOUS
 10
251.596818976
 20
284.5948150677
 40
11.7973659487
100
AcDbArc
 50
320.0213334208
 51
323.333912075
  0
ARC
  5
3A1
100
AcDbEntity
  8
00_COMPONENTS_1
100
AcDbCircle
 62
7
  6
CONTINUOUS
 10
251.5871745107
 20
268.1647674282
 40
11.7292846325
100
AcDbArc
 50
49.8279375784
 51
54.3401815967
  0
ARC
  5
3A2
100
AcDbEntity
  8
00_COMPONENTS_1
100
AcDbCircle
 62
7
  6
CONTINUOUS
 10
251.6748454021
 20
268.0775576598
 40
11.7289563157
100
AcDbArc
 50
35.6597552173
 51
40.1721256076
  0
ARC
  5
3A3
100
AcDbEntity
  8
00_COMPONENTS_1
100
AcDbCircle
 62
7
  6
CONTINUOUS
 10
172.5337360542
 20
309.035696925
 40
45.2704252715
100
AcDbArc
 50
225.1624183128
 51
225.3675921772
  0
ARC
  5
3A4
100
AcDbEntity
  8
00_COMPONENTS_1
100
AcDbCircle
 62
7
  6
CONTINUOUS
 10
227.0840408566
 20
309.0239172872
 40
45.2704252609
100
AcDbArc
 50
315.1624183128
 51
315.3675921773
  0
ARC
  5
3A5
100
AcDbEntity
  8
00_COMPONENTS_1
100
AcDbCircle
 62
7
  6
CONTINUOUS
 10
172.5455156554
 20
360.5860017349
 40
45.2704252403
100
AcDbArc
 50
135.1624183002
 51
135.3675921648
  0
ARC
  5
3A6
100
AcDbEntity
  8
00_COMPONENTS_1
100
AcDbCircle
 62
7
  6
CONTINUOUS
 10
227.0958209954
 20
360.5742224155
 40
45.2704246766
100
AcDbArc
 50
45.162418485
 51
45.3675923527
  0
ARC
  5
3A7
100
AcDbEntity
  8
00_COMPONENTS_1
100
AcDbCircle
 62
7
  6
CONTINUOUS
 10
172.5323865345
 20
360.5755828078
 40
45.2685083929
100
AcDbArc
 50
134.6324017196
 51
134.8375848321
  0
ARC
  5
3A8
100
AcDbEntity
  8
00_COMPONENTS_1
100
AcDbCircle
 62
7
  6
CONTINUOUS
 10
172.5441549445
 20
309.0225677674
 40
45.2685083721
100
AcDbArc
 50
224.6324017323
 51
224.8375848448
  0
ARC
  5
3A9
100
AcDbEntity
  8
00_COMPONENTS_1
100
AcDbCircle
 62
7
  6
CONTINUOUS
 10
227.0971700217
 20
309.0343361697
 40
45.2685083507
100
AcDbArc
 50
314.6324017322
 51
314.8375848449
  0
ARC
  5
3AA
100
AcDbEntity
  8
00_COMPONENTS_1
100
AcDbCircle
 62
7
  6
CONTINUOUS
 10
227.0854025467
 20
360.5873519747
 40
45.2685071797
100
AcDbArc
 50
44.6324019286
 51
44.8375850464
  0
ARC
  5
3AB
100
AcDbEntity
  8
00_COMPONENTS_30
100
AcDbCircle
 62
7
  6
CONTINUOUS
 10
148.5080135055
 20
372.259515758
 40
105.0775856613
100
AcDbArc
 50
147.2469607518
 51
147.5728347751
  0
ARC
  5
3AC
100
AcDbEntity
  8
00_COMPONENTS_30
100
AcDbCircle
 62
7
  6
CONTINUOUS
 10
127.5323780286
 20
394.2156459649
 40
61.8500249141
100
AcDbArc
 50
139.7947402856
 51
140.201811286
  0
ARC
  5
3AD
100
AcDbEntity
  8
00_COMPONENTS_1
100
AcDbCircle
 62
7
  6
CONTINUOUS
 10
126.5337360542
 20
367.535696925
 40
45.2704252715
100
AcDbArc
 50
225.1624183128
 51
225.3675921772
  0
ARC
  5
3AE
100
AcDbEntity
  8
00_COMPONENTS_1
100
AcDbCircle
 62
7
  6
CONTINUOUS
 10
61.0840408566
 20
367.5239172872
 40
45.2704252609
100
AcDbArc
 50
315.1624183128
 51
315.3675921773
  0
ARC
  5
3AF
100
AcDbEntity
  8
00_COMPONENTS_1
100
AcDbCircle
 62
7
  6
CONTINUOUS
 10
126.5441549445
 20
367.5225677674
 40
45.2685083721
100
AcDbArc
 50
224.6324017323
 51
224.8375848448
  0
ARC
  5
3B0
100
AcDbEntity
  8
00_COMPONENTS_1
100
AcDbCircle
 62
7
  6
CONTINUOUS
 10
61.0971700217
 20
367.5343361697
 40
45.2685083507
100
AcDbArc
 50
314.6324017322
 51
314.8375848449
  0
ARC
  5
3B1
100
AcDbEntity
  8
00_COMPONENTS_30
100
AcDbCircle
 62
7
  6
CONTINUOUS
 10
101.7347590629
 20
415.9765183991
 40
28.1002064997
100
AcDbArc
 50
139.6060078158
 51
139.7264308379
  0
ARC
  5
3B2
100
AcDbEntity
  8
00_COMPONENTS_30
100
AcDbCircle
 62
7
  6
CONTINUOUS
 10
109.0647782668
 20
378.0549595073
 40
27.0
100
AcDbArc
 50
90.0
 51
180.0
  0
ARC
  5
3B3
100
AcDbEntity
  8
00_COMPONENTS_30
100
AcDbCircle
 62
7
  6
CONTINUOUS
 10
110.0647782668
 20
377.0549595073
 40
26.6781998488
100
AcDbArc
 50
89.9999962921
 51
179.9999814645
  0
ARC
  5
3B4
100
AcDbEntity
  8
00_COMPONENTS_30
100
AcDbCircle
 62
7
  6
CONTINUOUS
 10
109.0647782668
 20
378.0549595073
 40
26.5
100
AcDbArc
 50
90.0
 51
180.0
  0
ARC
  5
3B5
100
AcDbEntity
  8
00_COMPONENTS_2
100
AcDbCircle
 62
7
  6
CONTINUOUS
 10
112.3147782668
 20
374.8049595073
 40
25.0
100
AcDbArc
 50
90.0
 51
180.0
  0
ARC
  5
3B6
100
AcDbEntity
  8
00_COMPONENTS_30
100
AcDbCircle
 62
7
  6
CONTINUOUS
 10
110.0647782668
 20
377.0549595073
 40
24.7085837563
100
AcDbArc
 50
89.9999999978
 51
180.0
  0
ARC
  5
3B7
100
AcDbEntity
  8
00_COMPONENTS_30
100
AcDbCircle
 62
7
  6
CONTINUOUS
 10
110.0647782668
 20
377.0549595073
 40
24.6167271797
100
AcDbArc
 50
89.9999999978
 51
180.0
  0
ARC
  5
3B8
100
AcDbEntity
  8
00_COMPONENTS_30
100
AcDbCircle
 62
7
  6
CONTINUOUS
 10
110.0647782668
 20
377.0549595073
 40
23.6319194267
100
AcDbArc
 50
90.0
 51
180.0
  0
ARC
  5
3B9
100
AcDbEntity
  8
00_COMPONENTS_1
100
AcDbCircle
 62
7
  6
CONTINUOUS
 10
148.1628829317
 20
385.0133032525
 40
11.8912642284
100
AcDbArc
 50
126.6791702633
 51
129.9655842409
  0
ARC
  5
3BA
100
AcDbEntity
  8
00_COMPONENTS_1
100
AcDbCircle
 62
7
  6
CONTINUOUS
 10
131.4666736019
 20
401.5966157621
 40
11.8912642286
100
AcDbArc
 50
306.6791702634
 51
309.9655842409
  0
ARC
  5
3BB
100
AcDbEntity
  8
00_COMPONENTS_1
100
AcDbCircle
 62
7
  6
CONTINUOUS
 10
131.5968189759
 20
401.5948150678
 40
11.7973659489
100
AcDbArc
 50
320.0213334208
 51
323.333912075
  0
ARC
  5
3BC
100
AcDbEntity
  8
00_COMPONENTS_1
100
AcDbCircle
 62
7
  6
CONTINUOUS
 10
148.0327375576
 20
385.0151039468
 40
11.7973659487
100
AcDbArc
 50
140.0213334208
 51
143.333912075
  0
ARC
  5
3BD
100
AcDbEntity
  8
00_COMPONENTS_1
100
AcDbCircle
 62
7
  6
CONTINUOUS
 10
148.0423820229
 20
401.4451515862
 40
11.7292846323
100
AcDbArc
 50
229.8279375784
 51
234.3401815967
  0
ARC
  5
3BE
100
AcDbEntity
  8
00_COMPONENTS_1
100
AcDbCircle
 62
7
  6
CONTINUOUS
 10
131.5871745107
 20
385.1647674283
 40
11.7292846324
100
AcDbArc
 50
49.8279375784
 51
54.3401815967
  0
ARC
  5
3BF
100
AcDbEntity
  8
00_COMPONENTS_1
100
AcDbCircle
 62
7
  6
CONTINUOUS
 10
131.6748454022
 20
385.0775576599
 40
11.7289563156
100
AcDbArc
 50
35.6597552173
 51
40.1721256076
  0
ARC
  5
3C0
100
AcDbEntity
  8
00_COMPONENTS_1
100
AcDbCircle
 62
7
  6
CONTINUOUS
 10
147.9538026896
 20
401.531653746
 40
11.7278056977
100
AcDbArc
 50
215.659533748
 51
220.172347077
  0
CIRCLE
  5
3C1
100
AcDbEntity
  8
00_COMPONENTS_1
100
AcDbCircle
 62
7
  6
CONTINUOUS
 10
139.8147782668
 20
393.3049595073
 40
4.75
  0
ARC
  5
3C2
100
AcDbEntity
  8
00_COMPONENTS_1
100
AcDbCircle
 62
7
  6
CONTINUOUS
 10
139.8147782668
 20
393.3049595073
 40
2.0621064383
100
AcDbArc
 50
255.5375990462
 51
284.4624009538
  0
ARC
  5
3C3
100
AcDbEntity
  8
00_COMPONENTS_1
100
AcDbCircle
 62
7
  6
CONTINUOUS
 10
139.8147782668
 20
393.3049595073
 40
2.0621064383
100
AcDbArc
 50
345.5375990462
 51
14.4624009538
  0
ARC
  5
3C4
100
AcDbEntity
  8
00_COMPONENTS_1
100
AcDbCircle
 62
7
  6
CONTINUOUS
 10
139.8147782668
 20
393.3049595073
 40
2.0621064383
100
AcDbArc
 50
75.5375990462
 51
104.4624009538
  0
ARC
  5
3C5
100
AcDbEntity
  8
00_COMPONENTS_1
100
AcDbCircle
 62
7
  6
CONTINUOUS
 10
139.8147782668
 20
393.3049595073
 40
2.0621064383
100
AcDbArc
 50
165.5375990462
 51
194.4624009538
  0
ARC
  5
3C6
100
AcDbEntity
  8
00_COMPONENTS_30
100
AcDbCircle
 62
7
  6
CONTINUOUS
 10
63.0147782668
 20
428.6049595073
 40
3.2
100
AcDbArc
 50
97.0291804323
 51
180.0
  0
ARC
  5
3C7
100
AcDbEntity
  8
00_COMPONENTS_30
100
AcDbCircle
 62
7
  6
CONTINUOUS
 10
77.3885842586
 20
433.8049595073
 40
2.0
100
AcDbArc
 50
269.9999999999
 51
11.0
  0
ARC
  5
3C8
100
AcDbEntity
  8
00_COMPONENTS_4
100
AcDbCircle
 62
7
  6
CONTINUOUS
 10
62.9147782668
 20
438.9049595073
 40
1.1
100
AcDbArc
 50
180.0
 51
298.974518666
  0
ARC
  5
3C9
100
AcDbEntity
  8
00_COMPONENTS_4
100
AcDbCircle
 62
7
  6
CONTINUOUS
 10
64.1169758301
 20
438.6815426081
 40
1.0161194056
100
AcDbArc
 50
222.7474358657
 51
225.950414742
  0
ARC
  5
3CA
100
AcDbEntity
  8
00_COMPONENTS_4
100
AcDbCircle
 62
7
  6
CONTINUOUS
 10
64.9590679288
 20
459.9417049273
 40
7.0697418849
100
AcDbArc
 50
341.4492003601
 51
342.4079211427
  0
ARC
  5
3CB
100
AcDbEntity
  8
00_COMPONENTS_1
100
AcDbCircle
 62
7
  6
CONTINUOUS
 10
107.0840408566
 20
426.0239172872
 40
45.2704252609
100
AcDbArc
 50
315.1624183128
 51
315.3675921773
  0
ARC
  5
3CC
100
AcDbEntity
  8
00_COMPONENTS_1
100
AcDbCircle
 62
7
  6
CONTINUOUS
 10
107.0971700217
 20
426.0343361697
 40
45.2685083507
100
AcDbArc
 50
314.6324017322
 51
314.8375848449
  0
ARC
  5
3CD
100
AcDbEntity
  8
00_COMPONENTS_25
100
AcDbCircle
 62
7
  6
CONTINUOUS
 10
111.2174300378
 20
469.4837893762
 40
5.9995258434
100
AcDbArc
 50
251.5065933032
 51
251.8009572191
  0
ARC
  5
3CE
100
AcDbEntity
  8
00_COMPONENTS_25
100
AcDbCircle
 62
7
  6
CONTINUOUS
 10
101.0363765448
 20
468.3010008716
 40
4.8299961974
100
AcDbArc
 50
256.7982423002
 51
257.5805094748
  0
ARC
  5
3CF
100
AcDbEntity
  8
00_COMPONENTS_25
100
AcDbCircle
 62
7
  6
CONTINUOUS
 10
99.887057983
 20
459.8049595073
 40
4.0
100
AcDbArc
 50
97.5734249628
 51
177.9999974478
  0
ARC
  5
3D0
100
AcDbEntity
  8
00_COMPONENTS_25
100
AcDbCircle
 62
7
  6
CONTINUOUS
 10
103.8516651255
 20
462.2142831359
 40
1.6442715701
100
AcDbArc
 50
72.5682721767
 51
72.843809056
  0
ARC
  5
3D1
100
AcDbEntity
  8
00_COMPONENTS_25
100
AcDbCircle
 62
7
  6
CONTINUOUS
 10
104.7137715051
 20
462.3527893567
 40
1.4971062287
100
AcDbArc
 50
106.6053281342
 51
106.8248788659
  0
ARC
  5
3D2
100
AcDbEntity
  8
00_COMPONENTS_25
100
AcDbCircle
 62
7
  6
CONTINUOUS
 10
103.961870324
 20
462.5716210864
 40
1.2703256083
100
AcDbArc
 50
72.839066747
 51
73.2771012366
  0
ARC
  5
3D3
100
AcDbEntity
  8
00_COMPONENTS_25
100
AcDbCircle
 62
7
  6
CONTINUOUS
 10
104.0888450718
 20
462.9969783687
 40
0.826421962
100
AcDbArc
 50
73.2223978122
 51
74.6165236622
  0
ARC
  5
3D4
100
AcDbEntity
  8
00_COMPONENTS_25
100
AcDbCircle
 62
7
  6
CONTINUOUS
 10
109.3147782668
 20
463.5947262094
 40
0.2
100
AcDbArc
 50
72.2770875914
 51
107.7269036742
  0
ARC
  5
3D5
100
AcDbEntity
  8
00_COMPONENTS_25
100
AcDbCircle
 62
7
  6
CONTINUOUS
 10
104.3147782668
 20
463.5947262094
 40
0.2
100
AcDbArc
 50
72.7361021169
 51
107.7158853033
  0
ARC
  5
3D6
100
AcDbEntity
  8
00_COMPONENTS_25
100
AcDbCircle
 62
7
  6
CONTINUOUS
 10
109.316225989
 20
463.5984467858
 40
0.1959924014
100
AcDbArc
 50
72.3486613963
 51
90.8428678746
  0
ARC
  5
3D7
100
AcDbEntity
  8
00_COMPONENTS_25
100
AcDbCircle
 62
7
  6
CONTINUOUS
 10
109.3131615197
 20
463.599071488
 40
0.1953553606
100
AcDbArc
 50
89.9461789705
 51
107.6550948049
  0
ARC
  5
3D8
100
AcDbEntity
  8
00_COMPONENTS_25
100
AcDbCircle
 62
7
  6
CONTINUOUS
 10
104.3180359974
 20
463.6100940398
 40
0.1842975387
100
AcDbArc
 50
81.0320067135
 51
89.3925381857
  0
ARC
  5
3D9
100
AcDbEntity
  8
00_COMPONENTS_25
100
AcDbCircle
 62
7
  6
CONTINUOUS
 10
104.3180214137
 20
463.6173653309
 40
0.1770268347
100
AcDbArc
 50
89.3628676104
 51
93.0383244524
  0
ARC
  5
3DA
100
AcDbEntity
  8
00_COMPONENTS_25
100
AcDbCircle
 62
7
  6
CONTINUOUS
 10
102.6898532206
 20
479.8176764702
 40
16.4719380767
100
AcDbArc
 50
263.3784879904
 51
263.551641053
  0
ARC
  5
3DB
100
AcDbEntity
  8
00_COMPONENTS_25
100
AcDbCircle
 62
7
  6
CONTINUOUS
 10
106.7756211068
 20
471.6565806856
 40
8.2638263401
100
AcDbArc
 50
275.8313130177
 51
278.0482539851
  0
ARC
  5
3DC
100
AcDbEntity
  8
00_COMPONENTS_25
100
AcDbCircle
 62
7
  6
CONTINUOUS
 10
106.8029601545
 20
471.496227985
 40
8.1023631011
100
AcDbArc
 50
263.2573541345
 51
268.0692246326
  0
ARC
  5
3DD
100
AcDbEntity
  8
00_COMPONENTS_25
100
AcDbCircle
 62
7
  6
CONTINUOUS
 10
101.8147782668
 20
471.4174595073
 40
8.0125
100
AcDbArc
 50
252.8019423374
 51
287.7231703539
  0
ARC
  5
3DE
100
AcDbEntity
  8
00_COMPONENTS_25
100
AcDbCircle
 62
7
  6
CONTINUOUS
 10
106.8147782668
 20
471.4174595073
 40
8.0125
100
AcDbArc
 50
253.0909348521
 51
287.7227666612
  0
ARC
  5
3DF
100
AcDbEntity
  8
00_COMPONENTS_25
100
AcDbCircle
 62
7
  6
CONTINUOUS
 10
106.8008261302
 20
471.3772428901
 40
7.9833738793
100
AcDbArc
 50
268.0557605445
 51
275.8550407003
  0
ARC
  5
3E0
100
AcDbEntity
  8
00_COMPONENTS_4
100
AcDbCircle
 62
7
  6
CONTINUOUS
 10
113.7690638112
 20
465.1733739199
 40
57.3268594211
100
AcDbArc
 50
207.2724203171
 51
207.4138265301
  0
ARC
  5
3E1
100
AcDbEntity
  8
00_COMPONENTS_25
100
AcDbCircle
 62
7
  6
CONTINUOUS
 10
117.3528199699
 20
469.5437377147
 40
6.0764253362
100
AcDbArc
 50
287.1553216008
 51
288.4373362988
  0
ARC
  5
3E2
100
AcDbEntity
  8
00_COMPONENTS_25
100
AcDbCircle
 62
7
  6
CONTINUOUS
 10
112.5666635356
 20
469.0125073714
 40
5.5035599435
100
AcDbArc
 50
288.2067104385
 51
288.5357868096
  0
ARC
  5
3E3
100
AcDbEntity
  8
00_COMPONENTS_25
100
AcDbCircle
 62
7
  6
CONTINUOUS
 10
122.4980061374
 20
468.7293311836
 40
5.2687448591
100
AcDbArc
 50
282.4262709925
 51
283.1456041623
  0
ARC
  5
3E4
100
AcDbEntity
  8
00_COMPONENTS_25
100
AcDbCircle
 62
7
  6
CONTINUOUS
 10
123.7424985506
 20
459.8049595073
 40
4.0
100
AcDbArc
 50
2.0000025522
 51
82.4265750372
  0
ARC
  5
3E5
100
AcDbEntity
  8
00_COMPONENTS_25
100
AcDbCircle
 62
7
  6
CONTINUOUS
 10
119.3147782668
 20
463.5947262094
 40
0.2
100
AcDbArc
 50
72.2754017183
 51
107.7229124086
  0
ARC
  5
3E6
100
AcDbEntity
  8
00_COMPONENTS_25
100
AcDbCircle
 62
7
  6
CONTINUOUS
 10
114.3147782668
 20
463.5947262094
 40
0.2
100
AcDbArc
 50
72.2746664755
 51
107.7229124086
  0
ARC
  5
3E7
100
AcDbEntity
  8
00_COMPONENTS_25
100
AcDbCircle
 62
7
  6
CONTINUOUS
 10
119.3136954491
 20
463.5972620857
 40
0.1972550176
100
AcDbArc
 50
88.4208521905
 51
107.6486434992
  0
ARC
  5
3E8
100
AcDbEntity
  8
00_COMPONENTS_25
100
AcDbCircle
 62
7
  6
CONTINUOUS
 10
114.3133321459
 20
463.5984733618
 40
0.1959823534
100
AcDbArc
 50
89.1533921266
 51
107.6541404069
  0
ARC
  5
3E9
100
AcDbEntity
  8
00_COMPONENTS_25
100
AcDbCircle
 62
7
  6
CONTINUOUS
 10
119.3162940617
 20
463.5988964887
 40
0.1955662824
100
AcDbArc
 50
72.3255085552
 51
89.1687137203
  0
ARC
  5
3EA
100
AcDbEntity
  8
00_COMPONENTS_25
100
AcDbCircle
 62
7
  6
CONTINUOUS
 10
114.3163896062
 20
463.5990892391
 40
0.1953534087
100
AcDbArc
 50
72.3244357981
 51
90.0484045312
  0
ARC
  5
3EB
100
AcDbEntity
  8
00_COMPONENTS_25
100
AcDbCircle
 62
7
  6
CONTINUOUS
 10
118.4976320649
 20
476.8054651413
 40
13.6664123347
100
AcDbArc
 50
252.1905991377
 51
252.3757947343
  0
ARC
  5
3EC
100
AcDbEntity
  8
00_COMPONENTS_25
100
AcDbCircle
 62
7
  6
CONTINUOUS
 10
123.3941268804
 20
476.8061936117
 40
13.6348422696
100
AcDbArc
 50
252.7951770597
 51
253.1687846766
  0
ARC
  5
3ED
100
AcDbEntity
  8
00_COMPONENTS_25
100
AcDbCircle
 62
7
  6
CONTINUOUS
 10
117.1813775294
 20
472.6647660594
 40
9.3215401858
100
AcDbArc
 50
252.3806091768
 51
252.9828250213
  0
ARC
  5
3EE
100
AcDbEntity
  8
00_COMPONENTS_25
100
AcDbCircle
 62
7
  6
CONTINUOUS
 10
111.8147782668
 20
471.4174595073
 40
8.0125
100
AcDbArc
 50
252.2771806117
 51
287.7229068928
  0
ARC
  5
3EF
100
AcDbEntity
  8
00_COMPONENTS_25
100
AcDbCircle
 62
7
  6
CONTINUOUS
 10
116.8147782668
 20
471.4174595073
 40
8.0125
100
AcDbArc
 50
252.2771480249
 51
287.7229652337
  0
ARC
  5
3F0
100
AcDbEntity
  8
00_COMPONENTS_25
100
AcDbCircle
 62
7
  6
CONTINUOUS
 10
121.8147782668
 20
471.4174595073
 40
8.0125
100
AcDbArc
 50
252.2771296725
 51
287.1980576626
  0
ARC
  5
3F1
100
AcDbEntity
  8
00_COMPONENTS_25
100
AcDbCircle
 62
7
  6
CONTINUOUS
 10
121.858488966
 20
471.2835095078
 40
7.8890699264
100
AcDbArc
 50
276.7671733315
 51
277.1404979202
  0
ARC
  5
3F2
100
AcDbEntity
  8
00_COMPONENTS_1
100
AcDbCircle
 62
7
  6
CONTINUOUS
 10
251.4666736018
 20
401.5966157622
 40
11.8912642287
100
AcDbArc
 50
306.6791702634
 51
309.9655842409
  0
ARC
  5
3F3
100
AcDbEntity
  8
00_COMPONENTS_1
100
AcDbCircle
 62
7
  6
CONTINUOUS
 10
251.596818976
 20
401.5948150677
 40
11.7973659488
100
AcDbArc
 50
320.0213334208
 51
323.333912075
  0
ARC
  5
3F4
100
AcDbEntity
  8
00_COMPONENTS_1
100
AcDbCircle
 62
7
  6
CONTINUOUS
 10
251.5871745107
 20
385.1647674282
 40
11.7292846325
100
AcDbArc
 50
49.8279375784
 51
54.3401815967
  0
ARC
  5
3F5
100
AcDbEntity
  8
00_COMPONENTS_1
100
AcDbCircle
 62
7
  6
CONTINUOUS
 10
251.6748454021
 20
385.0775576598
 40
11.7289563157
100
AcDbArc
 50
35.6597552173
 51
40.1721256076
  0
ARC
  5
3F6
100
AcDbEntity
  8
00_COMPONENTS_1
100
AcDbCircle
 62
7
  6
CONTINUOUS
 10
172.5337360542
 20
426.035696925
 40
45.2704252715
100
AcDbArc
 50
225.1624183128
 51
225.3675921772
  0
ARC
  5
3F7
100
AcDbEntity
  8
00_COMPONENTS_1
100
AcDbCircle
 62
7
  6
CONTINUOUS
 10
227.0840408566
 20
426.0239172872
 40
45.2704252609
100
AcDbArc
 50
315.1624183128
 51
315.3675921773
  0
ARC
  5
3F8
100
AcDbEntity
  8
00_COMPONENTS_1
100
AcDbCircle
 62
7
  6
CONTINUOUS
 10
172.5441549445
 20
426.0225677674
 40
45.2685083721
100
AcDbArc
 50
224.6324017323
 51
224.8375848448
  0
ARC
  5
3F9
100
AcDbEntity
  8
00_COMPONENTS_1
100
AcDbCircle
 62
7
  6
CONTINUOUS
 10
227.0971700217
 20
426.0343361697
 40
45.2685083507
100
AcDbArc
 50
314.6324017322
 51
314.8375848449
  0
ARC
  5
3FA
100
AcDbEntity
  8
00_COMPONENTS_1
100
AcDbCircle
 62
7
  6
CONTINUOUS
 10
292.5455156554
 20
243.5860017349
 40
45.2704252403
100
AcDbArc
 50
135.1624183002
 51
135.3675921648
  0
ARC
  5
3FB
100
AcDbEntity
  8
00_COMPONENTS_1
100
AcDbCircle
 62
7
  6
CONTINUOUS
 10
347.095820988
 20
243.574222408
 40
45.2704246872
100
AcDbArc
 50
45.162418485
 51
45.3675923527
  0
ARC
  5
3FC
100
AcDbEntity
  8
00_COMPONENTS_1
100
AcDbCircle
 62
7
  6
CONTINUOUS
 10
292.5323865345
 20
243.5755828078
 40
45.2685083929
100
AcDbArc
 50
134.6324017196
 51
134.8375848321
  0
ARC
  5
3FD
100
AcDbEntity
  8
00_COMPONENTS_1
100
AcDbCircle
 62
7
  6
CONTINUOUS
 10
347.0854025619
 20
243.5873519897
 40
45.2685071583
100
AcDbArc
 50
44.6324019285
 51
44.8375850464
  0
ARC
  5
3FE
100
AcDbEntity
  8
00_COMPONENTS_1
100
AcDbCircle
 62
7
  6
CONTINUOUS
 10
268.1628829316
 20
268.0133032526
 40
11.8912642283
100
AcDbArc
 50
126.6791702633
 51
129.9655842409
  0
ARC
  5
3FF
100
AcDbEntity
  8
00_COMPONENTS_1
100
AcDbCircle
 62
7
  6
CONTINUOUS
 10
268.0327375577
 20
268.0151039468
 40
11.7973659488
100
AcDbArc
 50
140.0213334208
 51
143.333912075
  0
ARC
  5
400
100
AcDbEntity
  8
00_COMPONENTS_1
100
AcDbCircle
 62
7
  6
CONTINUOUS
 10
268.0423820229
 20
284.4451515862
 40
11.7292846323
100
AcDbArc
 50
229.8279375784
 51
234.3401815967
  0
ARC
  5
401
100
AcDbEntity
  8
00_COMPONENTS_1
100
AcDbCircle
 62
7
  6
CONTINUOUS
 10
267.9538026895
 20
284.5316537459
 40
11.7278056977
100
AcDbArc
 50
215.6595337479
 51
220.172347077
  0
CIRCLE
  5
402
100
AcDbEntity
  8
00_COMPONENTS_1
100
AcDbCircle
 62
7
  6
CONTINUOUS
 10
259.8147782668
 20
276.3049595073
 40
4.75
  0
ARC
  5
403
100
AcDbEntity
  8
00_COMPONENTS_1
100
AcDbCircle
 62
7
  6
CONTINUOUS
 10
259.8147782668
 20
276.3049595073
 40
2.0621064383
100
AcDbArc
 50
255.5375990462
 51
284.4624009538
  0
ARC
  5
404
100
AcDbEntity
  8
00_COMPONENTS_1
100
AcDbCircle
 62
7
  6
CONTINUOUS
 10
259.8147782668
 20
276.3049595073
 40
2.0621064383
100
AcDbArc
 50
345.5375990462
 51
14.4624009538
  0
ARC
  5
405
100
AcDbEntity
  8
00_COMPONENTS_1
100
AcDbCircle
 62
7
  6
CONTINUOUS
 10
259.8147782668
 20
276.3049595073
 40
2.0621064383
100
AcDbArc
 50
75.5375990462
 51
104.4624009538
  0
ARC
  5
406
100
AcDbEntity
  8
00_COMPONENTS_1
100
AcDbCircle
 62
7
  6
CONTINUOUS
 10
259.8147782668
 20
276.3049595073
 40
2.0621064383
100
AcDbArc
 50
165.5375990462
 51
194.4624009538
  0
ARC
  5
407
100
AcDbEntity
  8
00_COMPONENTS_1
100
AcDbCircle
 62
7
  6
CONTINUOUS
 10
292.5337360542
 20
309.035696925
 40
45.2704252715
100
AcDbArc
 50
225.1624183128
 51
225.3675921772
  0
ARC
  5
408
100
AcDbEntity
  8
00_COMPONENTS_1
100
AcDbCircle
 62
7
  6
CONTINUOUS
 10
347.0840408491
 20
309.0239172946
 40
45.2704252715
100
AcDbArc
 50
315.1624183128
 51
315.3675921772
  0
ARC
  5
409
100
AcDbEntity
  8
00_COMPONENTS_1
100
AcDbCircle
 62
7
  6
CONTINUOUS
 10
292.5455156554
 20
360.5860017349
 40
45.2704252403
100
AcDbArc
 50
135.1624183002
 51
135.3675921648
  0
ARC
  5
40A
100
AcDbEntity
  8
00_COMPONENTS_1
100
AcDbCircle
 62
7
  6
CONTINUOUS
 10
347.095820988
 20
360.574222408
 40
45.2704246872
100
AcDbArc
 50
45.162418485
 51
45.3675923527
  0
ARC
  5
40B
100
AcDbEntity
  8
00_COMPONENTS_1
100
AcDbCircle
 62
7
  6
CONTINUOUS
 10
292.5323865345
 20
360.5755828078
 40
45.2685083929
100
AcDbArc
 50
134.6324017196
 51
134.8375848321
  0
ARC
  5
40C
100
AcDbEntity
  8
00_COMPONENTS_1
100
AcDbCircle
 62
7
  6
CONTINUOUS
 10
292.5441549293
 20
309.0225677524
 40
45.2685083507
100
AcDbArc
 50
224.6324017322
 51
224.8375848449
  0
ARC
  5
40D
100
AcDbEntity
  8
00_COMPONENTS_1
100
AcDbCircle
 62
7
  6
CONTINUOUS
 10
347.0971700366
 20
309.0343361547
 40
45.2685083296
100
AcDbArc
 50
314.6324017321
 51
314.8375848449
  0
ARC
  5
40E
100
AcDbEntity
  8
00_COMPONENTS_1
100
AcDbCircle
 62
7
  6
CONTINUOUS
 10
347.0854025619
 20
360.5873519897
 40
45.2685071583
100
AcDbArc
 50
44.6324019285
 51
44.8375850464
  0
ARC
  5
40F
100
AcDbEntity
  8
00_COMPONENTS_1
100
AcDbCircle
 62
7
  6
CONTINUOUS
 10
412.5455156251
 20
243.5860017649
 40
45.2704251976
100
AcDbArc
 50
135.1624183001
 51
135.3675921649
  0
ARC
  5
410
100
AcDbEntity
  8
00_COMPONENTS_1
100
AcDbCircle
 62
7
  6
CONTINUOUS
 10
393.0958210029
 20
302.074222423
 40
45.270424666
100
AcDbArc
 50
45.1624184849
 51
45.3675923527
  0
ARC
  5
411
100
AcDbEntity
  8
00_COMPONENTS_1
100
AcDbCircle
 62
7
  6
CONTINUOUS
 10
412.5323865271
 20
243.5755828153
 40
45.2685083824
100
AcDbArc
 50
134.6324017196
 51
134.8375848322
  0
ARC
  5
412
100
AcDbEntity
  8
00_COMPONENTS_1
100
AcDbCircle
 62
7
  6
CONTINUOUS
 10
458.5323864972
 20
302.0755828454
 40
45.26850834
100
AcDbArc
 50
134.6324017195
 51
134.8375848323
  0
ARC
  5
413
100
AcDbEntity
  8
00_COMPONENTS_30
100
AcDbCircle
 62
7
  6
CONTINUOUS
 10
410.5647782668
 20
291.5549595073
 40
27.0
100
AcDbArc
 50
270.0
 51
360.0
  0
ARC
  5
414
100
AcDbEntity
  8
00_COMPONENTS_30
100
AcDbCircle
 62
7
  6
CONTINUOUS
 10
409.5647782668
 20
292.5549595073
 40
26.6781992624
100
AcDbArc
 50
270.000000001
 51
360.0
  0
ARC
  5
415
100
AcDbEntity
  8
00_COMPONENTS_30
100
AcDbCircle
 62
7
  6
CONTINUOUS
 10
410.5647782668
 20
291.5549595073
 40
26.5
100
AcDbArc
 50
270.0
 51
360.0
  0
ARC
  5
416
100
AcDbEntity
  8
00_COMPONENTS_2
100
AcDbCircle
 62
7
  6
CONTINUOUS
 10
407.3147782668
 20
294.8049595073
 40
25.0
100
AcDbArc
 50
270.0
 51
360.0
  0
ARC
  5
417
100
AcDbEntity
  8
00_COMPONENTS_30
100
AcDbCircle
 62
7
  6
CONTINUOUS
 10
409.5647782668
 20
292.5549595073
 40
24.7085837563
100
AcDbArc
 50
269.9999999978
 51
360.0
  0
ARC
  5
418
100
AcDbEntity
  8
00_COMPONENTS_30
100
AcDbCircle
 62
7
  6
CONTINUOUS
 10
409.5647782668
 20
292.5549595073
 40
24.6167271797
100
AcDbArc
 50
269.9999999978
 51
360.0
  0
ARC
  5
419
100
AcDbEntity
  8
00_COMPONENTS_30
100
AcDbCircle
 62
7
  6
CONTINUOUS
 10
409.5647782668
 20
292.5549595073
 40
23.6319194267
100
AcDbArc
 50
270.0
 51
360.0
  0
ARC
  5
41A
100
AcDbEntity
  8
00_COMPONENTS_1
100
AcDbCircle
 62
7
  6
CONTINUOUS
 10
388.1628829316
 20
268.0133032527
 40
11.8912642283
100
AcDbArc
 50
126.6791702633
 51
129.9655842409
  0
ARC
  5
41B
100
AcDbEntity
  8
00_COMPONENTS_1
100
AcDbCircle
 62
7
  6
CONTINUOUS
 10
371.4666736018
 20
284.5966157622
 40
11.8912642287
100
AcDbArc
 50
306.6791702634
 51
309.9655842409
  0
ARC
  5
41C
100
AcDbEntity
  8
00_COMPONENTS_1
100
AcDbCircle
 62
7
  6
CONTINUOUS
 10
371.5968189762
 20
284.5948150676
 40
11.7973659485
100
AcDbArc
 50
320.0213334207
 51
323.333912075
  0
ARC
  5
41D
100
AcDbEntity
  8
00_COMPONENTS_1
100
AcDbCircle
 62
7
  6
CONTINUOUS
 10
388.0327375578
 20
268.0151039467
 40
11.7973659489
100
AcDbArc
 50
140.0213334208
 51
143.333912075
  0
ARC
  5
41E
100
AcDbEntity
  8
00_COMPONENTS_1
100
AcDbCircle
 62
7
  6
CONTINUOUS
 10
388.042382023
 20
284.4451515863
 40
11.7292846324
100
AcDbArc
 50
229.8279375784
 51
234.3401815967
  0
ARC
  5
41F
100
AcDbEntity
  8
00_COMPONENTS_1
100
AcDbCircle
 62
7
  6
CONTINUOUS
 10
371.5871745107
 20
268.1647674283
 40
11.7292846323
100
AcDbArc
 50
49.8279375784
 51
54.3401815967
  0
ARC
  5
420
100
AcDbEntity
  8
00_COMPONENTS_1
100
AcDbCircle
 62
7
  6
CONTINUOUS
 10
371.6748454024
 20
268.07755766
 40
11.7289563154
100
AcDbArc
 50
35.6597552173
 51
40.1721256076
  0
ARC
  5
421
100
AcDbEntity
  8
00_COMPONENTS_1
100
AcDbCircle
 62
7
  6
CONTINUOUS
 10
387.9538026896
 20
284.531653746
 40
11.7278056977
100
AcDbArc
 50
215.659533748
 51
220.172347077
  0
CIRCLE
  5
422
100
AcDbEntity
  8
00_COMPONENTS_1
100
AcDbCircle
 62
7
  6
CONTINUOUS
 10
379.8147782668
 20
276.3049595073
 40
4.75
  0
ARC
  5
423
100
AcDbEntity
  8
00_COMPONENTS_30
100
AcDbCircle
 62
7
  6
CONTINUOUS
 10
457.6147782668
 20
257.0049595073
 40
2.2
100
AcDbArc
 50
280.2271705283
 51
359.9999999999
  0
ARC
  5
424
100
AcDbEntity
  8
00_COMPONENTS_1
100
AcDbCircle
 62
7
  6
CONTINUOUS
 10
379.8147782668
 20
276.3049595073
 40
2.0621064383
100
AcDbArc
 50
255.5375990462
 51
284.4624009538
  0
ARC
  5
425
100
AcDbEntity
  8
00_COMPONENTS_1
100
AcDbCircle
 62
7
  6
CONTINUOUS
 10
379.8147782668
 20
276.3049595073
 40
2.0621064383
100
AcDbArc
 50
345.5375990462
 51
14.4624009538
  0
ARC
  5
426
100
AcDbEntity
  8
00_COMPONENTS_1
100
AcDbCircle
 62
7
  6
CONTINUOUS
 10
379.8147782668
 20
276.3049595073
 40
2.0621064383
100
AcDbArc
 50
75.5375990462
 51
104.4624009538
  0
ARC
  5
427
100
AcDbEntity
  8
00_COMPONENTS_1
100
AcDbCircle
 62
7
  6
CONTINUOUS
 10
379.8147782668
 20
276.3049595073
 40
2.0621064383
100
AcDbArc
 50
165.5375990462
 51
194.4624009538
  0
ARC
  5
428
100
AcDbEntity
  8
00_COMPONENTS_1
100
AcDbCircle
 62
7
  6
CONTINUOUS
 10
412.5337360468
 20
309.0356969175
 40
45.270425261
100
AcDbArc
 50
225.1624183128
 51
225.3675921773
  0
ARC
  5
429
100
AcDbEntity
  8
00_COMPONENTS_1
100
AcDbCircle
 62
7
  6
CONTINUOUS
 10
458.5455156251
 20
302.0860017649
 40
45.2704251976
100
AcDbArc
 50
135.1624183001
 51
135.3675921649
  0
ARC
  5
42A
100
AcDbEntity
  8
00_COMPONENTS_1
100
AcDbCircle
 62
7
  6
CONTINUOUS
 10
412.5455156251
 20
360.5860017649
 40
45.2704251976
100
AcDbArc
 50
135.1624183001
 51
135.3675921649
  0
ARC
  5
42B
100
AcDbEntity
  8
00_COMPONENTS_1
100
AcDbCircle
 62
7
  6
CONTINUOUS
 10
412.5323865271
 20
360.5755828153
 40
45.2685083824
100
AcDbArc
 50
134.6324017196
 51
134.8375848322
  0
ARC
  5
42C
100
AcDbEntity
  8
00_COMPONENTS_1
100
AcDbCircle
 62
7
  6
CONTINUOUS
 10
412.544154952
 20
309.0225677749
 40
45.2685083828
100
AcDbArc
 50
224.6324017323
 51
224.8375848448
  0
ARC
  5
42D
100
AcDbEntity
  8
00_COMPONENTS_1
100
AcDbCircle
 62
7
  6
CONTINUOUS
 10
393.0854025468
 20
302.0873519748
 40
45.2685071795
100
AcDbArc
 50
44.6324019286
 51
44.8375850464
  0
ARC
  5
42E
100
AcDbEntity
  8
00_COMPONENTS_1
100
AcDbCircle
 62
7
  6
CONTINUOUS
 10
434.1628829318
 20
326.5133032524
 40
11.8912642285
100
AcDbArc
 50
126.6791702634
 51
129.9655842409
  0
ARC
  5
42F
100
AcDbEntity
  8
00_COMPONENTS_1
100
AcDbCircle
 62
7
  6
CONTINUOUS
 10
417.4666736018
 20
343.0966157622
 40
11.8912642287
100
AcDbArc
 50
306.6791702634
 51
309.9655842409
  0
ARC
  5
430
100
AcDbEntity
  8
00_COMPONENTS_1
100
AcDbCircle
 62
7
  6
CONTINUOUS
 10
417.5968189759
 20
343.0948150678
 40
11.7973659489
100
AcDbArc
 50
320.0213334208
 51
323.333912075
  0
ARC
  5
431
100
AcDbEntity
  8
00_COMPONENTS_1
100
AcDbCircle
 62
7
  6
CONTINUOUS
 10
434.0327375579
 20
326.5151039467
 40
11.797365949
100
AcDbArc
 50
140.0213334208
 51
143.3339120749
  0
ARC
  5
432
100
AcDbEntity
  8
00_COMPONENTS_1
100
AcDbCircle
 62
7
  6
CONTINUOUS
 10
434.0423820229
 20
342.9451515862
 40
11.7292846323
100
AcDbArc
 50
229.8279375784
 51
234.3401815967
  0
ARC
  5
433
100
AcDbEntity
  8
00_COMPONENTS_1
100
AcDbCircle
 62
7
  6
CONTINUOUS
 10
417.5871745108
 20
326.6647674284
 40
11.7292846322
100
AcDbArc
 50
49.8279375784
 51
54.3401815967
  0
ARC
  5
434
100
AcDbEntity
  8
00_COMPONENTS_1
100
AcDbCircle
 62
7
  6
CONTINUOUS
 10
417.6748454024
 20
326.57755766
 40
11.7289563154
100
AcDbArc
 50
35.6597552173
 51
40.1721256076
  0
ARC
  5
435
100
AcDbEntity
  8
00_COMPONENTS_1
100
AcDbCircle
 62
7
  6
CONTINUOUS
 10
433.9538026895
 20
343.0316537459
 40
11.7278056976
100
AcDbArc
 50
215.6595337479
 51
220.172347077
  0
CIRCLE
  5
436
100
AcDbEntity
  8
00_COMPONENTS_1
100
AcDbCircle
 62
7
  6
CONTINUOUS
 10
425.8147782668
 20
334.8049595073
 40
4.75
  0
ARC
  5
437
100
AcDbEntity
  8
00_COMPONENTS_1
100
AcDbCircle
 62
7
  6
CONTINUOUS
 10
425.8147782668
 20
334.8049595073
 40
2.0621064383
100
AcDbArc
 50
255.5375990462
 51
284.4624009538
  0
ARC
  5
438
100
AcDbEntity
  8
00_COMPONENTS_1
100
AcDbCircle
 62
7
  6
CONTINUOUS
 10
425.8147782668
 20
334.8049595073
 40
2.0621064383
100
AcDbArc
 50
345.5375990462
 51
14.4624009538
  0
ARC
  5
439
100
AcDbEntity
  8
00_COMPONENTS_1
100
AcDbCircle
 62
7
  6
CONTINUOUS
 10
425.8147782668
 20
334.8049595073
 40
2.0621064383
100
AcDbArc
 50
75.5375990462
 51
104.4624009538
  0
ARC
  5
43A
100
AcDbEntity
  8
00_COMPONENTS_1
100
AcDbCircle
 62
7
  6
CONTINUOUS
 10
425.8147782668
 20
334.8049595073
 40
2.0621064383
100
AcDbArc
 50
165.5375990462
 51
194.4624009538
  0
ARC
  5
43B
100
AcDbEntity
  8
00_COMPONENTS_1
100
AcDbCircle
 62
7
  6
CONTINUOUS
 10
268.1628829316
 20
385.0133032526
 40
11.8912642283
100
AcDbArc
 50
126.6791702633
 51
129.9655842409
  0
ARC
  5
43C
100
AcDbEntity
  8
00_COMPONENTS_1
100
AcDbCircle
 62
7
  6
CONTINUOUS
 10
268.0327375577
 20
385.0151039468
 40
11.7973659488
100
AcDbArc
 50
140.0213334208
 51
143.333912075
  0
ARC
  5
43D
100
AcDbEntity
  8
00_COMPONENTS_1
100
AcDbCircle
 62
7
  6
CONTINUOUS
 10
268.0423820229
 20
401.4451515862
 40
11.7292846323
100
AcDbArc
 50
229.8279375784
 51
234.3401815967
  0
ARC
  5
43E
100
AcDbEntity
  8
00_COMPONENTS_1
100
AcDbCircle
 62
7
  6
CONTINUOUS
 10
267.9538026896
 20
401.531653746
 40
11.7278056977
100
AcDbArc
 50
215.659533748
 51
220.172347077
  0
CIRCLE
  5
43F
100
AcDbEntity
  8
00_COMPONENTS_1
100
AcDbCircle
 62
7
  6
CONTINUOUS
 10
259.8147782668
 20
393.3049595073
 40
4.75
  0
ARC
  5
440
100
AcDbEntity
  8
00_COMPONENTS_1
100
AcDbCircle
 62
7
  6
CONTINUOUS
 10
259.8147782668
 20
393.3049595073
 40
2.0621064383
100
AcDbArc
 50
255.5375990462
 51
284.4624009538
  0
ARC
  5
441
100
AcDbEntity
  8
00_COMPONENTS_1
100
AcDbCircle
 62
7
  6
CONTINUOUS
 10
259.8147782668
 20
393.3049595073
 40
2.0621064383
100
AcDbArc
 50
345.5375990462
 51
14.4624009538
  0
ARC
  5
442
100
AcDbEntity
  8
00_COMPONENTS_1
100
AcDbCircle
 62
7
  6
CONTINUOUS
 10
259.8147782668
 20
393.3049595073
 40
2.0621064383
100
AcDbArc
 50
75.5375990462
 51
104.4624009538
  0
ARC
  5
443
100
AcDbEntity
  8
00_COMPONENTS_1
100
AcDbCircle
 62
7
  6
CONTINUOUS
 10
259.8147782668
 20
393.3049595073
 40
2.0621064383
100
AcDbArc
 50
165.5375990462
 51
194.4624009538
  0
ARC
  5
444
100
AcDbEntity
  8
00_COMPONENTS_1
100
AcDbCircle
 62
7
  6
CONTINUOUS
 10
347.0840408491
 20
426.0239172946
 40
45.2704252715
100
AcDbArc
 50
315.1624183128
 51
315.3675921772
  0
ARC
  5
445
100
AcDbEntity
  8
00_COMPONENTS_1
100
AcDbCircle
 62
7
  6
CONTINUOUS
 10
292.5337360542
 20
426.035696925
 40
45.2704252715
100
AcDbArc
 50
225.1624183128
 51
225.3675921772
  0
ARC
  5
446
100
AcDbEntity
  8
00_COMPONENTS_1
100
AcDbCircle
 62
7
  6
CONTINUOUS
 10
292.5441549293
 20
426.0225677524
 40
45.2685083507
100
AcDbArc
 50
224.6324017322
 51
224.8375848449
  0
ARC
  5
447
100
AcDbEntity
  8
00_COMPONENTS_1
100
AcDbCircle
 62
7
  6
CONTINUOUS
 10
347.0971700366
 20
426.0343361547
 40
45.2685083296
100
AcDbArc
 50
314.6324017321
 51
314.8375848449
  0
ARC
  5
448
100
AcDbEntity
  8
00_COMPONENTS_30
100
AcDbCircle
 62
7
  6
CONTINUOUS
 10
371.2629656776
 20
372.3488342823
 40
104.9103195027
100
AcDbArc
 50
32.4274072883
 51
32.7538172294
  0
ARC
  5
449
100
AcDbEntity
  8
00_COMPONENTS_30
100
AcDbCircle
 62
7
  6
CONTINUOUS
 10
392.0172387019
 20
394.1439842369
 40
61.9573360884
100
AcDbArc
 50
39.8017856891
 51
40.2082389817
  0
ARC
  5
44A
100
AcDbEntity
  8
00_COMPONENTS_1
100
AcDbCircle
 62
7
  6
CONTINUOUS
 10
393.0840408491
 20
367.5239172946
 40
45.2704252715
100
AcDbArc
 50
315.1624183128
 51
315.3675921772
  0
ARC
  5
44B
100
AcDbEntity
  8
00_COMPONENTS_1
100
AcDbCircle
 62
7
  6
CONTINUOUS
 10
458.5337360466
 20
367.5356969174
 40
45.2704252608
100
AcDbArc
 50
225.1624183128
 51
225.3675921773
  0
ARC
  5
44C
100
AcDbEntity
  8
00_COMPONENTS_1
100
AcDbCircle
 62
7
  6
CONTINUOUS
 10
458.544154952
 20
367.5225677749
 40
45.2685083828
100
AcDbArc
 50
224.6324017323
 51
224.8375848448
  0
ARC
  5
44D
100
AcDbEntity
  8
00_COMPONENTS_1
100
AcDbCircle
 62
7
  6
CONTINUOUS
 10
393.0971700067
 20
367.5343361849
 40
45.2685083721
100
AcDbArc
 50
314.6324017323
 51
314.8375848448
  0
ARC
  5
44E
100
AcDbEntity
  8
00_COMPONENTS_30
100
AcDbCircle
 62
7
  6
CONTINUOUS
 10
417.6201523822
 20
415.7425981386
 40
28.4609650692
100
AcDbArc
 50
40.2756360241
 51
40.3943366853
  0
ARC
  5
44F
100
AcDbEntity
  8
00_COMPONENTS_30
100
AcDbCircle
 62
7
  6
CONTINUOUS
 10
410.5647782668
 20
378.0549595073
 40
27.0
100
AcDbArc
 50
0.0
 51
90.0
  0
ARC
  5
450
100
AcDbEntity
  8
00_COMPONENTS_30
100
AcDbCircle
 62
7
  6
CONTINUOUS
 10
409.5647782668
 20
377.0549595073
 40
26.6781998488
100
AcDbArc
 50
359.9999962925
 51
89.9999814645
  0
ARC
  5
451
100
AcDbEntity
  8
00_COMPONENTS_30
100
AcDbCircle
 62
7
  6
CONTINUOUS
 10
410.5647782668
 20
378.0549595073
 40
26.5
100
AcDbArc
 50
0.0
 51
90.0
  0
ARC
  5
452
100
AcDbEntity
  8
00_COMPONENTS_2
100
AcDbCircle
 62
7
  6
CONTINUOUS
 10
407.3147782668
 20
374.8049595073
 40
25.0
100
AcDbArc
 50
0.0
 51
90.0
  0
ARC
  5
453
100
AcDbEntity
  8
00_COMPONENTS_30
100
AcDbCircle
 62
7
  6
CONTINUOUS
 10
409.5647782668
 20
377.0549595073
 40
24.7085837563
100
AcDbArc
 50
0.0
 51
90.0
  0
ARC
  5
454
100
AcDbEntity
  8
00_COMPONENTS_30
100
AcDbCircle
 62
7
  6
CONTINUOUS
 10
409.5647782668
 20
377.0549595073
 40
24.6167271797
100
AcDbArc
 50
0.0
 51
90.0
  0
ARC
  5
455
100
AcDbEntity
  8
00_COMPONENTS_30
100
AcDbCircle
 62
7
  6
CONTINUOUS
 10
409.5647782668
 20
377.0549595073
 40
23.6319194267
100
AcDbArc
 50
0.0
 51
90.0
  0
ARC
  5
456
100
AcDbEntity
  8
00_COMPONENTS_1
100
AcDbCircle
 62
7
  6
CONTINUOUS
 10
388.1628829316
 20
385.0133032527
 40
11.8912642283
100
AcDbArc
 50
126.6791702633
 51
129.9655842409
  0
ARC
  5
457
100
AcDbEntity
  8
00_COMPONENTS_1
100
AcDbCircle
 62
7
  6
CONTINUOUS
 10
371.4666736018
 20
401.5966157622
 40
11.8912642287
100
AcDbArc
 50
306.6791702634
 51
309.9655842409
  0
ARC
  5
458
100
AcDbEntity
  8
00_COMPONENTS_1
100
AcDbCircle
 62
7
  6
CONTINUOUS
 10
371.5968189762
 20
401.5948150676
 40
11.7973659485
100
AcDbArc
 50
320.0213334207
 51
323.333912075
  0
ARC
  5
459
100
AcDbEntity
  8
00_COMPONENTS_1
100
AcDbCircle
 62
7
  6
CONTINUOUS
 10
388.0327375578
 20
385.0151039467
 40
11.7973659489
100
AcDbArc
 50
140.0213334208
 51
143.333912075
  0
ARC
  5
45A
100
AcDbEntity
  8
00_COMPONENTS_1
100
AcDbCircle
 62
7
  6
CONTINUOUS
 10
388.042382023
 20
401.4451515863
 40
11.7292846324
100
AcDbArc
 50
229.8279375784
 51
234.3401815967
  0
ARC
  5
45B
100
AcDbEntity
  8
00_COMPONENTS_1
100
AcDbCircle
 62
7
  6
CONTINUOUS
 10
371.5871745107
 20
385.1647674282
 40
11.7292846324
100
AcDbArc
 50
49.8279375784
 51
54.3401815967
  0
ARC
  5
45C
100
AcDbEntity
  8
00_COMPONENTS_1
100
AcDbCircle
 62
7
  6
CONTINUOUS
 10
371.6748454024
 20
385.07755766
 40
11.7289563154
100
AcDbArc
 50
35.6597552173
 51
40.1721256076
  0
ARC
  5
45D
100
AcDbEntity
  8
00_COMPONENTS_1
100
AcDbCircle
 62
7
  6
CONTINUOUS
 10
387.9538026896
 20
401.531653746
 40
11.7278056978
100
AcDbArc
 50
215.659533748
 51
220.172347077
  0
CIRCLE
  5
45E
100
AcDbEntity
  8
00_COMPONENTS_1
100
AcDbCircle
 62
7
  6
CONTINUOUS
 10
379.8147782668
 20
393.3049595073
 40
4.75
  0
ARC
  5
45F
100
AcDbEntity
  8
00_COMPONENTS_1
100
AcDbCircle
 62
7
  6
CONTINUOUS
 10
379.8147782668
 20
393.3049595073
 40
2.0621064383
100
AcDbArc
 50
255.5375990462
 51
284.4624009538
  0
ARC
  5
460
100
AcDbEntity
  8
00_COMPONENTS_1
100
AcDbCircle
 62
7
  6
CONTINUOUS
 10
379.8147782668
 20
393.3049595073
 40
2.0621064383
100
AcDbArc
 50
345.5375990462
 51
14.4624009538
  0
ARC
  5
461
100
AcDbEntity
  8
00_COMPONENTS_1
100
AcDbCircle
 62
7
  6
CONTINUOUS
 10
379.8147782668
 20
393.3049595073
 40
2.0621064383
100
AcDbArc
 50
75.5375990462
 51
104.4624009538
  0
ARC
  5
462
100
AcDbEntity
  8
00_COMPONENTS_1
100
AcDbCircle
 62
7
  6
CONTINUOUS
 10
379.8147782668
 20
393.3049595073
 40
2.0621064383
100
AcDbArc
 50
165.5375990462
 51
194.4624009538
  0
ARC
  5
463
100
AcDbEntity
  8
00_COMPONENTS_4
100
AcDbCircle
 62
7
  6
CONTINUOUS
 10
404.0080545716
 20
466.1277650649
 40
59.410699456
100
AcDbArc
 50
332.5915304054
 51
332.7280893163
  0
ARC
  5
464
100
AcDbEntity
  8
00_COMPONENTS_1
100
AcDbCircle
 62
7
  6
CONTINUOUS
 10
412.5337360468
 20
426.0356969175
 40
45.270425261
100
AcDbArc
 50
225.1624183128
 51
225.3675921773
  0
ARC
  5
465
100
AcDbEntity
  8
00_COMPONENTS_1
100
AcDbCircle
 62
7
  6
CONTINUOUS
 10
412.544154952
 20
426.0225677749
 40
45.2685083828
100
AcDbArc
 50
224.6324017323
 51
224.8375848448
  0
ARC
  5
466
100
AcDbEntity
  8
00_COMPONENTS_4
100
AcDbCircle
 62
7
  6
CONTINUOUS
 10
454.6652378605
 20
459.9400480061
 40
7.0642359202
100
AcDbArc
 50
197.5921400441
 51
198.5521951189
  0
ARC
  5
467
100
AcDbEntity
  8
00_COMPONENTS_30
100
AcDbCircle
 62
7
  6
CONTINUOUS
 10
456.6147782668
 20
428.6049595073
 40
3.2
100
AcDbArc
 50
0.0
 51
82.9657340257
  0
ARC
  5
468
100
AcDbEntity
  8
00_COMPONENTS_10
100
AcDbCircle
 62
7
  6
CONTINUOUS
 10
456.2141749228
 20
431.1746628959
 40
2.12
100
AcDbArc
 50
31.8907918018
 51
90.0000000001
  0
ARC
  5
469
100
AcDbEntity
  8
00_COMPONENTS_30
100
AcDbCircle
 62
7
  6
CONTINUOUS
 10
442.240972275
 20
433.8049595073
 40
2.0
100
AcDbArc
 50
168.9999725153
 51
270.0
  0
ARC
  5
46A
100
AcDbEntity
  8
00_COMPONENTS_4
100
AcDbCircle
 62
7
  6
CONTINUOUS
 10
456.7147782668
 20
438.9049595073
 40
1.1
100
AcDbArc
 50
241.4416703445
 51
360.0
  0
ARC
  5
46B
100
AcDbEntity
  8
00_COMPONENTS_4
100
AcDbCircle
 62
7
  6
CONTINUOUS
 10
455.519590823
 20
438.6740589577
 40
1.0058509641
100
AcDbArc
 50
314.0284788955
 51
316.9844634304
  0
LINE
  5
46C
100
AcDbEntity
  8
00_COMPONENTS_1
100
AcDbLine
 62
7
  6
CONTINUOUS
 10
425.0139936757
 20
335.6057440984
 11
425.0159736845
 21
335.4340584621
  0
LINE
  5
46D
100
AcDbEntity
  8
00_COMPONENTS_1
100
AcDbLine
 62
7
  6
CONTINUOUS
 10
424.8552216231
 20
335.3199595073
 11
424.9924805639
 21
335.4575515827
  0
LINE
  5
46E
100
AcDbEntity
  8
00_COMPONENTS_1
100
AcDbLine
 62
7
  6
CONTINUOUS
 10
424.9924805639
 20
334.1523674318
 11
424.8552216231
 21
334.2899595073
  0
LINE
  5
46F
100
AcDbEntity
  8
00_COMPONENTS_1
100
AcDbLine
 62
7
  6
CONTINUOUS
 10
425.0159736845
 20
334.1758605524
 11
425.0139936757
 21
334.0041749161
  0
LINE
  5
470
100
AcDbEntity
  8
00_COMPONENTS_1
100
AcDbLine
 62
7
  6
CONTINUOUS
 10
425.0139936757
 20
334.0041749161
 11
425.185679312
 21
334.0061549249
  0
LINE
  5
471
100
AcDbEntity
  8
00_COMPONENTS_1
100
AcDbLine
 62
7
  6
CONTINUOUS
 10
425.2997782668
 20
333.8454028636
 11
425.1621861914
 21
333.9826618043
  0
LINE
  5
472
100
AcDbEntity
  8
00_COMPONENTS_1
100
AcDbLine
 62
7
  6
CONTINUOUS
 10
426.4673703423
 20
335.6272572102
 11
426.5247986307
 21
335.6271297354
  0
LINE
  5
473
100
AcDbEntity
  8
00_COMPONENTS_1
100
AcDbLine
 62
7
  6
CONTINUOUS
 10
426.615562858
 20
335.6057440984
 11
426.4438772217
 21
335.6037640896
  0
LINE
  5
474
100
AcDbEntity
  8
00_COMPONENTS_1
100
AcDbLine
 62
7
  6
CONTINUOUS
 10
426.3297782668
 20
335.764516151
 11
426.4673703423
 21
335.6272572102
  0
LINE
  5
475
100
AcDbEntity
  8
00_COMPONENTS_1
100
AcDbLine
 62
7
  6
CONTINUOUS
 10
426.4673703423
 20
333.9826618043
 11
426.3297782668
 21
333.8454028636
  0
LINE
  5
476
100
AcDbEntity
  8
00_COMPONENTS_1
100
AcDbLine
 62
7
  6
CONTINUOUS
 10
426.4438772217
 20
334.0061549249
 11
426.615562858
 21
334.0041749161
  0
LINE
  5
477
100
AcDbEntity
  8
00_COMPONENTS_1
100
AcDbLine
 62
7
  6
CONTINUOUS
 10
426.615562858
 20
334.0041749161
 11
426.6135828492
 21
334.1758605524
  0
LINE
  5
478
100
AcDbEntity
  8
00_COMPONENTS_1
100
AcDbLine
 62
7
  6
CONTINUOUS
 10
426.7743349105
 20
334.2899595073
 11
426.6370759698
 21
334.1523674318
  0
LINE
  5
479
100
AcDbEntity
  8
00_COMPONENTS_1
100
AcDbLine
 62
7
  6
CONTINUOUS
 10
426.6370759698
 20
335.4575515827
 11
426.7743349105
 21
335.3199595073
  0
LINE
  5
47A
100
AcDbEntity
  8
00_COMPONENTS_1
100
AcDbLine
 62
7
  6
CONTINUOUS
 10
424.9924805639
 20
334.1523674318
 11
424.9926080387
 21
334.0949391434
  0
LINE
  5
47B
100
AcDbEntity
  8
00_COMPONENTS_1
100
AcDbLine
 62
7
  6
CONTINUOUS
 10
425.104757903
 20
333.9827892791
 11
425.1621861914
 21
333.9826618043
  0
LINE
  5
47C
100
AcDbEntity
  8
00_COMPONENTS_1
100
AcDbLine
 62
7
  6
CONTINUOUS
 10
426.4673703423
 20
333.9826618043
 11
426.4759943114
 21
333.9826801087
  0
LINE
  5
47D
100
AcDbEntity
  8
00_COMPONENTS_1
100
AcDbLine
 62
7
  6
CONTINUOUS
 10
426.6370576654
 20
334.1437434627
 11
426.6370759698
 21
334.1523674318
  0
LINE
  5
47E
100
AcDbEntity
  8
00_COMPONENTS_1
100
AcDbLine
 62
7
  6
CONTINUOUS
 10
425.1621861914
 20
335.6272572102
 11
425.2997782668
 21
335.764516151
  0
LINE
  5
47F
100
AcDbEntity
  8
00_COMPONENTS_1
100
AcDbLine
 62
7
  6
CONTINUOUS
 10
425.1621861914
 20
335.6272572102
 11
425.1535622223
 21
335.6272389058
  0
LINE
  5
480
100
AcDbEntity
  8
00_COMPONENTS_1
100
AcDbLine
 62
7
  6
CONTINUOUS
 10
424.9924988683
 20
335.4661755518
 11
424.9924805639
 21
335.4575515827
  0
LINE
  5
481
100
AcDbEntity
  8
00_COMPONENTS_1
100
AcDbLine
 62
7
  6
CONTINUOUS
 10
425.185679312
 20
335.6037640896
 11
425.0139936757
 21
335.6057440984
  0
LINE
  5
482
100
AcDbEntity
  8
00_COMPONENTS_1
100
AcDbLine
 62
7
  6
CONTINUOUS
 10
426.636948495
 20
335.5149798711
 11
426.6370759698
 21
335.4575515827
  0
LINE
  5
483
100
AcDbEntity
  8
00_COMPONENTS_1
100
AcDbLine
 62
7
  6
CONTINUOUS
 10
426.6135828492
 20
335.4340584621
 11
426.615562858
 21
335.6057440984
  0
LINE
  5
484
100
AcDbEntity
  8
00_COMPONENTS_1
100
AcDbLine
 62
7
  6
CONTINUOUS
 10
93.0139936757
 20
335.6057440984
 11
93.0159736845
 21
335.4340584621
  0
LINE
  5
485
100
AcDbEntity
  8
00_COMPONENTS_1
100
AcDbLine
 62
7
  6
CONTINUOUS
 10
92.8552216231
 20
335.3199595073
 11
92.9924805639
 21
335.4575515827
  0
LINE
  5
486
100
AcDbEntity
  8
00_COMPONENTS_1
100
AcDbLine
 62
7
  6
CONTINUOUS
 10
92.9924805639
 20
334.1523674318
 11
92.8552216231
 21
334.2899595073
  0
LINE
  5
487
100
AcDbEntity
  8
00_COMPONENTS_1
100
AcDbLine
 62
7
  6
CONTINUOUS
 10
93.0159736845
 20
334.1758605524
 11
93.0139936757
 21
334.0041749161
  0
LINE
  5
488
100
AcDbEntity
  8
00_COMPONENTS_1
100
AcDbLine
 62
7
  6
CONTINUOUS
 10
93.0139936757
 20
334.0041749161
 11
93.185679312
 21
334.0061549249
  0
LINE
  5
489
100
AcDbEntity
  8
00_COMPONENTS_1
100
AcDbLine
 62
7
  6
CONTINUOUS
 10
93.2997782668
 20
333.8454028636
 11
93.1621861914
 21
333.9826618043
  0
LINE
  5
48A
100
AcDbEntity
  8
00_COMPONENTS_1
100
AcDbLine
 62
7
  6
CONTINUOUS
 10
94.4673703423
 20
335.6272572102
 11
94.5247986307
 21
335.6271297354
  0
LINE
  5
48B
100
AcDbEntity
  8
00_COMPONENTS_1
100
AcDbLine
 62
7
  6
CONTINUOUS
 10
94.615562858
 20
335.6057440984
 11
94.4438772217
 21
335.6037640896
  0
LINE
  5
48C
100
AcDbEntity
  8
00_COMPONENTS_1
100
AcDbLine
 62
7
  6
CONTINUOUS
 10
94.3297782668
 20
335.764516151
 11
94.4673703423
 21
335.6272572102
  0
LINE
  5
48D
100
AcDbEntity
  8
00_COMPONENTS_1
100
AcDbLine
 62
7
  6
CONTINUOUS
 10
94.4673703423
 20
333.9826618043
 11
94.3297782668
 21
333.8454028636
  0
LINE
  5
48E
100
AcDbEntity
  8
00_COMPONENTS_1
100
AcDbLine
 62
7
  6
CONTINUOUS
 10
94.4438772217
 20
334.0061549249
 11
94.615562858
 21
334.0041749161
  0
LINE
  5
48F
100
AcDbEntity
  8
00_COMPONENTS_1
100
AcDbLine
 62
7
  6
CONTINUOUS
 10
94.615562858
 20
334.0041749161
 11
94.6135828492
 21
334.1758605524
  0
LINE
  5
490
100
AcDbEntity
  8
00_COMPONENTS_1
100
AcDbLine
 62
7
  6
CONTINUOUS
 10
94.7743349105
 20
334.2899595073
 11
94.6370759698
 21
334.1523674318
  0
LINE
  5
491
100
AcDbEntity
  8
00_COMPONENTS_1
100
AcDbLine
 62
7
  6
CONTINUOUS
 10
94.6370759698
 20
335.4575515827
 11
94.7743349105
 21
335.3199595073
  0
LINE
  5
492
100
AcDbEntity
  8
00_COMPONENTS_1
100
AcDbLine
 62
7
  6
CONTINUOUS
 10
92.9924805639
 20
334.1523674318
 11
92.9926080387
 21
334.0949391434
  0
LINE
  5
493
100
AcDbEntity
  8
00_COMPONENTS_1
100
AcDbLine
 62
7
  6
CONTINUOUS
 10
93.104757903
 20
333.9827892791
 11
93.1621861914
 21
333.9826618043
  0
LINE
  5
494
100
AcDbEntity
  8
00_COMPONENTS_1
100
AcDbLine
 62
7
  6
CONTINUOUS
 10
94.4673703423
 20
333.9826618043
 11
94.4759943114
 21
333.9826801087
  0
LINE
  5
495
100
AcDbEntity
  8
00_COMPONENTS_1
100
AcDbLine
 62
7
  6
CONTINUOUS
 10
94.6370576654
 20
334.1437434627
 11
94.6370759698
 21
334.1523674318
  0
LINE
  5
496
100
AcDbEntity
  8
00_COMPONENTS_1
100
AcDbLine
 62
7
  6
CONTINUOUS
 10
93.1621861914
 20
335.6272572102
 11
93.2997782668
 21
335.764516151
  0
LINE
  5
497
100
AcDbEntity
  8
00_COMPONENTS_1
100
AcDbLine
 62
7
  6
CONTINUOUS
 10
93.1621861914
 20
335.6272572102
 11
93.1535622223
 21
335.6272389058
  0
LINE
  5
498
100
AcDbEntity
  8
00_COMPONENTS_1
100
AcDbLine
 62
7
  6
CONTINUOUS
 10
92.9924988683
 20
335.4661755518
 11
92.9924805639
 21
335.4575515827
  0
LINE
  5
499
100
AcDbEntity
  8
00_COMPONENTS_1
100
AcDbLine
 62
7
  6
CONTINUOUS
 10
93.185679312
 20
335.6037640896
 11
93.0139936757
 21
335.6057440984
  0
LINE
  5
49A
100
AcDbEntity
  8
00_COMPONENTS_1
100
AcDbLine
 62
7
  6
CONTINUOUS
 10
94.636948495
 20
335.5149798711
 11
94.6370759698
 21
335.4575515827
  0
LINE
  5
49B
100
AcDbEntity
  8
00_COMPONENTS_1
100
AcDbLine
 62
7
  6
CONTINUOUS
 10
94.6135828492
 20
335.4340584621
 11
94.615562858
 21
335.6057440984
  0
LINE
  5
49C
100
AcDbEntity
  8
00_COMPONENTS_1
100
AcDbLine
 62
7
  6
CONTINUOUS
 10
139.0139936757
 20
394.1057440984
 11
139.0159736845
 21
393.9340584621
  0
LINE
  5
49D
100
AcDbEntity
  8
00_COMPONENTS_1
100
AcDbLine
 62
7
  6
CONTINUOUS
 10
138.8552216231
 20
393.8199595073
 11
138.9924805639
 21
393.9575515827
  0
LINE
  5
49E
100
AcDbEntity
  8
00_COMPONENTS_1
100
AcDbLine
 62
7
  6
CONTINUOUS
 10
138.9924805639
 20
392.6523674318
 11
138.8552216231
 21
392.7899595073
  0
LINE
  5
49F
100
AcDbEntity
  8
00_COMPONENTS_1
100
AcDbLine
 62
7
  6
CONTINUOUS
 10
139.0159736845
 20
392.6758605524
 11
139.0139936757
 21
392.5041749161
  0
LINE
  5
4A0
100
AcDbEntity
  8
00_COMPONENTS_1
100
AcDbLine
 62
7
  6
CONTINUOUS
 10
139.0139936757
 20
392.5041749161
 11
139.185679312
 21
392.5061549249
  0
LINE
  5
4A1
100
AcDbEntity
  8
00_COMPONENTS_1
100
AcDbLine
 62
7
  6
CONTINUOUS
 10
139.2997782668
 20
392.3454028636
 11
139.1621861914
 21
392.4826618043
  0
LINE
  5
4A2
100
AcDbEntity
  8
00_COMPONENTS_1
100
AcDbLine
 62
7
  6
CONTINUOUS
 10
140.4673703423
 20
394.1272572102
 11
140.5247986307
 21
394.1271297354
  0
LINE
  5
4A3
100
AcDbEntity
  8
00_COMPONENTS_1
100
AcDbLine
 62
7
  6
CONTINUOUS
 10
140.615562858
 20
394.1057440984
 11
140.4438772217
 21
394.1037640896
  0
LINE
  5
4A4
100
AcDbEntity
  8
00_COMPONENTS_1
100
AcDbLine
 62
7
  6
CONTINUOUS
 10
140.3297782668
 20
394.264516151
 11
140.4673703423
 21
394.1272572102
  0
LINE
  5
4A5
100
AcDbEntity
  8
00_COMPONENTS_1
100
AcDbLine
 62
7
  6
CONTINUOUS
 10
140.4673703423
 20
392.4826618043
 11
140.3297782668
 21
392.3454028636
  0
LINE
  5
4A6
100
AcDbEntity
  8
00_COMPONENTS_1
100
AcDbLine
 62
7
  6
CONTINUOUS
 10
140.4438772217
 20
392.5061549249
 11
140.615562858
 21
392.5041749161
  0
LINE
  5
4A7
100
AcDbEntity
  8
00_COMPONENTS_1
100
AcDbLine
 62
7
  6
CONTINUOUS
 10
140.615562858
 20
392.5041749161
 11
140.6135828492
 21
392.6758605524
  0
LINE
  5
4A8
100
AcDbEntity
  8
00_COMPONENTS_1
100
AcDbLine
 62
7
  6
CONTINUOUS
 10
140.7743349105
 20
392.7899595073
 11
140.6370759698
 21
392.6523674318
  0
LINE
  5
4A9
100
AcDbEntity
  8
00_COMPONENTS_1
100
AcDbLine
 62
7
  6
CONTINUOUS
 10
140.6370759698
 20
393.9575515827
 11
140.7743349105
 21
393.8199595073
  0
LINE
  5
4AA
100
AcDbEntity
  8
00_COMPONENTS_1
100
AcDbLine
 62
7
  6
CONTINUOUS
 10
138.9924805639
 20
392.6523674318
 11
138.9926080387
 21
392.5949391434
  0
LINE
  5
4AB
100
AcDbEntity
  8
00_COMPONENTS_1
100
AcDbLine
 62
7
  6
CONTINUOUS
 10
139.104757903
 20
392.4827892791
 11
139.1621861914
 21
392.4826618043
  0
LINE
  5
4AC
100
AcDbEntity
  8
00_COMPONENTS_1
100
AcDbLine
 62
7
  6
CONTINUOUS
 10
140.4673703423
 20
392.4826618043
 11
140.4759943114
 21
392.4826801087
  0
LINE
  5
4AD
100
AcDbEntity
  8
00_COMPONENTS_1
100
AcDbLine
 62
7
  6
CONTINUOUS
 10
140.6370576654
 20
392.6437434627
 11
140.6370759698
 21
392.6523674318
  0
LINE
  5
4AE
100
AcDbEntity
  8
00_COMPONENTS_1
100
AcDbLine
 62
7
  6
CONTINUOUS
 10
139.1621861914
 20
394.1272572102
 11
139.2997782668
 21
394.264516151
  0
LINE
  5
4AF
100
AcDbEntity
  8
00_COMPONENTS_1
100
AcDbLine
 62
7
  6
CONTINUOUS
 10
139.1621861914
 20
394.1272572102
 11
139.1535622223
 21
394.1272389058
  0
LINE
  5
4B0
100
AcDbEntity
  8
00_COMPONENTS_1
100
AcDbLine
 62
7
  6
CONTINUOUS
 10
138.9924988683
 20
393.9661755518
 11
138.9924805639
 21
393.9575515827
  0
LINE
  5
4B1
100
AcDbEntity
  8
00_COMPONENTS_1
100
AcDbLine
 62
7
  6
CONTINUOUS
 10
139.185679312
 20
394.1037640896
 11
139.0139936757
 21
394.1057440984
  0
LINE
  5
4B2
100
AcDbEntity
  8
00_COMPONENTS_1
100
AcDbLine
 62
7
  6
CONTINUOUS
 10
140.636948495
 20
394.0149798711
 11
140.6370759698
 21
393.9575515827
  0
LINE
  5
4B3
100
AcDbEntity
  8
00_COMPONENTS_1
100
AcDbLine
 62
7
  6
CONTINUOUS
 10
140.6135828492
 20
393.9340584621
 11
140.615562858
 21
394.1057440984
  0
LINE
  5
4B4
100
AcDbEntity
  8
00_COMPONENTS_1
100
AcDbLine
 62
7
  6
CONTINUOUS
 10
259.0139936757
 20
277.1057440984
 11
259.0159736845
 21
276.9340584621
  0
LINE
  5
4B5
100
AcDbEntity
  8
00_COMPONENTS_1
100
AcDbLine
 62
7
  6
CONTINUOUS
 10
258.8552216231
 20
276.8199595073
 11
258.9924805639
 21
276.9575515827
  0
LINE
  5
4B6
100
AcDbEntity
  8
00_COMPONENTS_1
100
AcDbLine
 62
7
  6
CONTINUOUS
 10
258.9924805639
 20
275.6523674318
 11
258.8552216231
 21
275.7899595073
  0
LINE
  5
4B7
100
AcDbEntity
  8
00_COMPONENTS_1
100
AcDbLine
 62
7
  6
CONTINUOUS
 10
259.0159736845
 20
275.6758605524
 11
259.0139936757
 21
275.5041749161
  0
LINE
  5
4B8
100
AcDbEntity
  8
00_COMPONENTS_1
100
AcDbLine
 62
7
  6
CONTINUOUS
 10
259.0139936757
 20
275.5041749161
 11
259.185679312
 21
275.5061549249
  0
LINE
  5
4B9
100
AcDbEntity
  8
00_COMPONENTS_1
100
AcDbLine
 62
7
  6
CONTINUOUS
 10
259.2997782668
 20
275.3454028636
 11
259.1621861914
 21
275.4826618043
  0
LINE
  5
4BA
100
AcDbEntity
  8
00_COMPONENTS_1
100
AcDbLine
 62
7
  6
CONTINUOUS
 10
260.4673703423
 20
277.1272572102
 11
260.5247986307
 21
277.1271297354
  0
LINE
  5
4BB
100
AcDbEntity
  8
00_COMPONENTS_1
100
AcDbLine
 62
7
  6
CONTINUOUS
 10
260.615562858
 20
277.1057440984
 11
260.4438772217
 21
277.1037640896
  0
LINE
  5
4BC
100
AcDbEntity
  8
00_COMPONENTS_1
100
AcDbLine
 62
7
  6
CONTINUOUS
 10
260.3297782668
 20
277.264516151
 11
260.4673703423
 21
277.1272572102
  0
LINE
  5
4BD
100
AcDbEntity
  8
00_COMPONENTS_1
100
AcDbLine
 62
7
  6
CONTINUOUS
 10
260.4673703423
 20
275.4826618043
 11
260.3297782668
 21
275.3454028636
  0
LINE
  5
4BE
100
AcDbEntity
  8
00_COMPONENTS_1
100
AcDbLine
 62
7
  6
CONTINUOUS
 10
260.4438772217
 20
275.5061549249
 11
260.615562858
 21
275.5041749161
  0
LINE
  5
4BF
100
AcDbEntity
  8
00_COMPONENTS_1
100
AcDbLine
 62
7
  6
CONTINUOUS
 10
260.615562858
 20
275.5041749161
 11
260.6135828492
 21
275.6758605524
  0
LINE
  5
4C0
100
AcDbEntity
  8
00_COMPONENTS_1
100
AcDbLine
 62
7
  6
CONTINUOUS
 10
260.7743349105
 20
275.7899595073
 11
260.6370759698
 21
275.6523674318
  0
LINE
  5
4C1
100
AcDbEntity
  8
00_COMPONENTS_1
100
AcDbLine
 62
7
  6
CONTINUOUS
 10
260.6370759698
 20
276.9575515827
 11
260.7743349105
 21
276.8199595073
  0
LINE
  5
4C2
100
AcDbEntity
  8
00_COMPONENTS_1
100
AcDbLine
 62
7
  6
CONTINUOUS
 10
258.9924805639
 20
275.6523674318
 11
258.9926080387
 21
275.5949391434
  0
LINE
  5
4C3
100
AcDbEntity
  8
00_COMPONENTS_1
100
AcDbLine
 62
7
  6
CONTINUOUS
 10
259.104757903
 20
275.4827892791
 11
259.1621861914
 21
275.4826618043
  0
LINE
  5
4C4
100
AcDbEntity
  8
00_COMPONENTS_1
100
AcDbLine
 62
7
  6
CONTINUOUS
 10
260.4673703423
 20
275.4826618043
 11
260.4759943114
 21
275.4826801087
  0
LINE
  5
4C5
100
AcDbEntity
  8
00_COMPONENTS_1
100
AcDbLine
 62
7
  6
CONTINUOUS
 10
260.6370576654
 20
275.6437434627
 11
260.6370759698
 21
275.6523674318
  0
LINE
  5
4C6
100
AcDbEntity
  8
00_COMPONENTS_1
100
AcDbLine
 62
7
  6
CONTINUOUS
 10
259.1621861914
 20
277.1272572102
 11
259.2997782668
 21
277.264516151
  0
LINE
  5
4C7
100
AcDbEntity
  8
00_COMPONENTS_1
100
AcDbLine
 62
7
  6
CONTINUOUS
 10
259.1621861914
 20
277.1272572102
 11
259.1535622223
 21
277.1272389058
  0
LINE
  5
4C8
100
AcDbEntity
  8
00_COMPONENTS_1
100
AcDbLine
 62
7
  6
CONTINUOUS
 10
258.9924988683
 20
276.9661755518
 11
258.9924805639
 21
276.9575515827
  0
LINE
  5
4C9
100
AcDbEntity
  8
00_COMPONENTS_1
100
AcDbLine
 62
7
  6
CONTINUOUS
 10
259.185679312
 20
277.1037640896
 11
259.0139936757
 21
277.1057440984
  0
LINE
  5
4CA
100
AcDbEntity
  8
00_COMPONENTS_1
100
AcDbLine
 62
7
  6
CONTINUOUS
 10
260.636948495
 20
277.0149798711
 11
260.6370759698
 21
276.9575515827
  0
LINE
  5
4CB
100
AcDbEntity
  8
00_COMPONENTS_1
100
AcDbLine
 62
7
  6
CONTINUOUS
 10
260.6135828492
 20
276.9340584621
 11
260.615562858
 21
277.1057440984
  0
LINE
  5
4CC
100
AcDbEntity
  8
00_COMPONENTS_1
100
AcDbLine
 62
7
  6
CONTINUOUS
 10
379.0139936757
 20
394.1057440984
 11
379.0159736845
 21
393.9340584621
  0
LINE
  5
4CD
100
AcDbEntity
  8
00_COMPONENTS_1
100
AcDbLine
 62
7
  6
CONTINUOUS
 10
378.8552216231
 20
393.8199595073
 11
378.9924805639
 21
393.9575515827
  0
LINE
  5
4CE
100
AcDbEntity
  8
00_COMPONENTS_1
100
AcDbLine
 62
7
  6
CONTINUOUS
 10
378.9924805639
 20
392.6523674318
 11
378.8552216231
 21
392.7899595073
  0
LINE
  5
4CF
100
AcDbEntity
  8
00_COMPONENTS_1
100
AcDbLine
 62
7
  6
CONTINUOUS
 10
379.0159736845
 20
392.6758605524
 11
379.0139936757
 21
392.5041749161
  0
LINE
  5
4D0
100
AcDbEntity
  8
00_COMPONENTS_1
100
AcDbLine
 62
7
  6
CONTINUOUS
 10
379.0139936757
 20
392.5041749161
 11
379.185679312
 21
392.5061549249
  0
LINE
  5
4D1
100
AcDbEntity
  8
00_COMPONENTS_1
100
AcDbLine
 62
7
  6
CONTINUOUS
 10
379.2997782668
 20
392.3454028636
 11
379.1621861914
 21
392.4826618043
  0
LINE
  5
4D2
100
AcDbEntity
  8
00_COMPONENTS_1
100
AcDbLine
 62
7
  6
CONTINUOUS
 10
380.4673703423
 20
394.1272572102
 11
380.5247986307
 21
394.1271297354
  0
LINE
  5
4D3
100
AcDbEntity
  8
00_COMPONENTS_1
100
AcDbLine
 62
7
  6
CONTINUOUS
 10
380.615562858
 20
394.1057440984
 11
380.4438772217
 21
394.1037640896
  0
LINE
  5
4D4
100
AcDbEntity
  8
00_COMPONENTS_1
100
AcDbLine
 62
7
  6
CONTINUOUS
 10
380.3297782668
 20
394.264516151
 11
380.4673703423
 21
394.1272572102
  0
LINE
  5
4D5
100
AcDbEntity
  8
00_COMPONENTS_1
100
AcDbLine
 62
7
  6
CONTINUOUS
 10
380.4673703423
 20
392.4826618043
 11
380.3297782668
 21
392.3454028636
  0
LINE
  5
4D6
100
AcDbEntity
  8
00_COMPONENTS_1
100
AcDbLine
 62
7
  6
CONTINUOUS
 10
380.4438772217
 20
392.5061549249
 11
380.615562858
 21
392.5041749161
  0
LINE
  5
4D7
100
AcDbEntity
  8
00_COMPONENTS_1
100
AcDbLine
 62
7
  6
CONTINUOUS
 10
380.615562858
 20
392.5041749161
 11
380.6135828492
 21
392.6758605524
  0
LINE
  5
4D8
100
AcDbEntity
  8
00_COMPONENTS_1
100
AcDbLine
 62
7
  6
CONTINUOUS
 10
380.7743349105
 20
392.7899595073
 11
380.6370759698
 21
392.6523674318
  0
LINE
  5
4D9
100
AcDbEntity
  8
00_COMPONENTS_1
100
AcDbLine
 62
7
  6
CONTINUOUS
 10
380.6370759698
 20
393.9575515827
 11
380.7743349105
 21
393.8199595073
  0
LINE
  5
4DA
100
AcDbEntity
  8
00_COMPONENTS_1
100
AcDbLine
 62
7
  6
CONTINUOUS
 10
378.9924805639
 20
392.6523674318
 11
378.9926080387
 21
392.5949391434
  0
LINE
  5
4DB
100
AcDbEntity
  8
00_COMPONENTS_1
100
AcDbLine
 62
7
  6
CONTINUOUS
 10
379.104757903
 20
392.4827892791
 11
379.1621861914
 21
392.4826618043
  0
LINE
  5
4DC
100
AcDbEntity
  8
00_COMPONENTS_1
100
AcDbLine
 62
7
  6
CONTINUOUS
 10
380.4673703423
 20
392.4826618043
 11
380.4759943114
 21
392.4826801087
  0
LINE
  5
4DD
100
AcDbEntity
  8
00_COMPONENTS_1
100
AcDbLine
 62
7
  6
CONTINUOUS
 10
380.6370576654
 20
392.6437434627
 11
380.6370759698
 21
392.6523674318
  0
LINE
  5
4DE
100
AcDbEntity
  8
00_COMPONENTS_1
100
AcDbLine
 62
7
  6
CONTINUOUS
 10
379.1621861914
 20
394.1272572102
 11
379.2997782668
 21
394.264516151
  0
LINE
  5
4DF
100
AcDbEntity
  8
00_COMPONENTS_1
100
AcDbLine
 62
7
  6
CONTINUOUS
 10
379.1621861914
 20
394.1272572102
 11
379.1535622223
 21
394.1272389058
  0
LINE
  5
4E0
100
AcDbEntity
  8
00_COMPONENTS_1
100
AcDbLine
 62
7
  6
CONTINUOUS
 10
378.9924988683
 20
393.9661755518
 11
378.9924805639
 21
393.9575515827
  0
LINE
  5
4E1
100
AcDbEntity
  8
00_COMPONENTS_1
100
AcDbLine
 62
7
  6
CONTINUOUS
 10
379.185679312
 20
394.1037640896
 11
379.0139936757
 21
394.1057440984
  0
LINE
  5
4E2
100
AcDbEntity
  8
00_COMPONENTS_1
100
AcDbLine
 62
7
  6
CONTINUOUS
 10
380.636948495
 20
394.0149798711
 11
380.6370759698
 21
393.9575515827
  0
LINE
  5
4E3
100
AcDbEntity
  8
00_COMPONENTS_1
100
AcDbLine
 62
7
  6
CONTINUOUS
 10
380.6135828492
 20
393.9340584621
 11
380.615562858
 21
394.1057440984
  0
LINE
  5
4E4
100
AcDbEntity
  8
00_COMPONENTS_1
100
AcDbLine
 62
7
  6
CONTINUOUS
 10
379.0139936757
 20
277.1057440984
 11
379.0159736845
 21
276.9340584621
  0
LINE
  5
4E5
100
AcDbEntity
  8
00_COMPONENTS_1
100
AcDbLine
 62
7
  6
CONTINUOUS
 10
378.8552216231
 20
276.8199595073
 11
378.9924805639
 21
276.9575515827
  0
LINE
  5
4E6
100
AcDbEntity
  8
00_COMPONENTS_1
100
AcDbLine
 62
7
  6
CONTINUOUS
 10
378.9924805639
 20
275.6523674318
 11
378.8552216231
 21
275.7899595073
  0
LINE
  5
4E7
100
AcDbEntity
  8
00_COMPONENTS_1
100
AcDbLine
 62
7
  6
CONTINUOUS
 10
379.0159736845
 20
275.6758605524
 11
379.0139936757
 21
275.5041749161
  0
LINE
  5
4E8
100
AcDbEntity
  8
00_COMPONENTS_1
100
AcDbLine
 62
7
  6
CONTINUOUS
 10
379.0139936757
 20
275.5041749161
 11
379.185679312
 21
275.5061549249
  0
LINE
  5
4E9
100
AcDbEntity
  8
00_COMPONENTS_1
100
AcDbLine
 62
7
  6
CONTINUOUS
 10
379.2997782668
 20
275.3454028636
 11
379.1621861914
 21
275.4826618043
  0
LINE
  5
4EA
100
AcDbEntity
  8
00_COMPONENTS_1
100
AcDbLine
 62
7
  6
CONTINUOUS
 10
380.4673703423
 20
277.1272572102
 11
380.5247986307
 21
277.1271297354
  0
LINE
  5
4EB
100
AcDbEntity
  8
00_COMPONENTS_1
100
AcDbLine
 62
7
  6
CONTINUOUS
 10
380.615562858
 20
277.1057440984
 11
380.4438772217
 21
277.1037640896
  0
LINE
  5
4EC
100
AcDbEntity
  8
00_COMPONENTS_1
100
AcDbLine
 62
7
  6
CONTINUOUS
 10
380.3297782668
 20
277.264516151
 11
380.4673703423
 21
277.1272572102
  0
LINE
  5
4ED
100
AcDbEntity
  8
00_COMPONENTS_1
100
AcDbLine
 62
7
  6
CONTINUOUS
 10
380.4673703423
 20
275.4826618043
 11
380.3297782668
 21
275.3454028636
  0
LINE
  5
4EE
100
AcDbEntity
  8
00_COMPONENTS_1
100
AcDbLine
 62
7
  6
CONTINUOUS
 10
380.4438772217
 20
275.5061549249
 11
380.615562858
 21
275.5041749161
  0
LINE
  5
4EF
100
AcDbEntity
  8
00_COMPONENTS_1
100
AcDbLine
 62
7
  6
CONTINUOUS
 10
380.615562858
 20
275.5041749161
 11
380.6135828492
 21
275.6758605524
  0
LINE
  5
4F0
100
AcDbEntity
  8
00_COMPONENTS_1
100
AcDbLine
 62
7
  6
CONTINUOUS
 10
380.7743349105
 20
275.7899595073
 11
380.6370759698
 21
275.6523674318
  0
LINE
  5
4F1
100
AcDbEntity
  8
00_COMPONENTS_1
100
AcDbLine
 62
7
  6
CONTINUOUS
 10
380.6370759698
 20
276.9575515827
 11
380.7743349105
 21
276.8199595073
  0
LINE
  5
4F2
100
AcDbEntity
  8
00_COMPONENTS_1
100
AcDbLine
 62
7
  6
CONTINUOUS
 10
378.9924805639
 20
275.6523674318
 11
378.9926080387
 21
275.5949391434
  0
LINE
  5
4F3
100
AcDbEntity
  8
00_COMPONENTS_1
100
AcDbLine
 62
7
  6
CONTINUOUS
 10
379.104757903
 20
275.4827892791
 11
379.1621861914
 21
275.4826618043
  0
LINE
  5
4F4
100
AcDbEntity
  8
00_COMPONENTS_1
100
AcDbLine
 62
7
  6
CONTINUOUS
 10
380.4673703423
 20
275.4826618043
 11
380.4759943114
 21
275.4826801087
  0
LINE
  5
4F5
100
AcDbEntity
  8
00_COMPONENTS_1
100
AcDbLine
 62
7
  6
CONTINUOUS
 10
380.6370576654
 20
275.6437434627
 11
380.6370759698
 21
275.6523674318
  0
LINE
  5
4F6
100
AcDbEntity
  8
00_COMPONENTS_1
100
AcDbLine
 62
7
  6
CONTINUOUS
 10
379.1621861914
 20
277.1272572102
 11
379.2997782668
 21
277.264516151
  0
LINE
  5
4F7
100
AcDbEntity
  8
00_COMPONENTS_1
100
AcDbLine
 62
7
  6
CONTINUOUS
 10
379.1621861914
 20
277.1272572102
 11
379.1535622223
 21
277.1272389058
  0
LINE
  5
4F8
100
AcDbEntity
  8
00_COMPONENTS_1
100
AcDbLine
 62
7
  6
CONTINUOUS
 10
378.9924988683
 20
276.9661755518
 11
378.9924805639
 21
276.9575515827
  0
LINE
  5
4F9
100
AcDbEntity
  8
00_COMPONENTS_1
100
AcDbLine
 62
7
  6
CONTINUOUS
 10
379.185679312
 20
277.1037640896
 11
379.0139936757
 21
277.1057440984
  0
LINE
  5
4FA
100
AcDbEntity
  8
00_COMPONENTS_1
100
AcDbLine
 62
7
  6
CONTINUOUS
 10
380.636948495
 20
277.0149798711
 11
380.6370759698
 21
276.9575515827
  0
LINE
  5
4FB
100
AcDbEntity
  8
00_COMPONENTS_1
100
AcDbLine
 62
7
  6
CONTINUOUS
 10
380.6135828492
 20
276.9340584621
 11
380.615562858
 21
277.1057440984
  0
LINE
  5
4FC
100
AcDbEntity
  8
00_COMPONENTS_1
100
AcDbLine
 62
7
  6
CONTINUOUS
 10
259.0139936757
 20
394.1057440984
 11
259.0159736845
 21
393.9340584621
  0
LINE
  5
4FD
100
AcDbEntity
  8
00_COMPONENTS_1
100
AcDbLine
 62
7
  6
CONTINUOUS
 10
258.8552216231
 20
393.8199595073
 11
258.9924805639
 21
393.9575515827
  0
LINE
  5
4FE
100
AcDbEntity
  8
00_COMPONENTS_1
100
AcDbLine
 62
7
  6
CONTINUOUS
 10
258.9924805639
 20
392.6523674318
 11
258.8552216231
 21
392.7899595073
  0
LINE
  5
4FF
100
AcDbEntity
  8
00_COMPONENTS_1
100
AcDbLine
 62
7
  6
CONTINUOUS
 10
259.0159736845
 20
392.6758605524
 11
259.0139936757
 21
392.5041749161
  0
LINE
  5
500
100
AcDbEntity
  8
00_COMPONENTS_1
100
AcDbLine
 62
7
  6
CONTINUOUS
 10
259.0139936757
 20
392.5041749161
 11
259.185679312
 21
392.5061549249
  0
LINE
  5
501
100
AcDbEntity
  8
00_COMPONENTS_1
100
AcDbLine
 62
7
  6
CONTINUOUS
 10
259.2997782668
 20
392.3454028636
 11
259.1621861914
 21
392.4826618043
  0
LINE
  5
502
100
AcDbEntity
  8
00_COMPONENTS_1
100
AcDbLine
 62
7
  6
CONTINUOUS
 10
260.4673703423
 20
394.1272572102
 11
260.5247986307
 21
394.1271297354
  0
LINE
  5
503
100
AcDbEntity
  8
00_COMPONENTS_1
100
AcDbLine
 62
7
  6
CONTINUOUS
 10
260.615562858
 20
394.1057440984
 11
260.4438772217
 21
394.1037640896
  0
LINE
  5
504
100
AcDbEntity
  8
00_COMPONENTS_1
100
AcDbLine
 62
7
  6
CONTINUOUS
 10
260.3297782668
 20
394.264516151
 11
260.4673703423
 21
394.1272572102
  0
LINE
  5
505
100
AcDbEntity
  8
00_COMPONENTS_1
100
AcDbLine
 62
7
  6
CONTINUOUS
 10
260.4673703423
 20
392.4826618043
 11
260.3297782668
 21
392.3454028636
  0
LINE
  5
506
100
AcDbEntity
  8
00_COMPONENTS_1
100
AcDbLine
 62
7
  6
CONTINUOUS
 10
260.4438772217
 20
392.5061549249
 11
260.615562858
 21
392.5041749161
  0
LINE
  5
507
100
AcDbEntity
  8
00_COMPONENTS_1
100
AcDbLine
 62
7
  6
CONTINUOUS
 10
260.615562858
 20
392.5041749161
 11
260.6135828492
 21
392.6758605524
  0
LINE
  5
508
100
AcDbEntity
  8
00_COMPONENTS_1
100
AcDbLine
 62
7
  6
CONTINUOUS
 10
260.7743349105
 20
392.7899595073
 11
260.6370759698
 21
392.6523674318
  0
LINE
  5
509
100
AcDbEntity
  8
00_COMPONENTS_1
100
AcDbLine
 62
7
  6
CONTINUOUS
 10
260.6370759698
 20
393.9575515827
 11
260.7743349105
 21
393.8199595073
  0
LINE
  5
50A
100
AcDbEntity
  8
00_COMPONENTS_1
100
AcDbLine
 62
7
  6
CONTINUOUS
 10
258.9924805639
 20
392.6523674318
 11
258.9926080387
 21
392.5949391434
  0
LINE
  5
50B
100
AcDbEntity
  8
00_COMPONENTS_1
100
AcDbLine
 62
7
  6
CONTINUOUS
 10
259.104757903
 20
392.4827892791
 11
259.1621861914
 21
392.4826618043
  0
LINE
  5
50C
100
AcDbEntity
  8
00_COMPONENTS_1
100
AcDbLine
 62
7
  6
CONTINUOUS
 10
260.4673703423
 20
392.4826618043
 11
260.4759943114
 21
392.4826801087
  0
LINE
  5
50D
100
AcDbEntity
  8
00_COMPONENTS_1
100
AcDbLine
 62
7
  6
CONTINUOUS
 10
260.6370576654
 20
392.6437434627
 11
260.6370759698
 21
392.6523674318
  0
LINE
  5
50E
100
AcDbEntity
  8
00_COMPONENTS_1
100
AcDbLine
 62
7
  6
CONTINUOUS
 10
259.1621861914
 20
394.1272572102
 11
259.2997782668
 21
394.264516151
  0
LINE
  5
50F
100
AcDbEntity
  8
00_COMPONENTS_1
100
AcDbLine
 62
7
  6
CONTINUOUS
 10
259.1621861914
 20
394.1272572102
 11
259.1535622223
 21
394.1272389058
  0
LINE
  5
510
100
AcDbEntity
  8
00_COMPONENTS_1
100
AcDbLine
 62
7
  6
CONTINUOUS
 10
258.9924988683
 20
393.9661755518
 11
258.9924805639
 21
393.9575515827
  0
LINE
  5
511
100
AcDbEntity
  8
00_COMPONENTS_1
100
AcDbLine
 62
7
  6
CONTINUOUS
 10
259.185679312
 20
394.1037640896
 11
259.0139936757
 21
394.1057440984
  0
LINE
  5
512
100
AcDbEntity
  8
00_COMPONENTS_1
100
AcDbLine
 62
7
  6
CONTINUOUS
 10
260.636948495
 20
394.0149798711
 11
260.6370759698
 21
393.9575515827
  0
LINE
  5
513
100
AcDbEntity
  8
00_COMPONENTS_1
100
AcDbLine
 62
7
  6
CONTINUOUS
 10
260.6135828492
 20
393.9340584621
 11
260.615562858
 21
394.1057440984
  0
LINE
  5
514
100
AcDbEntity
  8
00_COMPONENTS_1
100
AcDbLine
 62
7
  6
CONTINUOUS
 10
139.0139936757
 20
277.1057440984
 11
139.0159736845
 21
276.9340584621
  0
LINE
  5
515
100
AcDbEntity
  8
00_COMPONENTS_1
100
AcDbLine
 62
7
  6
CONTINUOUS
 10
138.8552216231
 20
276.8199595073
 11
138.9924805639
 21
276.9575515827
  0
LINE
  5
516
100
AcDbEntity
  8
00_COMPONENTS_1
100
AcDbLine
 62
7
  6
CONTINUOUS
 10
138.9924805639
 20
275.6523674318
 11
138.8552216231
 21
275.7899595073
  0
LINE
  5
517
100
AcDbEntity
  8
00_COMPONENTS_1
100
AcDbLine
 62
7
  6
CONTINUOUS
 10
139.0159736845
 20
275.6758605524
 11
139.0139936757
 21
275.5041749161
  0
LINE
  5
518
100
AcDbEntity
  8
00_COMPONENTS_1
100
AcDbLine
 62
7
  6
CONTINUOUS
 10
139.0139936757
 20
275.5041749161
 11
139.185679312
 21
275.5061549249
  0
LINE
  5
519
100
AcDbEntity
  8
00_COMPONENTS_1
100
AcDbLine
 62
7
  6
CONTINUOUS
 10
139.2997782668
 20
275.3454028636
 11
139.1621861914
 21
275.4826618043
  0
LINE
  5
51A
100
AcDbEntity
  8
00_COMPONENTS_1
100
AcDbLine
 62
7
  6
CONTINUOUS
 10
140.4673703423
 20
277.1272572102
 11
140.5247986307
 21
277.1271297354
  0
LINE
  5
51B
100
AcDbEntity
  8
00_COMPONENTS_1
100
AcDbLine
 62
7
  6
CONTINUOUS
 10
140.615562858
 20
277.1057440984
 11
140.4438772217
 21
277.1037640896
  0
LINE
  5
51C
100
AcDbEntity
  8
00_COMPONENTS_1
100
AcDbLine
 62
7
  6
CONTINUOUS
 10
140.3297782668
 20
277.264516151
 11
140.4673703423
 21
277.1272572102
  0
LINE
  5
51D
100
AcDbEntity
  8
00_COMPONENTS_1
100
AcDbLine
 62
7
  6
CONTINUOUS
 10
140.4673703423
 20
275.4826618043
 11
140.3297782668
 21
275.3454028636
  0
LINE
  5
51E
100
AcDbEntity
  8
00_COMPONENTS_1
100
AcDbLine
 62
7
  6
CONTINUOUS
 10
140.4438772217
 20
275.5061549249
 11
140.615562858
 21
275.5041749161
  0
LINE
  5
51F
100
AcDbEntity
  8
00_COMPONENTS_1
100
AcDbLine
 62
7
  6
CONTINUOUS
 10
140.615562858
 20
275.5041749161
 11
140.6135828492
 21
275.6758605524
  0
LINE
  5
520
100
AcDbEntity
  8
00_COMPONENTS_1
100
AcDbLine
 62
7
  6
CONTINUOUS
 10
140.7743349105
 20
275.7899595073
 11
140.6370759698
 21
275.6523674318
  0
LINE
  5
521
100
AcDbEntity
  8
00_COMPONENTS_1
100
AcDbLine
 62
7
  6
CONTINUOUS
 10
140.6370759698
 20
276.9575515827
 11
140.7743349105
 21
276.8199595073
  0
LINE
  5
522
100
AcDbEntity
  8
00_COMPONENTS_1
100
AcDbLine
 62
7
  6
CONTINUOUS
 10
138.9924805639
 20
275.6523674318
 11
138.9926080387
 21
275.5949391434
  0
LINE
  5
523
100
AcDbEntity
  8
00_COMPONENTS_1
100
AcDbLine
 62
7
  6
CONTINUOUS
 10
139.104757903
 20
275.4827892791
 11
139.1621861914
 21
275.4826618043
  0
LINE
  5
524
100
AcDbEntity
  8
00_COMPONENTS_1
100
AcDbLine
 62
7
  6
CONTINUOUS
 10
140.4673703423
 20
275.4826618043
 11
140.4759943114
 21
275.4826801087
  0
LINE
  5
525
100
AcDbEntity
  8
00_COMPONENTS_1
100
AcDbLine
 62
7
  6
CONTINUOUS
 10
140.6370576654
 20
275.6437434627
 11
140.6370759698
 21
275.6523674318
  0
LINE
  5
526
100
AcDbEntity
  8
00_COMPONENTS_1
100
AcDbLine
 62
7
  6
CONTINUOUS
 10
139.1621861914
 20
277.1272572102
 11
139.2997782668
 21
277.264516151
  0
LINE
  5
527
100
AcDbEntity
  8
00_COMPONENTS_1
100
AcDbLine
 62
7
  6
CONTINUOUS
 10
139.1621861914
 20
277.1272572102
 11
139.1535622223
 21
277.1272389058
  0
LINE
  5
528
100
AcDbEntity
  8
00_COMPONENTS_1
100
AcDbLine
 62
7
  6
CONTINUOUS
 10
138.9924988683
 20
276.9661755518
 11
138.9924805639
 21
276.9575515827
  0
LINE
  5
529
100
AcDbEntity
  8
00_COMPONENTS_1
100
AcDbLine
 62
7
  6
CONTINUOUS
 10
139.185679312
 20
277.1037640896
 11
139.0139936757
 21
277.1057440984
  0
LINE
  5
52A
100
AcDbEntity
  8
00_COMPONENTS_1
100
AcDbLine
 62
7
  6
CONTINUOUS
 10
140.636948495
 20
277.0149798711
 11
140.6370759698
 21
276.9575515827
  0
LINE
  5
52B
100
AcDbEntity
  8
00_COMPONENTS_1
100
AcDbLine
 62
7
  6
CONTINUOUS
 10
140.6135828492
 20
276.9340584621
 11
140.615562858
 21
277.1057440984
  0
SPLINE
  5
52C
100
AcDbEntity
  8
00_COMPONENTS_25
100
AcDbSpline
 62
7
  6
CONTINUOUS
 70
0
 71
3
 72
8
 73
4
 74
0
 42
0.0000001
 43
0.0000001
 44
0.0000000001
 40
0.0
 40
0.0
 40
0.0
 40
0.0
 40
1.0
 40
1.0
 40
1.0
 40
1.0
 10
100.7904662439
 20
463.4556131488
 30
0.0
 10
100.8083136063
 20
463.462792798
 30
0.0
 10
100.8285340357
 20
463.4658624255
 30
0.0
 10
100.847630984
 20
463.4635424529
 30
0.0
  0
SPLINE
  5
52D
100
AcDbEntity
  8
00_COMPONENTS_25
100
AcDbSpline
 62
7
  6
CONTINUOUS
 70
0
 71
3
 72
9
 73
5
 74
0
 42
0.0000001
 43
0.0000001
 44
0.0000000001
 40
0.0
 40
0.0
 40
0.0
 40
0.0
 40
0.6494946678
 40
1.0
 40
1.0
 40
1.0
 40
1.0
 10
100.7904684637
 20
463.4556444771
 30
0.0
 10
100.6175991397
 20
463.4749199484
 30
0.0
 10
100.3523534442
 20
463.5133542554
 30
0.0
 10
100.0892732611
 20
463.5638435451
 30
0.0
 10
99.9976010812
 20
463.5840305724
 30
0.0
  0
SPLINE
  5
52E
100
AcDbEntity
  8
00_COMPONENTS_25
100
AcDbSpline
 62
7
  6
CONTINUOUS
 70
0
 71
3
 72
8
 73
4
 74
0
 42
0.0000001
 43
0.0000001
 44
0.0000000001
 40
0.0
 40
0.0
 40
0.0
 40
0.0
 40
1.0
 40
1.0
 40
1.0
 40
1.0
 10
99.9332985847
 20
463.5986522805
 30
0.0
 10
99.967074066
 20
463.6099550756
 30
0.0
 10
100.0052847666
 20
463.6118792028
 30
0.0
 10
100.0400150577
 20
463.6039834325
 30
0.0
  0
SPLINE
  5
52F
100
AcDbEntity
  8
00_COMPONENTS_25
100
AcDbSpline
 62
7
  6
CONTINUOUS
 70
0
 71
3
 72
13
 73
9
 74
0
 42
0.0000001
 43
0.0000001
 44
0.0000000001
 40
0.0
 40
0.0
 40
0.0
 40
0.0
 40
0.0691850077
 40
0.1546585289
 40
0.2567559152
 40
0.3754190199
 40
0.6600296312
 40
1.0
 40
1.0
 40
1.0
 40
1.0
 10
100.7904722365
 20
463.4556137677
 30
0.0
 10
100.7500513496
 20
463.3696708445
 30
0.0
 10
100.6773833152
 20
463.1693439583
 30
0.0
 10
100.5910789707
 20
462.827354487
 30
0.0
 10
100.5158712816
 20
462.4134928476
 30
0.0
 10
100.4236442784
 20
461.7257512819
 30
0.0
 10
100.3387958624
 20
460.7085095407
 30
0.0
 10
100.2941392456
 20
459.8522652476
 30
0.0
 10
100.2735029923
 20
459.3860266993
 30
0.0
  0
SPLINE
  5
530
100
AcDbEntity
  8
00_COMPONENTS_25
100
AcDbSpline
 62
7
  6
CONTINUOUS
 70
0
 71
3
 72
11
 73
7
 74
0
 42
0.0000001
 43
0.0000001
 44
0.0000000001
 40
0.0
 40
0.0
 40
0.0
 40
0.0
 40
0.244550021
 40
0.4903375104
 40
0.7415557883
 40
1.0
 40
1.0
 40
1.0
 40
1.0
 10
100.2735055481
 20
459.3860733132
 30
0.0
 10
100.0735249893
 20
459.3700126411
 30
0.0
 10
99.6765542539
 20
459.2558973222
 30
0.0
 10
99.1725005666
 20
458.8978979924
 30
0.0
 10
98.7952495209
 20
458.3955879579
 30
0.0
 10
98.6328639964
 20
458.0066614166
 30
0.0
 10
98.567521424
 20
457.8049584231
 30
0.0
  0
SPLINE
  5
531
100
AcDbEntity
  8
00_COMPONENTS_25
100
AcDbSpline
 62
7
  6
CONTINUOUS
 70
0
 71
3
 72
11
 73
7
 74
0
 42
0.0000001
 43
0.0000001
 44
0.0000000001
 40
0.0
 40
0.0
 40
0.0
 40
0.0
 40
0.1796426194
 40
0.4998951826
 40
0.8201973893
 40
1.0
 40
1.0
 40
1.0
 40
1.0
 10
114.2862297964
 20
463.7844805997
 30
0.0
 10
114.0007839627
 20
463.6905772997
 30
0.0
 10
113.1898887482
 20
463.478735958
 30
0.0
 10
111.8154077758
 20
463.3396908221
 30
0.0
 10
110.4406126962
 20
463.4785058105
 30
0.0
 10
109.6293811117
 20
463.6904416196
 30
0.0
 10
109.3436638401
 20
463.7843761975
 30
0.0
  0
LINE
  5
532
100
AcDbEntity
  8
00_COMPONENTS_25
100
AcDbLine
 62
7
  6
CONTINUOUS
 10
109.3144072816
 20
463.7940780712
 11
109.3133184213
 21
463.7944423198
  0
SPLINE
  5
533
100
AcDbEntity
  8
00_COMPONENTS_25
100
AcDbSpline
 62
7
  6
CONTINUOUS
 70
0
 71
3
 72
11
 73
7
 74
0
 42
0.0000001
 43
0.0000001
 44
0.0000000001
 40
0.0
 40
0.0
 40
0.0
 40
0.0
 40
0.2422822195
 40
0.4976226805
 40
0.7541585395
 40
1.0
 40
1.0
 40
1.0
 40
1.0
 10
97.246869911
 20
459.9445575884
 30
0.0
 10
97.2601995558
 20
460.3323878981
 30
0.0
 10
97.4032091888
 20
461.1295716783
 30
0.0
 10
97.9639288488
 20
462.2203542353
 30
0.0
 10
98.8335929519
 20
463.0943149857
 30
0.0
 10
99.5604559374
 20
463.4720223229
 30
0.0
 10
99.9332995246
 20
463.5986503813
 30
0.0
  0
SPLINE
  5
534
100
AcDbEntity
  8
00_COMPONENTS_25
100
AcDbSpline
 62
7
  6
CONTINUOUS
 70
0
 71
3
 72
9
 73
5
 74
0
 42
0.0000001
 43
0.0000001
 44
0.0000000001
 40
0.0
 40
0.0
 40
0.0
 40
0.0
 40
0.2436103626
 40
1.0
 40
1.0
 40
1.0
 40
1.0
 10
100.2734795695
 20
459.3860198237
 30
0.0
 10
100.2611902202
 20
459.3265927967
 30
0.0
 10
100.2173569561
 20
459.0813154959
 30
0.0
 10
100.1969132233
 20
458.8319700672
 30
0.0
 10
100.1938597715
 20
458.6435747818
 30
0.0
  0
SPLINE
  5
535
100
AcDbEntity
  8
00_COMPONENTS_25
100
AcDbSpline
 62
7
  6
CONTINUOUS
 70
0
 71
3
 72
11
 73
7
 74
0
 42
0.0000001
 43
0.0000001
 44
0.0000000001
 40
0.0
 40
0.0
 40
0.0
 40
0.0
 40
0.230569701
 40
0.4666367515
 40
0.7214086364
 40
1.0
 40
1.0
 40
1.0
 40
1.0
 10
123.4356493639
 20
458.6435562394
 30
0.0
 10
123.5351684391
 20
458.6435364436
 30
0.0
 10
123.7395759421
 20
458.6041953737
 30
0.0
 10
124.0001078565
 20
458.4188547959
 30
0.0
 10
124.1880894809
 20
458.1388889607
 30
0.0
 10
124.2664907564
 20
457.9207731863
 30
0.0
 10
124.2988366392
 20
457.8049590309
 30
0.0
  0
SPLINE
  5
536
100
AcDbEntity
  8
00_COMPONENTS_25
100
AcDbSpline
 62
7
  6
CONTINUOUS
 70
0
 71
3
 72
11
 73
7
 74
0
 42
0.0000001
 43
0.0000001
 44
0.0000000001
 40
0.0
 40
0.0
 40
0.0
 40
0.0
 40
0.2785913643
 40
0.5333632879
 40
0.7694303834
 40
1.0
 40
1.0
 40
1.0
 40
1.0
 10
99.3307198925
 20
457.8049591449
 30
0.0
 10
99.3630656992
 20
457.9207729694
 30
0.0
 10
99.4414666599
 20
458.138888167
 30
0.0
 10
99.6294474379
 20
458.4188534232
 30
0.0
 10
99.8899780877
 20
458.6041941171
 30
0.0
 10
100.094384778
 20
458.6435359036
 30
0.0
 10
100.1939035358
 20
458.6435562036
 30
0.0
  0
SPLINE
  5
537
100
AcDbEntity
  8
00_COMPONENTS_25
100
AcDbSpline
 62
7
  6
CONTINUOUS
 70
0
 71
3
 72
9
 73
5
 74
0
 42
0.0000001
 43
0.0000001
 44
0.0000000001
 40
0.0
 40
0.0
 40
0.0
 40
0.0
 40
0.4023074734
 40
1.0
 40
1.0
 40
1.0
 40
1.0
 10
124.0947882762
 20
463.7108895402
 30
0.0
 10
124.0419684477
 20
463.6937418159
 30
0.0
 10
123.9099821758
 20
463.6531355237
 30
0.0
 10
123.7759331195
 20
463.6200141876
 30
0.0
 10
123.6962495537
 20
463.5986260565
 30
0.0
  0
SPLINE
  5
538
100
AcDbEntity
  8
00_COMPONENTS_25
100
AcDbSpline
 62
7
  6
CONTINUOUS
 70
0
 71
3
 72
15
 73
11
 74
0
 42
0.0000001
 43
0.0000001
 44
0.0000000001
 40
0.0
 40
0.0
 40
0.0
 40
0.0
 40
0.0538525927
 40
0.1198506015
 40
0.20530411
 40
0.3140560771
 40
0.4481451602
 40
0.6079871684
 40
0.7929415187
 40
1.0
 40
1.0
 40
1.0
 40
1.0
 10
97.2468696239
 20
459.9445587951
 30
0.0
 10
97.2901874403
 20
459.9445584498
 30
0.0
 10
97.3870813935
 20
459.9170905121
 30
0.0
 10
97.5156567208
 20
459.8090504872
 30
0.0
 10
97.6385916375
 20
459.6381156831
 30
0.0
 10
97.7556952709
 20
459.4004839086
 30
0.0
 10
97.8644645784
 20
459.0948337111
 30
0.0
 10
97.9608026697
 20
458.7214331029
 30
0.0
 10
98.0398511109
 20
458.2843015334
 30
0.0
 10
98.0763706655
 20
457.9708696049
 30
0.0
 10
98.0909812639
 20
457.8049584946
 30
0.0
  0
SPLINE
  5
539
100
AcDbEntity
  8
00_COMPONENTS_25
100
AcDbSpline
 62
7
  6
CONTINUOUS
 70
0
 71
3
 72
9
 73
5
 74
0
 42
0.0000001
 43
0.0000001
 44
0.0000000001
 40
0.0
 40
0.0
 40
0.0
 40
0.0
 40
0.5968341794
 40
1.0
 40
1.0
 40
1.0
 40
1.0
 10
99.9333071997
 20
463.5986260297
 30
0.0
 10
99.8541297366
 20
463.6198598218
 30
0.0
 10
99.7207506454
 20
463.652823284
 30
0.0
 10
99.5894110627
 20
463.6931903318
 30
0.0
 10
99.5367339753
 20
463.7102637838
 30
0.0
  0
SPLINE
  5
53A
100
AcDbEntity
  8
00_COMPONENTS_25
100
AcDbSpline
 62
7
  6
CONTINUOUS
 70
0
 71
3
 72
12
 73
8
 74
0
 42
0.0000001
 43
0.0000001
 44
0.0000000001
 40
0.0
 40
0.0
 40
0.0
 40
0.0
 40
0.1227316164
 40
0.2450586858
 40
0.4907732471
 40
0.7417149259
 40
1.0
 40
1.0
 40
1.0
 40
1.0
 10
123.3560554869
 20
459.3860682761
 30
0.0
 10
123.4562532403
 20
459.3752082349
 30
0.0
 10
123.655321558
 20
459.339413884
 30
0.0
 10
124.0353507033
 20
459.1994518007
 30
0.0
 10
124.4567685777
 20
458.8972064091
 30
0.0
 10
124.8349475524
 20
458.3962177528
 30
0.0
 10
124.9955195188
 20
458.0063574778
 30
0.0
 10
125.0620402384
 20
457.8049607872
 30
0.0
  0
SPLINE
  5
53B
100
AcDbEntity
  8
00_COMPONENTS_25
100
AcDbSpline
 62
7
  6
CONTINUOUS
 70
0
 71
3
 72
9
 73
5
 74
0
 42
0.0000001
 43
0.0000001
 44
0.0000000001
 40
0.0
 40
0.0
 40
0.0
 40
0.0
 40
0.2305212811
 40
1.0
 40
1.0
 40
1.0
 40
1.0
 10
109.3133184213
 20
463.7944423198
 30
0.0
 10
109.3109471885
 20
463.7937822104
 30
0.0
 10
109.3006775672
 20
463.7908583097
 30
0.0
 10
109.2904642783
 20
463.7877403617
 30
0.0
 10
109.2826195496
 20
463.7852979925
 30
0.0
  0
SPLINE
  5
53C
100
AcDbEntity
  8
00_COMPONENTS_25
100
AcDbSpline
 62
7
  6
CONTINUOUS
 70
0
 71
3
 72
10
 73
6
 74
0
 42
0.0000001
 43
0.0000001
 44
0.0000000001
 40
0.0
 40
0.0
 40
0.0
 40
0.0
 40
0.1332052372
 40
0.3548540171
 40
1.0
 40
1.0
 40
1.0
 40
1.0
 10
109.2826195496
 20
463.7852979925
 30
0.0
 10
109.2238338889
 20
463.7669957294
 30
0.0
 10
109.0677502315
 20
463.7165136268
 30
0.0
 10
108.6215245307
 20
463.5955972231
 30
0.0
 10
108.2278718285
 20
463.515894334
 30
0.0
 10
107.9326150236
 20
463.4741488431
 30
0.0
  0
SPLINE
  5
53D
100
AcDbEntity
  8
00_COMPONENTS_25
100
AcDbSpline
 62
7
  6
CONTINUOUS
 70
0
 71
3
 72
9
 73
5
 74
0
 42
0.0000001
 43
0.0000001
 44
0.0000000001
 40
0.0
 40
0.0
 40
0.0
 40
0.0
 40
0.6164090096
 40
1.0
 40
1.0
 40
1.0
 40
1.0
 10
105.8516622511
 20
463.4499045934
 30
0.0
 10
105.5532990089
 20
463.4852682976
 30
0.0
 10
105.0722903853
 20
463.5713245422
 30
0.0
 10
104.6014062614
 20
463.6992431831
 30
0.0
 10
104.4236617029
 20
463.7572517781
 30
0.0
  0
SPLINE
  5
53E
100
AcDbEntity
  8
00_COMPONENTS_25
100
AcDbSpline
 62
7
  6
CONTINUOUS
 70
0
 71
3
 72
9
 73
5
 74
0
 42
0.0000001
 43
0.0000001
 44
0.0000000001
 40
0.0
 40
0.0
 40
0.0
 40
0.0
 40
0.2785934592
 40
1.0
 40
1.0
 40
1.0
 40
1.0
 10
104.4236617029
 20
463.7572517781
 30
0.0
 10
104.4162896653
 20
463.7596577114
 30
0.0
 10
104.389836229
 20
463.7683180778
 30
0.0
 10
104.3633970407
 20
463.777027165
 30
0.0
 10
104.3442381814
 20
463.7830408549
 30
0.0
  0
SPLINE
  5
53F
100
AcDbEntity
  8
00_COMPONENTS_25
100
AcDbSpline
 62
7
  6
CONTINUOUS
 70
0
 71
3
 72
11
 73
7
 74
0
 42
0.0000001
 43
0.0000001
 44
0.0000000001
 40
0.0
 40
0.0
 40
0.0
 40
0.0
 40
0.2330525701
 40
0.5573396016
 40
0.8288668518
 40
1.0
 40
1.0
 40
1.0
 40
1.0
 10
114.4533509272
 20
463.7513501994
 30
0.0
 10
114.8067057212
 20
463.643324714
 30
0.0
 10
115.6697865513
 20
463.4407985772
 30
0.0
 10
116.989567873
 20
463.353440946
 30
0.0
 10
118.2032961137
 20
463.4883280047
 30
0.0
 10
118.8859075836
 20
463.6575583778
 30
0.0
 10
119.1451409099
 20
463.7376606816
 30
0.0
  0
LINE
  5
540
100
AcDbEntity
  8
00_COMPONENTS_25
100
AcDbLine
 62
7
  6
CONTINUOUS
 10
119.2745945847
 20
463.7792145604
 11
119.317795457
 21
463.7939703865
  0
LINE
  5
541
100
AcDbEntity
  8
00_COMPONENTS_25
100
AcDbLine
 62
7
  6
CONTINUOUS
 10
119.317795457
 20
463.7939703865
 11
119.3191355655
 21
463.7944408545
  0
SPLINE
  5
542
100
AcDbEntity
  8
00_COMPONENTS_25
100
AcDbSpline
 62
7
  6
CONTINUOUS
 70
0
 71
3
 72
9
 73
5
 74
0
 42
0.0000001
 43
0.0000001
 44
0.0000000001
 40
0.0
 40
0.0
 40
0.0
 40
0.0
 40
0.2537229929
 40
1.0
 40
1.0
 40
1.0
 40
1.0
 10
123.4357018564
 20
458.6435747822
 30
0.0
 10
123.4346779685
 20
458.7067678846
 30
0.0
 10
123.424892247
 20
458.9556750386
 30
0.0
 10
123.3937309712
 20
459.203976804
 30
0.0
 10
123.356085909
 20
459.3860198576
 30
0.0
  0
SPLINE
  5
543
100
AcDbEntity
  8
00_COMPONENTS_25
100
AcDbSpline
 62
7
  6
CONTINUOUS
 70
0
 71
3
 72
8
 73
4
 74
0
 42
0.0000001
 43
0.0000001
 44
0.0000000001
 40
0.0
 40
0.0
 40
0.0
 40
0.0
 40
1.0
 40
1.0
 40
1.0
 40
1.0
 10
104.3086382983
 20
463.7941433197
 30
0.0
 10
104.3043719979
 20
463.7942558378
 30
0.0
 10
104.3000945715
 20
463.7940861202
 30
0.0
 10
104.2958415874
 20
463.7937310067
 30
0.0
  0
SPLINE
  5
544
100
AcDbEntity
  8
00_COMPONENTS_25
100
AcDbSpline
 62
7
  6
CONTINUOUS
 70
0
 71
3
 72
8
 73
4
 74
0
 42
0.0000001
 43
0.0000001
 44
0.0000000001
 40
0.0
 40
0.0
 40
0.0
 40
0.0
 40
1.0
 40
1.0
 40
1.0
 40
1.0
 10
104.2958415874
 20
463.7937310067
 30
0.0
 10
104.2849492949
 20
463.7928215276
 30
0.0
 10
104.2741118273
 20
463.7908529793
 30
0.0
 10
104.2635463229
 20
463.7880531033
 30
0.0
  0
SPLINE
  5
545
100
AcDbEntity
  8
00_COMPONENTS_25
100
AcDbSpline
 62
7
  6
CONTINUOUS
 70
0
 71
3
 72
11
 73
7
 74
0
 42
0.0000001
 43
0.0000001
 44
0.0000000001
 40
0.0
 40
0.0
 40
0.0
 40
0.0
 40
0.2458404174
 40
0.5023759003
 40
0.7577167461
 40
1.0
 40
1.0
 40
1.0
 40
1.0
 10
123.6962572822
 20
463.598650402
 30
0.0
 10
124.0690992923
 20
463.4720228876
 30
0.0
 10
124.7959603643
 20
463.0943171572
 30
0.0
 10
125.665624579
 20
462.2203589466
 30
0.0
 10
126.2263466451
 20
461.1295756482
 30
0.0
 10
126.3693571744
 20
460.3323895567
 30
0.0
 10
126.3826868643
 20
459.9445575883
 30
0.0
  0
LINE
  5
546
100
AcDbEntity
  8
00_COMPONENTS_25
100
AcDbLine
 62
7
  6
CONTINUOUS
 10
119.3191355655
 20
463.7944408545
 11
119.3207048872
 21
463.7939579777
  0
SPLINE
  5
547
100
AcDbEntity
  8
00_COMPONENTS_25
100
AcDbSpline
 62
7
  6
CONTINUOUS
 70
0
 71
3
 72
10
 73
6
 74
0
 42
0.0000001
 43
0.0000001
 44
0.0000000001
 40
0.0
 40
0.0
 40
0.0
 40
0.0
 40
0.1998589324
 40
0.494524206
 40
1.0
 40
1.0
 40
1.0
 40
1.0
 10
119.4461131505
 20
463.7554422424
 30
0.0
 10
119.6614301613
 20
463.6904379215
 30
0.0
 10
120.2002172607
 20
463.5483871527
 30
0.0
 10
121.314024132
 20
463.3730160178
 30
0.0
 10
122.2232130588
 20
463.3823708797
 30
0.0
 10
122.7880978817
 20
463.4494012901
 30
0.0
  0
SPLINE
  5
548
100
AcDbEntity
  8
00_COMPONENTS_25
100
AcDbSpline
 62
7
  6
CONTINUOUS
 70
0
 71
3
 72
13
 73
9
 74
0
 42
0.0000001
 43
0.0000001
 44
0.0000000001
 40
0.0
 40
0.0
 40
0.0
 40
0.0
 40
0.3399746052
 40
0.6245870636
 40
0.7432505135
 40
0.8453476433
 40
0.9308181466
 40
1.0
 40
1.0
 40
1.0
 40
1.0
 10
123.3560631403
 20
459.3860266993
 30
0.0
 10
123.3354267451
 20
459.8522709267
 30
0.0
 10
123.2907533192
 20
460.7085224086
 30
0.0
 10
123.2059111673
 20
461.7257730351
 30
0.0
 10
123.1136801254
 20
462.4135168354
 30
0.0
 10
123.0384631475
 20
462.8273723858
 30
0.0
 10
122.9521862804
 20
463.1693581326
 30
0.0
 10
122.879542213
 20
463.3696858252
 30
0.0
 10
122.8391228251
 20
463.4556246379
 30
0.0
  0
SPLINE
  5
549
100
AcDbEntity
  8
00_COMPONENTS_25
100
AcDbSpline
 62
7
  6
CONTINUOUS
 70
0
 71
3
 72
9
 73
5
 74
0
 42
0.0000001
 43
0.0000001
 44
0.0000000001
 40
0.0
 40
0.0
 40
0.0
 40
0.0
 40
0.1442077282
 40
1.0
 40
1.0
 40
1.0
 40
1.0
 10
123.6317511146
 20
463.5840134366
 30
0.0
 10
123.5940490487
 20
463.5757177094
 30
0.0
 10
123.3319489301
 20
463.5212458983
 30
0.0
 10
123.0668046004
 20
463.4810855965
 30
0.0
 10
122.8391277744
 20
463.4556532956
 30
0.0
  0
SPLINE
  5
54A
100
AcDbEntity
  8
00_COMPONENTS_25
100
AcDbSpline
 62
7
  6
CONTINUOUS
 70
0
 71
3
 72
8
 73
4
 74
0
 42
0.0000001
 43
0.0000001
 44
0.0000000001
 40
0.0
 40
0.0
 40
0.0
 40
0.0
 40
1.0
 40
1.0
 40
1.0
 40
1.0
 10
122.8391277744
 20
463.4556532956
 30
0.0
 10
122.8212648144
 20
463.4628184293
 30
0.0
 10
122.8010337337
 20
463.465865874
 30
0.0
 10
122.7819289939
 20
463.4635349089
 30
0.0
  0
SPLINE
  5
54B
100
AcDbEntity
  8
00_COMPONENTS_25
100
AcDbSpline
 62
7
  6
CONTINUOUS
 70
0
 71
3
 72
8
 73
4
 74
0
 42
0.0000001
 43
0.0000001
 44
0.0000000001
 40
0.0
 40
0.0
 40
0.0
 40
0.0
 40
1.0
 40
1.0
 40
1.0
 40
1.0
 10
123.696249624
 20
463.5986261085
 30
0.0
 10
123.6624753728
 20
463.6099381431
 30
0.0
 10
123.6242629641
 20
463.6118716697
 30
0.0
 10
123.5895291537
 20
463.6039834137
 30
0.0
  0
SPLINE
  5
54C
100
AcDbEntity
  8
00_COMPONENTS_25
100
AcDbSpline
 62
7
  6
CONTINUOUS
 70
0
 71
3
 72
15
 73
11
 74
0
 42
0.0000001
 43
0.0000001
 44
0.0000000001
 40
0.0
 40
0.0
 40
0.0
 40
0.0
 40
0.2070585015
 40
0.3920128645
 40
0.5518548774
 40
0.6859439581
 40
0.7946959166
 40
0.8801494127
 40
0.94614741
 40
1.0
 40
1.0
 40
1.0
 40
1.0
 10
125.5385752704
 20
457.8049585017
 30
0.0
 10
125.5531858714
 20
457.9708696396
 30
0.0
 10
125.5897054333
 20
458.2843016161
 30
0.0
 10
125.6687538931
 20
458.7214332445
 30
0.0
 10
125.7650920069
 20
459.0948338872
 30
0.0
 10
125.8738613387
 20
459.400484095
 30
0.0
 10
125.9909649965
 20
459.6381158579
 30
0.0
 10
126.1138999386
 20
459.8090506306
 30
0.0
 10
126.2424752999
 20
459.9170906076
 30
0.0
 10
126.3393692721
 20
459.9445584781
 30
0.0
 10
126.3826870892
 20
459.94455879
 30
0.0
  0
LINE
  5
54D
100
AcDbEntity
  8
00_COMPONENTS_25
100
AcDbLine
 62
7
  6
CONTINUOUS
 10
104.3080766938
 20
463.7937912421
 11
104.2859322539
 21
463.787460272
  0
SPLINE
  5
54E
100
AcDbEntity
  8
00_COMPONENTS_25
100
AcDbSpline
 62
7
  6
CONTINUOUS
 70
0
 71
3
 72
14
 73
10
 74
0
 42
0.0000001
 43
0.0000001
 44
0.0000000001
 40
0.0
 40
0.0
 40
0.0
 40
0.0
 40
0.0584904046
 40
0.1635000003
 40
0.3058579378
 40
0.4632273395
 40
0.758069685
 40
0.8858480339
 40
1.0
 40
1.0
 40
1.0
 40
1.0
 10
104.2804379171
 20
463.7858103131
 30
0.0
 10
104.215448504
 20
463.7661628189
 30
0.0
 10
104.0345000145
 20
463.7088426478
 30
0.0
 10
103.6910350393
 20
463.6183234536
 30
0.0
 10
103.2316164848
 20
463.5188926675
 30
0.0
 10
102.5485213888
 20
463.4172843884
 30
0.0
 10
101.8740509761
 20
463.382686812
 30
0.0
 10
101.2511927982
 20
463.4075380327
 30
0.0
 10
100.9715960869
 20
463.4350740395
 30
0.0
 10
100.8399284781
 20
463.4499483918
 30
0.0
  0
SPLINE
  5
54F
100
AcDbEntity
  8
00_COMPONENTS_4
100
AcDbSpline
 62
7
  6
CONTINUOUS
 70
0
 71
3
 72
9
 73
5
 74
0
 42
0.0000001
 43
0.0000001
 44
0.0000000001
 40
0.0
 40
0.0
 40
0.0
 40
0.0
 40
0.2221589821
 40
1.0
 40
1.0
 40
1.0
 40
1.0
 10
455.9230240845
 20
437.8049618702
 30
0.0
 10
455.9478235079
 20
437.8049755722
 30
0.0
 10
456.0598667366
 20
437.8198123784
 30
0.0
 10
456.1561909214
 20
437.8905636323
 30
0.0
 10
456.2186731685
 20
437.9508577159
 30
0.0
  0
SPLINE
  5
550
100
AcDbEntity
  8
00_COMPONENTS_4
100
AcDbSpline
 62
7
  6
CONTINUOUS
 70
0
 71
3
 72
8
 73
4
 74
0
 42
0.0000001
 43
0.0000001
 44
0.0000000001
 40
0.0
 40
0.0
 40
0.0
 40
0.0
 40
1.0
 40
1.0
 40
1.0
 40
1.0
 10
456.2550376062
 20
437.9878707975
 30
0.0
 10
456.292135125
 20
438.0275632532
 30
0.0
 10
456.3264270145
 20
438.0699287177
 30
0.0
 10
456.3588474686
 20
438.1135249457
 30
0.0
  0
SPLINE
  5
551
100
AcDbEntity
  8
00_COMPONENTS_4
100
AcDbSpline
 62
7
  6
CONTINUOUS
 70
0
 71
3
 72
9
 73
5
 74
0
 42
0.0000001
 43
0.0000001
 44
0.0000000001
 40
0.0
 40
0.0
 40
0.0
 40
0.0
 40
0.234626269
 40
1.0
 40
1.0
 40
1.0
 40
1.0
 10
456.3588474686
 20
438.1135249457
 30
0.0
 10
456.3732288277
 20
438.132863756
 30
0.0
 10
456.4329569111
 20
438.2164543885
 30
0.0
 10
456.4874011857
 20
438.3037073339
 30
0.0
 10
456.5273884087
 20
438.3713949697
 30
0.0
  0
SPLINE
  5
552
100
AcDbEntity
  8
00_COMPONENTS_4
100
AcDbSpline
 62
7
  6
CONTINUOUS
 70
0
 71
3
 72
9
 73
5
 74
0
 42
0.0000001
 43
0.0000001
 44
0.0000000001
 40
0.0
 40
0.0
 40
0.0
 40
0.0
 40
0.2399218007
 40
1.0
 40
1.0
 40
1.0
 40
1.0
 10
456.5273884087
 20
438.3713949697
 30
0.0
 10
456.5462833698
 20
438.4033790675
 30
0.0
 10
456.6234087807
 20
438.5376553976
 30
0.0
 10
456.6955216651
 20
438.6747262758
 30
0.0
 10
456.7497454351
 20
438.7791772639
 30
0.0
  0
SPLINE
  5
553
100
AcDbEntity
  8
00_COMPONENTS_4
100
AcDbSpline
 62
7
  6
CONTINUOUS
 70
0
 71
3
 72
9
 73
5
 74
0
 42
0.0000001
 43
0.0000001
 44
0.0000000001
 40
0.0
 40
0.0
 40
0.0
 40
0.0
 40
0.2220607823
 40
1.0
 40
1.0
 40
1.0
 40
1.0
 10
63.7065326143
 20
437.8049621522
 30
0.0
 10
63.6817055931
 20
437.8049775337
 30
0.0
 10
63.5694933442
 20
437.8199079432
 30
0.0
 10
63.4730620961
 20
437.8908097293
 30
0.0
 10
63.4104876737
 20
437.9512186174
 30
0.0
  0
SPLINE
  5
554
100
AcDbEntity
  8
00_COMPONENTS_4
100
AcDbSpline
 62
7
  6
CONTINUOUS
 70
0
 71
3
 72
8
 73
4
 74
0
 42
0.0000001
 43
0.0000001
 44
0.0000000001
 40
0.0
 40
0.0
 40
0.0
 40
0.0
 40
1.0
 40
1.0
 40
1.0
 40
1.0
 10
63.3707856112
 20
437.9918333913
 30
0.0
 10
63.3328888225
 20
438.0327507879
 30
0.0
 10
63.2979034741
 20
438.076416285
 30
0.0
 10
63.2648467432
 20
438.1213345717
 30
0.0
  0
SPLINE
  5
555
100
AcDbEntity
  8
00_COMPONENTS_4
100
AcDbSpline
 62
7
  6
CONTINUOUS
 70
0
 71
3
 72
9
 73
5
 74
0
 42
0.0000001
 43
0.0000001
 44
0.0000000001
 40
0.0
 40
0.0
 40
0.0
 40
0.0
 40
0.2351938129
 40
1.0
 40
1.0
 40
1.0
 40
1.0
 10
63.2648467432
 20
438.1213345717
 30
0.0
 10
63.2508615992
 20
438.1403379241
 30
0.0
 10
63.192866141
 20
438.222217577
 30
0.0
 10
63.1398322024
 20
438.3075109704
 30
0.0
 10
63.1008617323
 20
438.3736028006
 30
0.0
  0
SPLINE
  5
556
100
AcDbEntity
  8
00_COMPONENTS_4
100
AcDbSpline
 62
7
  6
CONTINUOUS
 70
0
 71
3
 72
9
 73
5
 74
0
 42
0.0000001
 43
0.0000001
 44
0.0000000001
 40
0.0
 40
0.0
 40
0.0
 40
0.0
 40
0.2399973729
 40
1.0
 40
1.0
 40
1.0
 40
1.0
 10
63.1008617323
 20
438.3736028006
 30
0.0
 10
63.0820869055
 20
438.4054439015
 30
0.0
 10
63.0054541762
 20
438.5390610789
 30
0.0
 10
62.9337052594
 20
438.6753988346
 30
0.0
 10
62.8797639352
 20
438.7792842554
 30
0.0
  0
SPLINE
  5
557
100
AcDbEntity
  8
00_COMPONENTS_4
100
AcDbSpline
 62
7
  6
CONTINUOUS
 70
0
 71
3
 72
9
 73
5
 74
0
 42
0.0000001
 43
0.0000001
 44
0.0000000001
 40
0.0
 40
0.0
 40
0.0
 40
0.0
 40
0.5001169477
 40
1.0
 40
1.0
 40
1.0
 40
1.0
 10
70.7019290489
 20
455.8049595073
 30
0.0
 10
70.8914021545
 20
456.1037058413
 30
0.0
 10
71.2684982771
 20
456.7034687476
 30
0.0
 10
71.5489728112
 20
457.3572763664
 30
0.0
 10
71.6614798364
 20
457.6924995254
 30
0.0
  0
SPLINE
  5
558
100
AcDbEntity
  8
00_COMPONENTS_4
100
AcDbSpline
 62
7
  6
CONTINUOUS
 70
0
 71
3
 72
9
 73
5
 74
0
 42
0.0000001
 43
0.0000001
 44
0.0000000001
 40
0.0
 40
0.0
 40
0.0
 40
0.0
 40
0.500114477
 40
1.0
 40
1.0
 40
1.0
 40
1.0
 10
448.9276274847
 20
455.8049595073
 30
0.0
 10
448.7381609664
 20
456.1036954549
 30
0.0
 10
448.3609546089
 20
456.7033738125
 30
0.0
 10
448.0806126111
 20
457.3572189899
 30
0.0
 10
447.9681005787
 20
457.692431187
 30
0.0
  0
SPLINE
  5
559
100
AcDbEntity
  8
00_COMPONENTS_30
100
AcDbSpline
 62
7
  6
CONTINUOUS
 70
0
 71
3
 72
8
 73
4
 74
0
 42
0.0000001
 43
0.0000001
 44
0.0000000001
 40
0.0
 40
0.0
 40
0.0
 40
0.0
 40
1.0
 40
1.0
 40
1.0
 40
1.0
 10
456.6147782668
 20
431.8049595073
 30
0.0
 10
456.7584199873
 20
431.8049595073
 30
0.0
 10
456.9034428683
 20
431.7797395437
 30
0.0
 10
457.0400343457
 20
431.7352905599
 30
0.0
  0
SPLINE
  5
55A
100
AcDbEntity
  8
00_COMPONENTS_30
100
AcDbSpline
 62
7
  6
CONTINUOUS
 70
0
 71
3
 72
9
 73
5
 74
0
 42
0.0000001
 43
0.0000001
 44
0.0000000001
 40
0.0
 40
0.0
 40
0.0
 40
0.0
 40
0.4228703266
 40
1.0
 40
1.0
 40
1.0
 40
1.0
 10
457.0400343457
 20
431.7352905599
 30
0.0
 10
457.5270804441
 20
431.5767982108
 30
0.0
 10
458.4604385609
 20
430.6940076054
 30
0.0
 10
459.1141053417
 20
429.6960418249
 30
0.0
 10
459.4928559248
 20
429.1085172018
 30
0.0
  0
SPLINE
  5
55B
100
AcDbEntity
  8
00_COMPONENTS_30
100
AcDbSpline
 62
7
  6
CONTINUOUS
 70
0
 71
3
 72
9
 73
5
 74
0
 42
0.0000001
 43
0.0000001
 44
0.0000000001
 40
0.0
 40
0.0
 40
0.0
 40
0.0
 40
0.5771666862
 40
1.0
 40
1.0
 40
1.0
 40
1.0
 10
60.1366799997
 20
429.1084948412
 30
0.0
 10
60.5154371475
 20
429.6960417138
 30
0.0
 10
61.1690320048
 20
430.6940721305
 30
0.0
 10
62.1025109128
 20
431.5765726671
 30
0.0
 10
62.5894804605
 20
431.7351019298
 30
0.0
  0
SPLINE
  5
55C
100
AcDbEntity
  8
00_COMPONENTS_30
100
AcDbSpline
 62
7
  6
CONTINUOUS
 70
0
 71
3
 72
8
 73
4
 74
0
 42
0.0000001
 43
0.0000001
 44
0.0000000001
 40
0.0
 40
0.0
 40
0.0
 40
0.0
 40
1.0
 40
1.0
 40
1.0
 40
1.0
 10
62.5894804605
 20
431.7351019298
 30
0.0
 10
62.7260895644
 20
431.7795739931
 30
0.0
 10
62.8711126422
 20
431.8049595073
 30
0.0
 10
63.0147782668
 20
431.8049595073
 30
0.0
  0
SPLINE
  5
55D
100
AcDbEntity
  8
00_COMPONENTS_30
100
AcDbSpline
 62
7
  6
CONTINUOUS
 70
0
 71
3
 72
9
 73
5
 74
0
 42
0.0000001
 43
0.0000001
 44
0.0000000001
 40
0.0
 40
0.0
 40
0.0
 40
0.0
 40
0.7372733488
 40
1.0
 40
1.0
 40
1.0
 40
1.0
 10
62.0147782668
 20
254.8049595073
 30
0.0
 10
61.9051201105
 20
254.8049595073
 30
0.0
 10
61.7552254306
 20
254.834333524
 30
0.0
 10
61.6182045931
 20
254.8920961024
 30
0.0
 10
61.5829131893
 20
254.9088739401
 30
0.0
  0
SPLINE
  5
55E
100
AcDbEntity
  8
00_COMPONENTS_30
100
AcDbSpline
 62
7
  6
CONTINUOUS
 70
0
 71
3
 72
9
 73
5
 74
0
 42
0.0000001
 43
0.0000001
 44
0.0000000001
 40
0.0
 40
0.0
 40
0.0
 40
0.0
 40
0.4339861965
 40
1.0
 40
1.0
 40
1.0
 40
1.0
 10
61.5829131893
 20
254.9088739401
 30
0.0
 10
61.300594357
 20
255.0430907469
 30
0.0
 10
60.7670870689
 20
255.5646133456
 30
0.0
 10
60.3643962666
 20
256.1556956323
 30
0.0
 10
60.1411866388
 20
256.4968628966
 30
0.0
  0
SPLINE
  5
55F
100
AcDbEntity
  8
00_COMPONENTS_30
100
AcDbSpline
 62
7
  6
CONTINUOUS
 70
0
 71
3
 72
8
 73
4
 74
0
 42
0.0000001
 43
0.0000001
 44
0.0000000001
 40
0.0
 40
0.0
 40
0.0
 40
0.0
 40
1.0
 40
1.0
 40
1.0
 40
1.0
 10
60.1411866388
 20
256.4968628966
 30
0.0
 10
60.0309759472
 20
256.6653156668
 30
0.0
 10
59.9228836497
 20
256.835147969
 30
0.0
 10
59.8147782668
 20
257.0049595073
 30
0.0
  0
SPLINE
  5
560
100
AcDbEntity
  8
00_COMPONENTS_30
100
AcDbSpline
 62
7
  6
CONTINUOUS
 70
0
 71
3
 72
8
 73
4
 74
0
 42
0.0000001
 43
0.0000001
 44
0.0000000001
 40
0.0
 40
0.0
 40
0.0
 40
0.0
 40
1.0
 40
1.0
 40
1.0
 40
1.0
 10
459.8147782668
 20
257.0049595073
 30
0.0
 10
459.7066791218
 20
256.8351637564
 30
0.0
 10
459.5985958848
 20
256.665345474
 30
0.0
 10
459.4883954462
 20
256.4969059136
 30
0.0
  0
SPLINE
  5
561
100
AcDbEntity
  8
00_COMPONENTS_30
100
AcDbSpline
 62
7
  6
CONTINUOUS
 70
0
 71
3
 72
9
 73
5
 74
0
 42
0.0000001
 43
0.0000001
 44
0.0000000001
 40
0.0
 40
0.0
 40
0.0
 40
0.0
 40
0.5660078731
 40
1.0
 40
1.0
 40
1.0
 40
1.0
 10
459.4883954462
 20
256.4969059136
 30
0.0
 10
459.2651928066
 20
256.1557443449
 30
0.0
 10
458.8625078716
 20
255.5646658956
 30
0.0
 10
458.3290221503
 20
255.0431395923
 30
0.0
 10
458.0467100434
 20
254.9089064068
 30
0.0
  0
SPLINE
  5
562
100
AcDbEntity
  8
00_COMPONENTS_30
100
AcDbSpline
 62
7
  6
CONTINUOUS
 70
0
 71
3
 72
9
 73
5
 74
0
 42
0.0000001
 43
0.0000001
 44
0.0000000001
 40
0.0
 40
0.0
 40
0.0
 40
0.0
 40
0.2627304834
 40
1.0
 40
1.0
 40
1.0
 40
1.0
 10
458.0467100434
 20
254.9089064068
 30
0.0
 10
458.0114132804
 20
254.8921235739
 30
0.0
 10
457.8743731677
 20
254.8343440837
 30
0.0
 10
457.7244538545
 20
254.8049595073
 30
0.0
 10
457.6147782668
 20
254.8049595073
 30
0.0
  0
LINE
  5
563
100
AcDbEntity
  8
00_COMPONENTS_30
100
AcDbLine
 62
7
  6
CONTINUOUS
 10
439.6168031274
 20
433.8049595361
 11
439.7209323589
 21
433.680374042
  0
SPLINE
  5
564
100
AcDbEntity
  8
00_COMPONENTS_30
100
AcDbSpline
 62
7
  6
CONTINUOUS
 70
0
 71
3
 72
9
 73
5
 74
0
 42
0.0000001
 43
0.0000001
 44
0.0000000001
 40
0.0
 40
0.0
 40
0.0
 40
0.0
 40
0.2594225637
 40
1.0
 40
1.0
 40
1.0
 40
1.0
 10
439.7209323589
 20
433.680374042
 30
0.0
 10
439.7999701825
 20
433.5859328856
 30
0.0
 10
440.1054771115
 20
433.2227769968
 30
0.0
 10
440.4209165027
 20
432.8665544097
 30
0.0
 10
440.6738006008
 20
432.6223326332
 30
0.0
  0
SPLINE
  5
565
100
AcDbEntity
  8
00_COMPONENTS_30
100
AcDbSpline
 62
7
  6
CONTINUOUS
 70
0
 71
3
 72
9
 73
5
 74
0
 42
0.0000001
 43
0.0000001
 44
0.0000000001
 40
0.0
 40
0.0
 40
0.0
 40
0.0
 40
0.2909640402
 40
1.0
 40
1.0
 40
1.0
 40
1.0
 10
440.6738006008
 20
432.6223326332
 30
0.0
 10
440.7985413043
 20
432.5018648125
 30
0.0
 10
441.2365166254
 20
432.1072771166
 30
0.0
 10
441.8183859537
 20
431.8049801046
 30
0.0
 10
442.240972275
 20
431.8049801035
 30
0.0
  0
SPLINE
  5
566
100
AcDbEntity
  8
00_COMPONENTS_30
100
AcDbSpline
 62
7
  6
CONTINUOUS
 70
0
 71
3
 72
9
 73
5
 74
0
 42
0.0000001
 43
0.0000001
 44
0.0000000001
 40
0.0
 40
0.0
 40
0.0
 40
0.0
 40
0.2199082344
 40
1.0
 40
1.0
 40
1.0
 40
1.0
 10
77.3885842586
 20
431.8049595073
 30
0.0
 10
77.5203264252
 20
431.8049595073
 30
0.0
 10
78.1220646937
 20
431.8957025015
 30
0.0
 10
78.6201369743
 20
432.298117019
 30
0.0
 10
78.9562555656
 20
432.6228122521
 30
0.0
  0
SPLINE
  5
567
100
AcDbEntity
  8
00_COMPONENTS_30
100
AcDbSpline
 62
7
  6
CONTINUOUS
 70
0
 71
3
 72
9
 73
5
 74
0
 42
0.0000001
 43
0.0000001
 44
0.0000000001
 40
0.0
 40
0.0
 40
0.0
 40
0.0
 40
0.2378150363
 40
1.0
 40
1.0
 40
1.0
 40
1.0
 10
78.9562555656
 20
432.6228122521
 30
0.0
 10
79.0374214548
 20
432.7012196296
 30
0.0
 10
79.3699101377
 20
433.0400816996
 30
0.0
 10
79.6765026801
 20
433.4029558158
 30
0.0
 10
79.9086244748
 20
433.6803289685
 30
0.0
  0
LINE
  5
568
100
AcDbEntity
  8
00_COMPONENTS_30
100
AcDbLine
 62
7
  6
CONTINUOUS
 10
79.9086244748
 20
433.6803289685
 11
80.0127713968
 21
433.8049446128
  0
ENDSEC
  0
SECTION
  2
OBJECTS
  0
DICTIONARY
  5
C
100
AcDbDictionary
280
0
281
1
  3
ACAD_GROUP
350
D
  3
ACAD_MLINESTYLE
350
17
  3
ACAD_LAYOUT
350
1A
  3
ACAD_PLOTSETTINGS
350
19
  3
ACAD_PLOTSTYLENAME
350
E
  0
DICTIONARY
  5
D
102
{ACAD_REACTORS
330
C
102
}
100
AcDbDictionary
280
0
281
1
  0
ACDBDICTIONARYWDFLT
  5
E
102
{ACAD_REACTORS
330
C
102
}
100
AcDbDictionary
281
1
  3
Normal
350
F
100
AcDbDictionaryWithDefault
340
F
  0
DICTIONARY
  5
17
102
{ACAD_REACTORS
330
C
102
}
100
AcDbDictionary
280
0
281
1
  3
Standard
350
18
  0
DICTIONARY
  5
19
102
{ACAD_REACTORS
330
C
102
}
100
AcDbDictionary
281
1
  0
DICTIONARY
  5
1A
102
{ACAD_REACTORS
330
C
102
}
100
AcDbDictionary
281
1
  3
Model
350
569
  3
Layout1
350
56A
  0
ACDBPLACEHOLDER
  5
F
102
{ACAD_REACTORS
330
E
102
}
  0
MLINESTYLE
  5
18
102
{ACAD_REACTORS
330
17
102
}
100
AcDbMlineStyle
  2
STANDARD
 70
0
  3

 62
256
 51
90.0
 52
90.0
 71
2
 49
0.5
 62
256
  6
BYLAYER
 49
-0.5
 62
256
  6
BYLAYER
  0
LAYOUT
  5
569
102
{ACAD_REACTORS
330
1A
102
}
100
AcDbPlotSettings
  1

  2
none_device
  4

  6

 40
0.0
 41
0.0
 42
0.0
 43
0.0
 44
210.0
 45
297.0
 46
0.0
 47
0.0
 48
0.0
 49
0.0
140
0.0
141
0.0
142
1.0
143
1.0
 70
1024
 72
1
 73
0
 74
0
  7

 75
0
147
1.0
148
0.0
149
0.0
100
AcDbLayout
  1
Model
 70
0
 71
0
 10
0.0
 20
0.0
 11
210.0
 21
297.0
 12
0.0
 22
0.0
 32
0.0
 14
0.0
 24
0.0
 34
0.0
 15
0.0
 25
0.0
 35
0.0
146
0.0
 13
0.0
 23
0.0
 33
0.0
 16
1.0
 26
0.0
 36
0.0
 17
0.0
 27
1.0
 37
0.0
 76
0
330
224
345
0
346
0
  0
LAYOUT
  5
56A
102
{ACAD_REACTORS
330
1A
102
}
100
AcDbPlotSettings
  1

  2
none_device
  4

  6

 40
0.0
 41
0.0
 42
0.0
 43
0.0
 44
210.0
 45
297.0
 46
0.0
 47
0.0
 48
0.0
 49
0.0
140
0.0
141
0.0
142
1.0
143
1.0
 70
0
 72
1
 73
0
 74
0
  7

 75
0
147
1.0
148
0.0
149
0.0
100
AcDbLayout
  1
Layout1
 70
0
 71
1
 10
0.0
 20
0.0
 11
210.0
 21
297.0
 12
0.0
 22
0.0
 32
0.0
 14
0.0
 24
0.0
 34
0.0
 15
0.0
 25
0.0
 35
0.0
146
0.0
 13
0.0
 23
0.0
 33
0.0
 16
1.0
 26
0.0
 36
0.0
 17
0.0
 27
1.0
 37
0.0
 76
0
330
225
345
0
346
0
  0
ENDSEC
  0
EOF
