999
DXF file: C:\Users\sesa63760\Dev\_Creo\CAD\MCADID0000977_3D-CAD\drw0001_1.dxf
999
Pro/ENGINEER 2019471 by Parametric Technology Corporation
  0
SECTION
  2
HEADER
  9
$ACADVER
  1
AC1024
  9
$DWGCODEPAGE
  3
ANSI_1252
  9
$EXTMAX
 10
500.133821076
 20
707.332118379
 30
0.0
  9
$EXTMIN
 10
0.0
 20
0.0
 30
0.0
  9
$LIMMIN
 10
0.0
 20
0.0
  9
$LIMMAX
 10
500.133821076
 20
707.332118379
  9
$VIEWCTR
 10
250.066910538
 20
353.6660591895
  9
$VIEWSIZE
 40
707.332118379
  9
$CLAYER
  8
0
  9
$LTSCALE
 40
46.107575124
  9
$CELTYPE
  6
BYLAYER
  9
$DIMSCALE
 40
1.0
  9
$DIMASZ
 40
5.9539740604
  9
$DIMEXO
 40
1.0
  9
$DIMDLI
 40
31.8561428129
  9
$DIMEXE
 40
1.0
  9
$DIMCEN
 40
7.5448759294
  9
$DIMLFAC
 40
1.0
  9
$DIMBLK
  1
_FILLED
  9
$DIMALT
 70
0
  9
$DIMALTF
 40
0.0393700787
  9
$DIMTXT
 40
8.3355636846
  9
$DIMTOL
 70
1
  9
$DIMLIM
 70
0
  9
$DIMTFAC
 40
1.0
  9
$DIMTP
 40
0.01
  9
$DIMTM
 40
0.01
  9
$DIMGAP
 40
0.625
  9
$DIMDSEP
 70
46
  9
$AUNITS
 70
0
  9
$PDMODE
 70
3
  9
$PDSIZE
 40
0.3125
  9
$HANDSEED
  5
4F8
  9
$TILEMODE
 70
1
  9
$MEASUREMENT
 70
1
  9
$INSUNITS
 70
4
  0
ENDSEC
  0
SECTION
  2
CLASSES
  0
CLASS
  1
ACDBDICTIONARYWDFLT
  2
AcDbDictionaryWithDefault
  3
AutoCAD 2000
 90
0
 91
1
280
0
281
0
  0
CLASS
  1
ACDBPLACEHOLDER
  2
AcDbPlaceHolder
  3
AutoCAD 2000
 90
0
 91
1
280
0
281
0
  0
CLASS
  1
LAYOUT
  2
AcDbLayout
  3
AutoCAD 2000
 90
0
 91
0
280
0
281
0
  0
ENDSEC
  0
SECTION
  2
TABLES
  0
TABLE
  2
VPORT
  5
8
100
AcDbSymbolTable
 70
2
  0
VPORT
  5
1F4
100
AcDbSymbolTableRecord
100
AcDbViewportTableRecord
  2
*ACTIVE
 70
0
 10
0.0
 20
0.0
 11
1.0
 21
1.0
 12
250.066910538
 22
353.6660591895
 13
0.0
 23
0.0
 14
1.0
 24
1.0
 15
0.0
 25
0.0
 16
0.0
 26
0.0
 36
1.0
 17
0.0
 27
0.0
 37
0.0
 40
707.332118379
 41
0.7070707071
 42
50.0
 43
0.0
 44
0.0
 50
0.0
 51
0.0
 71
0
 72
100
 73
1
 74
1
 75
0
 76
0
 77
0
 78
0
  0
ENDTAB
  0
TABLE
  2
LTYPE
  5
5
100
AcDbSymbolTable
 70
6
  0
LTYPE
  5
14
100
AcDbSymbolTableRecord
100
AcDbLinetypeTableRecord
  2
BYBLOCK
 70
0
  3

 72
65
 73
0
 40
0.0
  0
LTYPE
  5
15
100
AcDbSymbolTableRecord
100
AcDbLinetypeTableRecord
  2
BYLAYER
 70
0
  3

 72
65
 73
0
 40
0.0
  0
LTYPE
  5
16
100
AcDbSymbolTableRecord
100
AcDbLinetypeTableRecord
  2
CONTINUOUS
 70
64
  3
Solid line
 72
65
 73
0
 40
0.0
  0
LTYPE
  5
1F5
100
AcDbSymbolTableRecord
100
AcDbLinetypeTableRecord
  2
CENTER
 70
64
  3
____ _ ____ _ ____ _ ____ _ ____ _ ____ _ ____
 72
65
 73
4
 40
0.6
 49
0.375
 74
0
 49
-0.075
 74
0
 49
0.075
 74
0
 49
-0.075
 74
0
  0
LTYPE
  5
1F6
100
AcDbSymbolTableRecord
100
AcDbLinetypeTableRecord
  2
HIDDEN
 70
64
  3
- - - - - - - - - - - - - - - - - - - -
 72
65
 73
2
 40
0.2
 49
0.1
 74
0
 49
-0.1
 74
0
  0
LTYPE
  5
1F7
100
AcDbSymbolTableRecord
100
AcDbLinetypeTableRecord
  2
PHANTOM
 70
64
  3
_____ _ _ _____ _ _ _____ _ _ _____
 72
65
 73
6
 40
0.8
 49
0.45
 74
0
 49
-0.05
 74
0
 49
0.1
 74
0
 49
-0.05
 74
0
 49
0.1
 74
0
 49
-0.05
 74
0
  0
LTYPE
  5
1F8
100
AcDbSymbolTableRecord
100
AcDbLinetypeTableRecord
  2
DOT
 70
64
  3
. . . . . . . . . . . . . . . . . . . .
 72
65
 73
2
 40
0.2
 49
0.1
 74
0
 49
-0.1
 74
0
  0
LTYPE
  5
1F9
100
AcDbSymbolTableRecord
100
AcDbLinetypeTableRecord
  2
DASHED
 70
64
  3
- - - - - - - - - - - - - - - - - - - -
 72
65
 73
2
 40
0.2
 49
0.1
 74
0
 49
-0.1
 74
0
  0
ENDTAB
  0
TABLE
  2
LAYER
  5
2
100
AcDbSymbolTable
 70
36
  0
LAYER
  5
10
100
AcDbSymbolTableRecord
100
AcDbLayerTableRecord
  2
0
 70
0
 62
7
  6
CONTINUOUS
370
-3
390
F
  0
LAYER
  5
1FA
100
AcDbSymbolTableRecord
100
AcDbLayerTableRecord
  2
DEFAULT_1
 70
0
 62
7
  6
CENTER
370
-3
390
F
  0
LAYER
  5
1FB
100
AcDbSymbolTableRecord
100
AcDbLayerTableRecord
  2
DEFAULT_2
 70
0
 62
8
  6
HIDDEN
370
-3
390
F
  0
LAYER
  5
1FC
100
AcDbSymbolTableRecord
100
AcDbLayerTableRecord
  2
DEFAULT_3
 70
0
 62
7
  6
PHANTOM
370
-3
390
F
  0
LAYER
  5
1FD
100
AcDbSymbolTableRecord
100
AcDbLayerTableRecord
  2
00_COMPONENTS
 70
0
 62
7
  6
CONTINUOUS
370
-3
390
F
  0
LAYER
  5
1FE
100
AcDbSymbolTableRecord
100
AcDbLayerTableRecord
  2
01_1_DEFAULT_DATUMS
 70
0
 62
7
  6
CONTINUOUS
370
-3
390
F
  0
LAYER
  5
1FF
100
AcDbSymbolTableRecord
100
AcDbLayerTableRecord
  2
01_PLANES
 70
0
 62
7
  6
CONTINUOUS
370
-3
390
F
  0
LAYER
  5
200
100
AcDbSymbolTableRecord
100
AcDbLayerTableRecord
  2
02_COORD_SYS
 70
0
 62
7
  6
CONTINUOUS
370
-3
390
F
  0
LAYER
  5
201
100
AcDbSymbolTableRecord
100
AcDbLayerTableRecord
  2
03_AXES
 70
0
 62
7
  6
CONTINUOUS
370
-3
390
F
  0
LAYER
  5
202
100
AcDbSymbolTableRecord
100
AcDbLayerTableRecord
  2
04_POINTS
 70
0
 62
7
  6
CONTINUOUS
370
-3
390
F
  0
LAYER
  5
203
100
AcDbSymbolTableRecord
100
AcDbLayerTableRecord
  2
05_CURVES
 70
0
 62
7
  6
CONTINUOUS
370
-3
390
F
  0
LAYER
  5
204
100
AcDbSymbolTableRecord
100
AcDbLayerTableRecord
  2
06_SURFS
 70
0
 62
7
  6
CONTINUOUS
370
-3
390
F
  0
LAYER
  5
205
100
AcDbSymbolTableRecord
100
AcDbLayerTableRecord
  2
07_COSMETICS
 70
0
 62
7
  6
CONTINUOUS
370
-3
390
F
  0
LAYER
  5
206
100
AcDbSymbolTableRecord
100
AcDbLayerTableRecord
  2
10_NOTES
 70
0
 62
7
  6
CONTINUOUS
370
-3
390
F
  0
LAYER
  5
207
100
AcDbSymbolTableRecord
100
AcDbLayerTableRecord
  2
11_NOTES_PUB
 70
0
 62
7
  6
CONTINUOUS
370
-3
390
F
  0
LAYER
  5
208
100
AcDbSymbolTableRecord
100
AcDbLayerTableRecord
  2
13_REF_GTOL
 70
0
 62
7
  6
CONTINUOUS
370
-3
390
F
  0
LAYER
  5
209
100
AcDbSymbolTableRecord
100
AcDbLayerTableRecord
  2
16_MISC
 70
0
 62
7
  6
CONTINUOUS
370
-3
390
F
  0
LAYER
  5
20A
100
AcDbSymbolTableRecord
100
AcDbLayerTableRecord
  2
17_NO_PRINT
 70
0
 62
7
  6
CONTINUOUS
370
-3
390
F
  0
LAYER
  5
20B
100
AcDbSymbolTableRecord
100
AcDbLayerTableRecord
  2
18_DATUM_CAMS_JOINTS
 70
0
 62
7
  6
CONTINUOUS
370
-3
390
F
  0
LAYER
  5
20C
100
AcDbSymbolTableRecord
100
AcDbLayerTableRecord
  2
19_DATUM_FUNCTIONAL
 70
0
 62
7
  6
CONTINUOUS
370
-3
390
F
  0
LAYER
  5
20D
100
AcDbSymbolTableRecord
100
AcDbLayerTableRecord
  2
20_DATUM_KINEMATIC_SCHEME
 70
0
 62
7
  6
CONTINUOUS
370
-3
390
F
  0
ENDTAB
  0
TABLE
  2
STYLE
  5
3
100
AcDbSymbolTable
 70
1
  0
STYLE
  5
11
100
AcDbSymbolTableRecord
100
AcDbTextStyleTableRecord
  2
STANDARD
 70
0
 40
0.0
 41
0.8
 50
0.0
 71
0
 42
0.2
  3
txt
  4

  0
STYLE
  5
20E
100
AcDbSymbolTableRecord
100
AcDbTextStyleTableRecord
  2
TEXTSTYLE_1
 70
0
 40
0.0
 41
0.8
 50
0.0
 71
0
 42
0.2
  3
gdt
  4

  0
ENDTAB
  0
TABLE
  2
VIEW
  5
6
100
AcDbSymbolTable
 70
0
  0
ENDTAB
  0
TABLE
  2
UCS
  5
7
100
AcDbSymbolTable
 70
0
  0
ENDTAB
  0
TABLE
  2
APPID
  5
9
100
AcDbSymbolTable
 70
1
  0
APPID
  5
20F
100
AcDbSymbolTableRecord
100
AcDbRegAppTableRecord
  2
ACAD
 70
0
  0
ENDTAB
  0
TABLE
  2
BLOCK_RECORD
  5
1
100
AcDbSymbolTable
 70
0
  0
BLOCK_RECORD
  5
210
100
AcDbSymbolTableRecord
100
AcDbBlockTableRecord
  2
*Model_Space
  0
BLOCK_RECORD
  5
211
100
AcDbSymbolTableRecord
100
AcDbBlockTableRecord
  2
*Paper_Space
  0
BLOCK_RECORD
  5
212
100
AcDbSymbolTableRecord
100
AcDbBlockTableRecord
  2
_FILLED
  0
ENDTAB
  0
TABLE
  2
DIMSTYLE
  5
A
100
AcDbSymbolTable
 70
1
100
AcDbDimStyleTable
 71
0
  0
DIMSTYLE
105
213
100
AcDbSymbolTableRecord
100
AcDbDimStyleTableRecord
  2
STANDARD
 70
0
  3

  4

 40
1.0
 41
5.9539740604
 42
1.0
 43
0.38
 44
1.0
 45
0.0
 46
0.0
 47
0.01
 48
0.01
140
8.3355636846
141
0.09
142
0.0
143
25.4
144
1.0
145
0.0
146
1.0
147
0.625
 71
1
 72
0
 73
0
 74
0
 75
0
 76
0
 77
1
 78
8
 79
2
170
0
171
1
172
0
173
0
174
0
175
0
176
0
177
0
178
0
270
2
179
2
271
2
272
2
273
2
274
2
275
0
280
0
281
0
282
0
283
1
284
8
285
0
286
0
287
3
288
0
340
11
278
46
341
212
342
212
343
212
344
212
  0
ENDTAB
  0
ENDSEC
  0
SECTION
  2
BLOCKS
  0
BLOCK
  5
20
100
AcDbEntity
  8
0
100
AcDbBlockBegin
  2
*Model_Space
 70
0
 10
0.0
 20
0.0
 30
0.0
  3
*Model_Space
  1

  0
ENDBLK
  5
21
100
AcDbEntity
  8
0
100
AcDbBlockEnd
  0
BLOCK
  5
1C
100
AcDbEntity
  8
0
100
AcDbBlockBegin
  2
*Paper_Space
 70
0
 10
0.0
 20
0.0
 30
0.0
  3
*Paper_Space
  1

  0
ENDBLK
  5
1D
100
AcDbEntity
  8
0
100
AcDbBlockEnd
  0
BLOCK
  5
214
100
AcDbEntity
  8
0
100
AcDbBlockBegin
  2
_FILLED
 70
64
 10
0.0
 20
0.0
  3
_FILLED
  1

  0
SOLID
  5
215
100
AcDbEntity
  8
0
  6
BYBLOCK
 62
0
100
AcDbTrace
 10
0.0
 20
0.0
 11
-1.0
 21
0.25
 12
-1.0
 22
-0.25
 13
-1.0
 23
-0.25
  0
ENDBLK
  5
216
100
AcDbEntity
  8
0
  6
BYBLOCK
 62
0
100
AcDbBlockEnd
  0
ENDSEC
  0
SECTION
  2
ENTITIES
  0
LINE
  5
217
100
AcDbEntity
  8
0
100
AcDbLine
 62
7
  6
CONTINUOUS
 10
118.4036099477
 20
558.4217314068
 11
106.6857382659
 21
551.5907571884
  0
LINE
  5
218
100
AcDbEntity
  8
0
100
AcDbLine
 62
7
  6
CONTINUOUS
 10
274.3701191854
 20
653.2968855736
 11
276.1378787785
 21
654.3174959583
  0
LINE
  5
219
100
AcDbEntity
  8
0
100
AcDbLine
 62
7
  6
CONTINUOUS
 10
276.3826138184
 20
653.0975499894
 11
278.1503734114
 21
654.1181603741
  0
LWPOLYLINE
  5
21A
100
AcDbEntity
  8
0
100
AcDbPolyline
 62
7
  6
CONTINUOUS
 90
4
 70
0
 10
216.6927626841
 20
623.0099192525
 10
184.6206931847
 20
604.549775114
 10
152.2444993186
 20
585.8585725823
 10
120.1567266303
 20
567.2783574707
  0
LINE
  5
21B
100
AcDbEntity
  8
0
100
AcDbLine
 62
7
  6
CONTINUOUS
 10
276.7973964969
 20
642.9689854114
 11
277.4255955114
 21
643.1952493437
  0
LINE
  5
21C
100
AcDbEntity
  8
0
100
AcDbLine
 62
7
  6
CONTINUOUS
 10
243.3287786634
 20
55.4862419551
 11
119.8311925278
 21
126.7859935389
  0
LINE
  5
21D
100
AcDbEntity
  8
0
100
AcDbLine
 62
7
  6
CONTINUOUS
 10
114.5986204526
 20
550.9330253636
 11
117.8999797136
 21
552.8718780264
  0
LINE
  5
21E
100
AcDbEntity
  8
0
100
AcDbLine
 62
7
  6
CONTINUOUS
 10
117.2318783257
 20
549.4127475902
 11
117.5945453263
 21
549.623743487
  0
LINE
  5
21F
100
AcDbEntity
  8
0
100
AcDbLine
 62
7
  6
CONTINUOUS
 10
113.1628620882
 20
545.8717426069
 11
107.8021204238
 21
542.7684065315
  0
LINE
  5
220
100
AcDbEntity
  8
0
100
AcDbLine
 62
7
  6
CONTINUOUS
 10
277.4255955114
 20
646.7798809308
 11
279.1933551045
 21
647.8004913155
  0
LINE
  5
221
100
AcDbEntity
  8
0
100
AcDbLine
 62
7
  6
CONTINUOUS
 10
279.1933551045
 20
644.2158597287
 11
277.4255955114
 21
643.195249344
  0
LINE
  5
222
100
AcDbEntity
  8
0
100
AcDbLine
 62
7
  6
CONTINUOUS
 10
235.3905782885
 20
613.9700580961
 11
273.9507159503
 21
636.2326310655
  0
LINE
  5
223
100
AcDbEntity
  8
0
100
AcDbLine
 62
7
  6
CONTINUOUS
 10
235.544822647
 20
613.8869552527
 11
285.9715812778
 21
643.0006841371
  0
LINE
  5
224
100
AcDbEntity
  8
0
100
AcDbLine
 62
7
  6
CONTINUOUS
 10
236.1508437948
 20
613.5604468408
 11
286.9715768009
 21
642.901635579
  0
LINE
  5
225
100
AcDbEntity
  8
0
100
AcDbLine
 62
7
  6
CONTINUOUS
 10
112.6703396173
 20
532.3238214501
 11
106.5325107723
 21
528.7824043208
  0
LINE
  5
226
100
AcDbEntity
  8
0
100
AcDbLine
 62
7
  6
CONTINUOUS
 10
112.6703396173
 20
531.7256510374
 11
106.0617738043
 21
527.9121775659
  0
LINE
  5
227
100
AcDbEntity
  8
0
100
AcDbLine
 62
7
  6
CONTINUOUS
 10
203.7847724751
 20
107.93024642
 11
204.7469325191
 21
108.0842249276
  0
LINE
  5
228
100
AcDbEntity
  8
0
100
AcDbLine
 62
7
  6
CONTINUOUS
 10
236.8708180668
 20
117.1687204701
 11
235.9086580227
 21
117.0147419625
  0
LINE
  5
229
100
AcDbEntity
  8
0
100
AcDbLine
 62
7
  6
CONTINUOUS
 10
235.0003220698
 20
84.6933860392
 11
205.6552932834
 21
101.6353441346
  0
LINE
  5
22A
100
AcDbEntity
  8
0
100
AcDbLine
 62
7
  6
CONTINUOUS
 10
157.5718071662
 20
129.3957486592
 11
128.2267783798
 21
146.3377067546
  0
LINE
  5
22B
100
AcDbEntity
  8
0
100
AcDbLine
 62
7
  6
CONTINUOUS
 10
235.2124532189
 20
84.8158592866
 11
205.8673996253
 21
101.7578317041
  0
LINE
  5
22C
100
AcDbEntity
  8
0
100
AcDbLine
 62
7
  6
CONTINUOUS
 10
157.7839383153
 20
129.5182219065
 11
128.4388847217
 21
146.460194324
  0
LINE
  5
22D
100
AcDbEntity
  8
0
100
AcDbLine
 62
7
  6
CONTINUOUS
 10
128.2267535648
 20
152.447860608
 11
157.5718071645
 21
135.5058554719
  0
LINE
  5
22E
100
AcDbEntity
  8
0
100
AcDbLine
 62
7
  6
CONTINUOUS
 10
205.6552684684
 20
107.745497988
 11
235.0003220681
 21
90.8034928519
  0
LINE
  5
22F
100
AcDbEntity
  8
0
100
AcDbLine
 62
7
  6
CONTINUOUS
 10
236.8708180668
 20
149.8288171553
 11
235.9086580227
 21
149.6748386477
  0
LINE
  5
230
100
AcDbEntity
  8
0
100
AcDbLine
 62
7
  6
CONTINUOUS
 10
235.0003220753
 20
117.3534689012
 11
128.2268563206
 21
178.9977584416
  0
LINE
  5
231
100
AcDbEntity
  8
0
100
AcDbLine
 62
7
  6
CONTINUOUS
 10
235.2124532189
 20
117.4759421517
 11
128.4388847217
 21
179.1202910092
  0
LINE
  5
232
100
AcDbEntity
  8
0
100
AcDbLine
 62
7
  6
CONTINUOUS
 10
128.2267535699
 20
185.1079434702
 11
235.0003220696
 21
123.4636033562
  0
LINE
  5
233
100
AcDbEntity
  8
0
100
AcDbLine
 62
7
  6
CONTINUOUS
 10
165.5949348975
 20
516.1479732402
 11
167.1531681895
 21
517.0476142807
  0
LINE
  5
234
100
AcDbEntity
  8
0
100
AcDbLine
 62
7
  6
CONTINUOUS
 10
126.3562575715
 20
152.63260904
 11
127.3184176155
 21
152.7865875476
  0
LINE
  5
235
100
AcDbEntity
  8
0
100
AcDbLine
 62
7
  6
CONTINUOUS
 10
235.0003220753
 20
150.0135655864
 11
128.2268563206
 21
211.6578551268
  0
LINE
  5
236
100
AcDbEntity
  8
0
100
AcDbLine
 62
7
  6
CONTINUOUS
 10
235.2124532189
 20
150.1360388369
 11
128.4388847217
 21
211.7803876944
  0
LINE
  5
237
100
AcDbEntity
  8
0
100
AcDbLine
 62
7
  6
CONTINUOUS
 10
128.2267535697
 20
217.7680401555
 11
235.0003220698
 21
156.1237000413
  0
LINE
  5
238
100
AcDbEntity
  8
0
100
AcDbLine
 62
7
  6
CONTINUOUS
 10
101.7824082765
 20
529.8691068843
 11
103.153754847
 21
544.9839392143
  0
LINE
  5
239
100
AcDbEntity
  8
0
100
AcDbLine
 62
7
  6
CONTINUOUS
 10
107.8014771968
 20
542.7688167421
 11
106.5325107723
 21
528.7824043208
  0
LINE
  5
23A
100
AcDbEntity
  8
0
100
AcDbLine
 62
7
  6
CONTINUOUS
 10
179.1373419735
 20
510.1287048471
 11
175.890211997
 21
508.2539846717
  0
LINE
  5
23B
100
AcDbEntity
  8
0
100
AcDbLine
 62
7
  6
CONTINUOUS
 10
174.7781745442
 20
506.0065801305
 11
165.5949348975
 21
500.7046658966
  0
LINE
  5
23C
100
AcDbEntity
  8
0
100
AcDbLine
 62
7
  6
CONTINUOUS
 10
179.2409419671
 20
507.922098214
 11
181.1001471215
 21
508.995504403
  0
LINE
  5
23D
100
AcDbEntity
  8
0
100
AcDbLine
 62
7
  6
CONTINUOUS
 10
174.5022532562
 20
496.3592945089
 11
173.8118908807
 21
495.9607159848
  0
LINE
  5
23E
100
AcDbEntity
  8
0
100
AcDbLine
 62
7
  6
CONTINUOUS
 10
181.1100949018
 20
492.9144114586
 11
181.322226053
 21
493.0368847048
  0
LINE
  5
23F
100
AcDbEntity
  8
0
100
AcDbLine
 62
7
  6
CONTINUOUS
 10
395.5925331667
 20
574.3833141039
 11
396.2200293361
 21
574.6108025843
  0
LINE
  5
240
100
AcDbEntity
  8
0
100
AcDbLine
 62
7
  6
CONTINUOUS
 10
236.8708180668
 20
182.4889138405
 11
235.9086580227
 21
182.3349353329
  0
LINE
  5
241
100
AcDbEntity
  8
0
100
AcDbLine
 62
7
  6
CONTINUOUS
 10
235.0003220753
 20
182.6736622716
 11
128.2268563206
 21
244.317951812
  0
LINE
  5
242
100
AcDbEntity
  8
0
100
AcDbLine
 62
7
  6
CONTINUOUS
 10
235.2124532189
 20
182.7961355221
 11
128.4388847217
 21
244.4404843796
  0
LINE
  5
243
100
AcDbEntity
  8
0
100
AcDbLine
 62
7
  6
CONTINUOUS
 10
112.6703396173
 20
432.2556640683
 11
112.6703396173
 21
544.034554431
  0
LINE
  5
244
100
AcDbEntity
  8
0
100
AcDbLine
 62
7
  6
CONTINUOUS
 10
113.2247008923
 20
138.2287091899
 11
113.2247008923
 21
419.1428135018
  0
LINE
  5
245
100
AcDbEntity
  8
0
100
AcDbLine
 62
7
  6
CONTINUOUS
 10
115.4663659203
 20
420.7063021549
 11
115.4663652449
 21
421.0179355634
  0
LINE
  5
246
100
AcDbEntity
  8
0
100
AcDbLine
 62
7
  6
CONTINUOUS
 10
115.4663591355
 20
423.8369215674
 11
115.4663443885
 21
430.6414264804
  0
LINE
  5
247
100
AcDbEntity
  8
0
100
AcDbLine
 62
7
  6
CONTINUOUS
 10
120.02791893
 20
427.5887810796
 11
120.02791893
 21
418.8502394844
  0
LINE
  5
248
100
AcDbEntity
  8
0
100
AcDbLine
 62
7
  6
CONTINUOUS
 10
117.6039079777
 20
549.6074591461
 11
119.0140018389
 21
565.1494381229
  0
LINE
  5
249
100
AcDbEntity
  8
0
100
AcDbLine
 62
7
  6
CONTINUOUS
 10
401.0905619506
 20
564.8604067815
 11
400.4668196743
 21
564.6337807477
  0
LINE
  5
24A
100
AcDbEntity
  8
0
100
AcDbLine
 62
7
  6
CONTINUOUS
 10
402.8914709405
 20
193.4453851107
 11
403.9240419594
 21
193.3431465618
  0
LINE
  5
24B
100
AcDbEntity
  8
0
100
AcDbLine
 62
7
  6
CONTINUOUS
 10
395.1593647484
 20
197.9094177122
 11
396.1593385787
 21
197.8104067275
  0
LINE
  5
24C
100
AcDbEntity
  8
0
100
AcDbLine
 62
7
  6
CONTINUOUS
 10
128.2267535699
 20
250.4281368406
 11
235.0003220696
 21
188.7837967266
  0
LINE
  5
24D
100
AcDbEntity
  8
0
100
AcDbLine
 62
7
  6
CONTINUOUS
 10
187.9775253478
 20
232.008498745
 11
175.2495502804
 21
239.3568323364
  0
LINE
  5
24E
100
AcDbEntity
  8
0
100
AcDbLine
 62
7
  6
CONTINUOUS
 10
188.1896564966
 20
232.1309719926
 11
175.461681444
 21
239.4793055755
  0
LINE
  5
24F
100
AcDbEntity
  8
0
100
AcDbLine
 62
7
  6
CONTINUOUS
 10
181.1100949018
 20
492.9144114587
 11
181.4335575188
 21
493.6293040478
  0
LINE
  5
250
100
AcDbEntity
  8
0
100
AcDbLine
 62
7
  6
CONTINUOUS
 10
237.6676845796
 20
480.2977972069
 11
255.6449185988
 21
490.699633207
  0
LINE
  5
251
100
AcDbEntity
  8
0
100
AcDbLine
 62
7
  6
CONTINUOUS
 10
238.0118742777
 20
479.6819619456
 11
255.9985788172
 21
490.0884773312
  0
LINE
  5
252
100
AcDbEntity
  8
0
100
AcDbLine
 62
7
  6
CONTINUOUS
 10
237.6688146924
 20
480.2972126908
 11
255.6452213558
 21
490.6953447576
  0
LINE
  5
253
100
AcDbEntity
  8
0
100
AcDbLine
 62
7
  6
CONTINUOUS
 10
238.0118743244
 20
479.6819617379
 11
255.9985818565
 21
490.084401978
  0
LINE
  5
254
100
AcDbEntity
  8
0
100
AcDbLine
 62
7
  6
CONTINUOUS
 10
174.5022532562
 20
459.5891683631
 11
173.8118908807
 21
459.190589839
  0
LINE
  5
255
100
AcDbEntity
  8
0
100
AcDbLine
 62
7
  6
CONTINUOUS
 10
120.3908569103
 20
427.7983221699
 11
120.02791893
 21
427.5887810801
  0
LINE
  5
256
100
AcDbEntity
  8
0
100
AcDbLine
 62
7
  6
CONTINUOUS
 10
181.322226053
 20
462.4415444456
 11
181.1100949018
 21
462.3190711994
  0
LINE
  5
257
100
AcDbEntity
  8
0
100
AcDbLine
 62
7
  6
CONTINUOUS
 10
115.9524104567
 20
424.6935465019
 11
117.379595774
 21
425.5175274106
  0
LINE
  5
258
100
AcDbEntity
  8
0
100
AcDbLine
 62
7
  6
CONTINUOUS
 10
390.9167063975
 20
582.8902446645
 11
334.6304083695
 21
550.3935293256
  0
LINE
  5
259
100
AcDbEntity
  8
0
100
AcDbLine
 62
7
  6
CONTINUOUS
 10
182.2889083037
 20
460.2773178287
 11
182.5010394549
 21
460.3997910748
  0
LINE
  5
25A
100
AcDbEntity
  8
0
100
AcDbLine
 62
7
  6
CONTINUOUS
 10
334.9121060806
 20
547.2901851544
 11
392.3309258478
 21
580.4407583213
  0
LINE
  5
25B
100
AcDbEntity
  8
0
100
AcDbLine
 62
7
  6
CONTINUOUS
 10
227.6351793861
 20
482.1290987975
 11
225.7759742318
 21
481.0556926086
  0
LINE
  5
25C
100
AcDbEntity
  8
0
100
AcDbLine
 62
7
  6
CONTINUOUS
 10
118.2603762482
 20
417.8296915159
 11
116.8797727912
 21
417.0326044964
  0
LINE
  5
25D
100
AcDbEntity
  8
0
100
AcDbLine
 62
7
  6
CONTINUOUS
 10
396.2200293361
 20
578.1954341714
 11
397.9877889291
 21
579.2160445561
  0
LINE
  5
25E
100
AcDbEntity
  8
0
100
AcDbLine
 62
7
  6
CONTINUOUS
 10
181.2293743575
 20
454.0151786275
 11
181.5829262761
 21
454.2193007044
  0
LINE
  5
25F
100
AcDbEntity
  8
0
100
AcDbLine
 62
7
  6
CONTINUOUS
 10
403.1323834468
 20
581.9613956405
 11
401.3646238537
 21
580.9407852558
  0
LINE
  5
260
100
AcDbEntity
  8
0
100
AcDbLine
 62
7
  6
CONTINUOUS
 10
182.0293404879
 20
453.9359922205
 11
182.3828924065
 21
454.1401142975
  0
LINE
  5
261
100
AcDbEntity
  8
0
100
AcDbLine
 62
7
  6
CONTINUOUS
 10
392.3309258478
 20
573.6587156562
 11
335.4970714042
 21
540.8458703603
  0
LINE
  5
262
100
AcDbEntity
  8
0
100
AcDbLine
 62
7
  6
CONTINUOUS
 10
397.9877889291
 20
575.6314129685
 11
396.2200293361
 21
574.6108025838
  0
LINE
  5
263
100
AcDbEntity
  8
0
100
AcDbLine
 62
7
  6
CONTINUOUS
 10
187.1912385375
 20
451.3640771667
 11
186.8376866189
 21
451.1599550898
  0
LINE
  5
264
100
AcDbEntity
  8
0
100
AcDbLine
 62
7
  6
CONTINUOUS
 10
404.3517911753
 20
575.7668884057
 11
406.1195507683
 21
576.7874987904
  0
LINE
  5
265
100
AcDbEntity
  8
0
100
AcDbLine
 62
7
  6
CONTINUOUS
 10
230.0738090827
 20
473.6116656084
 11
236.2309233563
 21
477.1664559725
  0
LINE
  5
266
100
AcDbEntity
  8
0
100
AcDbLine
 62
7
  6
CONTINUOUS
 10
187.9690621807
 20
449.2003660192
 11
188.3226140993
 21
449.4044880961
  0
LINE
  5
267
100
AcDbEntity
  8
0
100
AcDbLine
 62
7
  6
CONTINUOUS
 10
181.2293743575
 20
442.5841447876
 11
181.5829262761
 21
442.7882668646
  0
LINE
  5
268
100
AcDbEntity
  8
0
100
AcDbLine
 62
7
  6
CONTINUOUS
 10
340.0339577543
 20
533.9303870382
 11
396.3515406168
 21
566.445164577
  0
LINE
  5
269
100
AcDbEntity
  8
0
100
AcDbLine
 62
7
  6
CONTINUOUS
 10
182.0293404879
 20
442.5049583807
 11
182.3828924065
 21
442.7090804577
  0
LINE
  5
26A
100
AcDbEntity
  8
0
100
AcDbLine
 62
7
  6
CONTINUOUS
 10
192.8966848512
 20
447.2792061204
 11
193.2502367699
 21
447.4833281973
  0
LINE
  5
26B
100
AcDbEntity
  8
0
100
AcDbLine
 62
7
  6
CONTINUOUS
 10
193.6966509528
 20
447.2000197709
 11
194.0502028714
 21
447.4041418479
  0
LINE
  5
26C
100
AcDbEntity
  8
0
100
AcDbLine
 62
7
  6
CONTINUOUS
 10
188.3226140993
 20
443.8522716588
 11
187.9690621807
 21
443.6481495819
  0
LINE
  5
26D
100
AcDbEntity
  8
0
100
AcDbLine
 62
7
  6
CONTINUOUS
 10
187.6376527179
 20
442.9157445959
 11
187.9912046365
 21
443.1198666728
  0
LINE
  5
26E
100
AcDbEntity
  8
0
100
AcDbLine
 62
7
  6
CONTINUOUS
 10
315.2760885396
 20
525.1266097162
 11
335.8488401714
 21
536.9824421411
  0
LINE
  5
26F
100
AcDbEntity
  8
0
100
AcDbLine
 62
7
  6
CONTINUOUS
 10
315.6292317275
 20
524.5138402407
 11
336.2290654292
 21
536.3861035886
  0
LINE
  5
270
100
AcDbEntity
  8
0
100
AcDbLine
 62
7
  6
CONTINUOUS
 10
331.5068558496
 20
534.4831443951
 11
335.8477106139
 21
536.9830262002
  0
LINE
  5
271
100
AcDbEntity
  8
0
100
AcDbLine
 62
7
  6
CONTINUOUS
 10
315.2759112995
 20
525.1306090158
 11
331.5068558496
 21
534.4831443951
  0
LINE
  5
272
100
AcDbEntity
  8
0
100
AcDbLine
 62
7
  6
CONTINUOUS
 10
315.6292342184
 20
524.5176920483
 11
331.8606440656
 21
533.8703627519
  0
LINE
  5
273
100
AcDbEntity
  8
0
100
AcDbLine
 62
7
  6
CONTINUOUS
 10
235.0003220698
 20
215.3337727799
 11
199.2913057571
 21
235.949897666
  0
LINE
  5
274
100
AcDbEntity
  8
0
100
AcDbLine
 62
7
  6
CONTINUOUS
 10
163.9357946925
 20
256.3619686092
 11
128.2267783798
 21
276.9780934953
  0
LINE
  5
275
100
AcDbEntity
  8
0
100
AcDbLine
 62
7
  6
CONTINUOUS
 10
235.2124532189
 20
215.4562460273
 11
199.503412099
 21
236.0723852355
  0
LINE
  5
276
100
AcDbEntity
  8
0
100
AcDbLine
 62
7
  6
CONTINUOUS
 10
164.1479258416
 20
256.4844418566
 11
128.4388847217
 21
277.1005810648
  0
LINE
  5
277
100
AcDbEntity
  8
0
100
AcDbLine
 62
7
  6
CONTINUOUS
 10
128.2267535648
 20
283.0882473487
 11
163.9357946908
 21
262.4720754219
  0
LINE
  5
278
100
AcDbEntity
  8
0
100
AcDbLine
 62
7
  6
CONTINUOUS
 10
199.2912809421
 20
242.0600515194
 11
235.0003220681
 21
221.4438795926
  0
LINE
  5
279
100
AcDbEntity
  8
0
100
AcDbLine
 62
7
  6
CONTINUOUS
 10
175.2495502908
 20
266.4135075612
 11
187.9775253474
 21
259.0651739776
  0
LINE
  5
27A
100
AcDbEntity
  8
0
100
AcDbLine
 62
7
  6
CONTINUOUS
 10
156.9087310147
 20
406.7151946896
 11
156.9087310147
 21
522.9621090375
  0
LINE
  5
27B
100
AcDbEntity
  8
0
100
AcDbLine
 62
7
  6
CONTINUOUS
 10
158.9909484631
 20
521.7599674292
 11
158.9909484631
 21
405.5130530813
  0
LINE
  5
27C
100
AcDbEntity
  8
0
100
AcDbLine
 62
7
  6
CONTINUOUS
 10
165.5949348975
 20
417.4430467126
 11
165.5949348975
 21
463.9345372377
  0
LINE
  5
27D
100
AcDbEntity
  8
0
100
AcDbLine
 62
7
  6
CONTINUOUS
 10
165.5949348975
 20
500.704665896
 11
165.5949348975
 21
516.1479732403
  0
LINE
  5
27E
100
AcDbEntity
  8
0
100
AcDbLine
 62
7
  6
CONTINUOUS
 10
181.2293917093
 20
454.0151485728
 11
180.8979649489
 21
453.2826542365
  0
LINE
  5
27F
100
AcDbEntity
  8
0
100
AcDbLine
 62
7
  6
CONTINUOUS
 10
181.2293917093
 20
442.584114733
 11
180.8979649489
 21
441.8516203967
  0
LINE
  5
280
100
AcDbEntity
  8
0
100
AcDbLine
 62
7
  6
CONTINUOUS
 10
277.4255955114
 20
646.7798809308
 11
278.0469548017
 21
648.1531982722
  0
LINE
  5
281
100
AcDbEntity
  8
0
100
AcDbLine
 62
7
  6
CONTINUOUS
 10
181.2293917093
 20
431.1530808932
 11
180.8979649489
 21
430.4205865569
  0
LINE
  5
282
100
AcDbEntity
  8
0
100
AcDbLine
 62
7
  6
CONTINUOUS
 10
187.637635366
 20
442.9157746505
 11
187.9690621807
 21
443.6482691076
  0
LINE
  5
283
100
AcDbEntity
  8
0
100
AcDbLine
 62
7
  6
CONTINUOUS
 10
188.3226140993
 20
443.8523911845
 11
187.9911872846
 21
443.1198967275
  0
LINE
  5
284
100
AcDbEntity
  8
0
100
AcDbLine
 62
7
  6
CONTINUOUS
 10
192.8967022031
 20
447.2791760657
 11
192.5652754058
 21
446.5466816475
  0
LINE
  5
285
100
AcDbEntity
  8
0
100
AcDbLine
 62
7
  6
CONTINUOUS
 10
181.2293917093
 20
419.7220470534
 11
180.8979649489
 21
418.9895527171
  0
LINE
  5
286
100
AcDbEntity
  8
0
100
AcDbLine
 62
7
  6
CONTINUOUS
 10
187.637635366
 20
431.4847408107
 11
187.9690621807
 21
432.2172352678
  0
LINE
  5
287
100
AcDbEntity
  8
0
100
AcDbLine
 62
7
  6
CONTINUOUS
 10
188.3226140993
 20
432.4213573447
 11
187.9911872847
 21
431.6888628876
  0
LINE
  5
288
100
AcDbEntity
  8
0
100
AcDbLine
 62
7
  6
CONTINUOUS
 10
187.637635366
 20
420.0537069709
 11
187.9690621807
 21
420.786201428
  0
LINE
  5
289
100
AcDbEntity
  8
0
100
AcDbLine
 62
7
  6
CONTINUOUS
 10
188.3226140993
 20
420.990323505
 11
187.9911872846
 21
420.2578290478
  0
LINE
  5
28A
100
AcDbEntity
  8
0
100
AcDbLine
 62
7
  6
CONTINUOUS
 10
187.1912385375
 20
439.9330433269
 11
186.8376866189
 21
439.72892125
  0
LINE
  5
28B
100
AcDbEntity
  8
0
100
AcDbLine
 62
7
  6
CONTINUOUS
 10
198.8585490024
 20
444.6281047171
 11
198.5049970838
 21
444.4239826402
  0
LINE
  5
28C
100
AcDbEntity
  8
0
100
AcDbLine
 62
7
  6
CONTINUOUS
 10
403.0115862523
 20
562.1970366219
 11
345.1873863595
 21
528.8124185274
  0
LINE
  5
28D
100
AcDbEntity
  8
0
100
AcDbLine
 62
7
  6
CONTINUOUS
 10
187.9690621807
 20
437.7693321793
 11
188.3226140993
 21
437.9734542563
  0
LINE
  5
28E
100
AcDbEntity
  8
0
100
AcDbLine
 62
7
  6
CONTINUOUS
 10
199.6363726385
 20
442.4643935737
 11
199.9899245571
 21
442.6685156506
  0
LINE
  5
28F
100
AcDbEntity
  8
0
100
AcDbLine
 62
7
  6
CONTINUOUS
 10
181.2293743575
 20
431.1531109478
 11
181.5829262761
 21
431.3572330248
  0
LINE
  5
290
100
AcDbEntity
  8
0
100
AcDbLine
 62
7
  6
CONTINUOUS
 10
346.8034114393
 20
526.5671453927
 11
404.3517911753
 21
559.792519596
  0
LINE
  5
291
100
AcDbEntity
  8
0
100
AcDbLine
 62
7
  6
CONTINUOUS
 10
182.0293404879
 20
431.073924536
 11
182.3828924065
 21
431.2780466129
  0
LINE
  5
292
100
AcDbEntity
  8
0
100
AcDbLine
 62
7
  6
CONTINUOUS
 10
188.3226140993
 20
432.421237819
 11
187.9690621807
 21
432.217115742
  0
LINE
  5
293
100
AcDbEntity
  8
0
100
AcDbLine
 62
7
  6
CONTINUOUS
 10
187.6376527179
 20
431.4847107561
 11
187.9912046365
 21
431.688832833
  0
LINE
  5
294
100
AcDbEntity
  8
0
100
AcDbLine
 62
7
  6
CONTINUOUS
 10
204.5639953118
 20
440.5432336715
 11
204.9175472304
 21
440.7473557484
  0
LINE
  5
295
100
AcDbEntity
  8
0
100
AcDbLine
 62
7
  6
CONTINUOUS
 10
205.3639614178
 20
440.4640473214
 11
205.7175133364
 21
440.6681693983
  0
LINE
  5
296
100
AcDbEntity
  8
0
100
AcDbLine
 62
7
  6
CONTINUOUS
 10
174.5022532562
 20
422.5856586676
 11
165.5949348975
 21
417.4430467127
  0
LINE
  5
297
100
AcDbEntity
  8
0
100
AcDbLine
 62
7
  6
CONTINUOUS
 10
199.9899245571
 20
437.1162992133
 11
199.6363726385
 21
436.9121771364
  0
LINE
  5
298
100
AcDbEntity
  8
0
100
AcDbLine
 62
7
  6
CONTINUOUS
 10
199.30496319
 20
436.1797721274
 11
199.6585151086
 21
436.3838942043
  0
LINE
  5
299
100
AcDbEntity
  8
0
100
AcDbLine
 62
7
  6
CONTINUOUS
 10
187.1912385375
 20
428.5020094822
 11
186.8376866189
 21
428.2978874053
  0
LINE
  5
29A
100
AcDbEntity
  8
0
100
AcDbLine
 62
7
  6
CONTINUOUS
 10
187.9690621807
 20
426.3382983395
 11
188.3226140993
 21
426.5424204165
  0
LINE
  5
29B
100
AcDbEntity
  8
0
100
AcDbLine
 62
7
  6
CONTINUOUS
 10
210.5258594674
 20
437.8921322676
 11
210.1723075488
 21
437.6880101906
  0
LINE
  5
29C
100
AcDbEntity
  8
0
100
AcDbLine
 62
7
  6
CONTINUOUS
 10
181.2293743575
 20
419.722077108
 11
181.5829262761
 21
419.9261991849
  0
LINE
  5
29D
100
AcDbEntity
  8
0
100
AcDbLine
 62
7
  6
CONTINUOUS
 10
182.0293404879
 20
419.6428906962
 11
182.3828924065
 21
419.8470127731
  0
LINE
  5
29E
100
AcDbEntity
  8
0
100
AcDbLine
 62
7
  6
CONTINUOUS
 10
211.3036830958
 20
435.7284211285
 11
211.6572350144
 21
435.9325432055
  0
LINE
  5
29F
100
AcDbEntity
  8
0
100
AcDbLine
 62
7
  6
CONTINUOUS
 10
188.3226140993
 20
420.9902039792
 11
187.9690621807
 21
420.7860819022
  0
LINE
  5
2A0
100
AcDbEntity
  8
0
100
AcDbLine
 62
7
  6
CONTINUOUS
 10
169.7526519627
 20
410.2417094885
 11
174.7195309411
 21
413.1093212864
  0
LINE
  5
2A1
100
AcDbEntity
  8
0
100
AcDbLine
 62
7
  6
CONTINUOUS
 10
187.6376527179
 20
420.0536769163
 11
187.9912046365
 21
420.2577989932
  0
LINE
  5
2A2
100
AcDbEntity
  8
0
100
AcDbLine
 62
7
  6
CONTINUOUS
 10
187.1912385375
 20
417.0709756424
 11
186.8376866189
 21
416.8668535655
  0
LINE
  5
2A3
100
AcDbEntity
  8
0
100
AcDbLine
 62
7
  6
CONTINUOUS
 10
216.231305784
 20
433.8072612023
 11
216.5848577026
 21
434.0113832792
  0
LINE
  5
2A4
100
AcDbEntity
  8
0
100
AcDbLine
 62
7
  6
CONTINUOUS
 10
222.5289133173
 20
437.2902101339
 11
222.3167821661
 21
437.1677368877
  0
LINE
  5
2A5
100
AcDbEntity
  8
0
100
AcDbLine
 62
7
  6
CONTINUOUS
 10
217.0312718827
 20
433.7280748718
 11
217.3848238013
 21
433.9321969487
  0
LINE
  5
2A6
100
AcDbEntity
  8
0
100
AcDbLine
 62
7
  6
CONTINUOUS
 10
211.6572350144
 20
430.3803267682
 11
211.3036830958
 21
430.1762046912
  0
LINE
  5
2A7
100
AcDbEntity
  8
0
100
AcDbLine
 62
7
  6
CONTINUOUS
 10
156.9087310147
 20
406.7151946893
 11
158.9909484631
 21
407.7913488977
  0
LINE
  5
2A8
100
AcDbEntity
  8
0
100
AcDbLine
 62
7
  6
CONTINUOUS
 10
236.8708180668
 20
247.8091072108
 11
235.9086580229
 21
247.6551287032
  0
LINE
  5
2A9
100
AcDbEntity
  8
0
100
AcDbLine
 62
7
  6
CONTINUOUS
 10
197.4207849488
 20
242.2447999515
 11
198.3829449928
 21
242.398778459
  0
LINE
  5
2AA
100
AcDbEntity
  8
0
100
AcDbLine
 62
7
  6
CONTINUOUS
 10
235.0003220704
 20
247.9938556444
 11
128.2268563224
 21
309.638145181
  0
LINE
  5
2AB
100
AcDbEntity
  8
0
100
AcDbLine
 62
7
  6
CONTINUOUS
 10
235.2124532189
 20
248.1163288928
 11
128.4388847217
 21
309.7606777503
  0
LINE
  5
2AC
100
AcDbEntity
  8
0
100
AcDbLine
 62
7
  6
CONTINUOUS
 10
128.2267535699
 20
315.7483302109
 11
235.0003220696
 21
254.1039900969
  0
LINE
  5
2AD
100
AcDbEntity
  8
0
100
AcDbLine
 62
7
  6
CONTINUOUS
 10
169.897688738
 20
248.6264769951
 11
169.8976887393
 21
263.3235205196
  0
LINE
  5
2AE
100
AcDbEntity
  8
0
100
AcDbLine
 62
7
  6
CONTINUOUS
 10
170.1098198891
 20
248.748950244
 11
170.1098198905
 21
263.4459937516
  0
LINE
  5
2AF
100
AcDbEntity
  8
0
100
AcDbLine
 62
7
  6
CONTINUOUS
 10
173.8118908807
 20
459.1905898397
 11
173.8118908807
 21
495.9607159846
  0
LINE
  5
2B0
100
AcDbEntity
  8
0
100
AcDbLine
 62
7
  6
CONTINUOUS
 10
174.5022532562
 20
505.1861367883
 11
174.5022532562
 21
414.0061982317
  0
LINE
  5
2B1
100
AcDbEntity
  8
0
100
AcDbLine
 62
7
  6
CONTINUOUS
 10
177.2621482116
 20
509.0460676864
 11
177.2621482116
 21
511.2113239782
  0
LINE
  5
2B2
100
AcDbEntity
  8
0
100
AcDbLine
 62
7
  6
CONTINUOUS
 10
180.8979649489
 20
413.4374555963
 11
180.8979649489
 21
418.9896720336
  0
LINE
  5
2B3
100
AcDbEntity
  8
0
100
AcDbLine
 62
7
  6
CONTINUOUS
 10
180.8979649489
 20
424.8684894361
 11
180.8979649489
 21
430.4207058734
  0
LINE
  5
2B4
100
AcDbEntity
  8
0
100
AcDbLine
 62
7
  6
CONTINUOUS
 10
180.8979649489
 20
436.2995232759
 11
180.8979649489
 21
441.8517397132
  0
LINE
  5
2B5
100
AcDbEntity
  8
0
100
AcDbLine
 62
7
  6
CONTINUOUS
 10
180.8979649489
 20
447.7305571157
 11
180.8979649489
 21
453.282773553
  0
LINE
  5
2B6
100
AcDbEntity
  8
0
100
AcDbLine
 62
7
  6
CONTINUOUS
 10
181.1100949018
 20
462.3190711994
 11
181.1100949018
 21
492.9144114587
  0
LINE
  5
2B7
100
AcDbEntity
  8
0
100
AcDbLine
 62
7
  6
CONTINUOUS
 10
181.322226053
 20
462.4415444456
 11
181.322226053
 21
493.0368847048
  0
LINE
  5
2B8
100
AcDbEntity
  8
0
100
AcDbLine
 62
7
  6
CONTINUOUS
 10
187.9690621807
 20
449.2003660192
 11
187.9690621807
 21
443.6481495819
  0
LINE
  5
2B9
100
AcDbEntity
  8
0
100
AcDbLine
 62
7
  6
CONTINUOUS
 10
187.9690621807
 20
437.7693321793
 11
187.9690621807
 21
432.217115742
  0
LINE
  5
2BA
100
AcDbEntity
  8
0
100
AcDbLine
 62
7
  6
CONTINUOUS
 10
187.9690621807
 20
426.3382983395
 11
187.9690621807
 21
420.7860819022
  0
LINE
  5
2BB
100
AcDbEntity
  8
0
100
AcDbLine
 62
7
  6
CONTINUOUS
 10
187.9690621807
 20
414.9072644997
 11
187.9690621807
 21
409.3550480624
  0
LINE
  5
2BC
100
AcDbEntity
  8
0
100
AcDbLine
 62
7
  6
CONTINUOUS
 10
188.3226140993
 20
449.4043684128
 11
188.3226140993
 21
443.8523911845
  0
LINE
  5
2BD
100
AcDbEntity
  8
0
100
AcDbLine
 62
7
  6
CONTINUOUS
 10
188.3226140993
 20
437.9733345732
 11
188.3226140993
 21
432.4213573447
  0
LINE
  5
2BE
100
AcDbEntity
  8
0
100
AcDbLine
 62
7
  6
CONTINUOUS
 10
188.3226140993
 20
426.5423007335
 11
188.3226140993
 21
420.990323505
  0
LINE
  5
2BF
100
AcDbEntity
  8
0
100
AcDbLine
 62
7
  6
CONTINUOUS
 10
188.3226140993
 20
415.1112668936
 11
188.3226140993
 21
409.5592896651
  0
LINE
  5
2C0
100
AcDbEntity
  8
0
100
AcDbLine
 62
7
  6
CONTINUOUS
 10
199.3049458382
 20
436.179802182
 11
199.6363726385
 21
436.9122966074
  0
LINE
  5
2C1
100
AcDbEntity
  8
0
100
AcDbLine
 62
7
  6
CONTINUOUS
 10
199.9899245571
 20
437.1164186843
 11
199.6584977568
 21
436.383924259
  0
LINE
  5
2C2
100
AcDbEntity
  8
0
100
AcDbLine
 62
7
  6
CONTINUOUS
 10
187.637635366
 20
408.6226731311
 11
187.9690621807
 21
409.3551675882
  0
LINE
  5
2C3
100
AcDbEntity
  8
0
100
AcDbLine
 62
7
  6
CONTINUOUS
 10
188.3226140993
 20
409.5592896651
 11
187.9911872846
 21
408.826795208
  0
LINE
  5
2C4
100
AcDbEntity
  8
0
100
AcDbLine
 62
7
  6
CONTINUOUS
 10
204.5640126636
 20
440.5432036168
 11
204.2325858631
 21
439.8107091911
  0
LINE
  5
2C5
100
AcDbEntity
  8
0
100
AcDbLine
 62
7
  6
CONTINUOUS
 10
210.9722562987
 20
429.4438297325
 11
211.3036830958
 21
430.1763241503
  0
LINE
  5
2C6
100
AcDbEntity
  8
0
100
AcDbLine
 62
7
  6
CONTINUOUS
 10
211.6572350144
 20
430.3804462272
 11
211.3258082173
 21
429.6479518094
  0
LINE
  5
2C7
100
AcDbEntity
  8
0
100
AcDbLine
 62
7
  6
CONTINUOUS
 10
216.2313231359
 20
433.8072311476
 11
215.8998963208
 21
433.0747366895
  0
LINE
  5
2C8
100
AcDbEntity
  8
0
100
AcDbLine
 62
7
  6
CONTINUOUS
 10
210.9722736506
 20
429.4437996778
 11
211.3258255692
 21
429.6479217548
  0
LINE
  5
2C9
100
AcDbEntity
  8
0
100
AcDbLine
 62
7
  6
CONTINUOUS
 10
187.9690621807
 20
414.9072644997
 11
188.3226140993
 21
415.1113865766
  0
LINE
  5
2CA
100
AcDbEntity
  8
0
100
AcDbLine
 62
7
  6
CONTINUOUS
 10
222.1931699323
 20
431.156159818
 11
221.8396180137
 21
430.952037741
  0
LINE
  5
2CB
100
AcDbEntity
  8
0
100
AcDbLine
 62
7
  6
CONTINUOUS
 10
128.2267535705
 20
374.9583978745
 11
128.4388847217
 21
375.0808711206
  0
LINE
  5
2CC
100
AcDbEntity
  8
0
100
AcDbLine
 62
7
  6
CONTINUOUS
 10
188.3226140993
 20
409.5591701393
 11
187.9690621807
 21
409.3550480624
  0
LINE
  5
2CD
100
AcDbEntity
  8
0
100
AcDbLine
 62
7
  6
CONTINUOUS
 10
187.6376527179
 20
408.6226430765
 11
187.9912046365
 21
408.8267651534
  0
LINE
  5
2CE
100
AcDbEntity
  8
0
100
AcDbLine
 62
7
  6
CONTINUOUS
 10
222.9709935528
 20
428.9924486835
 11
223.3245454714
 21
429.1965707604
  0
LINE
  5
2CF
100
AcDbEntity
  8
0
100
AcDbLine
 62
7
  6
CONTINUOUS
 10
250.9999972854
 20
443.7202404702
 11
351.6711133295
 21
501.8423902221
  0
LINE
  5
2D0
100
AcDbEntity
  8
0
100
AcDbLine
 62
7
  6
CONTINUOUS
 10
216.231305784
 20
422.3762273625
 11
216.5848577026
 21
422.5803494394
  0
LINE
  5
2D1
100
AcDbEntity
  8
0
100
AcDbLine
 62
7
  6
CONTINUOUS
 10
217.0312718827
 20
422.297041032
 11
217.3848238013
 21
422.5011631089
  0
LINE
  5
2D2
100
AcDbEntity
  8
0
100
AcDbLine
 62
7
  6
CONTINUOUS
 10
223.3245454714
 20
423.6443543231
 11
222.9709935528
 21
423.4402322462
  0
LINE
  5
2D3
100
AcDbEntity
  8
0
100
AcDbLine
 62
7
  6
CONTINUOUS
 10
222.6395841447
 20
422.7078271705
 11
222.9931360633
 21
422.9119492474
  0
LINE
  5
2D4
100
AcDbEntity
  8
0
100
AcDbLine
 62
7
  6
CONTINUOUS
 10
222.1931699323
 20
419.7251259782
 11
221.8396180137
 21
419.5210039012
  0
LINE
  5
2D5
100
AcDbEntity
  8
0
100
AcDbLine
 62
7
  6
CONTINUOUS
 10
222.9709935528
 20
417.5614148437
 11
223.3245454714
 21
417.7655369206
  0
LINE
  5
2D6
100
AcDbEntity
  8
0
100
AcDbLine
 62
7
  6
CONTINUOUS
 10
216.231305784
 20
410.9451935226
 11
216.5848577026
 21
411.1493155996
  0
LINE
  5
2D7
100
AcDbEntity
  8
0
100
AcDbLine
 62
7
  6
CONTINUOUS
 10
217.0312718827
 20
410.8660071872
 11
217.3848238013
 21
411.0701292642
  0
LINE
  5
2D8
100
AcDbEntity
  8
0
100
AcDbLine
 62
7
  6
CONTINUOUS
 10
223.3245454714
 20
412.2133204833
 11
222.9709935528
 21
412.0091984064
  0
LINE
  5
2D9
100
AcDbEntity
  8
0
100
AcDbLine
 62
7
  6
CONTINUOUS
 10
222.6395841446
 20
411.2767933307
 11
222.9931360633
 21
411.4809154076
  0
LINE
  5
2DA
100
AcDbEntity
  8
0
100
AcDbLine
 62
7
  6
CONTINUOUS
 10
126.3565209606
 20
381.2528246826
 11
126.6740513986
 21
381.3835277986
  0
LINE
  5
2DB
100
AcDbEntity
  8
0
100
AcDbLine
 62
7
  6
CONTINUOUS
 10
236.8708180668
 20
280.469203896
 11
235.9086580229
 21
280.3152253884
  0
LINE
  5
2DC
100
AcDbEntity
  8
0
100
AcDbLine
 62
7
  6
CONTINUOUS
 10
235.0003220704
 20
280.6539523296
 11
128.2268563224
 21
342.2982418662
  0
LINE
  5
2DD
100
AcDbEntity
  8
0
100
AcDbLine
 62
7
  6
CONTINUOUS
 10
235.2124532189
 20
280.776425578
 11
128.4388847217
 21
342.4207744354
  0
LINE
  5
2DE
100
AcDbEntity
  8
0
100
AcDbLine
 62
7
  6
CONTINUOUS
 10
128.2267535699
 20
348.4084268961
 11
235.0003220696
 21
286.7640867821
  0
LINE
  5
2DF
100
AcDbEntity
  8
0
100
AcDbLine
 62
7
  6
CONTINUOUS
 10
402.8914709406
 20
193.4453851107
 11
401.5233522747
 21
194.2352509215
  0
LINE
  5
2E0
100
AcDbEntity
  8
0
100
AcDbLine
 62
7
  6
CONTINUOUS
 10
395.1593647484
 20
197.9094177122
 11
392.8558663843
 21
199.2393130265
  0
LINE
  5
2E1
100
AcDbEntity
  8
0
100
AcDbLine
 62
7
  6
CONTINUOUS
 10
192.5652754058
 20
440.9945846707
 11
192.5652754058
 21
446.546801108
  0
LINE
  5
2E2
100
AcDbEntity
  8
0
100
AcDbLine
 62
7
  6
CONTINUOUS
 10
193.3293869002
 20
249.7955293113
 11
193.3293868989
 21
235.0984857868
  0
LINE
  5
2E3
100
AcDbEntity
  8
0
100
AcDbLine
 62
7
  6
CONTINUOUS
 10
199.6363726385
 20
442.4643935737
 11
199.6363726385
 21
436.9121771364
  0
LINE
  5
2E4
100
AcDbEntity
  8
0
100
AcDbLine
 62
7
  6
CONTINUOUS
 10
199.9899245571
 20
442.6683961117
 11
199.9899245571
 21
437.1164186843
  0
LINE
  5
2E5
100
AcDbEntity
  8
0
100
AcDbLine
 62
7
  6
CONTINUOUS
 10
204.2325858631
 20
434.2586122256
 11
204.2325858631
 21
439.8108286629
  0
LINE
  5
2E6
100
AcDbEntity
  8
0
100
AcDbLine
 62
7
  6
CONTINUOUS
 10
211.3036830958
 20
435.7284211285
 11
211.3036830958
 21
430.1762046912
  0
LINE
  5
2E7
100
AcDbEntity
  8
0
100
AcDbLine
 62
7
  6
CONTINUOUS
 10
211.6572350144
 20
435.9324237261
 11
211.6572350144
 21
430.3804462272
  0
LINE
  5
2E8
100
AcDbEntity
  8
0
100
AcDbLine
 62
7
  6
CONTINUOUS
 10
216.2313231359
 20
422.3761973078
 11
215.8998963208
 21
421.6437028497
  0
LINE
  5
2E9
100
AcDbEntity
  8
0
100
AcDbLine
 62
7
  6
CONTINUOUS
 10
223.4659674371
 20
437.8312382838
 11
223.1293542155
 21
437.0872812239
  0
LINE
  5
2EA
100
AcDbEntity
  8
0
100
AcDbLine
 62
7
  6
CONTINUOUS
 10
216.2313231359
 20
410.945163468
 11
215.8998963208
 21
410.2126690099
  0
LINE
  5
2EB
100
AcDbEntity
  8
0
100
AcDbLine
 62
7
  6
CONTINUOUS
 10
222.6395667928
 20
422.7078572251
 11
222.9709935528
 21
423.4403515604
  0
LINE
  5
2EC
100
AcDbEntity
  8
0
100
AcDbLine
 62
7
  6
CONTINUOUS
 10
223.3245454714
 20
423.6444736373
 11
222.9931187114
 21
422.9119793021
  0
LINE
  5
2ED
100
AcDbEntity
  8
0
100
AcDbLine
 62
7
  6
CONTINUOUS
 10
216.2313231358
 20
399.5141296282
 11
215.8998963208
 21
398.7816351701
  0
LINE
  5
2EE
100
AcDbEntity
  8
0
100
AcDbLine
 62
7
  6
CONTINUOUS
 10
222.6395667928
 20
411.2768233853
 11
222.9709935528
 21
412.0093177207
  0
LINE
  5
2EF
100
AcDbEntity
  8
0
100
AcDbLine
 62
7
  6
CONTINUOUS
 10
223.3245454714
 20
412.2134397976
 11
222.9931187114
 21
411.4809454623
  0
LINE
  5
2F0
100
AcDbEntity
  8
0
100
AcDbLine
 62
7
  6
CONTINUOUS
 10
222.6395667928
 20
399.8457895455
 11
222.9709935528
 21
400.5782838808
  0
LINE
  5
2F1
100
AcDbEntity
  8
0
100
AcDbLine
 62
7
  6
CONTINUOUS
 10
223.3245454714
 20
400.7824059578
 11
222.9931187114
 21
400.0499116224
  0
LINE
  5
2F2
100
AcDbEntity
  8
0
100
AcDbLine
 62
7
  6
CONTINUOUS
 10
222.6395667928
 20
388.4147557057
 11
222.9709935528
 21
389.147250041
  0
LINE
  5
2F3
100
AcDbEntity
  8
0
100
AcDbLine
 62
7
  6
CONTINUOUS
 10
223.3245454714
 20
389.351372118
 11
222.9931187114
 21
388.6188777826
  0
LINE
  5
2F4
100
AcDbEntity
  8
0
100
AcDbLine
 62
7
  6
CONTINUOUS
 10
222.1931699323
 20
408.2940921334
 11
221.8396180137
 21
408.0899700565
  0
LINE
  5
2F5
100
AcDbEntity
  8
0
100
AcDbLine
 62
7
  6
CONTINUOUS
 10
222.9709935528
 20
406.1303810039
 11
223.3245454714
 21
406.3345030808
  0
LINE
  5
2F6
100
AcDbEntity
  8
0
100
AcDbLine
 62
7
  6
CONTINUOUS
 10
216.231305784
 20
399.5141596829
 11
216.5848577026
 21
399.7182817598
  0
LINE
  5
2F7
100
AcDbEntity
  8
0
100
AcDbLine
 62
7
  6
CONTINUOUS
 10
217.0312718827
 20
399.4349733474
 11
217.3848238013
 21
399.6390954244
  0
LINE
  5
2F8
100
AcDbEntity
  8
0
100
AcDbLine
 62
7
  6
CONTINUOUS
 10
223.3245454714
 20
400.7822866435
 11
222.9709935528
 21
400.5781645666
  0
LINE
  5
2F9
100
AcDbEntity
  8
0
100
AcDbLine
 62
7
  6
CONTINUOUS
 10
222.6395841447
 20
399.8457594909
 11
222.9931360633
 21
400.0498815678
  0
LINE
  5
2FA
100
AcDbEntity
  8
0
100
AcDbLine
 62
7
  6
CONTINUOUS
 10
222.1931699323
 20
396.8630582936
 11
221.8396180137
 21
396.6589362167
  0
LINE
  5
2FB
100
AcDbEntity
  8
0
100
AcDbLine
 62
7
  6
CONTINUOUS
 10
128.2267535705
 20
342.2983011893
 11
128.4388847217
 21
342.4207744354
  0
LINE
  5
2FC
100
AcDbEntity
  8
0
100
AcDbLine
 62
7
  6
CONTINUOUS
 10
222.9709935528
 20
394.6993471641
 11
223.3245454714
 21
394.903469241
  0
LINE
  5
2FD
100
AcDbEntity
  8
0
100
AcDbLine
 62
7
  6
CONTINUOUS
 10
223.3245454714
 20
389.3512528037
 11
222.9709935528
 21
389.1471307268
  0
LINE
  5
2FE
100
AcDbEntity
  8
0
100
AcDbLine
 62
7
  6
CONTINUOUS
 10
222.6395841446
 20
388.4147256511
 11
222.9931360633
 21
388.618847728
  0
LINE
  5
2FF
100
AcDbEntity
  8
0
100
AcDbLine
 62
7
  6
CONTINUOUS
 10
126.3565209606
 20
348.5927279974
 11
126.6740513986
 21
348.7234311135
  0
LINE
  5
300
100
AcDbEntity
  8
0
100
AcDbLine
 62
7
  6
CONTINUOUS
 10
126.3562575715
 20
283.2729957807
 11
127.3184176155
 21
283.4269742883
  0
LINE
  5
301
100
AcDbEntity
  8
0
100
AcDbLine
 62
7
  6
CONTINUOUS
 10
235.0003220704
 20
313.3140490148
 11
128.2268563224
 21
374.9583385513
  0
LINE
  5
302
100
AcDbEntity
  8
0
100
AcDbLine
 62
7
  6
CONTINUOUS
 10
235.2124532189
 20
313.4365222632
 11
128.4388847217
 21
375.0808711206
  0
LINE
  5
303
100
AcDbEntity
  8
0
100
AcDbLine
 62
7
  6
CONTINUOUS
 10
215.8998963208
 20
393.2295382607
 11
215.8998963208
 21
398.781754698
  0
LINE
  5
304
100
AcDbEntity
  8
0
100
AcDbLine
 62
7
  6
CONTINUOUS
 10
215.8998963208
 20
404.6605721005
 11
215.8998963208
 21
410.2127885378
  0
LINE
  5
305
100
AcDbEntity
  8
0
100
AcDbLine
 62
7
  6
CONTINUOUS
 10
215.8998963208
 20
416.0916059403
 11
215.8998963208
 21
421.6438223776
  0
LINE
  5
306
100
AcDbEntity
  8
0
100
AcDbLine
 62
7
  6
CONTINUOUS
 10
215.8998963208
 20
427.5226397801
 11
215.8998963208
 21
433.0748562174
  0
LINE
  5
307
100
AcDbEntity
  8
0
100
AcDbLine
 62
7
  6
CONTINUOUS
 10
222.9709935528
 20
428.9924486835
 11
222.9709935528
 21
423.4402322462
  0
LINE
  5
308
100
AcDbEntity
  8
0
100
AcDbLine
 62
7
  6
CONTINUOUS
 10
222.9709935528
 20
417.5614148437
 11
222.9709935528
 21
412.0091984064
  0
LINE
  5
309
100
AcDbEntity
  8
0
100
AcDbLine
 62
7
  6
CONTINUOUS
 10
222.9709935528
 20
406.1303810039
 11
222.9709935528
 21
400.5781645666
  0
LINE
  5
30A
100
AcDbEntity
  8
0
100
AcDbLine
 62
7
  6
CONTINUOUS
 10
222.9709935528
 20
394.6993471641
 11
222.9709935528
 21
389.1471307268
  0
LINE
  5
30B
100
AcDbEntity
  8
0
100
AcDbLine
 62
7
  6
CONTINUOUS
 10
223.3245454714
 20
429.1964510468
 11
223.3245454714
 21
423.6444736373
  0
LINE
  5
30C
100
AcDbEntity
  8
0
100
AcDbLine
 62
7
  6
CONTINUOUS
 10
223.3245454714
 20
417.7654172071
 11
223.3245454714
 21
412.2134397976
  0
LINE
  5
30D
100
AcDbEntity
  8
0
100
AcDbLine
 62
7
  6
CONTINUOUS
 10
223.3245454714
 20
406.3343833672
 11
223.3245454714
 21
400.7824059578
  0
LINE
  5
30E
100
AcDbEntity
  8
0
100
AcDbLine
 62
7
  6
CONTINUOUS
 10
223.3245454714
 20
394.9033495274
 11
223.3245454714
 21
389.351372118
  0
LINE
  5
30F
100
AcDbEntity
  8
0
100
AcDbLine
 62
7
  6
CONTINUOUS
 10
223.4659674371
 20
468.4164938723
 11
223.4659674371
 21
437.8312382838
  0
LINE
  5
310
100
AcDbEntity
  8
0
100
AcDbLine
 62
7
  6
CONTINUOUS
 10
230.0738090827
 20
381.6299738382
 11
230.0738090827
 21
473.6116656085
  0
LINE
  5
311
100
AcDbEntity
  8
0
100
AcDbLine
 62
7
  6
CONTINUOUS
 10
243.5942728753
 20
389.4359706526
 11
230.0738090827
 21
381.6299738379
  0
LINE
  5
312
100
AcDbEntity
  8
0
100
AcDbLine
 62
7
  6
CONTINUOUS
 10
242.8126095445
 20
386.9679682284
 11
228.8388235135
 21
378.9002472596
  0
LINE
  5
313
100
AcDbEntity
  8
0
100
AcDbLine
 62
7
  6
CONTINUOUS
 10
128.2267535705
 20
309.6382045041
 11
128.4388847217
 21
309.7606777503
  0
LINE
  5
314
100
AcDbEntity
  8
0
100
AcDbLine
 62
7
  6
CONTINUOUS
 10
243.5943103971
 20
372.624697413
 11
239.2515424101
 21
370.1174141132
  0
LINE
  5
315
100
AcDbEntity
  8
0
100
AcDbLine
 62
7
  6
CONTINUOUS
 10
236.8708180668
 20
313.1293005812
 11
235.9086580229
 21
312.9753220736
  0
LINE
  5
316
100
AcDbEntity
  8
0
100
AcDbLine
 62
7
  6
CONTINUOUS
 10
128.2267535699
 20
381.0685235813
 11
235.0003220696
 21
319.4241834673
  0
LINE
  5
317
100
AcDbEntity
  8
0
100
AcDbLine
 62
7
  6
CONTINUOUS
 10
237.6694563846
 20
496.6162107808
 11
237.6688146924
 21
480.2972126908
  0
LINE
  5
318
100
AcDbEntity
  8
0
100
AcDbLine
 62
7
  6
CONTINUOUS
 10
243.1717228551
 20
347.14752149
 11
243.1717228551
 21
356.5606561022
  0
LINE
  5
319
100
AcDbEntity
  8
0
100
AcDbLine
 62
7
  6
CONTINUOUS
 10
243.5942728753
 20
471.1078393995
 11
243.5942728753
 21
372.624762403
  0
LINE
  5
31A
100
AcDbEntity
  8
0
100
AcDbLine
 62
7
  6
CONTINUOUS
 10
245.6465862854
 20
350.1547065423
 11
245.6465862854
 21
355.4835290769
  0
LINE
  5
31B
100
AcDbEntity
  8
0
100
AcDbLine
 62
7
  6
CONTINUOUS
 10
246.3927024744
 20
447.9678690761
 11
246.3932812709
 21
462.8335635761
  0
LINE
  5
31C
100
AcDbEntity
  8
0
100
AcDbLine
 62
7
  6
CONTINUOUS
 10
250.0023747459
 20
340.144295173
 11
250.0023747459
 21
59.3393546125
  0
LINE
  5
31D
100
AcDbEntity
  8
0
100
AcDbLine
 62
7
  6
CONTINUOUS
 10
250.556736021
 20
443.9761516897
 11
250.556736021
 21
352.6487169369
  0
LINE
  5
31E
100
AcDbEntity
  8
0
100
AcDbLine
 62
7
  6
CONTINUOUS
 10
251.0006113739
 20
459.4990322167
 11
250.9999972854
 21
443.7202404702
  0
LINE
  5
31F
100
AcDbEntity
  8
0
100
AcDbLine
 62
7
  6
CONTINUOUS
 10
252.7103179307
 20
341.4385840968
 11
252.7104615908
 21
353.7618287482
  0
LINE
  5
320
100
AcDbEntity
  8
0
100
AcDbLine
 62
7
  6
CONTINUOUS
 10
243.4763115639
 20
356.7365094253
 11
243.1717228551
 21
356.560656102
  0
LINE
  5
321
100
AcDbEntity
  8
0
100
AcDbLine
 62
7
  6
CONTINUOUS
 10
245.3534901586
 20
349.9854884247
 11
246.7806754759
 21
350.8094693333
  0
LINE
  5
322
100
AcDbEntity
  8
0
100
AcDbLine
 62
7
  6
CONTINUOUS
 10
244.5805375977
 20
347.9608962057
 11
243.1717228551
 21
347.14752149
  0
LINE
  5
323
100
AcDbEntity
  8
0
100
AcDbLine
 62
7
  6
CONTINUOUS
 10
250.556736021
 20
352.6487169369
 11
261.5168454978
 21
358.3132396057
  0
LINE
  5
324
100
AcDbEntity
  8
0
100
AcDbLine
 62
7
  6
CONTINUOUS
 10
126.3565209606
 20
315.9326313123
 11
126.6740513986
 21
316.0633344283
  0
LINE
  5
325
100
AcDbEntity
  8
0
100
AcDbLine
 62
7
  6
CONTINUOUS
 10
243.1717228551
 20
356.5606561022
 11
120.02791893
 21
427.5887810796
  0
LINE
  5
326
100
AcDbEntity
  8
0
100
AcDbLine
 62
7
  6
CONTINUOUS
 10
250.0023747459
 20
340.144295173
 11
245.8214381633
 21
342.5581054267
  0
LINE
  5
327
100
AcDbEntity
  8
0
100
AcDbLine
 62
7
  6
CONTINUOUS
 10
116.8797727905
 20
417.0326044968
 11
113.2247008923
 21
419.1428135018
  0
LINE
  5
328
100
AcDbEntity
  8
0
100
AcDbLine
 62
7
  6
CONTINUOUS
 10
252.7103179307
 20
341.4385840968
 11
249.6631326413
 21
343.1978375442
  0
LINE
  5
329
100
AcDbEntity
  8
0
100
AcDbLine
 62
7
  6
CONTINUOUS
 10
115.4663659203
 20
420.7063021549
 11
115.6896463601
 21
420.5773940492
  0
LINE
  5
32A
100
AcDbEntity
  8
0
100
AcDbLine
 62
7
  6
CONTINUOUS
 10
112.6703396173
 20
432.2556640688
 11
156.9087310147
 21
406.7151946896
  0
LINE
  5
32B
100
AcDbEntity
  8
0
100
AcDbLine
 62
7
  6
CONTINUOUS
 10
158.9909484631
 20
405.5130530813
 11
250.556736021
 21
352.6487169373
  0
LINE
  5
32C
100
AcDbEntity
  8
0
100
AcDbLine
 62
7
  6
CONTINUOUS
 10
261.5168454978
 20
155.4529405158
 11
261.5168454978
 21
358.3132396061
  0
LINE
  5
32D
100
AcDbEntity
  8
0
100
AcDbLine
 62
7
  6
CONTINUOUS
 10
262.56831658
 20
359.235972265
 11
262.5694704647
 21
164.3434207524
  0
LINE
  5
32E
100
AcDbEntity
  8
0
100
AcDbLine
 62
7
  6
CONTINUOUS
 10
273.5364920231
 20
635.9934801971
 11
273.5364920231
 21
651.4542938234
  0
LINE
  5
32F
100
AcDbEntity
  8
0
100
AcDbLine
 62
7
  6
CONTINUOUS
 10
277.4255955114
 20
646.7798809308
 11
277.4255955114
 21
643.195249344
  0
LINE
  5
330
100
AcDbEntity
  8
0
100
AcDbLine
 62
7
  6
CONTINUOUS
 10
279.1933551045
 20
647.8004913155
 11
279.1933551045
 21
644.2158597285
  0
LINE
  5
331
100
AcDbEntity
  8
0
100
AcDbLine
 62
7
  6
CONTINUOUS
 10
128.2267535705
 20
276.9781078186
 11
128.4388847217
 21
277.1005810648
  0
LINE
  5
332
100
AcDbEntity
  8
0
100
AcDbLine
 62
7
  6
CONTINUOUS
 10
245.8214381642
 20
342.5581054262
 11
247.2465034335
 21
343.3808623319
  0
LINE
  5
333
100
AcDbEntity
  8
0
100
AcDbLine
 62
7
  6
CONTINUOUS
 10
249.3700214075
 20
343.0286107047
 11
250.7972067248
 21
343.8525916133
  0
LINE
  5
334
100
AcDbEntity
  8
0
100
AcDbLine
 62
7
  6
CONTINUOUS
 10
239.2515424104
 20
370.117414113
 11
169.7526519635
 21
410.2417094881
  0
LINE
  5
335
100
AcDbEntity
  8
0
100
AcDbLine
 62
7
  6
CONTINUOUS
 10
178.9721525031
 20
406.2641486101
 11
225.8573925531
 21
379.1955550196
  0
LINE
  5
336
100
AcDbEntity
  8
0
100
AcDbLine
 62
7
  6
CONTINUOUS
 10
221.8396180137
 20
388.4939120593
 11
217.0312718827
 21
391.26994919
  0
LINE
  5
337
100
AcDbEntity
  8
0
100
AcDbLine
 62
7
  6
CONTINUOUS
 10
186.8376866189
 20
408.701829408
 11
182.0293404879
 21
411.4778665388
  0
LINE
  5
338
100
AcDbEntity
  8
0
100
AcDbLine
 62
7
  6
CONTINUOUS
 10
238.1060875636
 20
384.2506727159
 11
243.5942728753
 21
381.0821391306
  0
LINE
  5
339
100
AcDbEntity
  8
0
100
AcDbLine
 62
7
  6
CONTINUOUS
 10
182.0293404879
 20
419.6428906962
 11
186.8376866189
 21
416.8668535655
  0
LINE
  5
33A
100
AcDbEntity
  8
0
100
AcDbLine
 62
7
  6
CONTINUOUS
 10
217.0312718827
 20
399.4349733474
 11
221.8396180137
 21
396.6589362167
  0
LINE
  5
33B
100
AcDbEntity
  8
0
100
AcDbLine
 62
7
  6
CONTINUOUS
 10
182.3828924056
 20
419.8470127736
 11
187.1912385575
 21
417.0709756308
  0
LINE
  5
33C
100
AcDbEntity
  8
0
100
AcDbLine
 62
7
  6
CONTINUOUS
 10
217.3848238023
 20
399.6390954287
 11
222.1931699122
 21
396.8630583101
  0
LINE
  5
33D
100
AcDbEntity
  8
0
100
AcDbLine
 62
7
  6
CONTINUOUS
 10
221.8396180137
 20
399.9249458991
 11
217.0312718827
 21
402.7009830298
  0
LINE
  5
33E
100
AcDbEntity
  8
0
100
AcDbLine
 62
7
  6
CONTINUOUS
 10
186.8376866189
 20
420.1328632478
 11
182.0293404879
 21
422.9089003786
  0
LINE
  5
33F
100
AcDbEntity
  8
0
100
AcDbLine
 62
7
  6
CONTINUOUS
 10
281.6682538623
 20
640.7458048169
 11
281.6682538623
 21
644.3304364037
  0
LINE
  5
340
100
AcDbEntity
  8
0
100
AcDbLine
 62
7
  6
CONTINUOUS
 10
396.2200293361
 20
578.1954341714
 11
396.8413886263
 21
579.5687515128
  0
LINE
  5
341
100
AcDbEntity
  8
0
100
AcDbLine
 62
7
  6
CONTINUOUS
 10
235.2124532189
 20
313.4365222632
 11
235.0003220677
 21
313.314049017
  0
LINE
  5
342
100
AcDbEntity
  8
0
100
AcDbLine
 62
7
  6
CONTINUOUS
 10
128.2267535705
 20
244.3180111334
 11
128.4388847217
 21
244.4404843796
  0
LINE
  5
343
100
AcDbEntity
  8
0
100
AcDbLine
 62
7
  6
CONTINUOUS
 10
169.8976887393
 20
263.3235205054
 11
170.1098198905
 21
263.4459937516
  0
LINE
  5
344
100
AcDbEntity
  8
0
100
AcDbLine
 62
7
  6
CONTINUOUS
 10
164.1479258416
 20
256.4844418566
 11
163.9357946904
 21
256.3619686104
  0
LINE
  5
345
100
AcDbEntity
  8
0
100
AcDbLine
 62
7
  6
CONTINUOUS
 10
126.3565209606
 20
250.6124379419
 11
126.6740513986
 21
250.7431410579
  0
LINE
  5
346
100
AcDbEntity
  8
0
100
AcDbLine
 62
7
  6
CONTINUOUS
 10
221.8396179952
 20
388.49391207
 11
222.6395667928
 21
388.4147557057
  0
LINE
  5
347
100
AcDbEntity
  8
0
100
AcDbLine
 62
7
  6
CONTINUOUS
 10
217.0312718626
 20
399.434973359
 11
216.2313231358
 21
399.5141296282
  0
LINE
  5
348
100
AcDbEntity
  8
0
100
AcDbLine
 62
7
  6
CONTINUOUS
 10
216.5848750545
 20
399.7182517052
 11
217.3848238023
 21
399.6390954287
  0
LINE
  5
349
100
AcDbEntity
  8
0
100
AcDbLine
 62
7
  6
CONTINUOUS
 10
221.8396179952
 20
399.9249459098
 11
222.6395667928
 21
399.8457895455
  0
LINE
  5
34A
100
AcDbEntity
  8
0
100
AcDbLine
 62
7
  6
CONTINUOUS
 10
186.8376866204
 20
408.7018294072
 11
187.637635366
 21
408.6226731311
  0
LINE
  5
34B
100
AcDbEntity
  8
0
100
AcDbLine
 62
7
  6
CONTINUOUS
 10
182.0293404879
 20
431.073924536
 11
186.8376866189
 21
428.2978874053
  0
LINE
  5
34C
100
AcDbEntity
  8
0
100
AcDbLine
 62
7
  6
CONTINUOUS
 10
217.0312718827
 20
410.8660071872
 11
221.8396180137
 21
408.0899700565
  0
LINE
  5
34D
100
AcDbEntity
  8
0
100
AcDbLine
 62
7
  6
CONTINUOUS
 10
182.3828924056
 20
431.2780466135
 11
187.1912385575
 21
428.5020094706
  0
LINE
  5
34E
100
AcDbEntity
  8
0
100
AcDbLine
 62
7
  6
CONTINUOUS
 10
217.3848238024
 20
411.0701292684
 11
222.1931699122
 21
408.29409215
  0
LINE
  5
34F
100
AcDbEntity
  8
0
100
AcDbLine
 62
7
  6
CONTINUOUS
 10
221.8396180137
 20
411.3559797438
 11
217.0312718827
 21
414.1320168745
  0
LINE
  5
350
100
AcDbEntity
  8
0
100
AcDbLine
 62
7
  6
CONTINUOUS
 10
186.8376866189
 20
431.5638970926
 11
182.0293404879
 21
434.3399342233
  0
LINE
  5
351
100
AcDbEntity
  8
0
100
AcDbLine
 62
7
  6
CONTINUOUS
 10
182.0293404879
 20
442.5049583807
 11
186.8376866189
 21
439.72892125
  0
LINE
  5
352
100
AcDbEntity
  8
0
100
AcDbLine
 62
7
  6
CONTINUOUS
 10
217.0312718827
 20
422.297041032
 11
221.8396180137
 21
419.5210039012
  0
LINE
  5
353
100
AcDbEntity
  8
0
100
AcDbLine
 62
7
  6
CONTINUOUS
 10
182.3828924057
 20
442.7090804532
 11
187.1912385575
 21
439.9330433105
  0
LINE
  5
354
100
AcDbEntity
  8
0
100
AcDbLine
 62
7
  6
CONTINUOUS
 10
217.3848238024
 20
422.5011631082
 11
222.1931699122
 21
419.7251259898
  0
LINE
  5
355
100
AcDbEntity
  8
0
100
AcDbLine
 62
7
  6
CONTINUOUS
 10
221.8396180137
 20
422.7870135836
 11
217.0312718827
 21
425.5630507144
  0
LINE
  5
356
100
AcDbEntity
  8
0
100
AcDbLine
 62
7
  6
CONTINUOUS
 10
210.1723075488
 20
429.5229860332
 11
205.3639614178
 21
432.2990231639
  0
LINE
  5
357
100
AcDbEntity
  8
0
100
AcDbLine
 62
7
  6
CONTINUOUS
 10
198.5049970838
 20
436.2589584828
 11
193.6966509528
 21
439.0349956135
  0
LINE
  5
358
100
AcDbEntity
  8
0
100
AcDbLine
 62
7
  6
CONTINUOUS
 10
186.8376866189
 20
442.9949309324
 11
182.0293404879
 21
445.7709680631
  0
LINE
  5
359
100
AcDbEntity
  8
0
100
AcDbLine
 62
7
  6
CONTINUOUS
 10
170.1098198891
 20
248.748950244
 11
169.897688738
 21
248.6264769979
  0
LINE
  5
35A
100
AcDbEntity
  8
0
100
AcDbLine
 62
7
  6
CONTINUOUS
 10
235.2124532189
 20
280.776425578
 11
235.0003220677
 21
280.6539523318
  0
LINE
  5
35B
100
AcDbEntity
  8
0
100
AcDbLine
 62
7
  6
CONTINUOUS
 10
175.2495502928
 20
239.3568323293
 11
175.461681444
 21
239.4793055755
  0
LINE
  5
35C
100
AcDbEntity
  8
0
100
AcDbLine
 62
7
  6
CONTINUOUS
 10
128.2267535705
 20
211.6579144482
 11
128.4388847217
 21
211.7803876944
  0
LINE
  5
35D
100
AcDbEntity
  8
0
100
AcDbLine
 62
7
  6
CONTINUOUS
 10
165.8060273004
 20
256.1776675086
 11
165.4884968624
 21
256.0469643926
  0
LINE
  5
35E
100
AcDbEntity
  8
0
100
AcDbLine
 62
7
  6
CONTINUOUS
 10
217.0312718627
 20
410.8660071988
 11
216.2313231359
 21
410.945163468
  0
LINE
  5
35F
100
AcDbEntity
  8
0
100
AcDbLine
 62
7
  6
CONTINUOUS
 10
216.5848750545
 20
411.149285545
 11
217.3848238024
 21
411.0701292684
  0
LINE
  5
360
100
AcDbEntity
  8
0
100
AcDbLine
 62
7
  6
CONTINUOUS
 10
221.8396180163
 20
411.3559797423
 11
222.6395667928
 21
411.2768233853
  0
LINE
  5
361
100
AcDbEntity
  8
0
100
AcDbLine
 62
7
  6
CONTINUOUS
 10
182.029340487
 20
419.6428906967
 11
181.2293917093
 21
419.7220470534
  0
LINE
  5
362
100
AcDbEntity
  8
0
100
AcDbLine
 62
7
  6
CONTINUOUS
 10
181.5829436279
 20
419.9261691303
 11
182.3828924056
 21
419.8470127736
  0
LINE
  5
363
100
AcDbEntity
  8
0
100
AcDbLine
 62
7
  6
CONTINUOUS
 10
186.8376866204
 20
420.132863247
 11
187.637635366
 21
420.0537069709
  0
LINE
  5
364
100
AcDbEntity
  8
0
100
AcDbLine
 62
7
  6
CONTINUOUS
 10
217.0312718838
 20
422.2970410313
 11
216.2313231359
 21
422.3761973078
  0
LINE
  5
365
100
AcDbEntity
  8
0
100
AcDbLine
 62
7
  6
CONTINUOUS
 10
216.5848750545
 20
422.5803193848
 11
217.3848238024
 21
422.5011631082
  0
LINE
  5
366
100
AcDbEntity
  8
0
100
AcDbLine
 62
7
  6
CONTINUOUS
 10
221.8396180164
 20
422.787013582
 11
222.6395667928
 21
422.7078572251
  0
LINE
  5
367
100
AcDbEntity
  8
0
100
AcDbLine
 62
7
  6
CONTINUOUS
 10
182.029340487
 20
431.0739245365
 11
181.2293917093
 21
431.1530808932
  0
LINE
  5
368
100
AcDbEntity
  8
0
100
AcDbLine
 62
7
  6
CONTINUOUS
 10
181.5829436279
 20
431.3572029701
 11
182.3828924056
 21
431.2780466135
  0
LINE
  5
369
100
AcDbEntity
  8
0
100
AcDbLine
 62
7
  6
CONTINUOUS
 10
186.8376866416
 20
431.5638970795
 11
187.637635366
 21
431.4847408107
  0
LINE
  5
36A
100
AcDbEntity
  8
0
100
AcDbLine
 62
7
  6
CONTINUOUS
 10
182.0293404879
 20
453.9359922205
 11
186.8376866189
 21
451.1599550898
  0
LINE
  5
36B
100
AcDbEntity
  8
0
100
AcDbLine
 62
7
  6
CONTINUOUS
 10
193.6966509528
 20
447.2000197709
 11
198.5049970838
 21
444.4239826402
  0
LINE
  5
36C
100
AcDbEntity
  8
0
100
AcDbLine
 62
7
  6
CONTINUOUS
 10
205.3639614178
 20
440.4640473214
 11
210.1723075488
 21
437.6880101906
  0
LINE
  5
36D
100
AcDbEntity
  8
0
100
AcDbLine
 62
7
  6
CONTINUOUS
 10
217.0312718827
 20
433.7280748718
 11
221.8396180137
 21
430.952037741
  0
LINE
  5
36E
100
AcDbEntity
  8
0
100
AcDbLine
 62
7
  6
CONTINUOUS
 10
182.3828924056
 20
454.1401142931
 11
187.191238558
 21
451.36407715
  0
LINE
  5
36F
100
AcDbEntity
  8
0
100
AcDbLine
 62
7
  6
CONTINUOUS
 10
194.0502028714
 20
447.4041418446
 11
198.858549008
 21
444.6281047106
  0
LINE
  5
370
100
AcDbEntity
  8
0
100
AcDbLine
 62
7
  6
CONTINUOUS
 10
205.7175133358
 20
440.668169397
 11
210.5258594596
 21
437.8921322704
  0
LINE
  5
371
100
AcDbEntity
  8
0
100
AcDbLine
 62
7
  6
CONTINUOUS
 10
217.3848238024
 20
433.9321969481
 11
222.1931699121
 21
431.1561598296
  0
LINE
  5
372
100
AcDbEntity
  8
0
100
AcDbLine
 62
7
  6
CONTINUOUS
 10
165.5949348975
 20
463.9345372377
 11
173.8118908807
 21
459.1905898397
  0
LINE
  5
373
100
AcDbEntity
  8
0
100
AcDbLine
 62
7
  6
CONTINUOUS
 10
222.3167821644
 20
437.1677368887
 11
182.2889083044
 21
460.2773178283
  0
LINE
  5
374
100
AcDbEntity
  8
0
100
AcDbLine
 62
7
  6
CONTINUOUS
 10
222.5289133173
 20
437.2902101339
 11
182.5010394549
 21
460.3997910748
  0
LINE
  5
375
100
AcDbEntity
  8
0
100
AcDbLine
 62
7
  6
CONTINUOUS
 10
327.6310542773
 20
103.2802038838
 11
327.6310542773
 21
195.6650316493
  0
LINE
  5
376
100
AcDbEntity
  8
0
100
AcDbLine
 62
7
  6
CONTINUOUS
 10
328.0000332005
 20
193.8367977118
 11
328.0000332005
 21
153.8339413092
  0
LINE
  5
377
100
AcDbEntity
  8
0
100
AcDbLine
 62
7
  6
CONTINUOUS
 10
337.1769560797
 20
493.4742344759
 11
337.1769560797
 21
159.1322085772
  0
LINE
  5
378
100
AcDbEntity
  8
0
100
AcDbLine
 62
7
  6
CONTINUOUS
 10
338.944686233
 20
494.4948278767
 11
338.944686233
 21
168.4900851758
  0
LINE
  5
379
100
AcDbEntity
  8
0
100
AcDbLine
 62
7
  6
CONTINUOUS
 10
339.2982381516
 20
494.6989499563
 11
339.2982381516
 21
169.332618047
  0
LINE
  5
37A
100
AcDbEntity
  8
0
100
AcDbLine
 62
7
  6
CONTINUOUS
 10
188.1896564966
 20
232.1309719926
 11
187.9775253454
 21
232.0084987464
  0
LINE
  5
37B
100
AcDbEntity
  8
0
100
AcDbLine
 62
7
  6
CONTINUOUS
 10
199.2912809478
 20
235.9499119893
 11
199.503412099
 21
236.0723852355
  0
LINE
  5
37C
100
AcDbEntity
  8
0
100
AcDbLine
 62
7
  6
CONTINUOUS
 10
235.2124532189
 20
248.1163288928
 11
235.0003220677
 21
247.9938556466
  0
LINE
  5
37D
100
AcDbEntity
  8
0
100
AcDbLine
 62
7
  6
CONTINUOUS
 10
128.2267535705
 20
178.997817763
 11
128.4388847217
 21
179.1202910092
  0
LINE
  5
37E
100
AcDbEntity
  8
0
100
AcDbLine
 62
7
  6
CONTINUOUS
 10
126.3565209606
 20
217.9523412567
 11
126.6740513986
 21
218.0830443727
  0
LINE
  5
37F
100
AcDbEntity
  8
0
100
AcDbLine
 62
7
  6
CONTINUOUS
 10
210.1723075585
 20
429.5229860276
 11
210.9722562987
 21
429.4438297325
  0
LINE
  5
380
100
AcDbEntity
  8
0
100
AcDbLine
 62
7
  6
CONTINUOUS
 10
217.0312718838
 20
433.7280748711
 11
216.2313231359
 21
433.8072311476
  0
LINE
  5
381
100
AcDbEntity
  8
0
100
AcDbLine
 62
7
  6
CONTINUOUS
 10
216.5848750545
 20
434.0113532246
 11
217.3848238024
 21
433.9321969481
  0
LINE
  5
382
100
AcDbEntity
  8
0
100
AcDbLine
 62
7
  6
CONTINUOUS
 10
198.5049970988
 20
436.2589584742
 11
199.3049458382
 21
436.179802182
  0
LINE
  5
383
100
AcDbEntity
  8
0
100
AcDbLine
 62
7
  6
CONTINUOUS
 10
182.0293405082
 20
442.504958369
 11
181.2293917093
 21
442.584114733
  0
LINE
  5
384
100
AcDbEntity
  8
0
100
AcDbLine
 62
7
  6
CONTINUOUS
 10
181.5829436279
 20
442.7882368099
 11
182.3828924057
 21
442.7090804532
  0
LINE
  5
385
100
AcDbEntity
  8
0
100
AcDbLine
 62
7
  6
CONTINUOUS
 10
205.3639614243
 20
440.4640473176
 11
204.5640126636
 21
440.5432036168
  0
LINE
  5
386
100
AcDbEntity
  8
0
100
AcDbLine
 62
7
  6
CONTINUOUS
 10
204.9175645822
 20
440.7473256938
 11
205.7175133358
 21
440.668169397
  0
LINE
  5
387
100
AcDbEntity
  8
0
100
AcDbLine
 62
7
  6
CONTINUOUS
 10
186.8376866415
 20
442.9949309193
 11
187.637635366
 21
442.9157746505
  0
LINE
  5
388
100
AcDbEntity
  8
0
100
AcDbLine
 62
7
  6
CONTINUOUS
 10
193.6966509669
 20
447.2000197628
 11
192.8967022031
 21
447.2791760657
  0
LINE
  5
389
100
AcDbEntity
  8
0
100
AcDbLine
 62
7
  6
CONTINUOUS
 10
193.2502541217
 20
447.4832981427
 11
194.0502028714
 21
447.4041418446
  0
LINE
  5
38A
100
AcDbEntity
  8
0
100
AcDbLine
 62
7
  6
CONTINUOUS
 10
182.0293405081
 20
453.9359922089
 11
181.2293917093
 21
454.0151485728
  0
LINE
  5
38B
100
AcDbEntity
  8
0
100
AcDbLine
 62
7
  6
CONTINUOUS
 10
181.5829436279
 20
454.2192706498
 11
182.3828924056
 21
454.1401142931
  0
LINE
  5
38C
100
AcDbEntity
  8
0
100
AcDbLine
 62
7
  6
CONTINUOUS
 10
223.1293542155
 20
437.0872812239
 11
222.3167821644
 21
437.1677368887
  0
LINE
  5
38D
100
AcDbEntity
  8
0
100
AcDbLine
 62
7
  6
CONTINUOUS
 10
250.9999972603
 20
443.7202404834
 11
247.7027079978
 21
445.6238882604
  0
LINE
  5
38E
100
AcDbEntity
  8
0
100
AcDbLine
 62
7
  6
CONTINUOUS
 10
105.0235549684
 20
527.9978721212
 11
101.7824112802
 21
529.8691049691
  0
LINE
  5
38F
100
AcDbEntity
  8
0
100
AcDbLine
 62
7
  6
CONTINUOUS
 10
173.8118908807
 20
495.9607159846
 11
165.5949348975
 21
500.704665896
  0
LINE
  5
390
100
AcDbEntity
  8
0
100
AcDbLine
 62
7
  6
CONTINUOUS
 10
182.2143844882
 20
493.5519915774
 11
222.3233161639
 21
470.3956129448
  0
LINE
  5
391
100
AcDbEntity
  8
0
100
AcDbLine
 62
7
  6
CONTINUOUS
 10
334.4359273628
 20
552.5360440669
 11
335.8477107057
 21
536.9830259366
  0
LINE
  5
392
100
AcDbEntity
  8
0
100
AcDbLine
 62
7
  6
CONTINUOUS
 10
350.3059905131
 20
516.8813760346
 11
351.6711139867
 21
501.8423898825
  0
LINE
  5
393
100
AcDbEntity
  8
0
100
AcDbLine
 62
7
  6
CONTINUOUS
 10
235.2124532189
 20
215.4562460273
 11
235.0003220677
 21
215.3337727811
  0
LINE
  5
394
100
AcDbEntity
  8
0
100
AcDbLine
 62
7
  6
CONTINUOUS
 10
126.3565209606
 20
185.2922445715
 11
126.6740513986
 21
185.4229476875
  0
LINE
  5
395
100
AcDbEntity
  8
0
100
AcDbLine
 62
7
  6
CONTINUOUS
 10
225.7759742354
 20
481.0556926065
 11
179.2409419672
 21
507.922098214
  0
LINE
  5
396
100
AcDbEntity
  8
0
100
AcDbLine
 62
7
  6
CONTINUOUS
 10
239.4070172298
 20
475.332778803
 11
115.5898878584
 21
546.8170145863
  0
LINE
  5
397
100
AcDbEntity
  8
0
100
AcDbLine
 62
7
  6
CONTINUOUS
 10
114.5986186598
 20
550.9330263839
 11
117.2318816934
 21
549.412745656
  0
LINE
  5
398
100
AcDbEntity
  8
0
100
AcDbLine
 62
7
  6
CONTINUOUS
 10
238.0119069668
 20
479.6819430732
 11
240.5336533822
 21
478.2260450382
  0
LINE
  5
399
100
AcDbEntity
  8
0
100
AcDbLine
 62
7
  6
CONTINUOUS
 10
119.6529818837
 20
141.8713141844
 11
119.7073007474
 21
141.9026750078
  0
LINE
  5
39A
100
AcDbEntity
  8
0
100
AcDbLine
 62
7
  6
CONTINUOUS
 10
128.2267535705
 20
146.3377210779
 11
128.4388847217
 21
146.460194324
  0
LINE
  5
39B
100
AcDbEntity
  8
0
100
AcDbLine
 62
7
  6
CONTINUOUS
 10
236.8705546776
 20
215.1494716793
 11
236.5530242396
 21
215.0187685633
  0
LINE
  5
39C
100
AcDbEntity
  8
0
100
AcDbLine
 62
7
  6
CONTINUOUS
 10
181.4335575188
 20
493.6293040478
 11
182.2143844882
 21
493.5519915774
  0
LINE
  5
39D
100
AcDbEntity
  8
0
100
AcDbLine
 62
7
  6
CONTINUOUS
 10
392.3309258478
 20
580.4407583213
 11
392.3309258478
 21
573.6587156562
  0
LINE
  5
39E
100
AcDbEntity
  8
0
100
AcDbLine
 62
7
  6
CONTINUOUS
 10
396.2200293361
 20
578.1954341714
 11
396.2200293361
 21
574.6108025838
  0
LINE
  5
39F
100
AcDbEntity
  8
0
100
AcDbLine
 62
7
  6
CONTINUOUS
 10
396.5735841987
 20
198.7259410374
 11
396.5735841987
 21
201.3857255951
  0
LINE
  5
3A0
100
AcDbEntity
  8
0
100
AcDbLine
 62
7
  6
CONTINUOUS
 10
397.9877889291
 20
579.2160445561
 11
397.9877889291
 21
575.6314129691
  0
LINE
  5
3A1
100
AcDbEntity
  8
0
100
AcDbLine
 62
7
  6
CONTINUOUS
 10
398.3413437917
 20
202.4063359798
 11
398.3413437917
 21
199.7465514221
  0
LINE
  5
3A2
100
AcDbEntity
  8
0
100
AcDbLine
 62
7
  6
CONTINUOUS
 10
400.1091328244
 20
200.3589981419
 11
400.1091328244
 21
196.6847372648
  0
LINE
  5
3A3
100
AcDbEntity
  8
0
100
AcDbLine
 62
7
  6
CONTINUOUS
 10
400.462687687
 20
572.1613580567
 11
400.462687687
 21
575.7459896443
  0
LINE
  5
3A4
100
AcDbEntity
  8
0
100
AcDbLine
 62
7
  6
CONTINUOUS
 10
404.3517911753
 20
575.7668884057
 11
404.3517911753
 21
559.792519596
  0
LINE
  5
3A5
100
AcDbEntity
  8
0
100
AcDbLine
 62
7
  6
CONTINUOUS
 10
404.3517911753
 20
206.8910802032
 11
404.3517911753
 21
194.2885254972
  0
LINE
  5
3A6
100
AcDbEntity
  8
0
100
AcDbLine
 62
7
  6
CONTINUOUS
 10
406.1195507683
 20
576.7874987902
 11
406.1195507683
 21
195.309135882
  0
LINE
  5
3A7
100
AcDbEntity
  8
0
100
AcDbLine
 62
7
  6
CONTINUOUS
 10
337.1769560797
 20
159.1322085772
 11
336.7612487993
 21
158.2134438163
  0
LINE
  5
3A8
100
AcDbEntity
  8
0
100
AcDbLine
 62
7
  6
CONTINUOUS
 10
235.2124532189
 20
182.7961355221
 11
235.0003220677
 21
182.6736622759
  0
LINE
  5
3A9
100
AcDbEntity
  8
0
100
AcDbLine
 62
7
  6
CONTINUOUS
 10
157.7839383153
 20
129.5182219065
 11
157.5718071641
 21
129.3957486604
  0
LINE
  5
3AA
100
AcDbEntity
  8
0
100
AcDbLine
 62
7
  6
CONTINUOUS
 10
235.2124532189
 20
150.1360388369
 11
235.0003220677
 21
150.0135655908
  0
LINE
  5
3AB
100
AcDbEntity
  8
0
100
AcDbLine
 62
7
  6
CONTINUOUS
 10
261.5168454978
 20
155.4529405158
 11
328.0000332005
 21
193.8367977118
  0
LINE
  5
3AC
100
AcDbEntity
  8
0
100
AcDbLine
 62
7
  6
CONTINUOUS
 10
159.442039774
 20
129.2114475586
 11
159.1245093361
 21
129.0807444425
  0
LINE
  5
3AD
100
AcDbEntity
  8
0
100
AcDbLine
 62
7
  6
CONTINUOUS
 10
396.1593385787
 20
197.8104067275
 11
396.5735841987
 21
198.7259410374
  0
LINE
  5
3AE
100
AcDbEntity
  8
0
100
AcDbLine
 62
7
  6
CONTINUOUS
 10
398.3413437917
 20
199.7465514221
 11
397.9270981717
 21
198.8310171122
  0
LINE
  5
3AF
100
AcDbEntity
  8
0
100
AcDbLine
 62
7
  6
CONTINUOUS
 10
404.3517911753
 20
206.8910802032
 11
403.7304227453
 21
205.5177787384
  0
LINE
  5
3B0
100
AcDbEntity
  8
0
100
AcDbLine
 62
7
  6
CONTINUOUS
 10
403.9240419594
 20
193.3431465618
 11
404.3517911753
 21
194.2885254973
  0
LINE
  5
3B1
100
AcDbEntity
  8
0
100
AcDbLine
 62
7
  6
CONTINUOUS
 10
406.1195507683
 20
195.309135882
 11
405.6918015524
 21
194.3637569465
  0
LINE
  5
3B2
100
AcDbEntity
  8
0
100
AcDbLine
 62
7
  6
CONTINUOUS
 10
205.6552684741
 20
101.6353584579
 11
205.8673996253
 21
101.7578317041
  0
LINE
  5
3B3
100
AcDbEntity
  8
0
100
AcDbLine
 62
7
  6
CONTINUOUS
 10
235.2124532189
 20
117.4759421517
 11
235.0003220677
 21
117.3534689056
  0
LINE
  5
3B4
100
AcDbEntity
  8
0
100
AcDbLine
 62
7
  6
CONTINUOUS
 10
404.3517911753
 20
206.8910802032
 11
339.2982381516
 21
169.332618047
  0
LINE
  5
3B5
100
AcDbEntity
  8
0
100
AcDbLine
 62
7
  6
CONTINUOUS
 10
338.944686233
 20
168.4900851758
 11
337.1769560797
 21
167.469491788
  0
LINE
  5
3B6
100
AcDbEntity
  8
0
100
AcDbLine
 62
7
  6
CONTINUOUS
 10
339.1075941008
 20
168.2079187876
 11
403.7304552845
 21
205.5177223784
  0
LINE
  5
3B7
100
AcDbEntity
  8
0
100
AcDbLine
 62
7
  6
CONTINUOUS
 10
337.1769560797
 20
166.7665297971
 11
338.5142092518
 21
167.5385886675
  0
LINE
  5
3B8
100
AcDbEntity
  8
0
100
AcDbLine
 62
7
  6
CONTINUOUS
 10
336.2290654294
 20
536.3861037726
 11
338.7893937268
 21
534.9079309816
  0
LINE
  5
3B9
100
AcDbEntity
  8
0
100
AcDbLine
 62
7
  6
CONTINUOUS
 10
398.3413437917
 20
199.7465514221
 11
396.5735841987
 21
198.7259410374
  0
LINE
  5
3BA
100
AcDbEntity
  8
0
100
AcDbLine
 62
7
  6
CONTINUOUS
 10
397.9271198645
 20
198.8309795389
 11
396.1593602715
 21
197.8103691542
  0
LINE
  5
3BB
100
AcDbEntity
  8
0
100
AcDbLine
 62
7
  6
CONTINUOUS
 10
337.1769560797
 20
159.1322085774
 11
328.0000332005
 21
153.8339413092
  0
LINE
  5
3BC
100
AcDbEntity
  8
0
100
AcDbLine
 62
7
  6
CONTINUOUS
 10
327.5843476895
 20
152.9151388422
 11
336.7612705687
 21
158.2134061104
  0
LINE
  5
3BD
100
AcDbEntity
  8
0
100
AcDbLine
 62
7
  6
CONTINUOUS
 10
406.1195507683
 20
195.3091358818
 11
404.3517911753
 21
194.2885254972
  0
LINE
  5
3BE
100
AcDbEntity
  8
0
100
AcDbLine
 62
7
  6
CONTINUOUS
 10
403.9240643593
 20
193.3431077636
 11
405.6918239524
 21
194.3637181483
  0
LINE
  5
3BF
100
AcDbEntity
  8
0
100
AcDbLine
 62
7
  6
CONTINUOUS
 10
235.2124532189
 20
84.8158592866
 11
235.0003220677
 21
84.6933860404
  0
LINE
  5
3C0
100
AcDbEntity
  8
0
100
AcDbLine
 62
7
  6
CONTINUOUS
 10
241.275854609
 20
71.6539044069
 11
241.3301734727
 21
71.6852652303
  0
LINE
  5
3C1
100
AcDbEntity
  8
0
100
AcDbLine
 62
7
  6
CONTINUOUS
 10
236.8705546776
 20
84.5090849386
 11
236.5530242396
 21
84.3783818226
  0
LWPOLYLINE
  5
3C2
100
AcDbEntity
  8
0
100
AcDbPolyline
 62
7
  6
CONTINUOUS
 90
5
 70
0
 10
247.6686916293
 20
54.8331560578
 10
259.0736203925
 20
60.4183263982
 10
271.6553605914
 20
67.6620705273
 10
290.0043548697
 20
78.2327668668
 10
325.5763176472
 20
98.735573608
  0
LINE
  5
3C3
100
AcDbEntity
  8
0
100
AcDbLine
 62
7
  6
CONTINUOUS
 10
286.9715768009
 20
642.901635579
 11
390.9167063975
 21
582.8902446646
  0
LINE
  5
3C4
100
AcDbEntity
  8
0
100
AcDbLine
 62
7
  6
CONTINUOUS
 10
276.3826138184
 20
653.0975499894
 11
401.3646238537
 21
580.9407852558
  0
LINE
  5
3C5
100
AcDbEntity
  8
0
100
AcDbLine
 62
7
  6
CONTINUOUS
 10
278.1503734096
 20
654.1181603752
 11
403.132383447
 21
581.9613956403
  0
LINE
  5
3C6
100
AcDbEntity
  8
0
100
AcDbLine
 62
7
  6
CONTINUOUS
 10
396.3515406165
 20
566.4451645772
 11
403.0115862549
 21
562.1970366201
  0
LINE
  5
3C7
100
AcDbEntity
  8
0
100
AcDbLine
 62
7
  6
CONTINUOUS
 10
285.9716029706
 20
643.0006465637
 11
286.9715768009
 21
642.901635579
  0
ARC
  5
3C8
100
AcDbEntity
  8
0
100
AcDbCircle
 62
7
  6
CONTINUOUS
 10
25324.0792286131
 20
-42889.5763261891
 40
50099.4065946844
100
AcDbArc
 50
119.9149743
 51
120.0447009623
  0
ARC
  5
3C9
100
AcDbEntity
  8
0
100
AcDbCircle
 62
7
  6
CONTINUOUS
 10
15590.2329944413
 20
-25959.4642316741
 40
30587.9960572854
100
AcDbArc
 50
119.9174086175
 51
120.1267575643
  0
ARC
  5
3CA
100
AcDbEntity
  8
0
100
AcDbCircle
 62
7
  6
CONTINUOUS
 10
14235.855574084
 20
-23659.0357262381
 40
27925.23759061
100
AcDbArc
 50
119.8633492443
 51
120.0918344742
  0
ARC
  5
3CB
100
AcDbEntity
  8
0
100
AcDbCircle
 62
7
  6
CONTINUOUS
 10
14122.8229944444
 20
-23573.3228993934
 40
27906.4831817026
100
AcDbArc
 50
119.8830461092
 51
120.1116445625
  0
ARC
  5
3CC
100
AcDbEntity
  8
0
100
AcDbCircle
 62
7
  6
CONTINUOUS
 10
-218.4822269053
 20
1191.4524345869
 40
961.2464452349
100
AcDbArc
 50
299.8811497169
 51
300.0294446296
  0
ARC
  5
3CD
100
AcDbEntity
  8
0
100
AcDbCircle
 62
7
  6
CONTINUOUS
 10
170.6055174914
 20
509.5242742877
 40
187.0649452806
100
AcDbArc
 50
295.1147657136
 51
296.0337890142
  0
ARC
  5
3CE
100
AcDbEntity
  8
0
100
AcDbCircle
 62
7
  6
CONTINUOUS
 10
194.3690532667
 20
305.1639768348
 40
139.912684249
100
AcDbArc
 50
124.3286878055
 51
125.4479859772
  0
ARC
  5
3CF
100
AcDbEntity
  8
0
100
AcDbCircle
 62
7
  6
CONTINUOUS
 10
198.4813527455
 20
409.6993656694
 40
14.2011873247
100
AcDbArc
 50
0.0123256242
 51
2.0636792478
  0
ARC
  5
3D0
100
AcDbEntity
  8
0
100
AcDbCircle
 62
7
  6
CONTINUOUS
 10
274.4965014781
 20
635.3509926315
 40
8.9753865108
100
AcDbArc
 50
35.7423185913
 51
36.9608411553
  0
ARC
  5
3D1
100
AcDbEntity
  8
0
100
AcDbCircle
 62
7
  6
CONTINUOUS
 10
200.2786904058
 20
412.9609248055
 40
6.7469768539
100
AcDbArc
 50
0.0629132947
 51
4.6895800332
  0
ARC
  5
3D2
100
AcDbEntity
  8
0
100
AcDbCircle
 62
7
  6
CONTINUOUS
 10
121.4513102189
 20
423.2353760138
 40
6.365377224
100
AcDbArc
 50
200.3870151158
 51
202.8597142852
  0
ARC
  5
3D3
100
AcDbEntity
  8
0
100
AcDbCircle
 62
7
  6
CONTINUOUS
 10
121.4363733583
 20
423.229836538
 40
6.3494462643
100
AcDbArc
 50
194.7033010827
 51
200.3871134927
  0
ARC
  5
3D4
100
AcDbEntity
  8
0
100
AcDbCircle
 62
7
  6
CONTINUOUS
 10
250.8308986321
 20
348.5193793332
 40
6.3424666402
100
AcDbArc
 50
191.8185354952
 51
200.3874248067
  0
ARC
  5
3D5
100
AcDbEntity
  8
0
100
AcDbCircle
 62
7
  6
CONTINUOUS
 10
121.3994487535
 20
423.2196522405
 40
6.3111459289
100
AcDbArc
 50
191.8058261732
 51
194.6989540749
  0
ARC
  5
3D6
100
AcDbEntity
  8
0
100
AcDbCircle
 62
7
  6
CONTINUOUS
 10
200.8919374843
 20
412.9681167832
 40
6.1337257118
100
AcDbArc
 50
358.9877278866
 51
0.0020223419
  0
ARC
  5
3D7
100
AcDbEntity
  8
0
100
AcDbCircle
 62
7
  6
CONTINUOUS
 10
238.1783247247
 20
471.1074432917
 40
5.4159481651
100
AcDbArc
 50
0.004190458
 51
1.1877545675
  0
ARC
  5
3D8
100
AcDbEntity
  8
0
100
AcDbCircle
 62
7
  6
CONTINUOUS
 10
203.202374625
 20
417.6939987927
 40
5.0686101476
100
AcDbArc
 50
180.0030459132
 51
180.9551122197
  0
ARC
  5
3D9
100
AcDbEntity
  8
0
100
AcDbCircle
 62
7
  6
CONTINUOUS
 10
118.8611657865
 20
421.7832654996
 40
3.0870546266
100
AcDbArc
 50
197.600646247
 51
200.3839852013
  0
ARC
  5
3DA
100
AcDbEntity
  8
0
100
AcDbCircle
 62
7
  6
CONTINUOUS
 10
240.986362475
 20
69.4053572824
 40
2.3395892229
100
AcDbArc
 50
78.770712163
 51
83.3366173572
  0
ARC
  5
3DB
100
AcDbEntity
  8
0
100
AcDbCircle
 62
7
  6
CONTINUOUS
 10
119.3634897497
 20
139.6227670599
 40
2.3395892228
100
AcDbArc
 50
78.770712163
 51
83.3366173572
  0
ARC
  5
3DC
100
AcDbEntity
  8
0
100
AcDbCircle
 62
7
  6
CONTINUOUS
 10
200.6206647518
 20
418.6755082147
 40
1.9975316924
100
AcDbArc
 50
135.9679316923
 51
141.3169884205
  0
ARC
  5
3DD
100
AcDbEntity
  8
0
100
AcDbCircle
 62
7
  6
CONTINUOUS
 10
200.5428517007
 20
418.7501711364
 40
1.8896926981
100
AcDbArc
 50
129.8795831776
 51
135.9556267617
  0
ARC
  5
3DE
100
AcDbEntity
  8
0
100
AcDbCircle
 62
7
  6
CONTINUOUS
 10
200.1551256681
 20
418.5748791861
 40
1.8467516522
100
AcDbArc
 50
106.4638819888
 51
117.6657125506
  0
ARC
  5
3DF
100
AcDbEntity
  8
0
100
AcDbCircle
 62
7
  6
CONTINUOUS
 10
200.139709187
 20
418.6079990646
 40
1.810261077
100
AcDbArc
 50
117.7202787854
 51
119.9988609284
  0
ARC
  5
3E0
100
AcDbEntity
  8
0
100
AcDbCircle
 62
7
  6
CONTINUOUS
 10
203.7210458444
 20
412.4050773296
 40
1.8016624903
100
AcDbArc
 50
298.0028668434
 51
299.9989798782
  0
ARC
  5
3E1
100
AcDbEntity
  8
0
100
AcDbCircle
 62
7
  6
CONTINUOUS
 10
204.0107329834
 20
412.718845846
 40
1.7517740751
100
AcDbArc
 50
300.013957286
 51
307.5099773398
  0
ARC
  5
3E2
100
AcDbEntity
  8
0
100
AcDbCircle
 62
7
  6
CONTINUOUS
 10
123.0003582692
 20
136.0745628863
 40
1.3401647627
100
AcDbArc
 50
295.5918199019
 51
299.9761396265
  0
ARC
  5
3E3
100
AcDbEntity
  8
0
100
AcDbCircle
 62
7
  6
CONTINUOUS
 10
244.6232309945
 20
65.8571531088
 40
1.3401647627
100
AcDbArc
 50
295.5918199018
 51
299.9761396265
  0
ARC
  5
3E4
100
AcDbEntity
  8
0
100
AcDbCircle
 62
7
  6
CONTINUOUS
 10
337.9451624185
 20
169.0189223351
 40
1.3040611751
100
AcDbArc
 50
328.5994486712
 51
331.1373075327
  0
SPLINE
  5
3E5
100
AcDbEntity
  8
0
100
AcDbSpline
 62
7
  6
CONTINUOUS
 70
0
 71
3
 72
11
 73
7
 74
0
 42
0.0000001
 43
0.0000001
 44
0.0000000001
 40
0.0
 40
0.0
 40
0.0
 40
0.0
 40
0.2226353058
 40
0.4587725508
 40
0.7166867192
 40
1.0
 40
1.0
 40
1.0
 40
1.0
 10
106.6857494695
 20
551.5907637243
 30
0.0
 10
106.1879819579
 20
551.3003788451
 30
0.0
 10
105.250590289
 20
550.5387241831
 30
0.0
 10
104.1819608337
 20
548.9975433418
 30
0.0
 10
103.4585030635
 20
547.1031134077
 30
0.0
 10
103.2206885319
 20
545.7138808886
 30
0.0
 10
103.1543943196
 20
544.9835447973
 30
0.0
  0
SPLINE
  5
3E6
100
AcDbEntity
  8
0
100
AcDbSpline
 62
7
  6
CONTINUOUS
 70
0
 71
3
 72
9
 73
5
 74
0
 42
0.0000001
 43
0.0000001
 44
0.0000000001
 40
0.0
 40
0.0
 40
0.0
 40
0.0
 40
0.4564235321
 40
1.0
 40
1.0
 40
1.0
 40
1.0
 10
106.0634380091
 20
527.9090815428
 30
0.0
 10
105.9209032261
 20
527.827051997
 30
0.0
 10
105.540088186
 20
527.7619274973
 30
0.0
 10
105.1924910034
 20
527.8987116379
 30
0.0
 10
105.0235831182
 20
527.9978558692
 30
0.0
  0
SPLINE
  5
3E7
100
AcDbEntity
  8
0
100
AcDbSpline
 62
7
  6
CONTINUOUS
 70
0
 71
3
 72
11
 73
7
 74
0
 42
0.0000001
 43
0.0000001
 44
0.0000000001
 40
0.0
 40
0.0
 40
0.0
 40
0.0
 40
0.2230163644
 40
0.4578876426
 40
0.7152179284
 40
1.0
 40
1.0
 40
1.0
 40
1.0
 10
110.2161905639
 20
547.2709874558
 30
0.0
 10
110.5787437317
 20
547.4808929875
 30
0.0
 10
111.4010694871
 20
547.7884046224
 30
0.0
 10
112.7616389901
 20
547.848413598
 30
0.0
 10
114.1981444063
 20
547.5202816162
 30
0.0
 10
115.1266047165
 20
547.0844943246
 30
0.0
 10
115.5898957668
 20
546.8170191627
 30
0.0
  0
SPLINE
  5
3E8
100
AcDbEntity
  8
0
100
AcDbSpline
 62
7
  6
CONTINUOUS
 70
0
 71
3
 72
9
 73
5
 74
0
 42
0.0000001
 43
0.0000001
 44
0.0000000001
 40
0.0
 40
0.0
 40
0.0
 40
0.0
 40
0.457800564
 40
1.0
 40
1.0
 40
1.0
 40
1.0
 10
120.1567837912
 20
567.2783906184
 30
0.0
 10
119.8286757108
 20
567.0881194173
 30
0.0
 10
119.2542960635
 20
566.4234212123
 30
0.0
 10
119.0564489983
 20
565.5957044913
 30
0.0
 10
119.0158405189
 20
565.1483333445
 30
0.0
  0
SPLINE
  5
3E9
100
AcDbEntity
  8
0
100
AcDbSpline
 62
7
  6
CONTINUOUS
 70
0
 71
3
 72
11
 73
7
 74
0
 42
0.0000001
 43
0.0000001
 44
0.0000000001
 40
0.0
 40
0.0
 40
0.0
 40
0.0
 40
0.2152095567
 40
0.4482437153
 40
0.7083539003
 40
1.0
 40
1.0
 40
1.0
 40
1.0
 10
216.6927021632
 20
623.0098844696
 30
0.0
 10
216.838545559
 20
623.0937044788
 30
0.0
 10
217.175897764
 20
623.2135134858
 30
0.0
 10
217.735626284
 20
623.2330199801
 30
0.0
 10
218.3406472843
 20
623.106567267
 30
0.0
 10
218.7400313148
 20
622.936952204
 30
0.0
 10
218.9423313568
 20
622.8318795635
 30
0.0
  0
SPLINE
  5
3EA
100
AcDbEntity
  8
0
100
AcDbSpline
 62
7
  6
CONTINUOUS
 70
0
 71
3
 72
9
 73
5
 74
0
 42
0.0000001
 43
0.0000001
 44
0.0000000001
 40
0.0
 40
0.0
 40
0.0
 40
0.0
 40
0.2876481028
 40
1.0
 40
1.0
 40
1.0
 40
1.0
 10
117.6050311973
 20
549.6067339962
 30
0.0
 10
117.6028666876
 20
549.5828881997
 30
0.0
 10
117.5893285983
 20
549.5013741417
 30
0.0
 10
117.5405573204
 20
549.4207188125
 30
0.0
 10
117.4892759084
 20
549.390948793
 30
0.0
  0
SPLINE
  5
3EB
100
AcDbEntity
  8
0
100
AcDbSpline
 62
7
  6
CONTINUOUS
 70
0
 71
3
 72
13
 73
9
 74
0
 42
0.0000001
 43
0.0000001
 44
0.0000000001
 40
0.0
 40
0.0
 40
0.0
 40
0.0
 40
0.1142455307
 40
0.2374811697
 40
0.4998310009
 40
0.7622722593
 40
0.8856156851
 40
1.0
 40
1.0
 40
1.0
 40
1.0
 10
338.7893899362
 20
534.9079287989
 30
0.0
 10
339.5170445049
 20
534.4878267416
 30
0.0
 10
340.9601090172
 20
533.4914056314
 30
0.0
 10
343.6994840019
 20
531.0291378724
 30
0.0
 10
346.6721463627
 20
527.2557211067
 30
0.0
 10
348.8468319349
 20
522.9716769499
 30
0.0
 10
349.9311850893
 20
519.4489964147
 30
0.0
 10
350.2299381696
 20
517.7191681814
 30
0.0
 10
350.3059867018
 20
516.8813735913
 30
0.0
  0
SPLINE
  5
3EC
100
AcDbEntity
  8
0
100
AcDbSpline
 62
7
  6
CONTINUOUS
 70
0
 71
3
 72
9
 73
5
 74
0
 42
0.0000001
 43
0.0000001
 44
0.0000000001
 40
0.0
 40
0.0
 40
0.0
 40
0.0
 40
0.5001746799
 40
1.0
 40
1.0
 40
1.0
 40
1.0
 10
335.8477107057
 20
536.9830259366
 30
0.0
 10
335.8586373984
 20
536.862650296
 30
0.0
 10
335.9551748679
 20
536.6313676043
 30
0.0
 10
336.1244610011
 20
536.446495818
 30
0.0
 10
336.2290654294
 20
536.3861037726
 30
0.0
  0
SPLINE
  5
3ED
100
AcDbEntity
  8
0
100
AcDbSpline
 62
7
  6
CONTINUOUS
 70
0
 71
3
 72
11
 73
7
 74
0
 42
0.0000001
 43
0.0000001
 44
0.0000000001
 40
0.0
 40
0.0
 40
0.0
 40
0.0
 40
0.2407927829
 40
0.5031600495
 40
0.7638175989
 40
1.0
 40
1.0
 40
1.0
 40
1.0
 10
330.9552693818
 20
558.1615079926
 30
0.0
 10
331.4160208042
 20
557.86893791
 30
0.0
 10
332.2859167887
 20
557.1110928325
 30
0.0
 10
333.3458106733
 20
555.7293500529
 30
0.0
 10
334.1056116856
 20
554.1741415721
 30
0.0
 10
334.3874743662
 20
553.0691569338
 30
0.0
 10
334.4358691909
 20
552.5360067693
 30
0.0
  0
SPLINE
  5
3EE
100
AcDbEntity
  8
0
100
AcDbSpline
 62
7
  6
CONTINUOUS
 70
0
 71
3
 72
9
 73
5
 74
0
 42
0.0000001
 43
0.0000001
 44
0.0000000001
 40
0.0
 40
0.0
 40
0.0
 40
0.0
 40
0.244797147
 40
1.0
 40
1.0
 40
1.0
 40
1.0
 10
218.9423931013
 20
622.8319148538
 30
0.0
 10
228.3101944474
 20
617.9663709591
 30
0.0
 10
266.3472686439
 20
597.6485098135
 30
0.0
 10
303.4639725724
 20
575.6181314509
 30
0.0
 10
330.9553301398
 20
558.1615431226
 30
0.0
  0
SPLINE
  5
3EF
100
AcDbEntity
  8
0
100
AcDbSpline
 62
7
  6
CONTINUOUS
 70
0
 71
3
 72
11
 73
7
 74
0
 42
0.0000001
 43
0.0000001
 44
0.0000000001
 40
0.0
 40
0.0
 40
0.0
 40
0.0
 40
0.2342719182
 40
0.4938127871
 40
0.7567134429
 40
1.0
 40
1.0
 40
1.0
 40
1.0
 10
239.407025111
 20
475.3327833636
 30
0.0
 10
240.4115906375
 20
474.7528103062
 30
0.0
 10
242.3099173944
 20
473.1456051351
 30
0.0
 10
244.5016531406
 20
470.0703813911
 30
0.0
 10
245.9841962745
 20
466.5488129122
 30
0.0
 10
246.392642709
 20
464.0385021826
 30
0.0
 10
246.3926430928
 20
462.8339016199
 30
0.0
  0
SPLINE
  5
3F0
100
AcDbEntity
  8
0
100
AcDbSpline
 62
7
  6
CONTINUOUS
 70
0
 71
3
 72
11
 73
7
 74
0
 42
0.0000001
 43
0.0000001
 44
0.0000000001
 40
0.0
 40
0.0
 40
0.0
 40
0.0
 40
0.2435706044
 40
0.5061872984
 40
0.7654074912
 40
1.0
 40
1.0
 40
1.0
 40
1.0
 10
246.3926404903
 20
447.9679463678
 30
0.0
 10
246.3926463335
 20
447.7418305545
 30
0.0
 10
246.4716130844
 20
447.2717091364
 30
0.0
 10
246.7461911561
 20
446.6103172352
 30
0.0
 10
247.1598398863
 20
446.0360433454
 30
0.0
 10
247.5140183107
 20
445.732856454
 30
0.0
 10
247.7026100952
 20
445.6239447947
 30
0.0
  0
SPLINE
  5
3F1
100
AcDbEntity
  8
0
100
AcDbSpline
 62
7
  6
CONTINUOUS
 70
0
 71
3
 72
9
 73
5
 74
0
 42
0.0000001
 43
0.0000001
 44
0.0000000001
 40
0.0
 40
0.0
 40
0.0
 40
0.0
 40
0.2260739705
 40
1.0
 40
1.0
 40
1.0
 40
1.0
 10
117.4892759084
 20
549.390948793
 30
0.0
 10
117.4719559249
 20
549.3808941509
 30
0.0
 10
117.3870986802
 20
549.3496549515
 30
0.0
 10
117.291248064
 20
549.3784624332
 30
0.0
 10
117.2318740788
 20
549.4127412482
 30
0.0
  0
SPLINE
  5
3F2
100
AcDbEntity
  8
0
100
AcDbSpline
 62
7
  6
CONTINUOUS
 70
0
 71
3
 72
9
 73
5
 74
0
 42
0.0000001
 43
0.0000001
 44
0.0000000001
 40
0.0
 40
0.0
 40
0.0
 40
0.0
 40
0.5425096951
 40
1.0
 40
1.0
 40
1.0
 40
1.0
 10
106.5325704525
 20
528.7823072637
 30
0.0
 10
106.5169882667
 20
528.5984270946
 30
0.0
 10
106.4364703366
 20
528.2576152961
 30
0.0
 10
106.198315766
 20
527.9867044282
 30
0.0
 10
106.0634380091
 20
527.9090815428
 30
0.0
  0
SPLINE
  5
3F3
100
AcDbEntity
  8
0
100
AcDbSpline
 62
7
  6
CONTINUOUS
 70
0
 71
3
 72
10
 73
6
 74
0
 42
0.0000001
 43
0.0000001
 44
0.0000000001
 40
0.0
 40
0.0
 40
0.0
 40
0.0
 40
0.5365357258
 40
0.7737423494
 40
1.0
 40
1.0
 40
1.0
 40
1.0
 10
122.5155378889
 20
567.1658011875
 30
0.0
 10
122.125906536
 20
567.3658102328
 30
0.0
 10
121.4993339387
 20
567.567680686
 30
0.0
 10
120.6767291689
 20
567.5085528413
 30
0.0
 10
120.3165544894
 20
567.3710422917
 30
0.0
 10
120.1567837912
 20
567.2783906184
 30
0.0
  0
SPLINE
  5
3F4
100
AcDbEntity
  8
0
100
AcDbSpline
 62
7
  6
CONTINUOUS
 70
0
 71
3
 72
9
 73
5
 74
0
 42
0.0000001
 43
0.0000001
 44
0.0000000001
 40
0.0
 40
0.0
 40
0.0
 40
0.0
 40
0.2499565786
 40
1.0
 40
1.0
 40
1.0
 40
1.0
 10
255.6449185988
 20
490.699633207
 30
0.0
 10
260.6113019839
 20
493.5718494317
 30
0.0
 10
280.4822893683
 20
505.0592465509
 30
0.0
 10
300.3612900288
 20
516.5327822765
 30
0.0
 10
315.2759112995
 20
525.1306090158
 30
0.0
  0
SPLINE
  5
3F5
100
AcDbEntity
  8
0
100
AcDbSpline
 62
7
  6
CONTINUOUS
 70
0
 71
3
 72
9
 73
5
 74
0
 42
0.0000001
 43
0.0000001
 44
0.0000000001
 40
0.0
 40
0.0
 40
0.0
 40
0.0
 40
0.2499551887
 40
1.0
 40
1.0
 40
1.0
 40
1.0
 10
255.9985788172
 20
490.0884773312
 30
0.0
 10
260.9649370191
 20
492.9604781905
 30
0.0
 10
280.83590386
 20
504.4471297185
 30
0.0
 10
300.7147615987
 20
515.9201306696
 30
0.0
 10
315.6292342184
 20
524.5176920483
 30
0.0
  0
SPLINE
  5
3F6
100
AcDbEntity
  8
0
100
AcDbSpline
 62
7
  6
CONTINUOUS
 70
0
 71
3
 72
9
 73
5
 74
0
 42
0.0000001
 43
0.0000001
 44
0.0000000001
 40
0.0
 40
0.0
 40
0.0
 40
0.0
 40
0.5061214347
 40
1.0
 40
1.0
 40
1.0
 40
1.0
 10
237.667684515
 20
480.2978301331
 30
0.0
 10
237.6676844755
 20
480.1756679838
 30
0.0
 10
237.7507385323
 20
479.9390832096
 30
0.0
 10
237.9086700165
 20
479.7415456243
 30
0.0
 10
238.0119069668
 20
479.6819430732
 30
0.0
  0
SPLINE
  5
3F7
100
AcDbEntity
  8
0
100
AcDbSpline
 62
7
  6
CONTINUOUS
 70
0
 71
3
 72
11
 73
7
 74
0
 42
0.0000001
 43
0.0000001
 44
0.0000000001
 40
0.0
 40
0.0
 40
0.0
 40
0.0
 40
0.2848299063
 40
0.5421368779
 40
0.7769640481
 40
1.0
 40
1.0
 40
1.0
 40
1.0
 10
114.5986302052
 20
550.9330330671
 30
0.0
 10
113.9161845508
 20
551.3270343423
 30
0.0
 10
112.5485182943
 20
551.9686513568
 30
0.0
 10
110.4323553814
 20
552.4501348869
 30
0.0
 10
108.4286133383
 20
552.3581598088
 30
0.0
 10
107.2187394949
 20
551.9016965204
 30
0.0
 10
106.6857494695
 20
551.5907637243
 30
0.0
  0
SPLINE
  5
3F8
100
AcDbEntity
  8
0
100
AcDbSpline
 62
7
  6
CONTINUOUS
 70
0
 71
3
 72
11
 73
7
 74
0
 42
0.0000001
 43
0.0000001
 44
0.0000000001
 40
0.0
 40
0.0
 40
0.0
 40
0.0
 40
0.2833736442
 40
0.5412751842
 40
0.7773676074
 40
1.0
 40
1.0
 40
1.0
 40
1.0
 10
107.8021283223
 20
542.7684106305
 30
0.0
 10
107.8473584508
 20
543.266692315
 30
0.0
 10
108.0097822636
 20
544.2143976092
 30
0.0
 10
108.5043654799
 20
545.5062903347
 30
0.0
 10
109.2351291248
 20
546.5562857052
 30
0.0
 10
109.8760076547
 20
547.0740335171
 30
0.0
 10
110.2161905639
 20
547.2709874558
 30
0.0
  0
SPLINE
  5
3F9
100
AcDbEntity
  8
0
100
AcDbSpline
 62
7
  6
CONTINUOUS
 70
0
 71
3
 72
11
 73
7
 74
0
 42
0.0000001
 43
0.0000001
 44
0.0000000001
 40
0.0
 40
0.0
 40
0.0
 40
0.0
 40
0.2432865572
 40
0.506187213
 40
0.7657280819
 40
1.0
 40
1.0
 40
1.0
 40
1.0
 10
251.0000024872
 20
459.4993581685
 30
0.0
 10
251.0000019012
 20
461.3041744357
 30
0.0
 10
250.3880390529
 20
465.065296401
 30
0.0
 10
248.1667898929
 20
470.3415549898
 30
0.0
 10
244.8829790895
 20
474.94906888
 30
0.0
 10
242.0387740309
 20
477.357095341
 30
0.0
 10
240.5336641548
 20
478.226051274
 30
0.0
  0
SPLINE
  5
3FA
100
AcDbEntity
  8
0
100
AcDbSpline
 62
7
  6
CONTINUOUS
 70
0
 71
3
 72
11
 73
7
 74
0
 42
0.0000001
 43
0.0000001
 44
0.0000000001
 40
0.0
 40
0.0
 40
0.0
 40
0.0
 40
0.2419934195
 40
0.503050872
 40
0.7624452154
 40
1.0
 40
1.0
 40
1.0
 40
1.0
 10
237.6677383213
 20
496.6171603119
 30
0.0
 10
237.6677385373
 20
497.1762784689
 30
0.0
 10
237.4795805519
 20
498.3392682709
 30
0.0
 10
236.817966209
 20
499.9858691054
 30
0.0
 10
235.8153413464
 20
501.4375386352
 30
0.0
 10
234.9543383791
 20
502.2225190428
 30
0.0
 10
234.492398143
 20
502.5189336606
 30
0.0
  0
SPLINE
  5
3FB
100
AcDbEntity
  8
0
100
AcDbSpline
 62
7
  6
CONTINUOUS
 70
0
 71
3
 72
9
 73
5
 74
0
 42
0.0000001
 43
0.0000001
 44
0.0000000001
 40
0.0
 40
0.0
 40
0.0
 40
0.0
 40
0.2547046245
 40
1.0
 40
1.0
 40
1.0
 40
1.0
 10
234.4923358779
 20
502.5188977642
 30
0.0
 10
225.2512471193
 20
508.4486552754
 30
0.0
 10
188.7062580178
 20
531.3151569415
 30
0.0
 10
151.0982253836
 20
552.4934119791
 30
0.0
 10
122.5154766457
 20
567.165765472
 30
0.0
  0
SPLINE
  5
3FC
100
AcDbEntity
  8
0
100
AcDbSpline
 62
7
  6
CONTINUOUS
 70
0
 71
3
 72
9
 73
5
 74
0
 42
0.0000001
 43
0.0000001
 44
0.0000000001
 40
0.0
 40
0.0
 40
0.0
 40
0.0
 40
0.2498329661
 40
1.0
 40
1.0
 40
1.0
 40
1.0
 10
350.3059904897
 20
516.8813760192
 30
0.0
 10
342.0330447375
 20
512.1078872333
 30
0.0
 10
308.9221142031
 20
492.9960070856
 30
0.0
 10
275.8231333609
 20
473.863424623
 30
0.0
 10
250.9999916176
 20
459.499352578
 30
0.0
  0
SPLINE
  5
3FD
100
AcDbEntity
  8
0
100
AcDbSpline
 62
7
  6
CONTINUOUS
 70
0
 71
3
 72
11
 73
7
 74
0
 42
0.0000001
 43
0.0000001
 44
0.0000000001
 40
0.0
 40
0.0
 40
0.0
 40
0.0
 40
0.2869145089
 40
0.5466335761
 40
0.7818138324
 40
1.0
 40
1.0
 40
1.0
 40
1.0
 10
243.3287858013
 20
55.4862452259
 30
0.0
 10
243.704285473
 20
55.2694552867
 30
0.0
 10
244.4518083531
 20
54.9078707589
 30
0.0
 10
245.5985336434
 20
54.5916560133
 30
0.0
 10
246.6859828131
 20
54.5466079613
 30
0.0
 10
247.3636708961
 20
54.7079561838
 30
0.0
 10
247.6686994445
 20
54.8331592663
 30
0.0
  0
SPLINE
  5
3FE
100
AcDbEntity
  8
0
100
AcDbSpline
 62
7
  6
CONTINUOUS
 70
0
 71
3
 72
11
 73
7
 74
0
 42
0.0000001
 43
0.0000001
 44
0.0000000001
 40
0.0
 40
0.0
 40
0.0
 40
0.0
 40
0.2372225775
 40
0.5000010918
 40
0.7627790122
 40
1.0
 40
1.0
 40
1.0
 40
1.0
 10
113.2247072363
 20
138.2287137075
 30
0.0
 10
113.2247072244
 20
137.1457587644
 30
0.0
 10
113.6305417081
 20
134.8616086161
 30
0.0
 10
115.0471094968
 20
131.6523698158
 30
0.0
 10
117.1181164414
 20
128.8209819833
 30
0.0
 10
118.8933340947
 20
127.3274614196
 30
0.0
 10
119.8311996121
 20
126.7859967741
 30
0.0
  0
SPLINE
  5
3FF
100
AcDbEntity
  8
0
100
AcDbSpline
 62
7
  6
CONTINUOUS
 70
0
 71
3
 72
9
 73
5
 74
0
 42
0.0000001
 43
0.0000001
 44
0.0000000001
 40
0.0
 40
0.0
 40
0.0
 40
0.0
 40
0.2689222255
 40
1.0
 40
1.0
 40
1.0
 40
1.0
 10
120.02791893
 20
418.8502394844
 30
0.0
 10
120.02791893
 20
418.7442475016
 30
0.0
 10
120.0127816985
 20
418.3506981555
 30
0.0
 10
119.9342035362
 20
417.9563090179
 30
0.0
 10
119.8271721714
 20
417.6887807501
 30
0.0
  0
SPLINE
  5
400
100
AcDbEntity
  8
0
100
AcDbSpline
 62
7
  6
CONTINUOUS
 70
0
 71
3
 72
9
 73
5
 74
0
 42
0.0000001
 43
0.0000001
 44
0.0000000001
 40
0.0
 40
0.0
 40
0.0
 40
0.0
 40
0.5197554554
 40
1.0
 40
1.0
 40
1.0
 40
1.0
 10
119.8271721714
 20
417.6887807501
 30
0.0
 10
119.7530637152
 20
417.5035443293
 30
0.0
 10
119.5629299937
 20
417.162206044
 30
0.0
 10
119.2653516893
 20
416.9045033521
 30
0.0
 10
119.1057044873
 20
416.8123315846
 30
0.0
  0
SPLINE
  5
401
100
AcDbEntity
  8
0
100
AcDbSpline
 62
7
  6
CONTINUOUS
 70
0
 71
3
 72
9
 73
5
 74
0
 42
0.0000001
 43
0.0000001
 44
0.0000000001
 40
0.0
 40
0.0
 40
0.0
 40
0.0
 40
0.2215698533
 40
1.0
 40
1.0
 40
1.0
 40
1.0
 10
126.6740513986
 20
381.3835277986
 30
0.0
 10
126.7890467315
 20
381.4133812013
 30
0.0
 10
127.3273203322
 20
381.4780163855
 30
0.0
 10
127.8652730922
 20
381.2772197111
 30
0.0
 10
128.2267535699
 20
381.0685235813
 30
0.0
  0
SPLINE
  5
402
100
AcDbEntity
  8
0
100
AcDbSpline
 62
7
  6
CONTINUOUS
 70
0
 71
3
 72
13
 73
9
 74
0
 42
0.0000001
 43
0.0000001
 44
0.0000000001
 40
0.0
 40
0.0
 40
0.0
 40
0.0
 40
0.2699086491
 40
0.5613338183
 40
0.6954720192
 40
0.8131539396
 40
0.9128688593
 40
1.0
 40
1.0
 40
1.0
 40
1.0
 10
235.0003220696
 20
319.4241834673
 30
0.0
 10
235.579193945
 20
319.0899791949
 30
0.0
 10
236.5954100445
 20
318.0789018207
 30
0.0
 10
237.3933495514
 20
316.5193732379
 30
0.0
 10
237.6650345359
 20
315.1928152062
 30
0.0
 10
237.6441230688
 20
314.3131195813
 30
0.0
 10
237.3972373654
 20
313.5829457738
 30
0.0
 10
237.0579828366
 20
313.2366765669
 30
0.0
 10
236.8711351454
 20
313.128751465
 30
0.0
  0
SPLINE
  5
403
100
AcDbEntity
  8
0
100
AcDbSpline
 62
7
  6
CONTINUOUS
 70
0
 71
3
 72
9
 73
5
 74
0
 42
0.0000001
 43
0.0000001
 44
0.0000000001
 40
0.0
 40
0.0
 40
0.0
 40
0.0
 40
0.2215698533
 40
1.0
 40
1.0
 40
1.0
 40
1.0
 10
126.6740513986
 20
348.7234311135
 30
0.0
 10
126.7890467315
 20
348.7532845161
 30
0.0
 10
127.3273203322
 20
348.8179197003
 30
0.0
 10
127.8652730922
 20
348.6171230259
 30
0.0
 10
128.2267535699
 20
348.4084268961
 30
0.0
  0
SPLINE
  5
404
100
AcDbEntity
  8
0
100
AcDbSpline
 62
7
  6
CONTINUOUS
 70
0
 71
3
 72
13
 73
9
 74
0
 42
0.0000001
 43
0.0000001
 44
0.0000000001
 40
0.0
 40
0.0
 40
0.0
 40
0.0
 40
0.2699086491
 40
0.5613338183
 40
0.6954720192
 40
0.8131539396
 40
0.9128688593
 40
1.0
 40
1.0
 40
1.0
 40
1.0
 10
235.0003220696
 20
286.7640867821
 30
0.0
 10
235.579193945
 20
286.4298825098
 30
0.0
 10
236.5954100445
 20
285.4188051355
 30
0.0
 10
237.3933495514
 20
283.8592765527
 30
0.0
 10
237.6650345359
 20
282.532718521
 30
0.0
 10
237.6441230688
 20
281.6530228961
 30
0.0
 10
237.3972373654
 20
280.9228490886
 30
0.0
 10
237.0579828366
 20
280.5765798817
 30
0.0
 10
236.8711351454
 20
280.4686547798
 30
0.0
  0
SPLINE
  5
405
100
AcDbEntity
  8
0
100
AcDbSpline
 62
7
  6
CONTINUOUS
 70
0
 71
3
 72
9
 73
5
 74
0
 42
0.0000001
 43
0.0000001
 44
0.0000000001
 40
0.0
 40
0.0
 40
0.0
 40
0.0
 40
0.2215698533
 40
1.0
 40
1.0
 40
1.0
 40
1.0
 10
126.6740513986
 20
218.0830443727
 30
0.0
 10
126.7890467314
 20
218.1128977754
 30
0.0
 10
127.3273203321
 20
218.1775329595
 30
0.0
 10
127.865273092
 20
217.9767362852
 30
0.0
 10
128.2267535697
 20
217.7680401555
 30
0.0
  0
SPLINE
  5
406
100
AcDbEntity
  8
0
100
AcDbSpline
 62
7
  6
CONTINUOUS
 70
0
 71
3
 72
13
 73
9
 74
0
 42
0.0000001
 43
0.0000001
 44
0.0000000001
 40
0.0
 40
0.0
 40
0.0
 40
0.0
 40
0.2699086491
 40
0.5613338183
 40
0.6954720192
 40
0.8131539396
 40
0.9128688593
 40
1.0
 40
1.0
 40
1.0
 40
1.0
 10
235.0003220698
 20
156.1237000413
 30
0.0
 10
235.5791939451
 20
155.7894957689
 30
0.0
 10
236.5954100445
 20
154.7784183946
 30
0.0
 10
237.3933495515
 20
153.2188898119
 30
0.0
 10
237.6650345359
 20
151.8923317802
 30
0.0
 10
237.6441230687
 20
151.0126361553
 30
0.0
 10
237.3972373654
 20
150.2824623479
 30
0.0
 10
237.0579828366
 20
149.936193141
 30
0.0
 10
236.8711351454
 20
149.8282680391
 30
0.0
  0
SPLINE
  5
407
100
AcDbEntity
  8
0
100
AcDbSpline
 62
7
  6
CONTINUOUS
 70
0
 71
3
 72
9
 73
5
 74
0
 42
0.0000001
 43
0.0000001
 44
0.0000000001
 40
0.0
 40
0.0
 40
0.0
 40
0.0
 40
0.2215698533
 40
1.0
 40
1.0
 40
1.0
 40
1.0
 10
126.6740513986
 20
185.4229476875
 30
0.0
 10
126.7890467315
 20
185.4528010902
 30
0.0
 10
127.3273203322
 20
185.5174362744
 30
0.0
 10
127.8652730922
 20
185.3166396
 30
0.0
 10
128.2267535699
 20
185.1079434702
 30
0.0
  0
SPLINE
  5
408
100
AcDbEntity
  8
0
100
AcDbSpline
 62
7
  6
CONTINUOUS
 70
0
 71
3
 72
13
 73
9
 74
0
 42
0.0000001
 43
0.0000001
 44
0.0000000001
 40
0.0
 40
0.0
 40
0.0
 40
0.0
 40
0.2699086491
 40
0.5613338183
 40
0.6954720192
 40
0.8131539396
 40
0.9128688593
 40
1.0
 40
1.0
 40
1.0
 40
1.0
 10
235.0003220696
 20
123.4636033562
 30
0.0
 10
235.579193945
 20
123.1293990838
 30
0.0
 10
236.5954100444
 20
122.1183217096
 30
0.0
 10
237.3933495514
 20
120.5587931268
 30
0.0
 10
237.6650345359
 20
119.2322350951
 30
0.0
 10
237.6441230688
 20
118.3525394702
 30
0.0
 10
237.3972373654
 20
117.6223656627
 30
0.0
 10
237.0579828366
 20
117.2760964558
 30
0.0
 10
236.8711351454
 20
117.1681713539
 30
0.0
  0
SPLINE
  5
409
100
AcDbEntity
  8
0
100
AcDbSpline
 62
7
  6
CONTINUOUS
 70
0
 71
3
 72
9
 73
5
 74
0
 42
0.0000001
 43
0.0000001
 44
0.0000000001
 40
0.0
 40
0.0
 40
0.0
 40
0.0
 40
0.2321483489
 40
1.0
 40
1.0
 40
1.0
 40
1.0
 10
204.7469325191
 20
108.0842249276
 30
0.0
 10
204.8213087419
 20
108.0726778655
 30
0.0
 10
205.1388384305
 20
108.0045113238
 30
0.0
 10
205.4396674577
 20
107.8699724736
 30
0.0
 10
205.6552684684
 20
107.745497988
 30
0.0
  0
SPLINE
  5
40A
100
AcDbEntity
  8
0
100
AcDbSpline
 62
7
  6
CONTINUOUS
 70
0
 71
3
 72
13
 73
9
 74
0
 42
0.0000001
 43
0.0000001
 44
0.0000000001
 40
0.0
 40
0.0
 40
0.0
 40
0.0
 40
0.2698569883
 40
0.5612760848
 40
0.6954073314
 40
0.8130838275
 40
0.9127862294
 40
1.0
 40
1.0
 40
1.0
 40
1.0
 10
235.0003220681
 20
90.8034928519
 30
0.0
 10
235.579075725
 20
90.4693568314
 30
0.0
 10
236.5952288534
 20
89.4584597701
 30
0.0
 10
237.3931536549
 20
87.8991705593
 30
0.0
 10
237.6650294853
 20
86.5726663132
 30
0.0
 10
237.6439712964
 20
85.6931220723
 30
0.0
 10
237.3976548013
 20
84.9625470526
 30
0.0
 10
237.0580470908
 20
84.6162971658
 30
0.0
 10
236.8710202134
 20
84.5082786995
 30
0.0
  0
SPLINE
  5
40B
100
AcDbEntity
  8
0
100
AcDbSpline
 62
7
  6
CONTINUOUS
 70
0
 71
3
 72
9
 73
5
 74
0
 42
0.0000001
 43
0.0000001
 44
0.0000000001
 40
0.0
 40
0.0
 40
0.0
 40
0.0
 40
0.2321483489
 40
1.0
 40
1.0
 40
1.0
 40
1.0
 10
127.3184176155
 20
152.7865875476
 30
0.0
 10
127.3927938383
 20
152.7750404855
 30
0.0
 10
127.7103235269
 20
152.7068739437
 30
0.0
 10
128.0111525542
 20
152.5723350935
 30
0.0
 10
128.2267535648
 20
152.447860608
 30
0.0
  0
SPLINE
  5
40C
100
AcDbEntity
  8
0
100
AcDbSpline
 62
7
  6
CONTINUOUS
 70
0
 71
3
 72
13
 73
9
 74
0
 42
0.0000001
 43
0.0000001
 44
0.0000000001
 40
0.0
 40
0.0
 40
0.0
 40
0.0
 40
0.2698569883
 40
0.5612760848
 40
0.6954073314
 40
0.8130838275
 40
0.9127862294
 40
1.0
 40
1.0
 40
1.0
 40
1.0
 10
157.5718071645
 20
135.5058554719
 30
0.0
 10
158.1505608214
 20
135.1717194514
 30
0.0
 10
159.1667139498
 20
134.1608223901
 30
0.0
 10
159.9646387513
 20
132.6015331793
 30
0.0
 10
160.2365145817
 20
131.2750289332
 30
0.0
 10
160.2154563928
 20
130.3954846923
 30
0.0
 10
159.9691398977
 20
129.6649096726
 30
0.0
 10
159.6295321872
 20
129.3186597858
 30
0.0
 10
159.4425053098
 20
129.2106413195
 30
0.0
  0
SPLINE
  5
40D
100
AcDbEntity
  8
0
100
AcDbSpline
 62
7
  6
CONTINUOUS
 70
0
 71
3
 72
9
 73
5
 74
0
 42
0.0000001
 43
0.0000001
 44
0.0000000001
 40
0.0
 40
0.0
 40
0.0
 40
0.0
 40
0.2321483489
 40
1.0
 40
1.0
 40
1.0
 40
1.0
 10
198.3829449928
 20
242.398778459
 30
0.0
 10
198.4573212156
 20
242.3872313969
 30
0.0
 10
198.7748509042
 20
242.3190648552
 30
0.0
 10
199.0756799314
 20
242.184526005
 30
0.0
 10
199.2912809421
 20
242.0600515194
 30
0.0
  0
SPLINE
  5
40E
100
AcDbEntity
  8
0
100
AcDbSpline
 62
7
  6
CONTINUOUS
 70
0
 71
3
 72
13
 73
9
 74
0
 42
0.0000001
 43
0.0000001
 44
0.0000000001
 40
0.0
 40
0.0
 40
0.0
 40
0.0
 40
0.2698569883
 40
0.5612760848
 40
0.6954073314
 40
0.8130838275
 40
0.9127862294
 40
1.0
 40
1.0
 40
1.0
 40
1.0
 10
235.0003220681
 20
221.4438795926
 30
0.0
 10
235.579075725
 20
221.1097435722
 30
0.0
 10
236.5952288534
 20
220.0988465109
 30
0.0
 10
237.3931536549
 20
218.5395573
 30
0.0
 10
237.6650294853
 20
217.213053054
 30
0.0
 10
237.6439712964
 20
216.333508813
 30
0.0
 10
237.3976548013
 20
215.6029337933
 30
0.0
 10
237.0580470908
 20
215.2566839065
 30
0.0
 10
236.8710202134
 20
215.1486654403
 30
0.0
  0
SPLINE
  5
40F
100
AcDbEntity
  8
0
100
AcDbSpline
 62
7
  6
CONTINUOUS
 70
0
 71
3
 72
9
 73
5
 74
0
 42
0.0000001
 43
0.0000001
 44
0.0000000001
 40
0.0
 40
0.0
 40
0.0
 40
0.0
 40
0.2321483489
 40
1.0
 40
1.0
 40
1.0
 40
1.0
 10
127.3184176155
 20
283.4269742883
 30
0.0
 10
127.3927938383
 20
283.4154272262
 30
0.0
 10
127.7103235269
 20
283.3472606845
 30
0.0
 10
128.0111525542
 20
283.2127218343
 30
0.0
 10
128.2267535648
 20
283.0882473487
 30
0.0
  0
SPLINE
  5
410
100
AcDbEntity
  8
0
100
AcDbSpline
 62
7
  6
CONTINUOUS
 70
0
 71
3
 72
13
 73
9
 74
0
 42
0.0000001
 43
0.0000001
 44
0.0000000001
 40
0.0
 40
0.0
 40
0.0
 40
0.0
 40
0.2698569883
 40
0.5612760848
 40
0.6954073314
 40
0.8130838275
 40
0.9127862294
 40
1.0
 40
1.0
 40
1.0
 40
1.0
 10
163.9357946908
 20
262.4720754219
 30
0.0
 10
164.5145483478
 20
262.1379394015
 30
0.0
 10
165.5307014762
 20
261.1270423402
 30
0.0
 10
166.3286262776
 20
259.5677531293
 30
0.0
 10
166.600502108
 20
258.2412488833
 30
0.0
 10
166.5794439191
 20
257.3617046423
 30
0.0
 10
166.3331274241
 20
256.6311296226
 30
0.0
 10
165.9935197135
 20
256.2848797358
 30
0.0
 10
165.8064928361
 20
256.1768612695
 30
0.0
  0
SPLINE
  5
411
100
AcDbEntity
  8
0
100
AcDbSpline
 62
7
  6
CONTINUOUS
 70
0
 71
3
 72
9
 73
5
 74
0
 42
0.0000001
 43
0.0000001
 44
0.0000000001
 40
0.0
 40
0.0
 40
0.0
 40
0.0
 40
0.2215698533
 40
1.0
 40
1.0
 40
1.0
 40
1.0
 10
126.6740513986
 20
316.0633344283
 30
0.0
 10
126.7890467315
 20
316.093187831
 30
0.0
 10
127.3273203322
 20
316.1578230151
 30
0.0
 10
127.8652730922
 20
315.9570263407
 30
0.0
 10
128.2267535699
 20
315.7483302109
 30
0.0
  0
SPLINE
  5
412
100
AcDbEntity
  8
0
100
AcDbSpline
 62
7
  6
CONTINUOUS
 70
0
 71
3
 72
13
 73
9
 74
0
 42
0.0000001
 43
0.0000001
 44
0.0000000001
 40
0.0
 40
0.0
 40
0.0
 40
0.0
 40
0.2699086491
 40
0.5613338183
 40
0.6954720192
 40
0.8131539396
 40
0.9128688593
 40
1.0
 40
1.0
 40
1.0
 40
1.0
 10
235.0003220696
 20
254.1039900969
 30
0.0
 10
235.579193945
 20
253.7697858246
 30
0.0
 10
236.5954100444
 20
252.7587084503
 30
0.0
 10
237.3933495514
 20
251.1991798675
 30
0.0
 10
237.6650345359
 20
249.8726218358
 30
0.0
 10
237.6441230688
 20
248.9929262109
 30
0.0
 10
237.3972373654
 20
248.2627524035
 30
0.0
 10
237.0579828366
 20
247.9164831965
 30
0.0
 10
236.8711351454
 20
247.8085580946
 30
0.0
  0
SPLINE
  5
413
100
AcDbEntity
  8
0
100
AcDbSpline
 62
7
  6
CONTINUOUS
 70
0
 71
3
 72
9
 73
5
 74
0
 42
0.0000001
 43
0.0000001
 44
0.0000000001
 40
0.0
 40
0.0
 40
0.0
 40
0.0
 40
0.2215698533
 40
1.0
 40
1.0
 40
1.0
 40
1.0
 10
126.6740513986
 20
250.7431410579
 30
0.0
 10
126.7890467315
 20
250.7729944606
 30
0.0
 10
127.3273203322
 20
250.8376296447
 30
0.0
 10
127.8652730922
 20
250.6368329703
 30
0.0
 10
128.2267535699
 20
250.4281368406
 30
0.0
  0
SPLINE
  5
414
100
AcDbEntity
  8
0
100
AcDbSpline
 62
7
  6
CONTINUOUS
 70
0
 71
3
 72
13
 73
9
 74
0
 42
0.0000001
 43
0.0000001
 44
0.0000000001
 40
0.0
 40
0.0
 40
0.0
 40
0.0
 40
0.2699086491
 40
0.5613338183
 40
0.6954720192
 40
0.8131539396
 40
0.9128688593
 40
1.0
 40
1.0
 40
1.0
 40
1.0
 10
235.0003220696
 20
188.7837967266
 30
0.0
 10
235.579193945
 20
188.4495924542
 30
0.0
 10
236.5954100444
 20
187.43851508
 30
0.0
 10
237.3933495514
 20
185.8789864972
 30
0.0
 10
237.6650345359
 20
184.5524284655
 30
0.0
 10
237.6441230688
 20
183.6727328406
 30
0.0
 10
237.3972373654
 20
182.9425590331
 30
0.0
 10
237.0579828366
 20
182.5962898262
 30
0.0
 10
236.8711351454
 20
182.4883647243
 30
0.0
  0
SPLINE
  5
415
100
AcDbEntity
  8
0
100
AcDbSpline
 62
7
  6
CONTINUOUS
 70
0
 71
3
 72
11
 73
7
 74
0
 42
0.0000001
 43
0.0000001
 44
0.0000000001
 40
0.0
 40
0.0
 40
0.0
 40
0.0
 40
0.2897033281
 40
0.5490895197
 40
0.7822165952
 40
1.0
 40
1.0
 40
1.0
 40
1.0
 10
193.3293868989
 20
235.0984857868
 30
0.0
 10
193.3293868989
 20
234.7149966571
 30
0.0
 10
193.2712443043
 20
233.9856816091
 30
0.0
 10
192.9758804582
 20
232.9836409527
 30
0.0
 10
192.4785858371
 20
232.1705416272
 30
0.0
 10
192.0114752447
 20
231.7778423703
 30
0.0
 10
191.7618113624
 20
231.6336998313
 30
0.0
  0
SPLINE
  5
416
100
AcDbEntity
  8
0
100
AcDbSpline
 62
7
  6
CONTINUOUS
 70
0
 71
3
 72
11
 73
7
 74
0
 42
0.0000001
 43
0.0000001
 44
0.0000000001
 40
0.0
 40
0.0
 40
0.0
 40
0.0
 40
0.237239768
 40
0.4999988393
 40
0.7627585384
 40
1.0
 40
1.0
 40
1.0
 40
1.0
 10
187.9775253474
 20
259.0651739776
 30
0.0
 10
188.7373389146
 20
258.6265053341
 30
0.0
 10
190.1751827154
 20
257.4163780327
 30
0.0
 10
191.8533418407
 20
255.1231227648
 30
0.0
 10
193.0002941662
 20
252.52316625
 30
0.0
 10
193.3293869002
 20
250.6728877474
 30
0.0
 10
193.3293869002
 20
249.7955293113
 30
0.0
  0
SPLINE
  5
417
100
AcDbEntity
  8
0
100
AcDbSpline
 62
7
  6
CONTINUOUS
 70
0
 71
3
 72
9
 73
5
 74
0
 42
0.0000001
 43
0.0000001
 44
0.0000000001
 40
0.0
 40
0.0
 40
0.0
 40
0.0
 40
0.2714773172
 40
1.0
 40
1.0
 40
1.0
 40
1.0
 10
245.5733926153
 20
65.8612206923
 30
0.0
 10
245.5733926153
 20
65.7433720844
 30
0.0
 10
245.554949825
 20
65.3101760139
 30
0.0
 10
245.4578836768
 20
64.8751100724
 30
0.0
 10
245.3245671283
 20
64.5883308013
 30
0.0
  0
SPLINE
  5
418
100
AcDbEntity
  8
0
100
AcDbSpline
 62
7
  6
CONTINUOUS
 70
0
 71
3
 72
9
 73
5
 74
0
 42
0.0000001
 43
0.0000001
 44
0.0000000001
 40
0.0
 40
0.0
 40
0.0
 40
0.0
 40
0.265671445
 40
1.0
 40
1.0
 40
1.0
 40
1.0
 10
245.3245671283
 20
64.5883308013
 30
0.0
 10
245.2861793124
 20
64.5057541822
 30
0.0
 10
245.1231810254
 20
64.2042965232
 30
0.0
 10
244.8691109667
 20
63.9489344609
 30
0.0
 10
244.651131519
 20
63.8230793894
 30
0.0
  0
SPLINE
  5
419
100
AcDbEntity
  8
0
100
AcDbSpline
 62
7
  6
CONTINUOUS
 70
0
 71
3
 72
9
 73
5
 74
0
 42
0.0000001
 43
0.0000001
 44
0.0000000001
 40
0.0
 40
0.0
 40
0.0
 40
0.0
 40
0.2714773172
 40
1.0
 40
1.0
 40
1.0
 40
1.0
 10
123.9505198901
 20
136.0786304698
 30
0.0
 10
123.9505198901
 20
135.9607818619
 30
0.0
 10
123.9320770998
 20
135.5275857914
 30
0.0
 10
123.8350109515
 20
135.0925198499
 30
0.0
 10
123.701694403
 20
134.8057405788
 30
0.0
  0
SPLINE
  5
41A
100
AcDbEntity
  8
0
100
AcDbSpline
 62
7
  6
CONTINUOUS
 70
0
 71
3
 72
9
 73
5
 74
0
 42
0.0000001
 43
0.0000001
 44
0.0000000001
 40
0.0
 40
0.0
 40
0.0
 40
0.0
 40
0.265671445
 40
1.0
 40
1.0
 40
1.0
 40
1.0
 10
123.701694403
 20
134.8057405788
 30
0.0
 10
123.6633065871
 20
134.7231639597
 30
0.0
 10
123.5003083001
 20
134.4217063007
 30
0.0
 10
123.2462382414
 20
134.1663442384
 30
0.0
 10
123.0282587937
 20
134.0404891669
 30
0.0
  0
SPLINE
  5
41B
100
AcDbEntity
  8
0
100
AcDbSpline
 62
7
  6
CONTINUOUS
 70
0
 71
3
 72
9
 73
5
 74
0
 42
0.0000001
 43
0.0000001
 44
0.0000000001
 40
0.0
 40
0.0
 40
0.0
 40
0.0
 40
0.7428163255
 40
1.0
 40
1.0
 40
1.0
 40
1.0
 10
119.6529876803
 20
141.8713041419
 30
0.0
 10
119.525856187
 20
141.7979586629
 30
0.0
 10
119.3702360371
 20
141.6689059667
 30
0.0
 10
119.2465590946
 20
141.5147380112
 30
0.0
 10
119.2166564535
 20
141.4736509277
 30
0.0
  0
SPLINE
  5
41C
100
AcDbEntity
  8
0
100
AcDbSpline
 62
7
  6
CONTINUOUS
 70
0
 71
3
 72
9
 73
5
 74
0
 42
0.0000001
 43
0.0000001
 44
0.0000000001
 40
0.0
 40
0.0
 40
0.0
 40
0.0
 40
0.4362402731
 40
1.0
 40
1.0
 40
1.0
 40
1.0
 10
119.2166564535
 20
141.4736509277
 30
0.0
 10
118.9340751768
 20
141.0853761772
 30
0.0
 10
118.6979057689
 20
139.9265943098
 30
0.0
 10
118.952561167
 20
138.8408976699
 30
0.0
 10
119.1687349337
 20
138.2591721887
 30
0.0
  0
SPLINE
  5
41D
100
AcDbEntity
  8
0
100
AcDbSpline
 62
7
  6
CONTINUOUS
 70
0
 71
3
 72
9
 73
5
 74
0
 42
0.0000001
 43
0.0000001
 44
0.0000000001
 40
0.0
 40
0.0
 40
0.0
 40
0.0
 40
0.7428163255
 40
1.0
 40
1.0
 40
1.0
 40
1.0
 10
241.2758604056
 20
71.6538943644
 30
0.0
 10
241.1487289123
 20
71.5805488855
 30
0.0
 10
240.9931087623
 20
71.4514961892
 30
0.0
 10
240.8694318199
 20
71.2973282337
 30
0.0
 10
240.8395291788
 20
71.2562411502
 30
0.0
  0
SPLINE
  5
41E
100
AcDbEntity
  8
0
100
AcDbSpline
 62
7
  6
CONTINUOUS
 70
0
 71
3
 72
9
 73
5
 74
0
 42
0.0000001
 43
0.0000001
 44
0.0000000001
 40
0.0
 40
0.0
 40
0.0
 40
0.0
 40
0.4362402731
 40
1.0
 40
1.0
 40
1.0
 40
1.0
 10
240.8395291788
 20
71.2562411502
 30
0.0
 10
240.5569479021
 20
70.8679663998
 30
0.0
 10
240.3207784942
 20
69.7091845323
 30
0.0
 10
240.5754338923
 20
68.6234878924
 30
0.0
 10
240.791607659
 20
68.0417624112
 30
0.0
  0
SPLINE
  5
41F
100
AcDbEntity
  8
0
100
AcDbSpline
 62
7
  6
CONTINUOUS
 70
0
 71
3
 72
11
 73
7
 74
0
 42
0.0000001
 43
0.0000001
 44
0.0000000001
 40
0.0
 40
0.0
 40
0.0
 40
0.0
 40
0.2897779223
 40
0.549087626
 40
0.7822163083
 40
1.0
 40
1.0
 40
1.0
 40
1.0
 10
327.6310542033
 20
103.2802038409
 30
0.0
 10
327.6310542033
 20
102.777160837
 30
0.0
 10
327.5542081514
 20
101.8208881745
 30
0.0
 10
327.1683767643
 20
100.5062367209
 30
0.0
 10
326.5152659551
 20
99.440716093
 30
0.0
 10
325.9035859234
 20
98.9248556715
 30
0.0
 10
325.5763175729
 20
98.735573565
 30
0.0
  0
SPLINE
  5
420
100
AcDbEntity
  8
0
100
AcDbSpline
 62
7
  6
CONTINUOUS
 70
0
 71
3
 72
9
 73
5
 74
0
 42
0.0000001
 43
0.0000001
 44
0.0000000001
 40
0.0
 40
0.0
 40
0.0
 40
0.0
 40
0.2401529001
 40
1.0
 40
1.0
 40
1.0
 40
1.0
 10
240.1988168446
 20
71.5347602118
 30
0.0
 10
240.2742271523
 20
71.5782999572
 30
0.0
 10
240.6041448347
 20
71.7326109155
 30
0.0
 10
240.9841656188
 20
71.7609293086
 30
0.0
 10
241.2578390137
 20
71.729142604
 30
0.0
  0
SPLINE
  5
421
100
AcDbEntity
  8
0
100
AcDbSpline
 62
7
  6
CONTINUOUS
 70
0
 71
3
 72
11
 73
7
 74
0
 42
0.0000001
 43
0.0000001
 44
0.0000000001
 40
0.0
 40
0.0
 40
0.0
 40
0.0
 40
0.2153333097
 40
0.476516465
 40
0.7510699115
 40
1.0
 40
1.0
 40
1.0
 40
1.0
 10
241.4419641601
 20
71.7001568022
 30
0.0
 10
241.9749223044
 20
71.5946974318
 30
0.0
 10
243.0720582776
 20
70.9937273444
 30
0.0
 10
244.3619067289
 20
69.5805056343
 30
0.0
 10
245.291621809
 20
67.8097021764
 30
0.0
 10
245.5733926153
 20
66.4892781672
 30
0.0
 10
245.5733926153
 20
65.8612206923
 30
0.0
  0
SPLINE
  5
422
100
AcDbEntity
  8
0
100
AcDbSpline
 62
7
  6
CONTINUOUS
 70
0
 71
3
 72
11
 73
7
 74
0
 42
0.0000001
 43
0.0000001
 44
0.0000000001
 40
0.0
 40
0.0
 40
0.0
 40
0.0
 40
0.2177843137
 40
0.4509117637
 40
0.7102976701
 40
1.0
 40
1.0
 40
1.0
 40
1.0
 10
171.4652642759
 20
266.7883064751
 30
0.0
 10
171.7149225263
 20
266.9324457625
 30
0.0
 10
172.2885511703
 20
267.1406202954
 30
0.0
 10
173.2413385727
 20
267.164744689
 30
0.0
 10
174.2567866478
 20
266.9195320817
 30
0.0
 10
174.9174471064
 20
266.6052430865
 30
0.0
 10
175.2495502908
 20
266.4135075612
 30
0.0
  0
SPLINE
  5
423
100
AcDbEntity
  8
0
100
AcDbSpline
 62
7
  6
CONTINUOUS
 70
0
 71
3
 72
11
 73
7
 74
0
 42
0.0000001
 43
0.0000001
 44
0.0000000001
 40
0.0
 40
0.0
 40
0.0
 40
0.0
 40
0.2040394831
 40
0.4324428807
 40
0.6976148363
 40
1.0
 40
1.0
 40
1.0
 40
1.0
 10
245.3534959545
 20
349.9854783833
 30
0.0
 10
245.1747197947
 20
349.8823377474
 30
0.0
 10
244.8465972897
 20
349.5678093974
 30
0.0
 10
244.5707000863
 20
348.9032020459
 30
0.0
 10
244.4899216221
 20
348.0938559808
 30
0.0
 10
244.5603360077
 20
347.519715669
 30
0.0
 10
244.6230091716
 20
347.2203292318
 30
0.0
  0
SPLINE
  5
424
100
AcDbEntity
  8
0
100
AcDbSpline
 62
7
  6
CONTINUOUS
 70
0
 71
3
 72
11
 73
7
 74
0
 42
0.0000001
 43
0.0000001
 44
0.0000000001
 40
0.0
 40
0.0
 40
0.0
 40
0.0
 40
0.3022261702
 40
0.5675182654
 40
0.7959373063
 40
1.0
 40
1.0
 40
1.0
 40
1.0
 10
246.6100787762
 20
343.7785609905
 30
0.0
 10
246.8379493076
 20
343.5747537179
 30
0.0
 10
247.2999366053
 20
343.2267745632
 30
0.0
 10
248.0410856315
 20
342.8917896934
 30
0.0
 10
248.7548392931
 20
342.7983707528
 30
0.0
 10
249.1912160364
 20
342.9254724295
 30
0.0
 10
249.3700147709
 20
343.0286222024
 30
0.0
  0
SPLINE
  5
425
100
AcDbEntity
  8
0
100
AcDbSpline
 62
7
  6
CONTINUOUS
 70
0
 71
3
 72
8
 73
4
 74
0
 42
0.0000001
 43
0.0000001
 44
0.0000000001
 40
0.0
 40
0.0
 40
0.0
 40
0.0
 40
1.0
 40
1.0
 40
1.0
 40
1.0
 10
246.6100524823
 20
343.7784655975
 30
0.0
 10
245.8490054428
 20
344.4590362638
 30
0.0
 10
245.2413707625
 20
345.3528553825
 30
0.0
 10
244.8857338032
 20
346.3098775251
 30
0.0
  0
SPLINE
  5
426
100
AcDbEntity
  8
0
100
AcDbSpline
 62
7
  6
CONTINUOUS
 70
0
 71
3
 72
10
 73
6
 74
0
 42
0.0000001
 43
0.0000001
 44
0.0000000001
 40
0.0
 40
0.0
 40
0.0
 40
0.0
 40
0.2979469417
 40
0.5645220139
 40
1.0
 40
1.0
 40
1.0
 40
1.0
 10
117.2089990743
 20
418.4866190678
 30
0.0
 10
117.4111970286
 20
418.3057733334
 30
0.0
 10
117.8233145163
 20
417.9912069537
 30
0.0
 10
118.6330421433
 20
417.5793898846
 30
0.0
 10
119.3241633829
 20
417.4986292263
 30
0.0
 10
119.701924886
 20
417.6190536996
 30
0.0
  0
SPLINE
  5
427
100
AcDbEntity
  8
0
100
AcDbSpline
 62
7
  6
CONTINUOUS
 70
0
 71
3
 72
8
 73
4
 74
0
 42
0.0000001
 43
0.0000001
 44
0.0000000001
 40
0.0
 40
0.0
 40
0.0
 40
0.0
 40
1.0
 40
1.0
 40
1.0
 40
1.0
 10
117.2089727804
 20
418.4865236747
 30
0.0
 10
116.5143640482
 20
419.1076815048
 30
0.0
 10
115.9478546086
 20
419.9039223075
 30
0.0
 10
115.5858775003
 20
420.7625787661
 30
0.0
  0
SPLINE
  5
428
100
AcDbEntity
  8
0
100
AcDbSpline
 62
7
  6
CONTINUOUS
 70
0
 71
3
 72
11
 73
7
 74
0
 42
0.0000001
 43
0.0000001
 44
0.0000000001
 40
0.0
 40
0.0
 40
0.0
 40
0.0
 40
0.2040394831
 40
0.4324428807
 40
0.6976148363
 40
1.0
 40
1.0
 40
1.0
 40
1.0
 10
115.9524162526
 20
424.6935364605
 30
0.0
 10
115.7736400928
 20
424.5903958246
 30
0.0
 10
115.4455175878
 20
424.2758674746
 30
0.0
 10
115.1696203844
 20
423.6112601232
 30
0.0
 10
115.0888419202
 20
422.801914058
 30
0.0
 10
115.1592563058
 20
422.2277737462
 30
0.0
 10
115.2219294697
 20
421.928387309
 30
0.0
  0
SPLINE
  5
429
100
AcDbEntity
  8
0
100
AcDbSpline
 62
7
  6
CONTINUOUS
 70
0
 71
3
 72
11
 73
7
 74
0
 42
0.0000001
 43
0.0000001
 44
0.0000000001
 40
0.0
 40
0.0
 40
0.0
 40
0.0
 40
0.2177714305
 40
0.4509600738
 40
0.7102211493
 40
1.0
 40
1.0
 40
1.0
 40
1.0
 10
264.1537344447
 20
160.8428801683
 30
0.0
 10
263.9014843699
 20
160.9885114415
 30
0.0
 10
263.429299314
 20
161.3851477997
 30
0.0
 10
262.9269073114
 20
162.2066347879
 30
0.0
 10
262.6278388105
 20
163.2189341302
 30
0.0
 10
262.5694716447
 20
163.9558397818
 30
0.0
 10
262.5694704652
 20
164.3434207527
 30
0.0
  0
SPLINE
  5
42A
100
AcDbEntity
  8
0
100
AcDbSpline
 62
7
  6
CONTINUOUS
 70
0
 71
3
 72
9
 73
5
 74
0
 42
0.0000001
 43
0.0000001
 44
0.0000000001
 40
0.0
 40
0.0
 40
0.0
 40
0.0
 40
0.2401529001
 40
1.0
 40
1.0
 40
1.0
 40
1.0
 10
118.5759441193
 20
141.7521699892
 30
0.0
 10
118.651354427
 20
141.7957097347
 30
0.0
 10
118.9812721094
 20
141.950020693
 30
0.0
 10
119.3612928935
 20
141.9783390861
 30
0.0
 10
119.6349662885
 20
141.9465523815
 30
0.0
  0
SPLINE
  5
42B
100
AcDbEntity
  8
0
100
AcDbSpline
 62
7
  6
CONTINUOUS
 70
0
 71
3
 72
11
 73
7
 74
0
 42
0.0000001
 43
0.0000001
 44
0.0000000001
 40
0.0
 40
0.0
 40
0.0
 40
0.0
 40
0.2153333097
 40
0.476516465
 40
0.7510699115
 40
1.0
 40
1.0
 40
1.0
 40
1.0
 10
119.8190914348
 20
141.9175665797
 30
0.0
 10
120.3520495792
 20
141.8121072092
 30
0.0
 10
121.4491855523
 20
141.2111371219
 30
0.0
 10
122.7390340036
 20
139.7979154118
 30
0.0
 10
123.6687490837
 20
138.0271119539
 30
0.0
 10
123.9505198901
 20
136.7066879447
 30
0.0
 10
123.9505198901
 20
136.0786304698
 30
0.0
  0
SPLINE
  5
42C
100
AcDbEntity
  8
0
100
AcDbSpline
 62
7
  6
CONTINUOUS
 70
0
 71
3
 72
13
 73
9
 74
0
 42
0.0000001
 43
0.0000001
 44
0.0000000001
 40
0.0
 40
0.0
 40
0.0
 40
0.0
 40
0.2964155444
 40
0.5781459377
 40
0.7031582832
 40
0.8141328073
 40
0.9116963956
 40
1.0
 40
1.0
 40
1.0
 40
1.0
 10
119.1687349337
 20
138.2591721887
 30
0.0
 10
119.3780014002
 20
137.6960343121
 30
0.0
 10
119.9378498521
 20
136.6507175789
 30
0.0
 10
120.9158379688
 20
135.5849618631
 30
0.0
 10
121.7995378794
 20
135.0089559479
 30
0.0
 10
122.434983153
 20
134.760979253
 30
0.0
 10
123.041971507
 20
134.6952640808
 30
0.0
 10
123.4178437025
 20
134.7885598754
 30
0.0
 10
123.5792518063
 20
134.8658760518
 30
0.0
  0
SPLINE
  5
42D
100
AcDbEntity
  8
0
100
AcDbSpline
 62
7
  6
CONTINUOUS
 70
0
 71
3
 72
13
 73
9
 74
0
 42
0.0000001
 43
0.0000001
 44
0.0000000001
 40
0.0
 40
0.0
 40
0.0
 40
0.0
 40
0.2964155444
 40
0.5781459377
 40
0.7031582832
 40
0.8141328073
 40
0.9116963956
 40
1.0
 40
1.0
 40
1.0
 40
1.0
 10
240.791607659
 20
68.0417624112
 30
0.0
 10
241.0008741255
 20
67.4786245346
 30
0.0
 10
241.5607225774
 20
66.4333078014
 30
0.0
 10
242.5387106941
 20
65.3675520856
 30
0.0
 10
243.4224106047
 20
64.7915461704
 30
0.0
 10
244.0578558783
 20
64.5435694755
 30
0.0
 10
244.6648442322
 20
64.4778543033
 30
0.0
 10
245.0407164277
 20
64.5711500979
 30
0.0
 10
245.2021245316
 20
64.6484662743
 30
0.0
  0
SPLINE
  5
42E
100
AcDbEntity
  8
0
100
AcDbSpline
 62
7
  6
CONTINUOUS
 70
0
 71
3
 72
11
 73
7
 74
0
 42
0.0000001
 43
0.0000001
 44
0.0000000001
 40
0.0
 40
0.0
 40
0.0
 40
0.0
 40
0.3076868444
 40
0.5784886547
 40
0.8054236292
 40
1.0
 40
1.0
 40
1.0
 40
1.0
 10
251.281399335
 20
347.4643282704
 30
0.0
 10
251.4210703287
 20
347.0884724147
 30
0.0
 10
251.6197646093
 20
346.3546032724
 30
0.0
 10
251.657505366
 20
345.2947867271
 30
0.0
 10
251.4109133515
 20
344.4046517593
 30
0.0
 10
251.0168136247
 20
343.9793536874
 30
0.0
 10
250.7971787278
 20
343.8526402386
 30
0.0
  0
SPLINE
  5
42F
100
AcDbEntity
  8
0
100
AcDbSpline
 62
7
  6
CONTINUOUS
 70
0
 71
3
 72
11
 73
7
 74
0
 42
0.0000001
 43
0.0000001
 44
0.0000000001
 40
0.0
 40
0.0
 40
0.0
 40
0.0
 40
0.289940795
 40
0.5491110453
 40
0.7822307398
 40
1.0
 40
1.0
 40
1.0
 40
1.0
 10
267.9782777464
 20
161.2205570985
 30
0.0
 10
267.6423876084
 20
161.0266460819
 30
0.0
 10
266.9742337533
 20
160.7100191971
 30
0.0
 10
265.9481546726
 20
160.4622226084
 30
0.0
 10
264.9855716986
 20
160.4866609516
 30
0.0
 10
264.406012791
 20
160.6972325732
 30
0.0
 10
264.1537344447
 20
160.8428801683
 30
0.0
  0
SPLINE
  5
430
100
AcDbEntity
  8
0
100
AcDbSpline
 62
7
  6
CONTINUOUS
 70
0
 71
3
 72
9
 73
5
 74
0
 42
0.0000001
 43
0.0000001
 44
0.0000000001
 40
0.0
 40
0.0
 40
0.0
 40
0.0
 40
0.7500975468
 40
1.0
 40
1.0
 40
1.0
 40
1.0
 10
327.6312198855
 20
195.6649256876
 30
0.0
 10
312.7216925212
 20
187.0426949363
 30
0.0
 10
292.8290816203
 20
175.5752721914
 30
0.0
 10
272.9468268637
 20
164.0899241052
 30
0.0
 10
267.977419815
 20
161.2210628975
 30
0.0
  0
SPLINE
  5
431
100
AcDbEntity
  8
0
100
AcDbSpline
 62
7
  6
CONTINUOUS
 70
0
 71
3
 72
9
 73
5
 74
0
 42
0.0000001
 43
0.0000001
 44
0.0000000001
 40
0.0
 40
0.0
 40
0.0
 40
0.0
 40
0.2321483489
 40
1.0
 40
1.0
 40
1.0
 40
1.0
 10
235.9086580229
 20
312.9753220736
 30
0.0
 10
235.8342817998
 20
312.9868691357
 30
0.0
 10
235.51675211
 20
313.0550356778
 30
0.0
 10
235.2159230819
 20
313.1895745288
 30
0.0
 10
235.0003220704
 20
313.3140490148
 30
0.0
  0
SPLINE
  5
432
100
AcDbEntity
  8
0
100
AcDbSpline
 62
7
  6
CONTINUOUS
 70
0
 71
3
 72
19
 73
15
 74
0
 42
0.0000001
 43
0.0000001
 44
0.0000000001
 40
0.0
 40
0.0
 40
0.0
 40
0.0
 40
0.0626644103
 40
0.0935813641
 40
0.1240743307
 40
0.1773888547
 40
0.2136944949
 40
0.2741687621
 40
0.3346392721
 40
0.3951244058
 40
0.5161127751
 40
0.6371229371
 40
0.7581265065
 40
1.0
 40
1.0
 40
1.0
 40
1.0
 10
250.0023743454
 20
59.3393543233
 30
0.0
 10
251.6996778972
 20
60.1090135547
 30
0.0
 10
254.2174262818
 20
61.2969454794
 30
0.0
 10
257.5016313063
 20
62.9803173051
 30
0.0
 10
260.4860252229
 20
64.6348184427
 30
0.0
 10
263.5768815948
 20
66.4257255687
 30
0.0
 10
267.4491855905
 20
68.6463615429
 30
0.0
 10
271.5017478265
 20
70.9804541646
 30
0.0
 10
276.1780655197
 20
73.6723725524
 30
0.0
 10
282.4140623122
 20
77.262257041
 30
0.0
 10
290.2124789163
 20
81.746867579
 30
0.0
 10
299.5737251338
 20
87.1242199742
 30
0.0
 10
312.0519001372
 20
94.2931928839
 30
0.0
 10
321.4018274813
 20
99.6827757096
 30
0.0
 10
327.6310537919
 20
103.2802034903
 30
0.0
  0
SPLINE
  5
433
100
AcDbEntity
  8
0
100
AcDbSpline
 62
7
  6
CONTINUOUS
 70
0
 71
3
 72
13
 73
9
 74
0
 42
0.0000001
 43
0.0000001
 44
0.0000000001
 40
0.0
 40
0.0
 40
0.0
 40
0.0
 40
0.2699082264
 40
0.5613334118
 40
0.6954717832
 40
0.8131538634
 40
0.9128688632
 40
1.0
 40
1.0
 40
1.0
 40
1.0
 10
128.2267783798
 20
146.3377067546
 30
0.0
 10
127.6479049543
 20
146.6719119219
 30
0.0
 10
126.6316797505
 20
147.6829858719
 30
0.0
 10
125.8337321389
 20
149.2425190167
 30
0.0
 10
125.562041949
 20
150.5690826369
 30
0.0
 10
125.5829511105
 20
151.4487831025
 30
0.0
 10
125.8298362254
 20
152.1789612524
 30
0.0
 10
126.1690920171
 20
152.525232601
 30
0.0
 10
126.3559404929
 20
152.6331581561
 30
0.0
  0
SPLINE
  5
434
100
AcDbEntity
  8
0
100
AcDbSpline
 62
7
  6
CONTINUOUS
 70
0
 71
3
 72
9
 73
5
 74
0
 42
0.0000001
 43
0.0000001
 44
0.0000000001
 40
0.0
 40
0.0
 40
0.0
 40
0.0
 40
0.2215698534
 40
1.0
 40
1.0
 40
1.0
 40
1.0
 10
159.1245093361
 20
129.0807444425
 30
0.0
 10
159.0095140033
 20
129.0508910399
 30
0.0
 10
158.4712404031
 20
128.9862558557
 30
0.0
 10
157.9332876436
 20
129.1870525296
 30
0.0
 10
157.5718071662
 20
129.3957486592
 30
0.0
  0
SPLINE
  5
435
100
AcDbEntity
  8
0
100
AcDbSpline
 62
7
  6
CONTINUOUS
 70
0
 71
3
 72
11
 73
7
 74
0
 42
0.0000001
 43
0.0000001
 44
0.0000000001
 40
0.0
 40
0.0
 40
0.0
 40
0.0
 40
0.2372523758
 40
0.4999990758
 40
0.7627462798
 40
1.0
 40
1.0
 40
1.0
 40
1.0
 10
245.8214381633
 20
342.5581054267
 30
0.0
 10
245.4452345212
 20
342.7753017871
 30
0.0
 10
244.7333023416
 20
343.3743960135
 30
0.0
 10
243.9026977784
 20
344.5099280564
 30
0.0
 10
243.3345939592
 20
345.7970185652
 30
0.0
 10
243.1717228551
 20
346.7131189374
 30
0.0
 10
243.1717228551
 20
347.14752149
 30
0.0
  0
SPLINE
  5
436
100
AcDbEntity
  8
0
100
AcDbSpline
 62
7
  6
CONTINUOUS
 70
0
 71
3
 72
13
 73
9
 74
0
 42
0.0000001
 43
0.0000001
 44
0.0000000001
 40
0.0
 40
0.0
 40
0.0
 40
0.0
 40
0.2698551351
 40
0.5612743558
 40
0.6954063233
 40
0.8130834918
 40
0.9127862365
 40
1.0
 40
1.0
 40
1.0
 40
1.0
 10
128.2268563224
 20
342.2982418662
 30
0.0
 10
127.6480965732
 20
342.6323814039
 30
0.0
 10
126.6319040748
 20
343.6432619806
 30
0.0
 10
125.8339470851
 20
345.2025707557
 30
0.0
 10
125.5620496623
 20
346.5290980015
 30
0.0
 10
125.5830983502
 20
347.4086622346
 30
0.0
 10
125.829412379
 20
348.1392551754
 30
0.0
 10
126.1690253095
 20
348.4855139003
 30
0.0
 10
126.3560554248
 20
348.5935342366
 30
0.0
  0
SPLINE
  5
437
100
AcDbEntity
  8
0
100
AcDbSpline
 62
7
  6
CONTINUOUS
 70
0
 71
3
 72
13
 73
9
 74
0
 42
0.0000001
 43
0.0000001
 44
0.0000000001
 40
0.0
 40
0.0
 40
0.0
 40
0.0
 40
0.2699082264
 40
0.5613334118
 40
0.6954717832
 40
0.8131538634
 40
0.9128688632
 40
1.0
 40
1.0
 40
1.0
 40
1.0
 10
199.2913057571
 20
235.949897666
 30
0.0
 10
198.7124323316
 20
236.2841028333
 30
0.0
 10
197.6962071277
 20
237.2951767833
 30
0.0
 10
196.8982595162
 20
238.8547099282
 30
0.0
 10
196.6265693263
 20
240.1812735484
 30
0.0
 10
196.6474784878
 20
241.0609740139
 30
0.0
 10
196.8943636027
 20
241.7911521638
 30
0.0
 10
197.2336193944
 20
242.1374235124
 30
0.0
 10
197.4204678701
 20
242.2453490676
 30
0.0
  0
SPLINE
  5
438
100
AcDbEntity
  8
0
100
AcDbSpline
 62
7
  6
CONTINUOUS
 70
0
 71
3
 72
9
 73
5
 74
0
 42
0.0000001
 43
0.0000001
 44
0.0000000001
 40
0.0
 40
0.0
 40
0.0
 40
0.0
 40
0.2215698534
 40
1.0
 40
1.0
 40
1.0
 40
1.0
 10
236.5530242396
 20
215.0187685633
 30
0.0
 10
236.4380289069
 20
214.9889151606
 30
0.0
 10
235.8997553067
 20
214.9242799765
 30
0.0
 10
235.3618025472
 20
215.1250766504
 30
0.0
 10
235.0003220698
 20
215.3337727799
 30
0.0
  0
SPLINE
  5
439
100
AcDbEntity
  8
0
100
AcDbSpline
 62
7
  6
CONTINUOUS
 70
0
 71
3
 72
9
 73
5
 74
0
 42
0.0000001
 43
0.0000001
 44
0.0000000001
 40
0.0
 40
0.0
 40
0.0
 40
0.0
 40
0.2321483489
 40
1.0
 40
1.0
 40
1.0
 40
1.0
 10
235.9086580229
 20
280.3152253884
 30
0.0
 10
235.8342817998
 20
280.3267724506
 30
0.0
 10
235.51675211
 20
280.3949389926
 30
0.0
 10
235.2159230819
 20
280.5294778436
 30
0.0
 10
235.0003220704
 20
280.6539523296
 30
0.0
  0
SPLINE
  5
43A
100
AcDbEntity
  8
0
100
AcDbSpline
 62
7
  6
CONTINUOUS
 70
0
 71
3
 72
13
 73
9
 74
0
 42
0.0000001
 43
0.0000001
 44
0.0000000001
 40
0.0
 40
0.0
 40
0.0
 40
0.0
 40
0.0871398422
 40
0.1868478565
 40
0.3045221706
 40
0.4386565006
 40
0.7300925043
 40
1.0
 40
1.0
 40
1.0
 40
1.0
 10
244.651131519
 20
63.8230793894
 30
0.0
 10
244.4287438518
 20
63.6946791387
 30
0.0
 10
243.870026541
 20
63.5510100737
 30
0.0
 10
242.9707144568
 20
63.7311975854
 30
0.0
 10
242.0517043294
 20
64.2328803493
 30
0.0
 10
240.8462468805
 20
65.3021354731
 30
0.0
 10
239.7138746037
 20
67.0523735505
 30
0.0
 10
239.2765557482
 20
68.701225122
 30
0.0
 10
239.2765557482
 20
69.4966189089
 30
0.0
  0
SPLINE
  5
43B
100
AcDbEntity
  8
0
100
AcDbSpline
 62
7
  6
CONTINUOUS
 70
0
 71
3
 72
13
 73
9
 74
0
 42
0.0000001
 43
0.0000001
 44
0.0000000001
 40
0.0
 40
0.0
 40
0.0
 40
0.0
 40
0.2699082264
 40
0.5613334118
 40
0.6954717832
 40
0.8131538634
 40
0.9128688632
 40
1.0
 40
1.0
 40
1.0
 40
1.0
 10
128.2267783798
 20
276.9780934953
 30
0.0
 10
127.6479049543
 20
277.3122986626
 30
0.0
 10
126.6316797505
 20
278.3233726126
 30
0.0
 10
125.8337321389
 20
279.8829057575
 30
0.0
 10
125.562041949
 20
281.2094693777
 30
0.0
 10
125.5829511105
 20
282.0891698432
 30
0.0
 10
125.8298362254
 20
282.8193479931
 30
0.0
 10
126.1690920171
 20
283.1656193417
 30
0.0
 10
126.3559404929
 20
283.2735448969
 30
0.0
  0
SPLINE
  5
43C
100
AcDbEntity
  8
0
100
AcDbSpline
 62
7
  6
CONTINUOUS
 70
0
 71
3
 72
11
 73
7
 74
0
 42
0.0000001
 43
0.0000001
 44
0.0000000001
 40
0.0
 40
0.0
 40
0.0
 40
0.0
 40
0.2177843137
 40
0.4509117637
 40
0.7102976701
 40
1.0
 40
1.0
 40
1.0
 40
1.0
 10
191.7618113624
 20
231.6336998313
 30
0.0
 10
191.512153112
 20
231.4895605439
 30
0.0
 10
190.938524468
 20
231.281386011
 30
0.0
 10
189.9857370657
 20
231.2572616173
 30
0.0
 10
188.9702889908
 20
231.5024742246
 30
0.0
 10
188.3096285322
 20
231.8167632197
 30
0.0
 10
187.9775253478
 20
232.008498745
 30
0.0
  0
SPLINE
  5
43D
100
AcDbEntity
  8
0
100
AcDbSpline
 62
7
  6
CONTINUOUS
 70
0
 71
3
 72
10
 73
6
 74
0
 42
0.0000001
 43
0.0000001
 44
0.0000000001
 40
0.0
 40
0.0
 40
0.0
 40
0.0
 40
0.2184752332
 40
0.4536438114
 40
1.0
 40
1.0
 40
1.0
 40
1.0
 10
171.4800325836
 20
266.7842179742
 30
0.0
 10
171.2584383979
 20
266.6271569381
 30
0.0
 10
170.8494652123
 20
266.2235422413
 30
0.0
 10
170.2460073308
 20
265.1223215649
 30
0.0
 10
170.1098198905
 20
264.1252284928
 30
0.0
 10
170.1098198905
 20
263.4459937657
 30
0.0
  0
SPLINE
  5
43E
100
AcDbEntity
  8
0
100
AcDbSpline
 62
7
  6
CONTINUOUS
 70
0
 71
3
 72
9
 73
5
 74
0
 42
0.0000001
 43
0.0000001
 44
0.0000000001
 40
0.0
 40
0.0
 40
0.0
 40
0.0
 40
0.2215698534
 40
1.0
 40
1.0
 40
1.0
 40
1.0
 10
165.4884968624
 20
256.0469643926
 30
0.0
 10
165.3735015296
 20
256.0171109899
 30
0.0
 10
164.8352279295
 20
255.9524758058
 30
0.0
 10
164.2972751699
 20
256.1532724797
 30
0.0
 10
163.9357946925
 20
256.3619686092
 30
0.0
  0
SPLINE
  5
43F
100
AcDbEntity
  8
0
100
AcDbSpline
 62
7
  6
CONTINUOUS
 70
0
 71
3
 72
13
 73
9
 74
0
 42
0.0000001
 43
0.0000001
 44
0.0000000001
 40
0.0
 40
0.0
 40
0.0
 40
0.0
 40
0.2698551351
 40
0.5612743559
 40
0.6954063233
 40
0.8130834918
 40
0.9127862365
 40
1.0
 40
1.0
 40
1.0
 40
1.0
 10
128.2268563206
 20
211.6578551268
 30
0.0
 10
127.6480965715
 20
211.9919946645
 30
0.0
 10
126.6319040738
 20
213.0028752414
 30
0.0
 10
125.8339470847
 20
214.5621840162
 30
0.0
 10
125.5620496622
 20
215.8887112616
 30
0.0
 10
125.5830983503
 20
216.7682754944
 30
0.0
 10
125.8294123791
 20
217.4988684348
 30
0.0
 10
126.1690253095
 20
217.8451271596
 30
0.0
 10
126.3560554248
 20
217.9531474959
 30
0.0
  0
SPLINE
  5
440
100
AcDbEntity
  8
0
100
AcDbSpline
 62
7
  6
CONTINUOUS
 70
0
 71
3
 72
9
 73
5
 74
0
 42
0.0000001
 43
0.0000001
 44
0.0000000001
 40
0.0
 40
0.0
 40
0.0
 40
0.0
 40
0.2215526063
 40
1.0
 40
1.0
 40
1.0
 40
1.0
 10
126.2996677807
 20
250.5282534141
 30
0.0
 10
126.2157757902
 20
250.4437096457
 30
0.0
 10
125.8886150559
 20
250.0095446218
 30
0.0
 10
125.7931387583
 20
249.4415245088
 30
0.0
 10
125.7931387583
 20
249.0230442682
 30
0.0
  0
SPLINE
  5
441
100
AcDbEntity
  8
0
100
AcDbSpline
 62
7
  6
CONTINUOUS
 70
0
 71
3
 72
13
 73
9
 74
0
 42
0.0000001
 43
0.0000001
 44
0.0000000001
 40
0.0
 40
0.0
 40
0.0
 40
0.0
 40
0.2698551351
 40
0.5612743558
 40
0.6954063233
 40
0.8130834918
 40
0.9127862365
 40
1.0
 40
1.0
 40
1.0
 40
1.0
 10
128.2268563224
 20
309.638145181
 30
0.0
 10
127.6480965732
 20
309.9722847187
 30
0.0
 10
126.6319040748
 20
310.9831652954
 30
0.0
 10
125.8339470851
 20
312.5424740705
 30
0.0
 10
125.5620496623
 20
313.8690013163
 30
0.0
 10
125.5830983502
 20
314.7485655494
 30
0.0
 10
125.829412379
 20
315.4791584902
 30
0.0
 10
126.1690253095
 20
315.8254172151
 30
0.0
 10
126.3560554248
 20
315.9334375514
 30
0.0
  0
SPLINE
  5
442
100
AcDbEntity
  8
0
100
AcDbSpline
 62
7
  6
CONTINUOUS
 70
0
 71
3
 72
9
 73
5
 74
0
 42
0.0000001
 43
0.0000001
 44
0.0000000001
 40
0.0
 40
0.0
 40
0.0
 40
0.0
 40
0.2215526063
 40
1.0
 40
1.0
 40
1.0
 40
1.0
 10
126.2996677807
 20
315.8484467845
 30
0.0
 10
126.2157757902
 20
315.7639030161
 30
0.0
 10
125.8886150559
 20
315.3297379922
 30
0.0
 10
125.7931387583
 20
314.7617178792
 30
0.0
 10
125.7931387583
 20
314.3432376386
 30
0.0
  0
SPLINE
  5
443
100
AcDbEntity
  8
0
100
AcDbSpline
 62
7
  6
CONTINUOUS
 70
0
 71
3
 72
9
 73
5
 74
0
 42
0.0000001
 43
0.0000001
 44
0.0000000001
 40
0.0
 40
0.0
 40
0.0
 40
0.0
 40
0.2321483489
 40
1.0
 40
1.0
 40
1.0
 40
1.0
 10
235.9086580229
 20
247.6551287032
 30
0.0
 10
235.8342817998
 20
247.6666757654
 30
0.0
 10
235.51675211
 20
247.7348423074
 30
0.0
 10
235.2159230819
 20
247.8693811584
 30
0.0
 10
235.0003220704
 20
247.9938556444
 30
0.0
  0
SPLINE
  5
444
100
AcDbEntity
  8
0
100
AcDbSpline
 62
7
  6
CONTINUOUS
 70
0
 71
3
 72
9
 73
5
 74
0
 42
0.0000001
 43
0.0000001
 44
0.0000000001
 40
0.0
 40
0.0
 40
0.0
 40
0.0
 40
0.2321483489
 40
1.0
 40
1.0
 40
1.0
 40
1.0
 10
235.9086580227
 20
149.6748386477
 30
0.0
 10
235.8342818001
 20
149.6863857098
 30
0.0
 10
235.5167521121
 20
149.7545522514
 30
0.0
 10
235.2159230855
 20
149.8890911011
 30
0.0
 10
235.0003220753
 20
150.0135655864
 30
0.0
  0
SPLINE
  5
445
100
AcDbEntity
  8
0
100
AcDbSpline
 62
7
  6
CONTINUOUS
 70
0
 71
3
 72
9
 73
5
 74
0
 42
0.0000001
 43
0.0000001
 44
0.0000000001
 40
0.0
 40
0.0
 40
0.0
 40
0.0
 40
0.2218866666
 40
1.0
 40
1.0
 40
1.0
 40
1.0
 10
126.2705762425
 20
283.1580703764
 30
0.0
 10
126.1913387713
 20
283.0729552643
 30
0.0
 10
125.8836344263
 20
282.6421758858
 30
0.0
 10
125.7931267896
 20
282.0909511587
 30
0.0
 10
125.7931267896
 20
281.6831478634
 30
0.0
  0
SPLINE
  5
446
100
AcDbEntity
  8
0
100
AcDbSpline
 62
7
  6
CONTINUOUS
 70
0
 71
3
 72
13
 73
9
 74
0
 42
0.0000001
 43
0.0000001
 44
0.0000000001
 40
0.0
 40
0.0
 40
0.0
 40
0.0
 40
0.3049303396
 40
0.5831204921
 40
0.7048563995
 40
0.8132788364
 40
0.9101153005
 40
1.0
 40
1.0
 40
1.0
 40
1.0
 10
120.1213889363
 20
422.0958437957
 30
0.0
 10
119.8706086452
 20
422.5803294589
 30
0.0
 10
119.2820114798
 20
423.4537988424
 30
0.0
 10
118.3320851989
 20
424.3122444722
 30
0.0
 10
117.5199815925
 20
424.7328943962
 30
0.0
 10
116.9502512333
 20
424.8884028188
 30
0.0
 10
116.4145165414
 20
424.8877283077
 30
0.0
 10
116.091707704
 20
424.7738973368
 30
0.0
 10
115.9524162526
 20
424.6935364605
 30
0.0
  0
SPLINE
  5
447
100
AcDbEntity
  8
0
100
AcDbSpline
 62
7
  6
CONTINUOUS
 70
0
 71
3
 72
13
 73
9
 74
0
 42
0.0000001
 43
0.0000001
 44
0.0000000001
 40
0.0
 40
0.0
 40
0.0
 40
0.0
 40
0.3165955939
 40
0.462262771
 40
0.5876842452
 40
0.6918002069
 40
0.7846261807
 40
1.0
 40
1.0
 40
1.0
 40
1.0
 10
118.42416604
 20
420.8392231341
 30
0.0
 10
118.2752042878
 20
421.2400805014
 30
0.0
 10
117.9411781047
 20
421.7922028814
 30
0.0
 10
117.3442953189
 20
422.3231230891
 30
0.0
 10
116.8874125986
 20
422.5579954376
 30
0.0
 10
116.4389335117
 20
422.6091494178
 30
0.0
 10
115.9059846054
 20
422.3535377776
 30
0.0
 10
115.7961688734
 20
421.8725289832
 30
0.0
 10
115.7961688734
 20
421.5816136071
 30
0.0
  0
SPLINE
  5
448
100
AcDbEntity
  8
0
100
AcDbSpline
 62
7
  6
CONTINUOUS
 70
0
 71
3
 72
14
 73
10
 74
0
 42
0.0000001
 43
0.0000001
 44
0.0000000001
 40
0.0
 40
0.0
 40
0.0
 40
0.0
 40
0.3048402203
 40
0.4377254258
 40
0.5454110266
 40
0.6361887781
 40
0.7339676495
 40
0.8555761696
 40
1.0
 40
1.0
 40
1.0
 40
1.0
 10
115.9674244266
 20
420.7080133386
 30
0.0
 10
116.1426624325
 20
420.2364463443
 30
0.0
 10
116.5528473728
 20
419.5978496696
 30
0.0
 10
117.2892372514
 20
419.0676458922
 30
0.0
 10
117.8373489654
 20
418.9127429031
 30
0.0
 10
118.3345706859
 20
419.0934971031
 30
0.0
 10
118.5920571184
 20
419.5744629499
 30
0.0
 10
118.6148743974
 20
420.1843928533
 30
0.0
 10
118.5071883658
 20
420.6158093353
 30
0.0
 10
118.42416604
 20
420.8392231341
 30
0.0
  0
SPLINE
  5
449
100
AcDbEntity
  8
0
100
AcDbSpline
 62
7
  6
CONTINUOUS
 70
0
 71
3
 72
9
 73
5
 74
0
 42
0.0000001
 43
0.0000001
 44
0.0000000001
 40
0.0
 40
0.0
 40
0.0
 40
0.0
 40
0.2347378742
 40
1.0
 40
1.0
 40
1.0
 40
1.0
 10
115.7961688734
 20
421.5816136071
 30
0.0
 10
115.7961688734
 20
421.5234249533
 30
0.0
 10
115.8077888526
 20
421.2755608803
 30
0.0
 10
115.8612960719
 20
421.0306291341
 30
0.0
 10
115.918624654
 20
420.84979994
 30
0.0
  0
SPLINE
  5
44A
100
AcDbEntity
  8
0
100
AcDbSpline
 62
7
  6
CONTINUOUS
 70
0
 71
3
 72
9
 73
5
 74
0
 42
0.0000001
 43
0.0000001
 44
0.0000000001
 40
0.0
 40
0.0
 40
0.0
 40
0.0
 40
0.2218866666
 40
1.0
 40
1.0
 40
1.0
 40
1.0
 10
197.3351036198
 20
242.1298745471
 30
0.0
 10
197.2558661486
 20
242.044759435
 30
0.0
 10
196.9481618036
 20
241.6139800565
 30
0.0
 10
196.8576541669
 20
241.0627553294
 30
0.0
 10
196.8576541669
 20
240.6549520341
 30
0.0
  0
SPLINE
  5
44B
100
AcDbEntity
  8
0
100
AcDbSpline
 62
7
  6
CONTINUOUS
 70
0
 71
3
 72
13
 73
9
 74
0
 42
0.0000001
 43
0.0000001
 44
0.0000000001
 40
0.0
 40
0.0
 40
0.0
 40
0.0
 40
0.3165955939
 40
0.462262771
 40
0.5876842452
 40
0.6918002069
 40
0.7846261807
 40
1.0
 40
1.0
 40
1.0
 40
1.0
 10
247.8252457419
 20
346.1311650569
 30
0.0
 10
247.6762839897
 20
346.5320224242
 30
0.0
 10
247.3422578066
 20
347.0841448042
 30
0.0
 10
246.7453750208
 20
347.6150650119
 30
0.0
 10
246.2884923005
 20
347.8499373604
 30
0.0
 10
245.8400132136
 20
347.9010913406
 30
0.0
 10
245.3070643073
 20
347.6454797004
 30
0.0
 10
245.1972485753
 20
347.164470906
 30
0.0
 10
245.1972485753
 20
346.8735555298
 30
0.0
  0
SPLINE
  5
44C
100
AcDbEntity
  8
0
100
AcDbSpline
 62
7
  6
CONTINUOUS
 70
0
 71
3
 72
14
 73
10
 74
0
 42
0.0000001
 43
0.0000001
 44
0.0000000001
 40
0.0
 40
0.0
 40
0.0
 40
0.0
 40
0.3048402203
 40
0.4377254258
 40
0.5454110266
 40
0.6361887781
 40
0.7339676495
 40
0.8555761696
 40
1.0
 40
1.0
 40
1.0
 40
1.0
 10
245.3685041285
 20
345.9999552614
 30
0.0
 10
245.5437421345
 20
345.5283882671
 30
0.0
 10
245.9539270746
 20
344.8897915924
 30
0.0
 10
246.6903169533
 20
344.359587815
 30
0.0
 10
247.2384286673
 20
344.2046848259
 30
0.0
 10
247.7356503878
 20
344.3854390259
 30
0.0
 10
247.9931368202
 20
344.8664048727
 30
0.0
 10
248.0159540993
 20
345.476334776
 30
0.0
 10
247.9082680676
 20
345.9077512581
 30
0.0
 10
247.8252457419
 20
346.1311650569
 30
0.0
  0
SPLINE
  5
44D
100
AcDbEntity
  8
0
100
AcDbSpline
 62
7
  6
CONTINUOUS
 70
0
 71
3
 72
9
 73
5
 74
0
 42
0.0000001
 43
0.0000001
 44
0.0000000001
 40
0.0
 40
0.0
 40
0.0
 40
0.0
 40
0.2329763759
 40
1.0
 40
1.0
 40
1.0
 40
1.0
 10
245.1972485753
 20
346.8735555298
 30
0.0
 10
245.1972485753
 20
346.8042125036
 30
0.0
 10
245.2138637205
 20
346.5066102722
 30
0.0
 10
245.2890233352
 20
346.2139697227
 30
0.0
 10
245.3685041285
 20
345.9999552614
 30
0.0
  0
SPLINE
  5
44E
100
AcDbEntity
  8
0
100
AcDbSpline
 62
7
  6
CONTINUOUS
 70
0
 71
3
 72
13
 73
9
 74
0
 42
0.0000001
 43
0.0000001
 44
0.0000000001
 40
0.0
 40
0.0
 40
0.0
 40
0.0
 40
0.2986347931
 40
0.5811653827
 40
0.7056358894
 40
0.8155325743
 40
0.9119761896
 40
1.0
 40
1.0
 40
1.0
 40
1.0
 10
249.8542140176
 20
346.6403473619
 30
0.0
 10
249.6399159506
 20
347.2170253191
 30
0.0
 10
249.0643392077
 20
348.2837859465
 30
0.0
 10
248.0560241503
 20
349.3630581306
 30
0.0
 10
247.1474547736
 20
349.9302089974
 30
0.0
 10
246.4987770502
 20
350.160624526
 30
0.0
 10
245.8831139037
 20
350.1971796884
 30
0.0
 10
245.510565597
 20
350.0760959624
 30
0.0
 10
245.3534959545
 20
349.9854783833
 30
0.0
  0
SPLINE
  5
44F
100
AcDbEntity
  8
0
100
AcDbSpline
 62
7
  6
CONTINUOUS
 70
0
 71
3
 72
13
 73
9
 74
0
 42
0.0000001
 43
0.0000001
 44
0.0000000001
 40
0.0
 40
0.0
 40
0.0
 40
0.0
 40
0.2698551351
 40
0.5612743559
 40
0.6954063233
 40
0.8130834918
 40
0.9127862365
 40
1.0
 40
1.0
 40
1.0
 40
1.0
 10
128.2268563206
 20
244.317951812
 30
0.0
 10
127.6480965715
 20
244.6520913497
 30
0.0
 10
126.6319040738
 20
245.6629719266
 30
0.0
 10
125.8339470847
 20
247.2222807014
 30
0.0
 10
125.5620496622
 20
248.5488079468
 30
0.0
 10
125.5830983503
 20
249.4283721795
 30
0.0
 10
125.8294123791
 20
250.15896512
 30
0.0
 10
126.1690253095
 20
250.5052238448
 30
0.0
 10
126.3560554248
 20
250.6132441811
 30
0.0
  0
SPLINE
  5
450
100
AcDbEntity
  8
0
100
AcDbSpline
 62
7
  6
CONTINUOUS
 70
0
 71
3
 72
9
 73
5
 74
0
 42
0.0000001
 43
0.0000001
 44
0.0000000001
 40
0.0
 40
0.0
 40
0.0
 40
0.0
 40
0.2218866666
 40
1.0
 40
1.0
 40
1.0
 40
1.0
 10
126.2705762425
 20
152.5176836356
 30
0.0
 10
126.1913387713
 20
152.4325685235
 30
0.0
 10
125.8836344263
 20
152.0017891451
 30
0.0
 10
125.7931267896
 20
151.450564418
 30
0.0
 10
125.7931267896
 20
151.0427611227
 30
0.0
  0
SPLINE
  5
451
100
AcDbEntity
  8
0
100
AcDbSpline
 62
7
  6
CONTINUOUS
 70
0
 71
3
 72
11
 73
7
 74
0
 42
0.0000001
 43
0.0000001
 44
0.0000000001
 40
0.0
 40
0.0
 40
0.0
 40
0.0
 40
0.2372547226
 40
0.5000028922
 40
0.7627489101
 40
1.0
 40
1.0
 40
1.0
 40
1.0
 10
125.7931387583
 20
379.663431009
 30
0.0
 10
125.7931387583
 20
379.2296671421
 30
0.0
 10
125.9557748198
 20
378.3149140702
 30
0.0
 10
126.5230525581
 20
377.0297236383
 30
0.0
 10
127.3524500109
 20
375.895878922
 30
0.0
 10
128.0633407955
 20
375.2976866018
 30
0.0
 10
128.4389876963
 20
375.0808116689
 30
0.0
  0
SPLINE
  5
452
100
AcDbEntity
  8
0
100
AcDbSpline
 62
7
  6
CONTINUOUS
 70
0
 71
3
 72
9
 73
5
 74
0
 42
0.0000001
 43
0.0000001
 44
0.0000000001
 40
0.0
 40
0.0
 40
0.0
 40
0.0
 40
0.2650319743
 40
1.0
 40
1.0
 40
1.0
 40
1.0
 10
236.120789174
 20
313.0977953197
 30
0.0
 10
236.1881376968
 20
313.0873393226
 30
0.0
 10
236.4438442867
 20
313.0611236518
 30
0.0
 10
236.7077913159
 20
313.0943641325
 30
0.0
 10
236.88539678
 20
313.159006731
 30
0.0
  0
SPLINE
  5
453
100
AcDbEntity
  8
0
100
AcDbSpline
 62
7
  6
CONTINUOUS
 70
0
 71
3
 72
9
 73
5
 74
0
 42
0.0000001
 43
0.0000001
 44
0.0000000001
 40
0.0
 40
0.0
 40
0.0
 40
0.0
 40
0.2690754404
 40
1.0
 40
1.0
 40
1.0
 40
1.0
 10
235.2124532216
 20
313.4365222609
 30
0.0
 10
235.287981845
 20
313.3929167763
 30
0.0
 10
235.5742782749
 20
313.2414297446
 30
0.0
 10
235.8866871793
 20
313.1341401377
 30
0.0
 10
236.120789174
 20
313.0977953197
 30
0.0
  0
SPLINE
  5
454
100
AcDbEntity
  8
0
100
AcDbSpline
 62
7
  6
CONTINUOUS
 70
0
 71
3
 72
9
 73
5
 74
0
 42
0.0000001
 43
0.0000001
 44
0.0000000001
 40
0.0
 40
0.0
 40
0.0
 40
0.0
 40
0.2218866666
 40
1.0
 40
1.0
 40
1.0
 40
1.0
 10
203.6990911461
 20
107.8153210157
 30
0.0
 10
203.6198536749
 20
107.7302059036
 30
0.0
 10
203.3121493299
 20
107.2994265251
 30
0.0
 10
203.2216416932
 20
106.748201798
 30
0.0
 10
203.2216416932
 20
106.3403985027
 30
0.0
  0
SPLINE
  5
455
100
AcDbEntity
  8
0
100
AcDbSpline
 62
7
  6
CONTINUOUS
 70
0
 71
3
 72
9
 73
5
 74
0
 42
0.0000001
 43
0.0000001
 44
0.0000000001
 40
0.0
 40
0.0
 40
0.0
 40
0.0
 40
0.2321483489
 40
1.0
 40
1.0
 40
1.0
 40
1.0
 10
235.9086580227
 20
182.3349353329
 30
0.0
 10
235.8342818001
 20
182.346482395
 30
0.0
 10
235.5167521121
 20
182.4146489366
 30
0.0
 10
235.2159230855
 20
182.5491877863
 30
0.0
 10
235.0003220753
 20
182.6736622716
 30
0.0
  0
SPLINE
  5
456
100
AcDbEntity
  8
0
100
AcDbSpline
 62
7
  6
CONTINUOUS
 70
0
 71
3
 72
11
 73
7
 74
0
 42
0.0000001
 43
0.0000001
 44
0.0000000001
 40
0.0
 40
0.0
 40
0.0
 40
0.0
 40
0.2372547226
 40
0.5000028922
 40
0.7627489101
 40
1.0
 40
1.0
 40
1.0
 40
1.0
 10
125.7931387583
 20
347.0033343238
 30
0.0
 10
125.7931387583
 20
346.5695704569
 30
0.0
 10
125.9557748198
 20
345.654817385
 30
0.0
 10
126.5230525581
 20
344.3696269531
 30
0.0
 10
127.3524500109
 20
343.2357822369
 30
0.0
 10
128.0633407955
 20
342.6375899166
 30
0.0
 10
128.4389876963
 20
342.4207149837
 30
0.0
  0
SPLINE
  5
457
100
AcDbEntity
  8
0
100
AcDbSpline
 62
7
  6
CONTINUOUS
 70
0
 71
3
 72
9
 73
5
 74
0
 42
0.0000001
 43
0.0000001
 44
0.0000000001
 40
0.0
 40
0.0
 40
0.0
 40
0.0
 40
0.2215526063
 40
1.0
 40
1.0
 40
1.0
 40
1.0
 10
126.2996677807
 20
185.2080600438
 30
0.0
 10
126.2157757902
 20
185.1235162754
 30
0.0
 10
125.8886150559
 20
184.6893512514
 30
0.0
 10
125.7931387583
 20
184.1213311384
 30
0.0
 10
125.7931387583
 20
183.7028508979
 30
0.0
  0
SPLINE
  5
458
100
AcDbEntity
  8
0
100
AcDbSpline
 62
7
  6
CONTINUOUS
 70
0
 71
3
 72
9
 73
5
 74
0
 42
0.0000001
 43
0.0000001
 44
0.0000000001
 40
0.0
 40
0.0
 40
0.0
 40
0.0
 40
0.2650319743
 40
1.0
 40
1.0
 40
1.0
 40
1.0
 10
236.120789174
 20
280.4376986346
 30
0.0
 10
236.1881376968
 20
280.4272426374
 30
0.0
 10
236.4438442867
 20
280.4010269666
 30
0.0
 10
236.7077913159
 20
280.4342674473
 30
0.0
 10
236.88539678
 20
280.4989100458
 30
0.0
  0
SPLINE
  5
459
100
AcDbEntity
  8
0
100
AcDbSpline
 62
7
  6
CONTINUOUS
 70
0
 71
3
 72
9
 73
5
 74
0
 42
0.0000001
 43
0.0000001
 44
0.0000000001
 40
0.0
 40
0.0
 40
0.0
 40
0.0
 40
0.2690754404
 40
1.0
 40
1.0
 40
1.0
 40
1.0
 10
235.2124532216
 20
280.7764255757
 30
0.0
 10
235.287981845
 20
280.7328200912
 30
0.0
 10
235.5742782749
 20
280.5813330594
 30
0.0
 10
235.8866871793
 20
280.4740434525
 30
0.0
 10
236.120789174
 20
280.4376986346
 30
0.0
  0
SPLINE
  5
45A
100
AcDbEntity
  8
0
100
AcDbSpline
 62
7
  6
CONTINUOUS
 70
0
 71
3
 72
9
 73
5
 74
0
 42
0.0000001
 43
0.0000001
 44
0.0000000001
 40
0.0
 40
0.0
 40
0.0
 40
0.0
 40
0.2215526063
 40
1.0
 40
1.0
 40
1.0
 40
1.0
 10
126.2996677807
 20
217.8681567289
 30
0.0
 10
126.2157757902
 20
217.7836129606
 30
0.0
 10
125.8886150559
 20
217.3494479366
 30
0.0
 10
125.7931387583
 20
216.7814278236
 30
0.0
 10
125.7931387583
 20
216.3629475831
 30
0.0
  0
SPLINE
  5
45B
100
AcDbEntity
  8
0
100
AcDbSpline
 62
7
  6
CONTINUOUS
 70
0
 71
3
 72
13
 73
9
 74
0
 42
0.0000001
 43
0.0000001
 44
0.0000000001
 40
0.0
 40
0.0
 40
0.0
 40
0.0
 40
0.2698551351
 40
0.5612743559
 40
0.6954063233
 40
0.8130834918
 40
0.9127862365
 40
1.0
 40
1.0
 40
1.0
 40
1.0
 10
128.2268563206
 20
178.9977584416
 30
0.0
 10
127.6480965715
 20
179.3318979793
 30
0.0
 10
126.6319040738
 20
180.3427785562
 30
0.0
 10
125.8339470847
 20
181.902087331
 30
0.0
 10
125.5620496622
 20
183.2286145765
 30
0.0
 10
125.5830983503
 20
184.1081788092
 30
0.0
 10
125.8294123791
 20
184.8387717497
 30
0.0
 10
126.1690253095
 20
185.1850304744
 30
0.0
 10
126.3560554248
 20
185.2930508107
 30
0.0
  0
SPLINE
  5
45C
100
AcDbEntity
  8
0
100
AcDbSpline
 62
7
  6
CONTINUOUS
 70
0
 71
3
 72
11
 73
7
 74
0
 42
0.0000001
 43
0.0000001
 44
0.0000000001
 40
0.0
 40
0.0
 40
0.0
 40
0.0
 40
0.2372547225
 40
0.5000028922
 40
0.7627489101
 40
1.0
 40
1.0
 40
1.0
 40
1.0
 10
125.7931387583
 20
216.3629475831
 30
0.0
 10
125.7931387583
 20
215.9291837164
 30
0.0
 10
125.9557748196
 20
215.0144306449
 30
0.0
 10
126.5230525576
 20
213.7292402135
 30
0.0
 10
127.3524500097
 20
212.5953954975
 30
0.0
 10
128.0633407939
 20
211.9972031772
 30
0.0
 10
128.4389876946
 20
211.7803282443
 30
0.0
  0
SPLINE
  5
45D
100
AcDbEntity
  8
0
100
AcDbSpline
 62
7
  6
CONTINUOUS
 70
0
 71
3
 72
9
 73
5
 74
0
 42
0.0000001
 43
0.0000001
 44
0.0000000001
 40
0.0
 40
0.0
 40
0.0
 40
0.0
 40
0.2215526063
 40
1.0
 40
1.0
 40
1.0
 40
1.0
 10
126.2996677807
 20
348.5085434697
 30
0.0
 10
126.2157757902
 20
348.4239997013
 30
0.0
 10
125.8886150559
 20
347.9898346774
 30
0.0
 10
125.7931387583
 20
347.4218145644
 30
0.0
 10
125.7931387583
 20
347.0033343238
 30
0.0
  0
SPLINE
  5
45E
100
AcDbEntity
  8
0
100
AcDbSpline
 62
7
  6
CONTINUOUS
 70
0
 71
3
 72
9
 73
5
 74
0
 42
0.0000001
 43
0.0000001
 44
0.0000000001
 40
0.0
 40
0.0
 40
0.0
 40
0.0
 40
0.2650319743
 40
1.0
 40
1.0
 40
1.0
 40
1.0
 10
236.1207891739
 20
149.7973118938
 30
0.0
 10
236.1881376967
 20
149.7868558967
 30
0.0
 10
236.4438442867
 20
149.7606402259
 30
0.0
 10
236.7077913159
 20
149.7938807066
 30
0.0
 10
236.8853967801
 20
149.8585233051
 30
0.0
  0
SPLINE
  5
45F
100
AcDbEntity
  8
0
100
AcDbSpline
 62
7
  6
CONTINUOUS
 70
0
 71
3
 72
9
 73
5
 74
0
 42
0.0000001
 43
0.0000001
 44
0.0000000001
 40
0.0
 40
0.0
 40
0.0
 40
0.0
 40
0.2690754404
 40
1.0
 40
1.0
 40
1.0
 40
1.0
 10
235.2124532264
 20
150.1360388325
 30
0.0
 10
235.2879818494
 20
150.0924333482
 30
0.0
 10
235.5742782778
 20
149.9409463175
 30
0.0
 10
235.8866871805
 20
149.8336567116
 30
0.0
 10
236.1207891739
 20
149.7973118938
 30
0.0
  0
SPLINE
  5
460
100
AcDbEntity
  8
0
100
AcDbSpline
 62
7
  6
CONTINUOUS
 70
0
 71
3
 72
9
 73
5
 74
0
 42
0.0000001
 43
0.0000001
 44
0.0000000001
 40
0.0
 40
0.0
 40
0.0
 40
0.0
 40
0.2215526063
 40
1.0
 40
1.0
 40
1.0
 40
1.0
 10
126.2996677807
 20
381.1686401548
 30
0.0
 10
126.2157757902
 20
381.0840963865
 30
0.0
 10
125.8886150559
 20
380.6499313625
 30
0.0
 10
125.7931387583
 20
380.0819112495
 30
0.0
 10
125.7931387583
 20
379.663431009
 30
0.0
  0
SPLINE
  5
461
100
AcDbEntity
  8
0
100
AcDbSpline
 62
7
  6
CONTINUOUS
 70
0
 71
3
 72
11
 73
7
 74
0
 42
0.0000001
 43
0.0000001
 44
0.0000000001
 40
0.0
 40
0.0
 40
0.0
 40
0.0
 40
0.2372547225
 40
0.5000028922
 40
0.7627489101
 40
1.0
 40
1.0
 40
1.0
 40
1.0
 10
125.7931387583
 20
183.7028508979
 30
0.0
 10
125.7931387583
 20
183.2690870312
 30
0.0
 10
125.9557748196
 20
182.3543339597
 30
0.0
 10
126.5230525576
 20
181.0691435283
 30
0.0
 10
127.3524500097
 20
179.9352988123
 30
0.0
 10
128.0633407939
 20
179.337106492
 30
0.0
 10
128.4389876946
 20
179.1202315591
 30
0.0
  0
SPLINE
  5
462
100
AcDbEntity
  8
0
100
AcDbSpline
 62
7
  6
CONTINUOUS
 70
0
 71
3
 72
9
 73
5
 74
0
 42
0.0000001
 43
0.0000001
 44
0.0000000001
 40
0.0
 40
0.0
 40
0.0
 40
0.0
 40
0.2650319743
 40
1.0
 40
1.0
 40
1.0
 40
1.0
 10
236.1207891739
 20
117.1372152087
 30
0.0
 10
236.1881376967
 20
117.1267592115
 30
0.0
 10
236.4438442867
 20
117.1005435407
 30
0.0
 10
236.7077913159
 20
117.1337840214
 30
0.0
 10
236.8853967801
 20
117.1984266199
 30
0.0
  0
SPLINE
  5
463
100
AcDbEntity
  8
0
100
AcDbSpline
 62
7
  6
CONTINUOUS
 70
0
 71
3
 72
9
 73
5
 74
0
 42
0.0000001
 43
0.0000001
 44
0.0000000001
 40
0.0
 40
0.0
 40
0.0
 40
0.0
 40
0.2690754404
 40
1.0
 40
1.0
 40
1.0
 40
1.0
 10
235.2124532264
 20
117.4759421474
 30
0.0
 10
235.2879818494
 20
117.432336663
 30
0.0
 10
235.5742782778
 20
117.2808496323
 30
0.0
 10
235.8866871805
 20
117.1735600264
 30
0.0
 10
236.1207891739
 20
117.1372152087
 30
0.0
  0
SPLINE
  5
464
100
AcDbEntity
  8
0
100
AcDbSpline
 62
7
  6
CONTINUOUS
 70
0
 71
3
 72
13
 73
9
 74
0
 42
0.0000001
 43
0.0000001
 44
0.0000000001
 40
0.0
 40
0.0
 40
0.0
 40
0.0
 40
0.0880189898
 40
0.1844565507
 40
0.2943459448
 40
0.4188096729
 40
0.7013369246
 40
1.0
 40
1.0
 40
1.0
 40
1.0
 10
246.7807021529
 20
350.8094230185
 30
0.0
 10
246.9377591549
 20
350.900039683
 30
0.0
 10
247.31028587
 20
351.0211056054
 30
0.0
 10
247.9259040478
 20
350.9845813289
 30
0.0
 10
248.5745446558
 20
350.7541977315
 30
0.0
 10
249.4830952666
 20
350.1871042086
 30
0.0
 10
250.4914690651
 20
349.1078497449
 30
0.0
 10
251.0670827162
 20
348.0410561505
 30
0.0
 10
251.281399335
 20
347.4643282704
 30
0.0
  0
SPLINE
  5
465
100
AcDbEntity
  8
0
100
AcDbSpline
 62
7
  6
CONTINUOUS
 70
0
 71
3
 72
9
 73
5
 74
0
 42
0.0000001
 43
0.0000001
 44
0.0000000001
 40
0.0
 40
0.0
 40
0.0
 40
0.0
 40
0.2321483489
 40
1.0
 40
1.0
 40
1.0
 40
1.0
 10
235.9086580227
 20
117.0147419625
 30
0.0
 10
235.8342818001
 20
117.0262890246
 30
0.0
 10
235.5167521121
 20
117.0944555662
 30
0.0
 10
235.2159230855
 20
117.2289944159
 30
0.0
 10
235.0003220753
 20
117.3534689012
 30
0.0
  0
SPLINE
  5
466
100
AcDbEntity
  8
0
100
AcDbSpline
 62
7
  6
CONTINUOUS
 70
0
 71
3
 72
11
 73
7
 74
0
 42
0.0000001
 43
0.0000001
 44
0.0000000001
 40
0.0
 40
0.0
 40
0.0
 40
0.0
 40
0.2372541688
 40
0.5000016977
 40
0.7627481489
 40
1.0
 40
1.0
 40
1.0
 40
1.0
 10
203.2216416932
 20
106.3403985027
 30
0.0
 10
203.2216416932
 20
105.9066411675
 30
0.0
 10
203.3842721438
 20
104.9919018274
 30
0.0
 10
203.9515345626
 20
103.7067258798
 30
0.0
 10
204.7809086017
 20
102.5728864935
 30
0.0
 10
205.491783954
 20
101.9746886071
 30
0.0
 10
205.8674272802
 20
101.7578157379
 30
0.0
  0
SPLINE
  5
467
100
AcDbEntity
  8
0
100
AcDbSpline
 62
7
  6
CONTINUOUS
 70
0
 71
3
 72
13
 73
9
 74
0
 42
0.0000001
 43
0.0000001
 44
0.0000000001
 40
0.0
 40
0.0
 40
0.0
 40
0.0
 40
0.2698551351
 40
0.5612743558
 40
0.6954063233
 40
0.8130834918
 40
0.9127862365
 40
1.0
 40
1.0
 40
1.0
 40
1.0
 10
128.2268563224
 20
374.9583385513
 30
0.0
 10
127.6480965732
 20
375.2924780891
 30
0.0
 10
126.6319040748
 20
376.3033586657
 30
0.0
 10
125.8339470851
 20
377.8626674409
 30
0.0
 10
125.5620496623
 20
379.1891946867
 30
0.0
 10
125.5830983502
 20
380.0687589198
 30
0.0
 10
125.829412379
 20
380.7993518606
 30
0.0
 10
126.1690253095
 20
381.1456105855
 30
0.0
 10
126.3560554248
 20
381.2536309218
 30
0.0
  0
SPLINE
  5
468
100
AcDbEntity
  8
0
100
AcDbSpline
 62
7
  6
CONTINUOUS
 70
0
 71
3
 72
9
 73
5
 74
0
 42
0.0000001
 43
0.0000001
 44
0.0000000001
 40
0.0
 40
0.0
 40
0.0
 40
0.0
 40
0.2730898626
 40
1.0
 40
1.0
 40
1.0
 40
1.0
 10
235.212453221
 20
84.8158592854
 30
0.0
 10
235.3021105275
 20
84.7640967863
 30
0.0
 10
235.6379316114
 20
84.5893484295
 30
0.0
 10
236.0117641098
 20
84.4764346588
 30
0.0
 10
236.2867676775
 20
84.458816558
 30
0.0
  0
SPLINE
  5
469
100
AcDbEntity
  8
0
100
AcDbSpline
 62
7
  6
CONTINUOUS
 70
0
 71
3
 72
9
 73
5
 74
0
 42
0.0000001
 43
0.0000001
 44
0.0000000001
 40
0.0
 40
0.0
 40
0.0
 40
0.0
 40
0.2595642107
 40
1.0
 40
1.0
 40
1.0
 40
1.0
 10
236.2867676775
 20
84.458816558
 30
0.0
 10
236.3283292433
 20
84.4561539167
 30
0.0
 10
236.4887130346
 20
84.4515646068
 30
0.0
 10
236.6501650547
 20
84.4710029632
 30
0.0
 10
236.7651553908
 20
84.5008550687
 30
0.0
  0
SPLINE
  5
46A
100
AcDbEntity
  8
0
100
AcDbSpline
 62
7
  6
CONTINUOUS
 70
0
 71
3
 72
11
 73
7
 74
0
 42
0.0000001
 43
0.0000001
 44
0.0000000001
 40
0.0
 40
0.0
 40
0.0
 40
0.0
 40
0.2897033281
 40
0.5490895197
 40
0.7822165952
 40
1.0
 40
1.0
 40
1.0
 40
1.0
 10
169.8976887393
 20
263.3235205196
 30
0.0
 10
169.8976887393
 20
263.7070096493
 30
0.0
 10
169.955831334
 20
264.4363246973
 30
0.0
 10
170.25119518
 20
265.4383653537
 30
0.0
 10
170.7484898011
 20
266.2514646792
 30
0.0
 10
171.2156003935
 20
266.6441639361
 30
0.0
 10
171.4652642759
 20
266.7883064751
 30
0.0
  0
SPLINE
  5
46B
100
AcDbEntity
  8
0
100
AcDbSpline
 62
7
  6
CONTINUOUS
 70
0
 71
3
 72
11
 73
7
 74
0
 42
0.0000001
 43
0.0000001
 44
0.0000000001
 40
0.0
 40
0.0
 40
0.0
 40
0.0
 40
0.2372541688
 40
0.5000016977
 40
0.7627481489
 40
1.0
 40
1.0
 40
1.0
 40
1.0
 10
125.7931267896
 20
151.0427611227
 30
0.0
 10
125.7931267896
 20
150.6090037875
 30
0.0
 10
125.9557572402
 20
149.6942644474
 30
0.0
 10
126.5230196591
 20
148.4090884998
 30
0.0
 10
127.3523936981
 20
147.2752491135
 30
0.0
 10
128.0632690504
 20
146.6770512271
 30
0.0
 10
128.4389123766
 20
146.4601783579
 30
0.0
  0
SPLINE
  5
46C
100
AcDbEntity
  8
0
100
AcDbSpline
 62
7
  6
CONTINUOUS
 70
0
 71
3
 72
11
 73
7
 74
0
 42
0.0000001
 43
0.0000001
 44
0.0000000001
 40
0.0
 40
0.0
 40
0.0
 40
0.0
 40
0.1945892363
 40
0.421536488
 40
0.6923336962
 40
1.0
 40
1.0
 40
1.0
 40
1.0
 10
249.3700147709
 20
343.0286222024
 30
0.0
 10
249.5896682378
 20
343.1553412493
 30
0.0
 10
249.983781008
 20
343.5806907255
 30
0.0
 10
250.2303374724
 20
344.4708680566
 30
0.0
 10
250.1925782402
 20
345.5306746863
 30
0.0
 10
249.9938768529
 20
346.2645134608
 30
0.0
 10
249.8542140176
 20
346.6403473619
 30
0.0
  0
SPLINE
  5
46D
100
AcDbEntity
  8
0
100
AcDbSpline
 62
7
  6
CONTINUOUS
 70
0
 71
3
 72
11
 73
7
 74
0
 42
0.0000001
 43
0.0000001
 44
0.0000000001
 40
0.0
 40
0.0
 40
0.0
 40
0.0
 40
0.2372397681
 40
0.4999988394
 40
0.7627585385
 40
1.0
 40
1.0
 40
1.0
 40
1.0
 10
175.2495502804
 20
239.3568323364
 30
0.0
 10
174.4897367139
 20
239.7955009795
 30
0.0
 10
173.0518929159
 20
241.0056282816
 30
0.0
 10
171.3737337941
 20
243.2988835479
 30
0.0
 10
170.2267814712
 20
245.89884006
 30
0.0
 10
169.897688738
 20
247.7491185602
 30
0.0
 10
169.897688738
 20
248.6264769951
 30
0.0
  0
SPLINE
  5
46E
100
AcDbEntity
  8
0
100
AcDbSpline
 62
7
  6
CONTINUOUS
 70
0
 71
3
 72
9
 73
5
 74
0
 42
0.0000001
 43
0.0000001
 44
0.0000000001
 40
0.0
 40
0.0
 40
0.0
 40
0.0
 40
0.2730898626
 40
1.0
 40
1.0
 40
1.0
 40
1.0
 10
157.7839383174
 20
129.5182219054
 30
0.0
 10
157.8735956239
 20
129.4664594063
 30
0.0
 10
158.2094167078
 20
129.2917110494
 30
0.0
 10
158.5832492062
 20
129.1787972788
 30
0.0
 10
158.8582527739
 20
129.161179178
 30
0.0
  0
SPLINE
  5
46F
100
AcDbEntity
  8
0
100
AcDbSpline
 62
7
  6
CONTINUOUS
 70
0
 71
3
 72
9
 73
5
 74
0
 42
0.0000001
 43
0.0000001
 44
0.0000000001
 40
0.0
 40
0.0
 40
0.0
 40
0.0
 40
0.2595642107
 40
1.0
 40
1.0
 40
1.0
 40
1.0
 10
158.8582527739
 20
129.161179178
 30
0.0
 10
158.8998143397
 20
129.1585165367
 30
0.0
 10
159.060198131
 20
129.1539272267
 30
0.0
 10
159.2216501511
 20
129.1733655832
 30
0.0
 10
159.3366404872
 20
129.2032176887
 30
0.0
  0
SPLINE
  5
470
100
AcDbEntity
  8
0
100
AcDbSpline
 62
7
  6
CONTINUOUS
 70
0
 71
3
 72
11
 73
7
 74
0
 42
0.0000001
 43
0.0000001
 44
0.0000000001
 40
0.0
 40
0.0
 40
0.0
 40
0.0
 40
0.2186789018
 40
0.4497408276
 40
0.7080180675
 40
1.0
 40
1.0
 40
1.0
 40
1.0
 10
247.6686994445
 20
54.8331592663
 30
0.0
 10
248.0307273461
 20
54.9817585023
 30
0.0
 10
248.7228321677
 20
55.4352505025
 30
0.0
 10
249.4739803711
 20
56.4845273121
 30
0.0
 10
249.9160732831
 20
57.8280571781
 30
0.0
 10
250.0023826276
 20
58.8168396171
 30
0.0
 10
250.0023826201
 20
59.3393583084
 30
0.0
  0
SPLINE
  5
471
100
AcDbEntity
  8
0
100
AcDbSpline
 62
7
  6
CONTINUOUS
 70
0
 71
3
 72
9
 73
5
 74
0
 42
0.0000001
 43
0.0000001
 44
0.0000000001
 40
0.0
 40
0.0
 40
0.0
 40
0.0
 40
0.550850831
 40
1.0
 40
1.0
 40
1.0
 40
1.0
 10
239.2765557482
 20
69.4966189089
 30
0.0
 10
239.2765557482
 20
69.9218897251
 30
0.0
 10
239.3796475574
 20
70.7121045099
 30
0.0
 10
239.8985213241
 20
71.3613782045
 30
0.0
 10
240.1988168446
 20
71.5347602118
 30
0.0
  0
SPLINE
  5
472
100
AcDbEntity
  8
0
100
AcDbSpline
 62
7
  6
CONTINUOUS
 70
0
 71
3
 72
11
 73
7
 74
0
 42
0.0000001
 43
0.0000001
 44
0.0000000001
 40
0.0
 40
0.0
 40
0.0
 40
0.0
 40
0.2372541688
 40
0.5000016977
 40
0.7627481489
 40
1.0
 40
1.0
 40
1.0
 40
1.0
 10
196.8576541669
 20
240.6549520341
 30
0.0
 10
196.8576541669
 20
240.2211946989
 30
0.0
 10
197.0202846175
 20
239.3064553588
 30
0.0
 10
197.5875470363
 20
238.0212794112
 30
0.0
 10
198.4169210754
 20
236.8874400249
 30
0.0
 10
199.1277964277
 20
236.2892421385
 30
0.0
 10
199.5034397539
 20
236.0723692693
 30
0.0
  0
SPLINE
  5
473
100
AcDbEntity
  8
0
100
AcDbSpline
 62
7
  6
CONTINUOUS
 70
0
 71
3
 72
9
 73
5
 74
0
 42
0.0000001
 43
0.0000001
 44
0.0000000001
 40
0.0
 40
0.0
 40
0.0
 40
0.0
 40
0.2730898626
 40
1.0
 40
1.0
 40
1.0
 40
1.0
 10
235.212453221
 20
215.4562460261
 30
0.0
 10
235.3021105275
 20
215.4044835271
 30
0.0
 10
235.6379316114
 20
215.2297351702
 30
0.0
 10
236.0117641098
 20
215.1168213995
 30
0.0
 10
236.2867676775
 20
215.0992032987
 30
0.0
  0
SPLINE
  5
474
100
AcDbEntity
  8
0
100
AcDbSpline
 62
7
  6
CONTINUOUS
 70
0
 71
3
 72
9
 73
5
 74
0
 42
0.0000001
 43
0.0000001
 44
0.0000000001
 40
0.0
 40
0.0
 40
0.0
 40
0.0
 40
0.2595642107
 40
1.0
 40
1.0
 40
1.0
 40
1.0
 10
236.2867676775
 20
215.0992032987
 30
0.0
 10
236.3283292433
 20
215.0965406574
 30
0.0
 10
236.4887130346
 20
215.0919513475
 30
0.0
 10
236.6501650547
 20
215.111389704
 30
0.0
 10
236.7651553908
 20
215.1412418095
 30
0.0
  0
SPLINE
  5
475
100
AcDbEntity
  8
0
100
AcDbSpline
 62
7
  6
CONTINUOUS
 70
0
 71
3
 72
9
 73
5
 74
0
 42
0.0000001
 43
0.0000001
 44
0.0000000001
 40
0.0
 40
0.0
 40
0.0
 40
0.0
 40
0.550850831
 40
1.0
 40
1.0
 40
1.0
 40
1.0
 10
117.6536830229
 20
139.7140286864
 30
0.0
 10
117.6536830229
 20
140.1392995026
 30
0.0
 10
117.7567748321
 20
140.9295142874
 30
0.0
 10
118.2756485988
 20
141.578787982
 30
0.0
 10
118.5759441193
 20
141.7521699892
 30
0.0
  0
SPLINE
  5
476
100
AcDbEntity
  8
0
100
AcDbSpline
 62
7
  6
CONTINUOUS
 70
0
 71
3
 72
13
 73
9
 74
0
 42
0.0000001
 43
0.0000001
 44
0.0000000001
 40
0.0
 40
0.0
 40
0.0
 40
0.0
 40
0.2699082264
 40
0.5613334118
 40
0.6954717832
 40
0.8131538634
 40
0.9128688632
 40
1.0
 40
1.0
 40
1.0
 40
1.0
 10
205.6552932834
 20
101.6353441346
 30
0.0
 10
205.0764198579
 20
101.9695493019
 30
0.0
 10
204.0601946541
 20
102.9806232519
 30
0.0
 10
203.2622470425
 20
104.5401563968
 30
0.0
 10
202.9905568526
 20
105.866720017
 30
0.0
 10
203.0114660141
 20
106.7464204825
 30
0.0
 10
203.258351129
 20
107.4765986324
 30
0.0
 10
203.5976069207
 20
107.822869981
 30
0.0
 10
203.7844553965
 20
107.9307955362
 30
0.0
  0
SPLINE
  5
477
100
AcDbEntity
  8
0
100
AcDbSpline
 62
7
  6
CONTINUOUS
 70
0
 71
3
 72
11
 73
7
 74
0
 42
0.0000001
 43
0.0000001
 44
0.0000000001
 40
0.0
 40
0.0
 40
0.0
 40
0.0
 40
0.2372541688
 40
0.5000016977
 40
0.7627481489
 40
1.0
 40
1.0
 40
1.0
 40
1.0
 10
125.7931267896
 20
281.6831478634
 30
0.0
 10
125.7931267896
 20
281.2493905282
 30
0.0
 10
125.9557572402
 20
280.3346511881
 30
0.0
 10
126.5230196591
 20
279.0494752405
 30
0.0
 10
127.3523936981
 20
277.9156358542
 30
0.0
 10
128.0632690504
 20
277.3174379678
 30
0.0
 10
128.4389123766
 20
277.1005650986
 30
0.0
  0
SPLINE
  5
478
100
AcDbEntity
  8
0
100
AcDbSpline
 62
7
  6
CONTINUOUS
 70
0
 71
3
 72
11
 73
7
 74
0
 42
0.0000001
 43
0.0000001
 44
0.0000000001
 40
0.0
 40
0.0
 40
0.0
 40
0.0
 40
0.2054781017
 40
0.4342761534
 40
0.6988569344
 40
1.0
 40
1.0
 40
1.0
 40
1.0
 10
117.379622451
 20
425.5174810957
 30
0.0
 10
117.5531417581
 20
425.6175959625
 30
0.0
 10
117.9737216871
 20
425.743518251
 30
0.0
 10
118.6637128747
 20
425.6650343301
 30
0.0
 10
119.3828212869
 20
425.3566277053
 30
0.0
 10
119.833410029
 20
425.0315161065
 30
0.0
 10
120.0563145329
 20
424.840432133
 30
0.0
  0
SPLINE
  5
479
100
AcDbEntity
  8
0
100
AcDbSpline
 62
7
  6
CONTINUOUS
 70
0
 71
3
 72
9
 73
5
 74
0
 42
0.0000001
 43
0.0000001
 44
0.0000000001
 40
0.0
 40
0.0
 40
0.0
 40
0.0
 40
0.2730898626
 40
1.0
 40
1.0
 40
1.0
 40
1.0
 10
164.1479258437
 20
256.4844418554
 30
0.0
 10
164.2375831503
 20
256.4326793564
 30
0.0
 10
164.5734042341
 20
256.2579309995
 30
0.0
 10
164.9472367325
 20
256.1450172288
 30
0.0
 10
165.2222403002
 20
256.127399128
 30
0.0
  0
SPLINE
  5
47A
100
AcDbEntity
  8
0
100
AcDbSpline
 62
7
  6
CONTINUOUS
 70
0
 71
3
 72
9
 73
5
 74
0
 42
0.0000001
 43
0.0000001
 44
0.0000000001
 40
0.0
 40
0.0
 40
0.0
 40
0.0
 40
0.2595642107
 40
1.0
 40
1.0
 40
1.0
 40
1.0
 10
165.2222403002
 20
256.127399128
 30
0.0
 10
165.2638018661
 20
256.1247364867
 30
0.0
 10
165.4241856574
 20
256.1201471768
 30
0.0
 10
165.5856376774
 20
256.1395855333
 30
0.0
 10
165.7006280135
 20
256.1694376388
 30
0.0
  0
SPLINE
  5
47B
100
AcDbEntity
  8
0
100
AcDbSpline
 62
7
  6
CONTINUOUS
 70
0
 71
3
 72
9
 73
5
 74
0
 42
0.0000001
 43
0.0000001
 44
0.0000000001
 40
0.0
 40
0.0
 40
0.0
 40
0.0
 40
0.2215698534
 40
1.0
 40
1.0
 40
1.0
 40
1.0
 10
236.5530242396
 20
84.3783818226
 30
0.0
 10
236.4380289069
 20
84.3485284199
 30
0.0
 10
235.8997553067
 20
84.2838932358
 30
0.0
 10
235.3618025472
 20
84.4846899097
 30
0.0
 10
235.0003220698
 20
84.6933860392
 30
0.0
  0
SPLINE
  5
47C
100
AcDbEntity
  8
0
100
AcDbSpline
 62
7
  6
CONTINUOUS
 70
0
 71
3
 72
9
 73
5
 74
0
 42
0.0000001
 43
0.0000001
 44
0.0000000001
 40
0.0
 40
0.0
 40
0.0
 40
0.0
 40
0.4491675054
 40
1.0
 40
1.0
 40
1.0
 40
1.0
 10
119.1057044873
 20
416.8123315846
 30
0.0
 10
118.8054305091
 20
416.6389694274
 30
0.0
 10
117.9838165603
 20
416.5141923446
 30
0.0
 10
117.248012555
 20
416.8200059793
 30
0.0
 10
116.8797727905
 20
417.0326044968
 30
0.0
  0
SPLINE
  5
47D
100
AcDbEntity
  8
0
100
AcDbSpline
 62
7
  6
CONTINUOUS
 70
0
 71
3
 72
11
 73
7
 74
0
 42
0.0000001
 43
0.0000001
 44
0.0000000001
 40
0.0
 40
0.0
 40
0.0
 40
0.0
 40
0.2372547226
 40
0.5000028922
 40
0.7627489101
 40
1.0
 40
1.0
 40
1.0
 40
1.0
 10
125.7931387583
 20
314.3432376386
 30
0.0
 10
125.7931387583
 20
313.9094737717
 30
0.0
 10
125.9557748198
 20
312.9947206998
 30
0.0
 10
126.5230525581
 20
311.7095302679
 30
0.0
 10
127.3524500109
 20
310.5756855517
 30
0.0
 10
128.0633407955
 20
309.9774932314
 30
0.0
 10
128.4389876963
 20
309.7606182985
 30
0.0
  0
SPLINE
  5
47E
100
AcDbEntity
  8
0
100
AcDbSpline
 62
7
  6
CONTINUOUS
 70
0
 71
3
 72
9
 73
5
 74
0
 42
0.0000001
 43
0.0000001
 44
0.0000000001
 40
0.0
 40
0.0
 40
0.0
 40
0.0
 40
0.2650319743
 40
1.0
 40
1.0
 40
1.0
 40
1.0
 10
236.120789174
 20
247.7776019494
 30
0.0
 10
236.1881376968
 20
247.7671459522
 30
0.0
 10
236.4438442867
 20
247.7409302815
 30
0.0
 10
236.7077913159
 20
247.7741707621
 30
0.0
 10
236.88539678
 20
247.8388133607
 30
0.0
  0
SPLINE
  5
47F
100
AcDbEntity
  8
0
100
AcDbSpline
 62
7
  6
CONTINUOUS
 70
0
 71
3
 72
9
 73
5
 74
0
 42
0.0000001
 43
0.0000001
 44
0.0000000001
 40
0.0
 40
0.0
 40
0.0
 40
0.0
 40
0.2690754404
 40
1.0
 40
1.0
 40
1.0
 40
1.0
 10
235.2124532216
 20
248.1163288906
 30
0.0
 10
235.287981845
 20
248.072723406
 30
0.0
 10
235.5742782749
 20
247.9212363743
 30
0.0
 10
235.8866871793
 20
247.8139467673
 30
0.0
 10
236.120789174
 20
247.7776019494
 30
0.0
  0
SPLINE
  5
480
100
AcDbEntity
  8
0
100
AcDbSpline
 62
7
  6
CONTINUOUS
 70
0
 71
3
 72
11
 73
7
 74
0
 42
0.0000001
 43
0.0000001
 44
0.0000000001
 40
0.0
 40
0.0
 40
0.0
 40
0.0
 40
0.2372547225
 40
0.5000028922
 40
0.7627489101
 40
1.0
 40
1.0
 40
1.0
 40
1.0
 10
125.7931387583
 20
249.0230442682
 30
0.0
 10
125.7931387583
 20
248.5892804015
 30
0.0
 10
125.9557748196
 20
247.6745273301
 30
0.0
 10
126.5230525576
 20
246.3893368987
 30
0.0
 10
127.3524500097
 20
245.2554921827
 30
0.0
 10
128.0633407939
 20
244.6572998624
 30
0.0
 10
128.4389876946
 20
244.4404249295
 30
0.0
  0
SPLINE
  5
481
100
AcDbEntity
  8
0
100
AcDbSpline
 62
7
  6
CONTINUOUS
 70
0
 71
3
 72
13
 73
9
 74
0
 42
0.0000001
 43
0.0000001
 44
0.0000000001
 40
0.0
 40
0.0
 40
0.0
 40
0.0
 40
0.0871398422
 40
0.1868478565
 40
0.3045221706
 40
0.4386565006
 40
0.7300925043
 40
1.0
 40
1.0
 40
1.0
 40
1.0
 10
123.0282587937
 20
134.0404891669
 30
0.0
 10
122.8058711265
 20
133.9120889162
 30
0.0
 10
122.2471538157
 20
133.7684198512
 30
0.0
 10
121.3478417315
 20
133.9486073629
 30
0.0
 10
120.4288316041
 20
134.4502901267
 30
0.0
 10
119.2233741553
 20
135.5195452506
 30
0.0
 10
118.0910018784
 20
137.269783328
 30
0.0
 10
117.6536830229
 20
138.9186348995
 30
0.0
 10
117.6536830229
 20
139.7140286864
 30
0.0
  0
SPLINE
  5
482
100
AcDbEntity
  8
0
100
AcDbSpline
 62
7
  6
CONTINUOUS
 70
0
 71
3
 72
9
 73
5
 74
0
 42
0.0000001
 43
0.0000001
 44
0.0000000001
 40
0.0
 40
0.0
 40
0.0
 40
0.0
 40
0.2650319743
 40
1.0
 40
1.0
 40
1.0
 40
1.0
 10
236.1207891739
 20
182.457408579
 30
0.0
 10
236.1881376967
 20
182.4469525818
 30
0.0
 10
236.4438442867
 20
182.4207369111
 30
0.0
 10
236.7077913159
 20
182.4539773918
 30
0.0
 10
236.8853967801
 20
182.5186199903
 30
0.0
  0
SPLINE
  5
483
100
AcDbEntity
  8
0
100
AcDbSpline
 62
7
  6
CONTINUOUS
 70
0
 71
3
 72
9
 73
5
 74
0
 42
0.0000001
 43
0.0000001
 44
0.0000000001
 40
0.0
 40
0.0
 40
0.0
 40
0.0
 40
0.2690754404
 40
1.0
 40
1.0
 40
1.0
 40
1.0
 10
235.2124532264
 20
182.7961355177
 30
0.0
 10
235.2879818494
 20
182.7525300334
 30
0.0
 10
235.5742782778
 20
182.6010430027
 30
0.0
 10
235.8866871805
 20
182.4937533968
 30
0.0
 10
236.1207891739
 20
182.457408579
 30
0.0
  0
SPLINE
  5
484
100
AcDbEntity
  8
0
100
AcDbSpline
 62
7
  6
CONTINUOUS
 70
0
 71
3
 72
9
 73
5
 74
0
 42
0.0000001
 43
0.0000001
 44
0.0000000001
 40
0.0
 40
0.0
 40
0.0
 40
0.0
 40
0.2329763886
 40
1.0
 40
1.0
 40
1.0
 40
1.0
 10
119.6707235411
 20
138.8761087487
 30
0.0
 10
119.6707235411
 20
138.8060449865
 30
0.0
 10
119.6875113617
 20
138.5053495569
 30
0.0
 10
119.7634521506
 20
138.2096673994
 30
0.0
 10
119.8437588952
 20
137.9934284796
 30
0.0
  0
SPLINE
  5
485
100
AcDbEntity
  8
0
100
AcDbSpline
 62
7
  6
CONTINUOUS
 70
0
 71
3
 72
14
 73
10
 74
0
 42
0.0000001
 43
0.0000001
 44
0.0000000001
 40
0.0
 40
0.0
 40
0.0
 40
0.0
 40
0.3048402219
 40
0.4377254378
 40
0.5454110474
 40
0.6361887987
 40
0.7339676622
 40
0.8555761746
 40
1.0
 40
1.0
 40
1.0
 40
1.0
 10
119.8437588952
 20
137.9934284796
 30
0.0
 10
120.0208184307
 20
137.5169597337
 30
0.0
 10
120.4352669551
 20
136.8717250281
 30
0.0
 10
121.1793112499
 20
136.3360098468
 30
0.0
 10
121.7331203495
 20
136.1794965644
 30
0.0
 10
122.2355105501
 20
136.3621294872
 30
0.0
 10
122.4956735205
 20
136.8480947283
 30
0.0
 10
122.5187280002
 20
137.4643645763
 30
0.0
 10
122.4099226262
 20
137.9002654399
 30
0.0
 10
122.3260373197
 20
138.1260015272
 30
0.0
  0
SPLINE
  5
486
100
AcDbEntity
  8
0
100
AcDbSpline
 62
7
  6
CONTINUOUS
 70
0
 71
3
 72
13
 73
9
 74
0
 42
0.0000001
 43
0.0000001
 44
0.0000000001
 40
0.0
 40
0.0
 40
0.0
 40
0.0
 40
0.3165955939
 40
0.462262771
 40
0.5876842452
 40
0.6918002069
 40
0.7846261807
 40
1.0
 40
1.0
 40
1.0
 40
1.0
 10
122.3260373197
 20
138.1260015272
 30
0.0
 10
122.1755271904
 20
138.5310255905
 30
0.0
 10
121.8380289856
 20
139.0888869847
 30
0.0
 10
121.2349419254
 20
139.6253258215
 30
0.0
 10
120.7733101558
 20
139.8626395413
 30
0.0
 10
120.3201693709
 20
139.9143252395
 30
0.0
 10
119.7816807483
 20
139.6560566543
 30
0.0
 10
119.6707235411
 20
139.1700480332
 30
0.0
 10
119.6707235411
 20
138.8761087487
 30
0.0
  0
SPLINE
  5
487
100
AcDbEntity
  8
0
100
AcDbSpline
 62
7
  6
CONTINUOUS
 70
0
 71
3
 72
10
 73
6
 74
0
 42
0.0000001
 43
0.0000001
 44
0.0000000001
 40
0.0
 40
0.0
 40
0.0
 40
0.0
 40
0.5463548439
 40
0.7815237998
 40
1.0
 40
1.0
 40
1.0
 40
1.0
 10
188.189656499
 20
232.1309719912
 30
0.0
 10
188.7778764088
 20
231.7913707507
 30
0.0
 10
189.7094538202
 20
231.4107863543
 30
0.0
 10
190.9648323323
 20
231.3827930281
 30
0.0
 10
191.5188453088
 20
231.5351623998
 30
0.0
 10
191.7656559444
 20
231.648534254
 30
0.0
  0
SPLINE
  5
488
100
AcDbEntity
  8
0
100
AcDbSpline
 62
7
  6
CONTINUOUS
 70
0
 71
3
 72
11
 73
7
 74
0
 42
0.0000001
 43
0.0000001
 44
0.0000000001
 40
0.0
 40
0.0
 40
0.0
 40
0.0
 40
0.2372413575
 40
0.500001023
 40
0.7627601279
 40
1.0
 40
1.0
 40
1.0
 40
1.0
 10
170.1098198892
 20
248.7489502412
 30
0.0
 10
170.1098198892
 20
247.8715921909
 30
0.0
 10
170.4389123871
 20
246.0213141976
 30
0.0
 10
171.5858642956
 20
243.4213579194
 30
0.0
 10
173.2640234128
 20
241.1281021772
 30
0.0
 10
174.701867532
 20
239.917974418
 30
0.0
 10
175.4616814316
 20
239.4793055826
 30
0.0
  0
SPLINE
  5
489
100
AcDbEntity
  8
0
100
AcDbSpline
 62
7
  6
CONTINUOUS
 70
0
 71
3
 72
13
 73
9
 74
0
 42
0.0000001
 43
0.0000001
 44
0.0000000001
 40
0.0
 40
0.0
 40
0.0
 40
0.0
 40
0.3165955939
 40
0.462262771
 40
0.5876842452
 40
0.6918002069
 40
0.7846261807
 40
1.0
 40
1.0
 40
1.0
 40
1.0
 10
243.948910045
 20
67.9085917497
 30
0.0
 10
243.7983999157
 20
68.313615813
 30
0.0
 10
243.4609017109
 20
68.8714772072
 30
0.0
 10
242.8578146507
 20
69.407916044
 30
0.0
 10
242.3961828811
 20
69.6452297638
 30
0.0
 10
241.9430420961
 20
69.696915462
 30
0.0
 10
241.4045534736
 20
69.4386468769
 30
0.0
 10
241.2935962664
 20
68.9526382557
 30
0.0
 10
241.2935962664
 20
68.6586989712
 30
0.0
  0
SPLINE
  5
48A
100
AcDbEntity
  8
0
100
AcDbSpline
 62
7
  6
CONTINUOUS
 70
0
 71
3
 72
14
 73
10
 74
0
 42
0.0000001
 43
0.0000001
 44
0.0000000001
 40
0.0
 40
0.0
 40
0.0
 40
0.0
 40
0.3048402219
 40
0.4377254378
 40
0.5454110474
 40
0.6361887987
 40
0.7339676622
 40
0.8555761746
 40
1.0
 40
1.0
 40
1.0
 40
1.0
 10
241.4666316204
 20
67.7760187021
 30
0.0
 10
241.643691156
 20
67.2995499562
 30
0.0
 10
242.0581396803
 20
66.6543152506
 30
0.0
 10
242.8021839751
 20
66.1186000694
 30
0.0
 10
243.3559930748
 20
65.9620867869
 30
0.0
 10
243.8583832754
 20
66.1447197097
 30
0.0
 10
244.1185462457
 20
66.6306849508
 30
0.0
 10
244.1416007255
 20
67.2469547988
 30
0.0
 10
244.0327953515
 20
67.6828556624
 30
0.0
 10
243.948910045
 20
67.9085917497
 30
0.0
  0
SPLINE
  5
48B
100
AcDbEntity
  8
0
100
AcDbSpline
 62
7
  6
CONTINUOUS
 70
0
 71
3
 72
9
 73
5
 74
0
 42
0.0000001
 43
0.0000001
 44
0.0000000001
 40
0.0
 40
0.0
 40
0.0
 40
0.0
 40
0.2329763886
 40
1.0
 40
1.0
 40
1.0
 40
1.0
 10
241.2935962664
 20
68.6586989712
 30
0.0
 10
241.2935962664
 20
68.588635209
 30
0.0
 10
241.310384087
 20
68.2879397794
 30
0.0
 10
241.3863248759
 20
67.9922576219
 30
0.0
 10
241.4666316204
 20
67.7760187021
 30
0.0
  0
SPLINE
  5
48C
100
AcDbEntity
  8
0
100
AcDbSpline
 62
7
  6
CONTINUOUS
 70
0
 71
3
 72
9
 73
5
 74
0
 42
0.0000001
 43
0.0000001
 44
0.0000000001
 40
0.0
 40
0.0
 40
0.0
 40
0.0
 40
0.500001128
 40
1.0
 40
1.0
 40
1.0
 40
1.0
 10
180.8979649489
 20
424.8684894359
 30
0.0
 10
180.8979957228
 20
424.4807348803
 30
0.0
 10
181.1629950254
 20
423.7151084776
 30
0.0
 10
181.6935502161
 20
423.102800136
 30
0.0
 10
182.0293405069
 20
422.9089003676
 30
0.0
  0
SPLINE
  5
48D
100
AcDbEntity
  8
0
100
AcDbSpline
 62
7
  6
CONTINUOUS
 70
0
 71
3
 72
10
 73
6
 74
0
 42
0.0000001
 43
0.0000001
 44
0.0000000001
 40
0.0
 40
0.0
 40
0.0
 40
0.0
 40
0.5477496615
 40
0.7815943702
 40
1.0
 40
1.0
 40
1.0
 40
1.0
 10
225.8573925531
 20
379.1955550196
 30
0.0
 10
226.3505884293
 20
378.9108146894
 30
0.0
 10
227.1374878448
 20
378.5964655033
 30
0.0
 10
228.1901573012
 20
378.6224252859
 30
0.0
 10
228.6420042919
 20
378.7869994687
 30
0.0
 10
228.8386566914
 20
378.9005362005
 30
0.0
  0
SPLINE
  5
48E
100
AcDbEntity
  8
0
100
AcDbSpline
 62
7
  6
CONTINUOUS
 70
0
 71
3
 72
11
 73
7
 74
0
 42
0.0000001
 43
0.0000001
 44
0.0000000001
 40
0.0
 40
0.0
 40
0.0
 40
0.0
 40
0.2372539654
 40
0.5000012591
 40
0.7627478695
 40
1.0
 40
1.0
 40
1.0
 40
1.0
 10
174.5022532562
 20
414.0061982317
 30
0.0
 10
174.5022532562
 20
413.2733883166
 30
0.0
 10
174.7770067793
 20
411.7279848957
 30
0.0
 10
175.7353622185
 20
409.556745563
 30
0.0
 10
177.1365387073
 20
407.6411770259
 30
0.0
 10
178.3375218195
 20
406.6305445171
 30
0.0
 10
178.9721525031
 20
406.2641486101
 30
0.0
  0
SPLINE
  5
48F
100
AcDbEntity
  8
0
100
AcDbSpline
 62
7
  6
CONTINUOUS
 70
0
 71
3
 72
9
 73
5
 74
0
 42
0.0000001
 43
0.0000001
 44
0.0000000001
 40
0.0
 40
0.0
 40
0.0
 40
0.0
 40
0.4999988716
 40
1.0
 40
1.0
 40
1.0
 40
1.0
 10
222.3233161639
 20
470.3956129448
 30
0.0
 10
222.6624709877
 20
470.1998062458
 30
0.0
 10
223.1983328014
 20
469.5813911236
 30
0.0
 10
223.4659674371
 20
468.8081156826
 30
0.0
 10
223.4659674371
 20
468.4164938723
 30
0.0
  0
SPLINE
  5
490
100
AcDbEntity
  8
0
100
AcDbSpline
 62
7
  6
CONTINUOUS
 70
0
 71
3
 72
8
 73
4
 74
0
 42
0.0000001
 43
0.0000001
 44
0.0000000001
 40
0.0
 40
0.0
 40
0.0
 40
0.0
 40
1.0
 40
1.0
 40
1.0
 40
1.0
 10
199.335527334
 20
420.000953804
 30
0.0
 10
199.2056441899
 20
419.9259728503
 30
0.0
 10
199.0847040932
 20
419.833243196
 30
0.0
 10
198.9778828819
 20
419.7279768511
 30
0.0
  0
SPLINE
  5
491
100
AcDbEntity
  8
0
100
AcDbSpline
 62
7
  6
CONTINUOUS
 70
0
 71
3
 72
9
 73
5
 74
0
 42
0.0000001
 43
0.0000001
 44
0.0000000001
 40
0.0
 40
0.0
 40
0.0
 40
0.0
 40
0.2213539202
 40
1.0
 40
1.0
 40
1.0
 40
1.0
 10
198.9778828819
 20
419.7279768511
 30
0.0
 10
198.8590387214
 20
419.6108625606
 30
0.0
 10
198.3943274212
 20
419.0062957092
 30
0.0
 10
198.258814302
 20
418.208437416
 30
0.0
 10
198.258814302
 20
417.6215090582
 30
0.0
  0
SPLINE
  5
492
100
AcDbEntity
  8
0
100
AcDbSpline
 62
7
  6
CONTINUOUS
 70
0
 71
3
 72
12
 73
8
 74
0
 42
0.0000001
 43
0.0000001
 44
0.0000000001
 40
0.0
 40
0.0
 40
0.0
 40
0.0
 40
0.1913710567
 40
0.3127204523
 40
0.4480725138
 40
0.7357497157
 40
1.0
 40
1.0
 40
1.0
 40
1.0
 10
199.631736177
 20
420.3459114008
 30
0.0
 10
200.2598033899
 20
420.5318541956
 30
0.0
 10
201.4231066397
 20
420.2750052922
 30
0.0
 10
202.6956318881
 20
419.4335586798
 30
0.0
 10
204.0404962794
 20
418.12184098
 30
0.0
 10
205.2803709109
 20
416.0842293271
 30
0.0
 10
205.7528674147
 20
414.199398317
 30
0.0
 10
205.7528717319
 20
413.2949376338
 30
0.0
  0
SPLINE
  5
493
100
AcDbEntity
  8
0
100
AcDbSpline
 62
7
  6
CONTINUOUS
 70
0
 71
3
 72
10
 73
6
 74
0
 42
0.0000001
 43
0.0000001
 44
0.0000000001
 40
0.0
 40
0.0
 40
0.0
 40
0.0
 40
0.2183838152
 40
0.4522392878
 40
1.0
 40
1.0
 40
1.0
 40
1.0
 10
198.5846402932
 20
421.3015250255
 30
0.0
 10
198.3636899093
 20
421.173971322
 30
0.0
 10
197.9497749242
 20
420.8266493541
 30
0.0
 10
197.333022679
 20
419.8169495964
 30
0.0
 10
197.196850128
 20
418.8745472922
 30
0.0
 10
197.1968465692
 20
418.2346293385
 30
0.0
  0
SPLINE
  5
494
100
AcDbEntity
  8
0
100
AcDbSpline
 62
7
  6
CONTINUOUS
 70
0
 71
3
 72
15
 73
11
 74
0
 42
0.0000001
 43
0.0000001
 44
0.0000000001
 40
0.0
 40
0.0
 40
0.0
 40
0.0
 40
0.0869313433
 40
0.1864011611
 40
0.3037885282
 40
0.4375986154
 40
0.5820965189
 40
0.729420053
 40
0.8711665023
 40
1.0
 40
1.0
 40
1.0
 40
1.0
 10
195.2345321169
 20
427.1041168844
 30
0.0
 10
195.9038329825
 20
427.4906030481
 30
0.0
 10
197.5855090918
 20
427.9226261365
 30
0.0
 10
200.2922155603
 20
427.3805695918
 30
0.0
 10
203.0574737604
 20
425.8700996702
 30
0.0
 10
205.7090523656
 20
423.52218034
 30
0.0
 10
208.0500850599
 20
420.5254834912
 30
0.0
 10
209.8932501911
 20
417.118900992
 30
0.0
 10
211.0893298599
 20
413.5827730076
 30
0.0
 10
211.4097495509
 20
411.1743839146
 30
0.0
 10
211.4097495509
 20
410.0289726179
 30
0.0
  0
SPLINE
  5
495
100
AcDbEntity
  8
0
100
AcDbSpline
 62
7
  6
CONTINUOUS
 70
0
 71
3
 72
11
 73
7
 74
0
 42
0.0000001
 43
0.0000001
 44
0.0000000001
 40
0.0
 40
0.0
 40
0.0
 40
0.0
 40
0.2177839977
 40
0.4509171367
 40
0.7103079076
 40
1.0
 40
1.0
 40
1.0
 40
1.0
 10
194.5845461023
 20
428.2299310273
 30
0.0
 10
194.0996804543
 20
427.9499070551
 30
0.0
 10
193.1923733587
 20
427.1872929673
 30
0.0
 10
192.2265193584
 20
425.608005069
 30
0.0
 10
191.6528913329
 20
423.6618212821
 30
0.0
 10
191.5399705525
 20
422.2453461108
 30
0.0
 10
191.5399685017
 20
421.500553991
 30
0.0
  0
SPLINE
  5
496
100
AcDbEntity
  8
0
100
AcDbSpline
 62
7
  6
CONTINUOUS
 70
0
 71
3
 72
10
 73
6
 74
0
 42
0.0000001
 43
0.0000001
 44
0.0000000001
 40
0.0
 40
0.0
 40
0.0
 40
0.0
 40
0.5477509982
 40
0.7815953095
 40
1.0
 40
1.0
 40
1.0
 40
1.0
 10
243.5942728753
 20
372.624762403
 30
0.0
 10
243.5942728753
 20
372.0381944069
 30
0.0
 10
243.4694312059
 20
371.1743950508
 30
0.0
 10
242.904162974
 20
370.2487866655
 30
0.0
 10
242.5246664618
 20
369.9304977608
 30
0.0
 10
242.3221182232
 20
369.8135572261
 30
0.0
  0
SPLINE
  5
497
100
AcDbEntity
  8
0
100
AcDbSpline
 62
7
  6
CONTINUOUS
 70
0
 71
3
 72
13
 73
9
 74
0
 42
0.0000001
 43
0.0000001
 44
0.0000000001
 40
0.0
 40
0.0
 40
0.0
 40
0.0
 40
0.0871398081
 40
0.1868484731
 40
0.3045123423
 40
0.4386460221
 40
0.7300494215
 40
1.0
 40
1.0
 40
1.0
 40
1.0
 10
396.8413883279
 20
579.5687520299
 30
0.0
 10
396.9912766135
 20
579.6551753451
 30
0.0
 10
397.3677167958
 20
579.7518712404
 30
0.0
 10
397.9736145477
 20
579.6304651598
 30
0.0
 10
398.5928236785
 20
579.2925233553
 30
0.0
 10
399.4050285196
 20
578.572221253
 30
0.0
 10
400.167938801
 20
577.3929249011
 30
0.0
 10
400.462687687
 20
576.2819847586
 30
0.0
 10
400.462687687
 20
575.7459896443
 30
0.0
  0
SPLINE
  5
498
100
AcDbEntity
  8
0
100
AcDbSpline
 62
7
  6
CONTINUOUS
 70
0
 71
3
 72
8
 73
4
 74
0
 42
0.0000001
 43
0.0000001
 44
0.0000000001
 40
0.0
 40
0.0
 40
0.0
 40
0.0
 40
1.0
 40
1.0
 40
1.0
 40
1.0
 10
398.0045825721
 20
579.5119198641
 30
0.0
 10
397.9930864376
 20
579.4138072449
 30
0.0
 10
397.9877889291
 20
579.3148283966
 30
0.0
 10
397.9877889291
 20
579.2160445561
 30
0.0
  0
SPLINE
  5
499
100
AcDbEntity
  8
0
100
AcDbSpline
 62
7
  6
CONTINUOUS
 70
0
 71
3
 72
13
 73
9
 74
0
 42
0.0000001
 43
0.0000001
 44
0.0000000001
 40
0.0
 40
0.0
 40
0.0
 40
0.0
 40
0.0871398081
 40
0.1868484731
 40
0.3045123423
 40
0.4386460221
 40
0.7300494215
 40
1.0
 40
1.0
 40
1.0
 40
1.0
 10
278.0469545033
 20
648.1531987893
 30
0.0
 10
278.1968427888
 20
648.2396221045
 30
0.0
 10
278.5732829711
 20
648.3363179998
 30
0.0
 10
279.179180723
 20
648.2149119192
 30
0.0
 10
279.7983898538
 20
647.8769701147
 30
0.0
 10
280.6105946949
 20
647.1566680125
 30
0.0
 10
281.3735049763
 20
645.9773716605
 30
0.0
 10
281.6682538623
 20
644.866431518
 30
0.0
 10
281.6682538623
 20
644.3304364037
 30
0.0
  0
SPLINE
  5
49A
100
AcDbEntity
  8
0
100
AcDbSpline
 62
7
  6
CONTINUOUS
 70
0
 71
3
 72
8
 73
4
 74
0
 42
0.0000001
 43
0.0000001
 44
0.0000000001
 40
0.0
 40
0.0
 40
0.0
 40
0.0
 40
1.0
 40
1.0
 40
1.0
 40
1.0
 10
279.2101487474
 20
648.0963666235
 30
0.0
 10
279.1986526129
 20
647.9982540043
 30
0.0
 10
279.1933551045
 20
647.899275156
 30
0.0
 10
279.1933551045
 20
647.8004913155
 30
0.0
  0
SPLINE
  5
49B
100
AcDbEntity
  8
0
100
AcDbSpline
 62
7
  6
CONTINUOUS
 70
0
 71
3
 72
9
 73
5
 74
0
 42
0.0000001
 43
0.0000001
 44
0.0000000001
 40
0.0
 40
0.0
 40
0.0
 40
0.0
 40
0.2389938114
 40
1.0
 40
1.0
 40
1.0
 40
1.0
 10
278.3005941257
 20
643.8052948411
 30
0.0
 10
278.2336583757
 20
643.7492307636
 30
0.0
 10
277.9699242941
 20
643.4950847156
 30
0.0
 10
277.7795013149
 20
643.1706575824
 30
0.0
 10
277.6757580421
 20
642.912715383
 30
0.0
  0
SPLINE
  5
49C
100
AcDbEntity
  8
0
100
AcDbSpline
 62
7
  6
CONTINUOUS
 70
0
 71
3
 72
9
 73
5
 74
0
 42
0.0000001
 43
0.0000001
 44
0.0000000001
 40
0.0
 40
0.0
 40
0.0
 40
0.0
 40
0.4486255243
 40
1.0
 40
1.0
 40
1.0
 40
1.0
 10
277.6757580421
 20
642.912715383
 30
0.0
 10
277.4249317062
 20
642.2890730501
 30
0.0
 10
277.3406673599
 20
640.7244605454
 30
0.0
 10
277.7800346482
 20
639.2744454449
 30
0.0
 10
278.1160078626
 20
638.5197010868
 30
0.0
  0
SPLINE
  5
49D
100
AcDbEntity
  8
0
100
AcDbSpline
 62
7
  6
CONTINUOUS
 70
0
 71
3
 72
9
 73
5
 74
0
 42
0.0000001
 43
0.0000001
 44
0.0000000001
 40
0.0
 40
0.0
 40
0.0
 40
0.0
 40
0.2389938114
 40
1.0
 40
1.0
 40
1.0
 40
1.0
 10
397.0950279489
 20
575.2208480804
 30
0.0
 10
397.0280921991
 20
575.164784003
 30
0.0
 10
396.7643581181
 20
574.9106379552
 30
0.0
 10
396.5739351394
 20
574.5862108225
 30
0.0
 10
396.4701918668
 20
574.3282686236
 30
0.0
  0
SPLINE
  5
49E
100
AcDbEntity
  8
0
100
AcDbSpline
 62
7
  6
CONTINUOUS
 70
0
 71
3
 72
13
 73
9
 74
0
 42
0.0000001
 43
0.0000001
 44
0.0000000001
 40
0.0
 40
0.0
 40
0.0
 40
0.0
 40
0.2269738935
 40
0.3646005017
 40
0.5091840625
 40
0.6522594259
 40
0.7856470784
 40
1.0
 40
1.0
 40
1.0
 40
1.0
 10
396.4701918668
 20
574.3282686236
 30
0.0
 10
396.150631328
 20
573.5337289304
 30
0.0
 10
396.1803816137
 20
572.0615545746
 30
0.0
 10
396.7358659125
 20
570.229389496
 30
0.0
 10
397.464291501
 20
568.7877280743
 30
0.0
 10
398.4194852517
 20
567.5033950443
 30
0.0
 10
399.7642271982
 20
566.2440298245
 30
0.0
 10
401.047476187
 20
565.6204474114
 30
0.0
 10
401.856249578
 20
565.6219290514
 30
0.0
  0
SPLINE
  5
49F
100
AcDbEntity
  8
0
100
AcDbSpline
 62
7
  6
CONTINUOUS
 70
0
 71
3
 72
9
 73
5
 74
0
 42
0.0000001
 43
0.0000001
 44
0.0000000001
 40
0.0
 40
0.0
 40
0.0
 40
0.0
 40
0.51903579
 40
1.0
 40
1.0
 40
1.0
 40
1.0
 10
399.0141281357
 20
202.878781303
 30
0.0
 10
399.3467723161
 20
202.528602288
 30
0.0
 10
399.8630943176
 20
201.7339168859
 30
0.0
 10
400.1091328244
 20
200.8065587701
 30
0.0
 10
400.1091328244
 20
200.3589981419
 30
0.0
  0
SPLINE
  5
4A0
100
AcDbEntity
  8
0
100
AcDbSpline
 62
7
  6
CONTINUOUS
 70
0
 71
3
 72
9
 73
5
 74
0
 42
0.0000001
 43
0.0000001
 44
0.0000000001
 40
0.0
 40
0.0
 40
0.0
 40
0.0
 40
0.4491675054
 40
1.0
 40
1.0
 40
1.0
 40
1.0
 10
276.1379913822
 20
654.3173009188
 30
0.0
 10
276.4094579137
 20
654.4740311948
 30
0.0
 10
277.152248515
 20
654.5868375132
 30
0.0
 10
277.8174615395
 20
654.3103627848
 30
0.0
 10
278.1503734096
 20
654.1181603752
 30
0.0
  0
SPLINE
  5
4A1
100
AcDbEntity
  8
0
100
AcDbSpline
 62
7
  6
CONTINUOUS
 70
0
 71
3
 72
9
 73
5
 74
0
 42
0.0000001
 43
0.0000001
 44
0.0000000001
 40
0.0
 40
0.0
 40
0.0
 40
0.0
 40
0.4491660543
 40
1.0
 40
1.0
 40
1.0
 40
1.0
 10
274.3702317919
 20
653.2966905357
 30
0.0
 10
274.0987590306
 20
653.1399564699
 30
0.0
 10
273.6296592663
 20
652.5530652636
 30
0.0
 10
273.5364920231
 20
651.8387163596
 30
0.0
 10
273.5364920231
 20
651.4542938235
 30
0.0
  0
SPLINE
  5
4A2
100
AcDbEntity
  8
0
100
AcDbSpline
 62
7
  6
CONTINUOUS
 70
0
 71
3
 72
9
 73
5
 74
0
 42
0.0000001
 43
0.0000001
 44
0.0000000001
 40
0.0
 40
0.0
 40
0.0
 40
0.0
 40
0.2786113186
 40
1.0
 40
1.0
 40
1.0
 40
1.0
 10
112.6703396197
 20
544.0345937275
 30
0.0
 10
112.6703617468
 20
544.3774094804
 30
0.0
 10
112.7344101247
 20
545.6026123812
 30
0.0
 10
113.0904894508
 20
546.8440782724
 30
0.0
 10
113.5799831322
 20
547.5845380335
 30
0.0
  0
SPLINE
  5
4A3
100
AcDbEntity
  8
0
100
AcDbSpline
 62
7
  6
CONTINUOUS
 70
0
 71
3
 72
10
 73
6
 74
0
 42
0.0000001
 43
0.0000001
 44
0.0000000001
 40
0.0
 40
0.0
 40
0.0
 40
0.0
 40
0.218404832
 40
0.452249169
 40
1.0
 40
1.0
 40
1.0
 40
1.0
 10
175.8903994827
 20
508.2536599407
 30
0.0
 10
175.669383375
 20
508.1260568877
 30
0.0
 10
175.2552851508
 20
507.7787472967
 30
0.0
 10
174.6384776372
 20
506.7687442046
 30
0.0
 10
174.5022532562
 20
505.8261862533
 30
0.0
 10
174.5022532562
 20
505.1861367883
 30
0.0
  0
SPLINE
  5
4A4
100
AcDbEntity
  8
0
100
AcDbSpline
 62
7
  6
CONTINUOUS
 70
0
 71
3
 72
9
 73
5
 74
0
 42
0.0000001
 43
0.0000001
 44
0.0000000001
 40
0.0
 40
0.0
 40
0.0
 40
0.0
 40
0.5000011274
 40
1.0
 40
1.0
 40
1.0
 40
1.0
 10
180.8979649489
 20
436.2995232758
 30
0.0
 10
180.8979957228
 20
435.9117687251
 30
0.0
 10
181.1629950198
 20
435.1461423322
 30
0.0
 10
181.6935501984
 20
434.5338339909
 30
0.0
 10
182.0293404858
 20
434.3399342245
 30
0.0
  0
SPLINE
  5
4A5
100
AcDbEntity
  8
0
100
AcDbSpline
 62
7
  6
CONTINUOUS
 70
0
 71
3
 72
9
 73
5
 74
0
 42
0.0000001
 43
0.0000001
 44
0.0000000001
 40
0.0
 40
0.0
 40
0.0
 40
0.0
 40
0.2740990559
 40
1.0
 40
1.0
 40
1.0
 40
1.0
 10
338.944686233
 20
168.4900851758
 30
0.0
 10
338.944686233
 20
168.4285911492
 30
0.0
 10
338.9339634429
 20
168.2049222512
 30
0.0
 10
338.8771963384
 20
167.9794335131
 30
0.0
 10
338.7985936189
 20
167.8368026405
 30
0.0
  0
SPLINE
  5
4A6
100
AcDbEntity
  8
0
100
AcDbSpline
 62
7
  6
CONTINUOUS
 70
0
 71
3
 72
9
 73
5
 74
0
 42
0.0000001
 43
0.0000001
 44
0.0000000001
 40
0.0
 40
0.0
 40
0.0
 40
0.0
 40
0.2624122305
 40
1.0
 40
1.0
 40
1.0
 40
1.0
 10
338.7985936189
 20
167.8368026405
 30
0.0
 10
338.7810771735
 20
167.8050176602
 30
0.0
 10
338.7074981866
 20
167.6878940917
 30
0.0
 10
338.6025297
 20
167.5896322467
 30
0.0
 10
338.5141867078
 20
167.5386277151
 30
0.0
  0
SPLINE
  5
4A7
100
AcDbEntity
  8
0
100
AcDbSpline
 62
7
  6
CONTINUOUS
 70
0
 71
3
 72
9
 73
5
 74
0
 42
0.0000001
 43
0.0000001
 44
0.0000000001
 40
0.0
 40
0.0
 40
0.0
 40
0.0
 40
0.5000011274
 40
1.0
 40
1.0
 40
1.0
 40
1.0
 10
180.8979649489
 20
447.7305571156
 30
0.0
 10
180.8979957228
 20
447.3428025649
 30
0.0
 10
181.1629950198
 20
446.577176172
 30
0.0
 10
181.6935501984
 20
445.9648678307
 30
0.0
 10
182.0293404858
 20
445.7709680643
 30
0.0
  0
SPLINE
  5
4A8
100
AcDbEntity
  8
0
100
AcDbSpline
 62
7
  6
CONTINUOUS
 70
0
 71
3
 72
9
 73
5
 74
0
 42
0.0000001
 43
0.0000001
 44
0.0000000001
 40
0.0
 40
0.0
 40
0.0
 40
0.0
 40
0.5000011276
 40
1.0
 40
1.0
 40
1.0
 40
1.0
 10
192.5652754058
 20
440.9945846708
 30
0.0
 10
192.5653061199
 20
440.6068301141
 30
0.0
 10
192.8303054064
 20
439.8412036851
 30
0.0
 10
193.360860622
 20
439.2288953337
 30
0.0
 10
193.6966509451
 20
439.034995618
 30
0.0
  0
SPLINE
  5
4A9
100
AcDbEntity
  8
0
100
AcDbSpline
 62
7
  6
CONTINUOUS
 70
0
 71
3
 72
9
 73
5
 74
0
 42
0.0000001
 43
0.0000001
 44
0.0000000001
 40
0.0
 40
0.0
 40
0.0
 40
0.0
 40
0.5000011275
 40
1.0
 40
1.0
 40
1.0
 40
1.0
 10
204.2325858631
 20
434.2586122256
 30
0.0
 10
204.2326165927
 20
433.8708576714
 30
0.0
 10
204.4976158805
 20
433.1052312542
 30
0.0
 10
205.0281710828
 20
432.4929229027
 30
0.0
 10
205.3639613969
 20
432.299023176
 30
0.0
  0
SPLINE
  5
4AA
100
AcDbEntity
  8
0
100
AcDbSpline
 62
7
  6
CONTINUOUS
 70
0
 71
3
 72
9
 73
5
 74
0
 42
0.0000001
 43
0.0000001
 44
0.0000000001
 40
0.0
 40
0.0
 40
0.0
 40
0.0
 40
0.5000011279
 40
1.0
 40
1.0
 40
1.0
 40
1.0
 10
215.8998963208
 20
427.5226397806
 30
0.0
 10
215.8999270871
 20
427.1348852277
 30
0.0
 10
216.1649263836
 20
426.3692588296
 30
0.0
 10
216.6954815674
 20
425.7569504816
 30
0.0
 10
217.0312718624
 20
425.5630507261
 30
0.0
  0
SPLINE
  5
4AB
100
AcDbEntity
  8
0
100
AcDbSpline
 62
7
  6
CONTINUOUS
 70
0
 71
3
 72
11
 73
7
 74
0
 42
0.0000001
 43
0.0000001
 44
0.0000000001
 40
0.0
 40
0.0
 40
0.0
 40
0.0
 40
0.2372523758
 40
0.4999990758
 40
0.7627462798
 40
1.0
 40
1.0
 40
1.0
 40
1.0
 10
403.132383447
 20
581.9613956403
 30
0.0
 10
403.5564981518
 20
581.7165384408
 30
0.0
 10
404.3590977879
 20
581.04114713
 30
0.0
 10
405.2954832179
 20
579.7610004667
 30
0.0
 10
405.9359373673
 20
578.309993751
 30
0.0
 10
406.1195507683
 20
577.2772242734
 30
0.0
 10
406.1195507683
 20
576.7874987902
 30
0.0
  0
SPLINE
  5
4AC
100
AcDbEntity
  8
0
100
AcDbSpline
 62
7
  6
CONTINUOUS
 70
0
 71
3
 72
9
 73
5
 74
0
 42
0.0000001
 43
0.0000001
 44
0.0000000001
 40
0.0
 40
0.0
 40
0.0
 40
0.0
 40
0.5000011279
 40
1.0
 40
1.0
 40
1.0
 40
1.0
 10
215.8998963208
 20
416.0916059407
 30
0.0
 10
215.8999270871
 20
415.7038513879
 30
0.0
 10
216.1649263836
 20
414.9382249898
 30
0.0
 10
216.6954815674
 20
414.3259166418
 30
0.0
 10
217.0312718624
 20
414.1320168863
 30
0.0
  0
SPLINE
  5
4AD
100
AcDbEntity
  8
0
100
AcDbSpline
 62
7
  6
CONTINUOUS
 70
0
 71
3
 72
9
 73
5
 74
0
 42
0.0000001
 43
0.0000001
 44
0.0000000001
 40
0.0
 40
0.0
 40
0.0
 40
0.0
 40
0.5000011283
 40
1.0
 40
1.0
 40
1.0
 40
1.0
 10
400.1091328244
 20
196.6847372648
 30
0.0
 10
400.1091328244
 20
196.2000406697
 30
0.0
 10
400.440374837
 20
195.2429847462
 30
0.0
 10
401.1035922307
 20
194.4775940134
 30
0.0
 10
401.5233522747
 20
194.2352509215
 30
0.0
  0
SPLINE
  5
4AE
100
AcDbEntity
  8
0
100
AcDbSpline
 62
7
  6
CONTINUOUS
 70
0
 71
3
 72
9
 73
5
 74
0
 42
0.0000001
 43
0.0000001
 44
0.0000000001
 40
0.0
 40
0.0
 40
0.0
 40
0.0
 40
0.5000011286
 40
1.0
 40
1.0
 40
1.0
 40
1.0
 10
215.8998963208
 20
404.6605721009
 30
0.0
 10
215.8999270871
 20
404.2728175431
 30
0.0
 10
216.1649263891
 20
403.5071911352
 30
0.0
 10
216.695481585
 20
402.8948827869
 30
0.0
 10
217.0312718836
 20
402.7009830293
 30
0.0
  0
SPLINE
  5
4AF
100
AcDbEntity
  8
0
100
AcDbSpline
 62
7
  6
CONTINUOUS
 70
0
 71
3
 72
9
 73
5
 74
0
 42
0.0000001
 43
0.0000001
 44
0.0000000001
 40
0.0
 40
0.0
 40
0.0
 40
0.0
 40
0.5000011286
 40
1.0
 40
1.0
 40
1.0
 40
1.0
 10
215.8998963208
 20
393.2295382611
 30
0.0
 10
215.8999270871
 20
392.8417837033
 30
0.0
 10
216.1649263891
 20
392.0761572954
 30
0.0
 10
216.695481585
 20
391.4638489471
 30
0.0
 10
217.0312718836
 20
391.2699491895
 30
0.0
  0
SPLINE
  5
4B0
100
AcDbEntity
  8
0
100
AcDbSpline
 62
7
  6
CONTINUOUS
 70
0
 71
3
 72
13
 73
9
 74
0
 42
0.0000001
 43
0.0000001
 44
0.0000000001
 40
0.0
 40
0.0
 40
0.0
 40
0.0
 40
0.2698956773
 40
0.5613240607
 40
0.6954637712
 40
0.8131422809
 40
0.9128539574
 40
1.0
 40
1.0
 40
1.0
 40
1.0
 10
198.258814302
 20
417.6215090582
 30
0.0
 10
198.258814302
 20
416.6929558384
 30
0.0
 10
198.7693276911
 20
414.7680459508
 30
0.0
 10
200.0912630159
 20
412.7247226128
 30
0.0
 10
201.4985692363
 20
411.4763668858
 30
0.0
 10
202.5715026912
 20
410.8906239988
 30
0.0
 10
203.621467559
 20
410.6802095704
 30
0.0
 10
204.273774503
 20
410.8479694116
 30
0.0
 10
204.5334311676
 20
410.9978680337
 30
0.0
  0
SPLINE
  5
4B1
100
AcDbEntity
  8
0
100
AcDbSpline
 62
7
  6
CONTINUOUS
 70
0
 71
3
 72
9
 73
5
 74
0
 42
0.0000001
 43
0.0000001
 44
0.0000000001
 40
0.0
 40
0.0
 40
0.0
 40
0.0
 40
0.286297158
 40
1.0
 40
1.0
 40
1.0
 40
1.0
 10
205.7351940172
 20
413.30514358
 30
0.0
 10
205.7351927429
 20
413.0834226137
 30
0.0
 10
205.6878397021
 20
412.3153861082
 30
0.0
 10
205.3900748125
 20
411.5234332273
 30
0.0
 10
204.9982661442
 20
411.1335766631
 30
0.0
  0
SPLINE
  5
4B2
100
AcDbEntity
  8
0
100
AcDbSpline
 62
7
  6
CONTINUOUS
 70
0
 71
3
 72
8
 73
4
 74
0
 42
0.0000001
 43
0.0000001
 44
0.0000000001
 40
0.0
 40
0.0
 40
0.0
 40
0.0
 40
1.0
 40
1.0
 40
1.0
 40
1.0
 10
204.9982661442
 20
411.1335766631
 30
0.0
 10
204.8861600798
 20
411.0220291436
 30
0.0
 10
204.75881011
 20
410.9238476578
 30
0.0
 10
204.6218493093
 20
410.8447758053
 30
0.0
  0
SPLINE
  5
4B3
100
AcDbEntity
  8
0
100
AcDbSpline
 62
7
  6
CONTINUOUS
 70
0
 71
3
 72
9
 73
5
 74
0
 42
0.0000001
 43
0.0000001
 44
0.0000000001
 40
0.0
 40
0.0
 40
0.0
 40
0.0
 40
0.2436939675
 40
1.0
 40
1.0
 40
1.0
 40
1.0
 10
197.1968465692
 20
418.2346293385
 30
0.0
 10
197.1968466622
 20
418.1730491078
 30
0.0
 10
197.2006073655
 20
417.920361087
 30
0.0
 10
197.2188603201
 20
417.6679470359
 30
0.0
 10
197.2397116506
 20
417.4779732185
 30
0.0
  0
SPLINE
  5
4B4
100
AcDbEntity
  8
0
100
AcDbSpline
 62
7
  6
CONTINUOUS
 70
0
 71
3
 72
13
 73
9
 74
0
 42
0.0000001
 43
0.0000001
 44
0.0000000001
 40
0.0
 40
0.0
 40
0.0
 40
0.0
 40
0.2793953363
 40
0.5687375763
 40
0.6998621522
 40
0.8148598963
 40
0.9131055956
 40
1.0
 40
1.0
 40
1.0
 40
1.0
 10
197.2397116506
 20
417.4779732185
 30
0.0
 10
197.3673056142
 20
416.3154808599
 30
0.0
 10
198.14176249
 20
414.0055321601
 30
0.0
 10
199.8704948332
 20
411.5786129666
 30
0.0
 10
201.6189729588
 20
410.1540415357
 30
0.0
 10
202.9243575177
 20
409.5072376813
 30
0.0
 10
204.1901193873
 20
409.300794293
 30
0.0
 10
204.9693269285
 20
409.5154674801
 30
0.0
 10
205.284317218
 20
409.6973214779
 30
0.0
  0
SPLINE
  5
4B5
100
AcDbEntity
  8
0
100
AcDbSpline
 62
7
  6
CONTINUOUS
 70
0
 71
3
 72
13
 73
9
 74
0
 42
0.0000001
 43
0.0000001
 44
0.0000000001
 40
0.0
 40
0.0
 40
0.0
 40
0.0
 40
0.3013756629
 40
0.5822609399
 40
0.7056274303
 40
0.8148546445
 40
0.9112881702
 40
1.0
 40
1.0
 40
1.0
 40
1.0
 10
400.462687687
 20
572.1631680339
 30
0.0
 10
400.9491227298
 20
571.5167889656
 30
0.0
 10
401.7279333246
 20
570.1416249684
 30
0.0
 10
402.2331889963
 20
568.2852725017
 30
0.0
 10
402.2407844214
 20
566.8990886907
 30
0.0
 10
402.0559417219
 20
566.0264757732
 30
0.0
 10
401.6803056643
 20
565.3168489728
 30
0.0
 10
401.2975257422
 20
564.9781838915
 30
0.0
 10
401.0914069079
 20
564.8589442369
 30
0.0
  0
SPLINE
  5
4B6
100
AcDbEntity
  8
0
100
AcDbSpline
 62
7
  6
CONTINUOUS
 70
0
 71
3
 72
11
 73
7
 74
0
 42
0.0000001
 43
0.0000001
 44
0.0000000001
 40
0.0
 40
0.0
 40
0.0
 40
0.0
 40
0.2897016594
 40
0.5490895814
 40
0.7822189142
 40
1.0
 40
1.0
 40
1.0
 40
1.0
 10
211.4097495509
 20
410.0289726179
 30
0.0
 10
211.4097495509
 20
409.3500218754
 30
0.0
 10
211.3068113554
 20
408.058794832
 30
0.0
 10
210.7839072494
 20
406.2847034605
 30
0.0
 10
209.9034462519
 20
404.845129888
 30
0.0
 10
209.0764238462
 20
404.1499109166
 30
0.0
 10
208.6344263847
 20
403.894680553
 30
0.0
  0
SPLINE
  5
4B7
100
AcDbEntity
  8
0
100
AcDbSpline
 62
7
  6
CONTINUOUS
 70
0
 71
3
 72
15
 73
11
 74
0
 42
0.0000001
 43
0.0000001
 44
0.0000000001
 40
0.0
 40
0.0
 40
0.0
 40
0.0
 40
0.1288326721
 40
0.2705727669
 40
0.4178902244
 40
0.5623876399
 40
0.6962015146
 40
0.8135917729
 40
0.9130639818
 40
1.0
 40
1.0
 40
1.0
 40
1.0
 10
191.5399685017
 20
421.500553991
 30
0.0
 10
191.5399719616
 20
420.2440311642
 30
0.0
 10
191.8914684806
 20
417.6020678149
 30
0.0
 10
193.203532296
 20
413.723012157
 30
0.0
 10
195.2254025876
 20
409.9860365251
 30
0.0
 10
197.7934831039
 20
406.6986072029
 30
0.0
 10
200.7022955635
 20
404.1228189115
 30
0.0
 10
203.73587105
 20
402.4657066889
 30
0.0
 10
206.7052315525
 20
401.8710032935
 30
0.0
 10
208.5501671812
 20
402.3448914894
 30
0.0
 10
209.2844123992
 20
402.7689394121
 30
0.0
  0
SPLINE
  5
4B8
100
AcDbEntity
  8
0
100
AcDbSpline
 62
7
  6
CONTINUOUS
 70
0
 71
3
 72
9
 73
5
 74
0
 42
0.0000001
 43
0.0000001
 44
0.0000000001
 40
0.0
 40
0.0
 40
0.0
 40
0.0
 40
0.500001128
 40
1.0
 40
1.0
 40
1.0
 40
1.0
 10
180.8979649489
 20
413.4374555962
 30
0.0
 10
180.8979957228
 20
413.0497010405
 30
0.0
 10
181.1629950254
 20
412.2840746378
 30
0.0
 10
181.6935502161
 20
411.6717662962
 30
0.0
 10
182.0293405069
 20
411.4778665278
 30
0.0
  0
SPLINE
  5
4B9
100
AcDbEntity
  8
0
100
AcDbSpline
 62
7
  6
CONTINUOUS
 70
0
 71
3
 72
13
 73
9
 74
0
 42
0.0000001
 43
0.0000001
 44
0.0000000001
 40
0.0
 40
0.0
 40
0.0
 40
0.0
 40
0.0869209195
 40
0.1855232227
 40
0.301215321
 40
0.4331383136
 40
0.7230733748
 40
1.0
 40
1.0
 40
1.0
 40
1.0
 10
198.9381838697
 20
421.5056621912
 30
0.0
 10
199.2585427282
 20
421.690628263
 30
0.0
 10
200.0544487844
 20
421.9058738492
 30
0.0
 10
201.3442903708
 20
421.682261232
 30
0.0
 10
202.6712944065
 20
421.0063228896
 30
0.0
 10
204.4389315766
 20
419.5313544949
 30
0.0
 10
206.1632959496
 20
417.0458444938
 30
0.0
 10
206.9079692045
 20
414.6872518074
 30
0.0
 10
207.0030802156
 20
413.5125391199
 30
0.0
  0
SPLINE
  5
4BA
100
AcDbEntity
  8
0
100
AcDbSpline
 62
7
  6
CONTINUOUS
 70
0
 71
3
 72
10
 73
6
 74
0
 42
0.0000001
 43
0.0000001
 44
0.0000000001
 40
0.0
 40
0.0
 40
0.0
 40
0.0
 40
0.2183883998
 40
0.4522344548
 40
1.0
 40
1.0
 40
1.0
 40
1.0
 10
205.284317218
 20
409.6973214779
 30
0.0
 10
205.5052687739
 20
409.8248838984
 30
0.0
 10
205.9191943823
 20
410.1721823599
 30
0.0
 10
206.5359350368
 20
411.1818944316
 30
0.0
 10
206.6721103138
 20
412.1242876094
 30
0.0
 10
206.6721112808
 20
412.7642112528
 30
0.0
  0
SPLINE
  5
4BB
100
AcDbEntity
  8
0
100
AcDbSpline
 62
7
  6
CONTINUOUS
 70
0
 71
3
 72
11
 73
7
 74
0
 42
0.0000001
 43
0.0000001
 44
0.0000000001
 40
0.0
 40
0.0
 40
0.0
 40
0.0
 40
0.2178972325
 40
0.4523913664
 40
0.7121409132
 40
1.0
 40
1.0
 40
1.0
 40
1.0
 10
195.2582714826
 20
427.0979281952
 30
0.0
 10
194.8631107714
 20
426.8209741772
 30
0.0
 10
194.1333712361
 20
426.1074144532
 30
0.0
 10
193.3629123003
 20
424.7111998297
 30
0.0
 10
192.9040699344
 20
423.0276621317
 30
0.0
 10
192.8127608693
 20
421.8114341328
 30
0.0
 10
192.8127608693
 20
421.1739468964
 30
0.0
  0
SPLINE
  5
4BC
100
AcDbEntity
  8
0
100
AcDbSpline
 62
7
  6
CONTINUOUS
 70
0
 71
3
 72
15
 73
11
 74
0
 42
0.0000001
 43
0.0000001
 44
0.0000000001
 40
0.0
 40
0.0
 40
0.0
 40
0.0
 40
0.0869313433
 40
0.1864011611
 40
0.3037885282
 40
0.4375986154
 40
0.5820965189
 40
0.729420053
 40
0.8711665023
 40
1.0
 40
1.0
 40
1.0
 40
1.0
 10
208.6344263847
 20
403.894680553
 30
0.0
 10
207.9651255191
 20
403.5081943892
 30
0.0
 10
206.2834494098
 20
403.0761713008
 30
0.0
 10
203.5767429413
 20
403.6182278455
 30
0.0
 10
200.8114847412
 20
405.1286977672
 30
0.0
 10
198.159906136
 20
407.4766170974
 30
0.0
 10
195.8188734417
 20
410.4733139462
 30
0.0
 10
193.9757083105
 20
413.8798964454
 30
0.0
 10
192.7796286417
 20
417.4160244297
 30
0.0
 10
192.4592089507
 20
419.8244135227
 30
0.0
 10
192.4592089507
 20
420.9698248195
 30
0.0
  0
SPLINE
  5
4BD
100
AcDbEntity
  8
0
100
AcDbSpline
 62
7
  6
CONTINUOUS
 70
0
 71
3
 72
9
 73
5
 74
0
 42
0.0000001
 43
0.0000001
 44
0.0000000001
 40
0.0
 40
0.0
 40
0.0
 40
0.0
 40
0.5201079543
 40
1.0
 40
1.0
 40
1.0
 40
1.0
 10
243.7850909327
 20
388.1581480619
 30
0.0
 10
243.6860742395
 20
387.9065853
 30
0.0
 10
243.4308983652
 20
387.4429505276
 30
0.0
 10
243.0284681179
 20
387.0929786946
 30
0.0
 10
242.8124427265
 20
386.9682571717
 30
0.0
  0
SPLINE
  5
4BE
100
AcDbEntity
  8
0
100
AcDbSpline
 62
7
  6
CONTINUOUS
 70
0
 71
3
 72
15
 73
11
 74
0
 42
0.0000001
 43
0.0000001
 44
0.0000000001
 40
0.0
 40
0.0
 40
0.0
 40
0.0
 40
0.0868266766
 40
0.1858073352
 40
0.3023309186
 40
0.4351882156
 40
0.5790327166
 40
0.7263828676
 40
0.8691110638
 40
1.0
 40
1.0
 40
1.0
 40
1.0
 10
194.9380891633
 20
428.4340681674
 30
0.0
 10
195.6587994002
 20
428.8502406431
 30
0.0
 10
197.4609534396
 20
429.323547887
 30
0.0
 10
200.3703598976
 20
428.7746577276
 30
0.0
 10
203.3514592626
 20
427.1931499033
 30
0.0
 10
206.2242087626
 20
424.714560123
 30
0.0
 10
208.7832648494
 20
421.5315090714
 30
0.0
 10
210.8308758026
 20
417.8892350585
 30
0.0
 10
212.2073951786
 20
414.077047201
 30
0.0
 10
212.6284144901
 20
411.464528533
 30
0.0
 10
212.6733294932
 20
410.2107534131
 30
0.0
  0
SPLINE
  5
4BF
100
AcDbEntity
  8
0
100
AcDbSpline
 62
7
  6
CONTINUOUS
 70
0
 71
3
 72
11
 73
7
 74
0
 42
0.0000001
 43
0.0000001
 44
0.0000000001
 40
0.0
 40
0.0
 40
0.0
 40
0.0
 40
0.2372539654
 40
0.5000012591
 40
0.7627478694
 40
1.0
 40
1.0
 40
1.0
 40
1.0
 10
230.0738090827
 20
473.6116656085
 30
0.0
 10
230.0738090827
 20
474.3162667229
 30
0.0
 10
229.8096319278
 20
475.8021813511
 30
0.0
 10
228.8881674441
 20
477.8898409502
 30
0.0
 10
227.540927874
 20
479.7316715513
 30
0.0
 10
226.3861754319
 20
480.7034007513
 30
0.0
 10
225.7759742354
 20
481.0556926065
 30
0.0
  0
SPLINE
  5
4C0
100
AcDbEntity
  8
0
100
AcDbSpline
 62
7
  6
CONTINUOUS
 70
0
 71
3
 72
11
 73
7
 74
0
 42
0.0000001
 43
0.0000001
 44
0.0000000001
 40
0.0
 40
0.0
 40
0.0
 40
0.0
 40
0.2177840505
 40
0.4509171855
 40
0.7103078997
 40
1.0
 40
1.0
 40
1.0
 40
1.0
 10
209.2844123992
 20
402.7689394121
 30
0.0
 10
209.7692770386
 20
403.0489628131
 30
0.0
 10
210.6765822699
 20
403.8115748691
 30
0.0
 10
211.6424357725
 20
405.3908579287
 30
0.0
 10
212.2160646322
 20
407.337036503
 30
0.0
 10
212.3289857721
 20
408.7535083139
 30
0.0
 10
212.328987823
 20
409.4982987318
 30
0.0
  0
SPLINE
  5
4C1
100
AcDbEntity
  8
0
100
AcDbSpline
 62
7
  6
CONTINUOUS
 70
0
 71
3
 72
9
 73
5
 74
0
 42
0.0000001
 43
0.0000001
 44
0.0000000001
 40
0.0
 40
0.0
 40
0.0
 40
0.0
 40
0.5000048537
 40
1.0
 40
1.0
 40
1.0
 40
1.0
 10
187.1912385575
 20
417.0709756308
 30
0.0
 10
187.5270494276
 20
416.8770639939
 30
0.0
 10
188.0576375102
 20
416.2647156101
 30
0.0
 10
188.3225833315
 20
415.4990359276
 30
0.0
 10
188.3226140993
 20
415.1112668936
 30
0.0
  0
SPLINE
  5
4C2
100
AcDbEntity
  8
0
100
AcDbSpline
 62
7
  6
CONTINUOUS
 70
0
 71
3
 72
11
 73
7
 74
0
 42
0.0000001
 43
0.0000001
 44
0.0000000001
 40
0.0
 40
0.0
 40
0.0
 40
0.0
 40
0.2897016315
 40
0.5490894791
 40
0.7822188099
 40
1.0
 40
1.0
 40
1.0
 40
1.0
 10
212.6825397416
 20
409.7024206675
 30
0.0
 10
212.6825376906
 20
408.9576051213
 30
0.0
 10
212.5696134285
 20
407.5411168891
 30
0.0
 10
211.9959798409
 20
405.5949218482
 30
0.0
 10
211.0301007924
 20
404.0156985097
 30
0.0
 10
210.1228489228
 20
403.2530368245
 30
0.0
 10
209.6379731758
 20
402.9730464251
 30
0.0
  0
SPLINE
  5
4C3
100
AcDbEntity
  8
0
100
AcDbSpline
 62
7
  6
CONTINUOUS
 70
0
 71
3
 72
9
 73
5
 74
0
 42
0.0000001
 43
0.0000001
 44
0.0000000001
 40
0.0
 40
0.0
 40
0.0
 40
0.0
 40
0.2205161462
 40
1.0
 40
1.0
 40
1.0
 40
1.0
 10
327.6631478992
 20
152.9685090793
 30
0.0
 10
327.7179876895
 20
153.011549845
 30
0.0
 10
327.9370067118
 20
153.2464775906
 30
0.0
 10
328.0000332005
 20
153.5875185316
 30
0.0
 10
328.0000332005
 20
153.833941309
 30
0.0
  0
SPLINE
  5
4C4
100
AcDbEntity
  8
0
100
AcDbSpline
 62
7
  6
CONTINUOUS
 70
0
 71
3
 72
9
 73
5
 74
0
 42
0.0000001
 43
0.0000001
 44
0.0000000001
 40
0.0
 40
0.0
 40
0.0
 40
0.0
 40
0.2724596673
 40
1.0
 40
1.0
 40
1.0
 40
1.0
 10
165.5949348975
 20
516.1479732403
 30
0.0
 10
165.5949348975
 20
516.3047595824
 30
0.0
 10
165.6202388526
 20
516.8788604983
 30
0.0
 10
165.7542943
 20
517.4560013599
 30
0.0
 10
165.9387280752
 20
517.8318493063
 30
0.0
  0
SPLINE
  5
4C5
100
AcDbEntity
  8
0
100
AcDbSpline
 62
7
  6
CONTINUOUS
 70
0
 71
3
 72
10
 73
6
 74
0
 42
0.0000001
 43
0.0000001
 44
0.0000000001
 40
0.0
 40
0.0
 40
0.0
 40
0.0
 40
0.2184057713
 40
0.4522505057
 40
1.0
 40
1.0
 40
1.0
 40
1.0
 10
242.3221182232
 20
369.8135572261
 30
0.0
 10
242.1195743849
 20
369.6966192319
 30
0.0
 10
241.6541910179
 20
369.5271145751
 30
0.0
 10
240.5699859882
 20
369.5003774815
 30
0.0
 10
239.7595131248
 20
369.824143719
 30
0.0
 10
239.2515424104
 20
370.117414113
 30
0.0
  0
SPLINE
  5
4C6
100
AcDbEntity
  8
0
100
AcDbSpline
 62
7
  6
CONTINUOUS
 70
0
 71
3
 72
10
 73
6
 74
0
 42
0.0000001
 43
0.0000001
 44
0.0000000001
 40
0.0
 40
0.0
 40
0.0
 40
0.0
 40
0.218404832
 40
0.452249169
 40
1.0
 40
1.0
 40
1.0
 40
1.0
 10
228.8386566914
 20
378.9005362005
 30
0.0
 10
229.0353136204
 20
379.0140755475
 30
0.0
 10
229.4037722181
 20
379.3231065874
 30
0.0
 10
229.9525986031
 20
380.2217926989
 30
0.0
 10
230.0738090827
 20
381.0604671018
 30
0.0
 10
230.0738090827
 20
381.6299738382
 30
0.0
  0
SPLINE
  5
4C7
100
AcDbEntity
  8
0
100
AcDbSpline
 62
7
  6
CONTINUOUS
 70
0
 71
3
 72
11
 73
7
 74
0
 42
0.0000001
 43
0.0000001
 44
0.0000000001
 40
0.0
 40
0.0
 40
0.0
 40
0.0
 40
0.2372523758
 40
0.4999990757
 40
0.7627462798
 40
1.0
 40
1.0
 40
1.0
 40
1.0
 10
169.7526519635
 20
410.2417094881
 30
0.0
 10
169.1623439037
 20
410.5825162952
 30
0.0
 10
168.0452380155
 20
411.5225660734
 30
0.0
 10
166.7419211055
 20
413.3043503041
 30
0.0
 10
165.8504989451
 20
415.3239477135
 30
0.0
 10
165.5949348975
 20
416.7614176708
 30
0.0
 10
165.5949348975
 20
417.4430467126
 30
0.0
  0
SPLINE
  5
4C8
100
AcDbEntity
  8
0
100
AcDbSpline
 62
7
  6
CONTINUOUS
 70
0
 71
3
 72
9
 73
5
 74
0
 42
0.0000001
 43
0.0000001
 44
0.0000000001
 40
0.0
 40
0.0
 40
0.0
 40
0.0
 40
0.5000048551
 40
1.0
 40
1.0
 40
1.0
 40
1.0
 10
222.1931699122
 20
396.8630583101
 30
0.0
 10
222.5289807834
 20
396.6691466571
 30
0.0
 10
223.0595688818
 20
396.0567982693
 30
0.0
 10
223.3245146957
 20
395.2911185683
 30
0.0
 10
223.3245454714
 20
394.9033495274
 30
0.0
  0
SPLINE
  5
4C9
100
AcDbEntity
  8
0
100
AcDbSpline
 62
7
  6
CONTINUOUS
 70
0
 71
3
 72
9
 73
5
 74
0
 42
0.0000001
 43
0.0000001
 44
0.0000000001
 40
0.0
 40
0.0
 40
0.0
 40
0.0
 40
0.2223423487
 40
1.0
 40
1.0
 40
1.0
 40
1.0
 10
181.5114413447
 20
493.6413086891
 30
0.0
 10
181.4799491743
 20
493.6056686147
 30
0.0
 10
181.3581271196
 20
493.4274338058
 30
0.0
 10
181.322226053
 20
493.2032297403
 30
0.0
 10
181.322226053
 20
493.0368847048
 30
0.0
  0
SPLINE
  5
4CA
100
AcDbEntity
  8
0
100
AcDbSpline
 62
7
  6
CONTINUOUS
 70
0
 71
3
 72
9
 73
5
 74
0
 42
0.0000001
 43
0.0000001
 44
0.0000000001
 40
0.0
 40
0.0
 40
0.0
 40
0.0
 40
0.4999951469
 40
1.0
 40
1.0
 40
1.0
 40
1.0
 10
187.9690621807
 20
437.7692124963
 30
0.0
 10
187.9690314129
 20
438.1569815353
 30
0.0
 10
187.7040855861
 20
438.9226612276
 30
0.0
 10
187.1734974913
 20
439.5350096117
 30
0.0
 10
186.8376866178
 20
439.7289212506
 30
0.0
  0
SPLINE
  5
4CB
100
AcDbEntity
  8
0
100
AcDbSpline
 62
7
  6
CONTINUOUS
 70
0
 71
3
 72
9
 73
5
 74
0
 42
0.0000001
 43
0.0000001
 44
0.0000000001
 40
0.0
 40
0.0
 40
0.0
 40
0.0
 40
0.5000048551
 40
1.0
 40
1.0
 40
1.0
 40
1.0
 10
222.1931699122
 20
408.29409215
 30
0.0
 10
222.5289807834
 20
408.1001804969
 30
0.0
 10
223.0595688818
 20
407.4878321091
 30
0.0
 10
223.3245146957
 20
406.7221524081
 30
0.0
 10
223.3245454714
 20
406.3343833672
 30
0.0
  0
SPLINE
  5
4CC
100
AcDbEntity
  8
0
100
AcDbSpline
 62
7
  6
CONTINUOUS
 70
0
 71
3
 72
9
 73
5
 74
0
 42
0.0000001
 43
0.0000001
 44
0.0000000001
 40
0.0
 40
0.0
 40
0.0
 40
0.0
 40
0.4999951469
 40
1.0
 40
1.0
 40
1.0
 40
1.0
 10
187.9690621807
 20
449.2002463359
 30
0.0
 10
187.9690314128
 20
449.5880153748
 30
0.0
 10
187.7040855863
 20
450.353695067
 30
0.0
 10
187.1734974918
 20
450.9660434512
 30
0.0
 10
186.8376866183
 20
451.1599550902
 30
0.0
  0
SPLINE
  5
4CD
100
AcDbEntity
  8
0
100
AcDbSpline
 62
7
  6
CONTINUOUS
 70
0
 71
3
 72
9
 73
5
 74
0
 42
0.0000001
 43
0.0000001
 44
0.0000000001
 40
0.0
 40
0.0
 40
0.0
 40
0.0
 40
0.499995154
 40
1.0
 40
1.0
 40
1.0
 40
1.0
 10
199.6363726385
 20
442.4642740348
 30
0.0
 10
199.6363419078
 20
442.8520430595
 30
0.0
 10
199.3713960232
 20
443.6177227103
 30
0.0
 10
198.8408079448
 20
444.2300710495
 30
0.0
 10
198.5049970753
 20
444.4239826451
 30
0.0
  0
SPLINE
  5
4CE
100
AcDbEntity
  8
0
100
AcDbSpline
 62
7
  6
CONTINUOUS
 70
0
 71
3
 72
9
 73
5
 74
0
 42
0.0000001
 43
0.0000001
 44
0.0000000001
 40
0.0
 40
0.0
 40
0.0
 40
0.0
 40
0.5000048551
 40
1.0
 40
1.0
 40
1.0
 40
1.0
 10
222.1931699122
 20
419.7251259898
 30
0.0
 10
222.5289807834
 20
419.5312143367
 30
0.0
 10
223.0595688818
 20
418.918865949
 30
0.0
 10
223.3245146957
 20
418.1531862479
 30
0.0
 10
223.3245454714
 20
417.7654172071
 30
0.0
  0
SPLINE
  5
4CF
100
AcDbEntity
  8
0
100
AcDbSpline
 62
7
  6
CONTINUOUS
 70
0
 71
3
 72
9
 73
5
 74
0
 42
0.0000001
 43
0.0000001
 44
0.0000000001
 40
0.0
 40
0.0
 40
0.0
 40
0.0
 40
0.4999951568
 40
1.0
 40
1.0
 40
1.0
 40
1.0
 10
211.3036830958
 20
435.7283016491
 30
0.0
 10
211.3036523804
 20
436.1160706677
 30
0.0
 10
211.0387064723
 20
436.8817503009
 30
0.0
 10
210.5081184009
 20
437.4940986205
 30
0.0
 10
210.1723075339
 20
437.6880101992
 30
0.0
  0
SPLINE
  5
4D0
100
AcDbEntity
  8
0
100
AcDbSpline
 62
7
  6
CONTINUOUS
 70
0
 71
3
 72
9
 73
5
 74
0
 42
0.0000001
 43
0.0000001
 44
0.0000000001
 40
0.0
 40
0.0
 40
0.0
 40
0.0
 40
0.4999951449
 40
1.0
 40
1.0
 40
1.0
 40
1.0
 10
222.9709935528
 20
428.9923289699
 30
0.0
 10
222.9709627771
 20
429.3800980107
 30
0.0
 10
222.7060169632
 20
430.1457777118
 30
0.0
 10
222.1754288647
 20
430.7581260996
 30
0.0
 10
221.8396179935
 20
430.9520377527
 30
0.0
  0
SPLINE
  5
4D1
100
AcDbEntity
  8
0
100
AcDbSpline
 62
7
  6
CONTINUOUS
 70
0
 71
3
 72
9
 73
5
 74
0
 42
0.0000001
 43
0.0000001
 44
0.0000000001
 40
0.0
 40
0.0
 40
0.0
 40
0.0
 40
0.4999988716
 40
1.0
 40
1.0
 40
1.0
 40
1.0
 10
182.2889083044
 20
460.2773178283
 30
0.0
 10
181.9390200565
 20
460.4793213325
 30
0.0
 10
181.3861995218
 20
461.1173077874
 30
0.0
 10
181.1100949018
 20
461.9150555126
 30
0.0
 10
181.1100949018
 20
462.3190711994
 30
0.0
  0
SPLINE
  5
4D2
100
AcDbEntity
  8
0
100
AcDbSpline
 62
7
  6
CONTINUOUS
 70
0
 71
3
 72
9
 73
5
 74
0
 42
0.0000001
 43
0.0000001
 44
0.0000000001
 40
0.0
 40
0.0
 40
0.0
 40
0.0
 40
0.5000048551
 40
1.0
 40
1.0
 40
1.0
 40
1.0
 10
222.1931699121
 20
431.1561598296
 30
0.0
 10
222.5289807834
 20
430.9622481766
 30
0.0
 10
223.0595688818
 20
430.3498997888
 30
0.0
 10
223.3245146957
 20
429.5842200877
 30
0.0
 10
223.3245454714
 20
429.1964510468
 30
0.0
  0
SPLINE
  5
4D3
100
AcDbEntity
  8
0
100
AcDbSpline
 62
7
  6
CONTINUOUS
 70
0
 71
3
 72
9
 73
5
 74
0
 42
0.0000001
 43
0.0000001
 44
0.0000000001
 40
0.0
 40
0.0
 40
0.0
 40
0.0
 40
0.4999951449
 40
1.0
 40
1.0
 40
1.0
 40
1.0
 10
222.9709935528
 20
417.5612951301
 30
0.0
 10
222.9709627771
 20
417.949064171
 30
0.0
 10
222.7060169632
 20
418.714743872
 30
0.0
 10
222.1754288648
 20
419.3270922598
 30
0.0
 10
221.8396179936
 20
419.5210039128
 30
0.0
  0
SPLINE
  5
4D4
100
AcDbEntity
  8
0
100
AcDbSpline
 62
7
  6
CONTINUOUS
 70
0
 71
3
 72
9
 73
5
 74
0
 42
0.0000001
 43
0.0000001
 44
0.0000000001
 40
0.0
 40
0.0
 40
0.0
 40
0.0
 40
0.4999951463
 40
1.0
 40
1.0
 40
1.0
 40
1.0
 10
187.9690621807
 20
426.3381786565
 30
0.0
 10
187.9690314129
 20
426.7259476905
 30
0.0
 10
187.7040855916
 20
427.4916273729
 30
0.0
 10
187.173497509
 20
428.1039757568
 30
0.0
 10
186.8376866389
 20
428.2978873937
 30
0.0
  0
SPLINE
  5
4D5
100
AcDbEntity
  8
0
100
AcDbSpline
 62
7
  6
CONTINUOUS
 70
0
 71
3
 72
9
 73
5
 74
0
 42
0.0000001
 43
0.0000001
 44
0.0000000001
 40
0.0
 40
0.0
 40
0.0
 40
0.0
 40
0.5000048434
 40
1.0
 40
1.0
 40
1.0
 40
1.0
 10
210.5258594596
 20
437.8921322704
 30
0.0
 10
210.8616703254
 20
437.6982206924
 30
0.0
 10
211.3922583927
 20
437.0858723729
 30
0.0
 10
211.657204299
 20
436.3201927429
 30
0.0
 10
211.6572350144
 20
435.9324237261
 30
0.0
  0
SPLINE
  5
4D6
100
AcDbEntity
  8
0
100
AcDbSpline
 62
7
  6
CONTINUOUS
 70
0
 71
3
 72
8
 73
4
 74
0
 42
0.0000001
 43
0.0000001
 44
0.0000000001
 40
0.0
 40
0.0
 40
0.0
 40
0.0
 40
1.0
 40
1.0
 40
1.0
 40
1.0
 10
273.9507370096
 20
636.2325944417
 30
0.0
 10
274.0202680485
 20
636.2727136906
 30
0.0
 10
274.0982703434
 20
636.3001863997
 30
0.0
 10
274.1773109732
 20
636.314211318
 30
0.0
  0
SPLINE
  5
4D7
100
AcDbEntity
  8
0
100
AcDbSpline
 62
7
  6
CONTINUOUS
 70
0
 71
3
 72
9
 73
5
 74
0
 42
0.0000001
 43
0.0000001
 44
0.0000000001
 40
0.0
 40
0.0
 40
0.0
 40
0.0
 40
0.4999951443
 40
1.0
 40
1.0
 40
1.0
 40
1.0
 10
222.9709935528
 20
406.1302612903
 30
0.0
 10
222.9709627771
 20
406.5180303262
 30
0.0
 10
222.7060169687
 20
407.2837100174
 30
0.0
 10
222.1754288824
 20
407.8960584049
 30
0.0
 10
221.8396180147
 20
408.0899700559
 30
0.0
  0
SPLINE
  5
4D8
100
AcDbEntity
  8
0
100
AcDbSpline
 62
7
  6
CONTINUOUS
 70
0
 71
3
 72
9
 73
5
 74
0
 42
0.0000001
 43
0.0000001
 44
0.0000000001
 40
0.0
 40
0.0
 40
0.0
 40
0.0
 40
0.5000048464
 40
1.0
 40
1.0
 40
1.0
 40
1.0
 10
198.858549008
 20
444.6281047106
 30
0.0
 10
199.1943598751
 20
444.4341931164
 30
0.0
 10
199.7249479455
 20
443.8218447773
 30
0.0
 10
199.9898938264
 20
443.0561651332
 30
0.0
 10
199.9899245571
 20
442.6683961117
 30
0.0
  0
SPLINE
  5
4D9
100
AcDbEntity
  8
0
100
AcDbSpline
 62
7
  6
CONTINUOUS
 70
0
 71
3
 72
9
 73
5
 74
0
 42
0.0000001
 43
0.0000001
 44
0.0000000001
 40
0.0
 40
0.0
 40
0.0
 40
0.0
 40
0.4999951443
 40
1.0
 40
1.0
 40
1.0
 40
1.0
 10
222.9709935528
 20
394.6992274505
 30
0.0
 10
222.9709627771
 20
395.0869964863
 30
0.0
 10
222.7060169687
 20
395.8526761776
 30
0.0
 10
222.1754288824
 20
396.4650245651
 30
0.0
 10
221.8396180147
 20
396.6589362161
 30
0.0
  0
SPLINE
  5
4DA
100
AcDbEntity
  8
0
100
AcDbSpline
 62
7
  6
CONTINUOUS
 70
0
 71
3
 72
13
 73
9
 74
0
 42
0.0000001
 43
0.0000001
 44
0.0000000001
 40
0.0
 40
0.0
 40
0.0
 40
0.0
 40
0.2698956773
 40
0.5613240607
 40
0.6954637712
 40
0.8131422809
 40
0.9128539574
 40
1.0
 40
1.0
 40
1.0
 40
1.0
 10
205.6101441996
 20
413.3773127795
 30
0.0
 10
205.6101441996
 20
414.3058659993
 30
0.0
 10
205.0996308105
 20
416.2307758869
 30
0.0
 10
203.7776954857
 20
418.2740992249
 30
0.0
 10
202.3703892653
 20
419.5224549519
 30
0.0
 10
201.2974558104
 20
420.1081978389
 30
0.0
 10
200.2474909426
 20
420.3186122673
 30
0.0
 10
199.5951839986
 20
420.1508524261
 30
0.0
 10
199.335527334
 20
420.000953804
 30
0.0
  0
SPLINE
  5
4DB
100
AcDbEntity
  8
0
100
AcDbSpline
 62
7
  6
CONTINUOUS
 70
0
 71
3
 72
9
 73
5
 74
0
 42
0.0000001
 43
0.0000001
 44
0.0000000001
 40
0.0
 40
0.0
 40
0.0
 40
0.0
 40
0.2862975651
 40
1.0
 40
1.0
 40
1.0
 40
1.0
 10
198.1160867697
 20
417.7039353302
 30
0.0
 10
198.1160878329
 20
417.9266897612
 30
0.0
 10
198.1636614238
 20
418.6983049444
 30
0.0
 10
198.4628173203
 20
419.4939487291
 30
0.0
 10
198.8564551824
 20
419.8856179396
 30
0.0
  0
SPLINE
  5
4DC
100
AcDbEntity
  8
0
100
AcDbSpline
 62
7
  6
CONTINUOUS
 70
0
 71
3
 72
8
 73
4
 74
0
 42
0.0000001
 43
0.0000001
 44
0.0000000001
 40
0.0
 40
0.0
 40
0.0
 40
0.0
 40
1.0
 40
1.0
 40
1.0
 40
1.0
 10
198.8564551824
 20
419.8856179396
 30
0.0
 10
198.9690794429
 20
419.9976789465
 30
0.0
 10
199.0970172261
 20
420.0963125448
 30
0.0
 10
199.2346098161
 20
420.1757491389
 30
0.0
  0
SPLINE
  5
4DD
100
AcDbEntity
  8
0
100
AcDbSpline
 62
7
  6
CONTINUOUS
 70
0
 71
3
 72
14
 73
10
 74
0
 42
0.0000001
 43
0.0000001
 44
0.0000000001
 40
0.0
 40
0.0
 40
0.0
 40
0.0
 40
0.2696046768
 40
0.4171054463
 40
0.5617975368
 40
0.6957924502
 40
0.8133439237
 40
0.912947989
 40
1.0
 40
1.0
 40
1.0
 40
1.0
 10
206.6721112808
 20
412.7642112528
 30
0.0
 10
206.6721046249
 20
413.9610399782
 30
0.0
 10
206.1802461679
 20
415.8157901604
 30
0.0
 10
204.9931402426
 20
418.010937254
 30
0.0
 10
203.8216723331
 20
419.5110218625
 30
0.0
 10
202.4961266592
 20
420.6845334659
 30
0.0
 10
201.1134441603
 20
421.4398089628
 30
0.0
 10
199.7600753895
 20
421.7109487625
 30
0.0
 10
198.9193160755
 20
421.4947319109
 30
0.0
 10
198.5846402932
 20
421.3015250255
 30
0.0
  0
SPLINE
  5
4DE
100
AcDbEntity
  8
0
100
AcDbSpline
 62
7
  6
CONTINUOUS
 70
0
 71
3
 72
11
 73
7
 74
0
 42
0.0000001
 43
0.0000001
 44
0.0000000001
 40
0.0
 40
0.0
 40
0.0
 40
0.0
 40
0.308411696
 40
0.5816969936
 40
0.8088019733
 40
1.0
 40
1.0
 40
1.0
 40
1.0
 10
276.3493536297
 20
637.49666642
 30
0.0
 10
276.1017551731
 20
638.052339026
 30
0.0
 10
275.7346143882
 20
639.1505562204
 30
0.0
 10
275.5899925791
 20
640.7557861731
 30
0.0
 10
275.8918289714
 20
642.1212914472
 30
0.0
 10
276.4703528922
 20
642.7811687978
 30
0.0
 10
276.7970695326
 20
642.9695519795
 30
0.0
  0
SPLINE
  5
4DF
100
AcDbEntity
  8
0
100
AcDbSpline
 62
7
  6
CONTINUOUS
 70
0
 71
3
 72
10
 73
6
 74
0
 42
0.0000001
 43
0.0000001
 44
0.0000000001
 40
0.0
 40
0.0
 40
0.0
 40
0.0
 40
0.5462638078
 40
0.7805350224
 40
1.0
 40
1.0
 40
1.0
 40
1.0
 10
207.0247059307
 20
412.8597549364
 30
0.0
 10
207.0137542571
 20
412.2412429537
 30
0.0
 10
206.8662208363
 20
411.3321884793
 30
0.0
 10
206.256829199
 20
410.3612060313
 30
0.0
 10
205.8531042073
 20
410.0257056652
 30
0.0
 10
205.6378691366
 20
409.9014435549
 30
0.0
  0
SPLINE
  5
4E0
100
AcDbEntity
  8
0
100
AcDbSpline
 62
7
  6
CONTINUOUS
 70
0
 71
3
 72
9
 73
5
 74
0
 42
0.0000001
 43
0.0000001
 44
0.0000000001
 40
0.0
 40
0.0
 40
0.0
 40
0.0
 40
0.5508326585
 40
1.0
 40
1.0
 40
1.0
 40
1.0
 10
276.3826138165
 20
653.0975499905
 30
0.0
 10
276.0497018471
 20
653.2897524575
 30
0.0
 10
275.3844888296
 20
653.5662270816
 30
0.0
 10
274.6416981412
 20
653.4534208995
 30
0.0
 10
274.3702317919
 20
653.2966905357
 30
0.0
  0
SPLINE
  5
4E1
100
AcDbEntity
  8
0
100
AcDbSpline
 62
7
  6
CONTINUOUS
 70
0
 71
3
 72
11
 73
7
 74
0
 42
0.0000001
 43
0.0000001
 44
0.0000000001
 40
0.0
 40
0.0
 40
0.0
 40
0.0
 40
0.2372539654
 40
0.5000012591
 40
0.7627478694
 40
1.0
 40
1.0
 40
1.0
 40
1.0
 10
404.3517911753
 20
575.7668884055
 30
0.0
 10
404.3517911753
 20
576.256614395
 30
0.0
 10
404.1681774739
 20
577.2893845633
 30
0.0
 10
403.5277227586
 20
578.7403915824
 30
0.0
 10
402.5913373084
 20
580.0205376039
 30
0.0
 10
401.7887381203
 20
580.6959283092
 30
0.0
 10
401.364623854
 20
580.9407852556
 30
0.0
  0
SPLINE
  5
4E2
100
AcDbEntity
  8
0
100
AcDbSpline
 62
7
  6
CONTINUOUS
 70
0
 71
3
 72
9
 73
5
 74
0
 42
0.0000001
 43
0.0000001
 44
0.0000000001
 40
0.0
 40
0.0
 40
0.0
 40
0.0
 40
0.5033046689
 40
1.0
 40
1.0
 40
1.0
 40
1.0
 10
403.0115862549
 20
562.1970366201
 30
0.0
 10
403.411156311
 20
561.9421697891
 30
0.0
 10
404.0390978399
 20
561.1915658746
 30
0.0
 10
404.3517911753
 20
560.2602298409
 30
0.0
 10
404.3517911753
 20
559.792519596
 30
0.0
  0
SPLINE
  5
4E3
100
AcDbEntity
  8
0
100
AcDbSpline
 62
7
  6
CONTINUOUS
 70
0
 71
3
 72
9
 73
5
 74
0
 42
0.0000001
 43
0.0000001
 44
0.0000000001
 40
0.0
 40
0.0
 40
0.0
 40
0.0
 40
0.2276409466
 40
1.0
 40
1.0
 40
1.0
 40
1.0
 10
400.4668196743
 20
564.6337807477
 30
0.0
 10
400.3332302411
 20
564.6105182608
 30
0.0
 10
399.7359334898
 20
564.5656343704
 30
0.0
 10
399.138959291
 20
564.7398037722
 30
0.0
 10
398.7216059295
 20
564.9334120663
 30
0.0
  0
SPLINE
  5
4E4
100
AcDbEntity
  8
0
100
AcDbSpline
 62
7
  6
CONTINUOUS
 70
0
 71
3
 72
13
 73
9
 74
0
 42
0.0000001
 43
0.0000001
 44
0.0000000001
 40
0.0
 40
0.0
 40
0.0
 40
0.0
 40
0.2836839795
 40
0.5718235918
 40
0.7015394383
 40
0.8153542001
 40
0.9130130536
 40
1.0
 40
1.0
 40
1.0
 40
1.0
 10
397.558619849
 20
565.6752258543
 30
0.0
 10
396.8268638312
 20
566.2713093108
 30
0.0
 10
395.5891911128
 20
567.7670969371
 30
0.0
 10
394.6543255213
 20
569.948831402
 30
0.0
 10
394.4091244109
 20
571.7116605095
 30
0.0
 10
394.5060102634
 20
572.8547074377
 30
0.0
 10
394.8816497755
 20
573.795518331
 30
0.0
 10
395.3408926534
 20
574.2403601321
 30
0.0
 10
395.5915866245
 20
574.3849541145
 30
0.0
  0
SPLINE
  5
4E5
100
AcDbEntity
  8
0
100
AcDbSpline
 62
7
  6
CONTINUOUS
 70
0
 71
3
 72
11
 73
7
 74
0
 42
0.0000001
 43
0.0000001
 44
0.0000000001
 40
0.0
 40
0.0
 40
0.0
 40
0.0
 40
0.2357478407
 40
0.4967944233
 40
0.7595739726
 40
1.0
 40
1.0
 40
1.0
 40
1.0
 10
392.3309258478
 20
573.6587156562
 30
0.0
 10
392.3309258478
 20
572.9877817952
 30
0.0
 10
392.574099889
 20
571.5728146893
 30
0.0
 10
393.4300944664
 20
569.5712962795
 30
0.0
 10
394.6913031814
 20
567.7806355149
 30
0.0
 10
395.7746564256
 20
566.8131317043
 30
0.0
 10
396.3515406165
 20
566.4451645772
 30
0.0
  0
SPLINE
  5
4E6
100
AcDbEntity
  8
0
100
AcDbSpline
 62
7
  6
CONTINUOUS
 70
0
 71
3
 72
9
 73
5
 74
0
 42
0.0000001
 43
0.0000001
 44
0.0000000001
 40
0.0
 40
0.0
 40
0.0
 40
0.0
 40
0.4999988717
 40
1.0
 40
1.0
 40
1.0
 40
1.0
 10
390.9167063975
 20
582.8902446646
 30
0.0
 10
391.3364664415
 20
582.6479015727
 30
0.0
 10
391.9996838353
 20
581.8825108399
 30
0.0
 10
392.3309258478
 20
580.9254549164
 30
0.0
 10
392.3309258478
 20
580.4407583213
 30
0.0
  0
SPLINE
  5
4E7
100
AcDbEntity
  8
0
100
AcDbSpline
 62
7
  6
CONTINUOUS
 70
0
 71
3
 72
15
 73
11
 74
0
 42
0.0000001
 43
0.0000001
 44
0.0000000001
 40
0.0
 40
0.0
 40
0.0
 40
0.0
 40
0.1277647008
 40
0.2682101709
 40
0.4144135008
 40
0.5583976718
 40
0.692593294
 40
0.811261443
 40
0.9123722793
 40
1.0
 40
1.0
 40
1.0
 40
1.0
 10
192.8127608693
 20
421.1739468964
 30
0.0
 10
192.8127608693
 20
420.0543250233
 30
0.0
 10
193.1190282581
 20
417.7012509376
 30
0.0
 10
194.2672119654
 20
414.2384786053
 30
0.0
 10
196.0415812632
 20
410.8881761526
 30
0.0
 10
198.3043070144
 20
407.9150187529
 30
0.0
 10
200.8806095706
 20
405.5470217338
 30
0.0
 10
203.5850690741
 20
403.9674356943
 30
0.0
 10
206.2467499048
 20
403.3001795073
 30
0.0
 10
207.9464540079
 20
403.5943792331
 30
0.0
 10
208.6423942511
 20
403.9189256305
 30
0.0
  0
SPLINE
  5
4E8
100
AcDbEntity
  8
0
100
AcDbSpline
 62
7
  6
CONTINUOUS
 70
0
 71
3
 72
9
 73
5
 74
0
 42
0.0000001
 43
0.0000001
 44
0.0000000001
 40
0.0
 40
0.0
 40
0.0
 40
0.0
 40
0.2421229231
 40
1.0
 40
1.0
 40
1.0
 40
1.0
 10
199.6890727821
 20
420.2050875846
 30
0.0
 10
199.7669434681
 20
420.2500478818
 30
0.0
 10
200.1028346582
 20
420.4112580047
 30
0.0
 10
200.4865685655
 20
420.4601321255
 30
0.0
 10
200.7676372741
 20
420.4453760793
 30
0.0
  0
SPLINE
  5
4E9
100
AcDbEntity
  8
0
100
AcDbSpline
 62
7
  6
CONTINUOUS
 70
0
 71
3
 72
11
 73
7
 74
0
 42
0.0000001
 43
0.0000001
 44
0.0000000001
 40
0.0
 40
0.0
 40
0.0
 40
0.0
 40
0.2897016594
 40
0.5490895814
 40
0.7822189142
 40
1.0
 40
1.0
 40
1.0
 40
1.0
 10
192.4592089507
 20
420.9698248195
 30
0.0
 10
192.4592089507
 20
421.6487755619
 30
0.0
 10
192.5621471462
 20
422.9400026053
 30
0.0
 10
193.0850512522
 20
424.7140939768
 30
0.0
 10
193.9655122497
 20
426.1536675494
 30
0.0
 10
194.7925346554
 20
426.8488865207
 30
0.0
 10
195.2345321169
 20
427.1041168844
 30
0.0
  0
SPLINE
  5
4EA
100
AcDbEntity
  8
0
100
AcDbSpline
 62
7
  6
CONTINUOUS
 70
0
 71
3
 72
9
 73
5
 74
0
 42
0.0000001
 43
0.0000001
 44
0.0000000001
 40
0.0
 40
0.0
 40
0.0
 40
0.0
 40
0.5000048537
 40
1.0
 40
1.0
 40
1.0
 40
1.0
 10
187.191238558
 20
451.36407715
 30
0.0
 10
187.527049428
 20
451.1701655131
 30
0.0
 10
188.0576375104
 20
450.5578171291
 30
0.0
 10
188.3225833314
 20
449.7921374468
 30
0.0
 10
188.3226140993
 20
449.4043684128
 30
0.0
  0
SPLINE
  5
4EB
100
AcDbEntity
  8
0
100
AcDbSpline
 62
7
  6
CONTINUOUS
 70
0
 71
3
 72
15
 73
11
 74
0
 42
0.0000001
 43
0.0000001
 44
0.0000000001
 40
0.0
 40
0.0
 40
0.0
 40
0.0
 40
0.128832552
 40
0.2705726255
 40
0.4178900826
 40
0.56238753
 40
0.6962014457
 40
0.8135917417
 40
0.9130639738
 40
1.0
 40
1.0
 40
1.0
 40
1.0
 10
212.328987823
 20
409.4982987318
 30
0.0
 10
212.328984363
 20
410.7548211319
 30
0.0
 10
211.9774966769
 20
413.3967855782
 30
0.0
 10
210.6654322321
 20
417.2758428682
 30
0.0
 10
208.6435640058
 20
421.0128222402
 30
0.0
 10
206.075482913
 20
424.3002553374
 30
0.0
 10
203.1666692108
 20
426.8760472873
 30
0.0
 10
200.1330917734
 20
428.5331623299
 30
0.0
 10
197.1637290435
 20
429.1278674631
 30
0.0
 10
195.3187918312
 20
428.6539792278
 30
0.0
 10
194.5845461023
 20
428.2299310273
 30
0.0
  0
SPLINE
  5
4EC
100
AcDbEntity
  8
0
100
AcDbSpline
 62
7
  6
CONTINUOUS
 70
0
 71
3
 72
10
 73
6
 74
0
 42
0.0000001
 43
0.0000001
 44
0.0000000001
 40
0.0
 40
0.0
 40
0.0
 40
0.0
 40
0.5477496615
 40
0.7815943701
 40
1.0
 40
1.0
 40
1.0
 40
1.0
 10
179.2409419672
 20
507.922098214
 30
0.0
 10
178.6866557115
 20
508.2421082933
 30
0.0
 10
177.8022859272
 20
508.5953947697
 30
0.0
 10
176.6192261338
 20
508.566219443
 30
0.0
 10
176.1114104997
 20
508.3812600546
 30
0.0
 10
175.8903994827
 20
508.2536599407
 30
0.0
  0
SPLINE
  5
4ED
100
AcDbEntity
  8
0
100
AcDbSpline
 62
7
  6
CONTINUOUS
 70
0
 71
3
 72
8
 73
4
 74
0
 42
0.0000001
 43
0.0000001
 44
0.0000000001
 40
0.0
 40
0.0
 40
0.0
 40
0.0
 40
1.0
 40
1.0
 40
1.0
 40
1.0
 10
204.5334311676
 20
410.9978680337
 30
0.0
 10
204.6633143118
 20
411.0728489874
 30
0.0
 10
204.7842544084
 20
411.1655786417
 30
0.0
 10
204.8910756197
 20
411.2708449865
 30
0.0
  0
SPLINE
  5
4EE
100
AcDbEntity
  8
0
100
AcDbSpline
 62
7
  6
CONTINUOUS
 70
0
 71
3
 72
9
 73
5
 74
0
 42
0.0000001
 43
0.0000001
 44
0.0000000001
 40
0.0
 40
0.0
 40
0.0
 40
0.0
 40
0.2213539202
 40
1.0
 40
1.0
 40
1.0
 40
1.0
 10
204.8910756197
 20
411.2708449865
 30
0.0
 10
205.0099197802
 20
411.3879592771
 30
0.0
 10
205.4746310804
 20
411.9925261285
 30
0.0
 10
205.6101441996
 20
412.7903844217
 30
0.0
 10
205.6101441996
 20
413.3773127795
 30
0.0
  0
SPLINE
  5
4EF
100
AcDbEntity
  8
0
100
AcDbSpline
 62
7
  6
CONTINUOUS
 70
0
 71
3
 72
9
 73
5
 74
0
 42
0.0000001
 43
0.0000001
 44
0.0000000001
 40
0.0
 40
0.0
 40
0.0
 40
0.0
 40
0.4999951463
 40
1.0
 40
1.0
 40
1.0
 40
1.0
 10
187.9690621807
 20
414.9071448167
 30
0.0
 10
187.9690314129
 20
415.2949138507
 30
0.0
 10
187.7040855916
 20
416.0605935331
 30
0.0
 10
187.173497509
 20
416.672941917
 30
0.0
 10
186.8376866389
 20
416.8668535539
 30
0.0
  0
SPLINE
  5
4F0
100
AcDbEntity
  8
0
100
AcDbSpline
 62
7
  6
CONTINUOUS
 70
0
 71
3
 72
9
 73
5
 74
0
 42
0.0000001
 43
0.0000001
 44
0.0000000001
 40
0.0
 40
0.0
 40
0.0
 40
0.0
 40
0.2278607749
 40
1.0
 40
1.0
 40
1.0
 40
1.0
 10
339.0872318436
 20
168.3894360553
 30
0.0
 10
339.1228971282
 20
168.4541199399
 30
0.0
 10
339.2554483687
 20
168.7512705495
 30
0.0
 10
339.2982381516
 20
169.0823162769
 30
0.0
 10
339.2982381516
 20
169.332618047
 30
0.0
  0
SPLINE
  5
4F1
100
AcDbEntity
  8
0
100
AcDbSpline
 62
7
  6
CONTINUOUS
 70
0
 71
3
 72
9
 73
5
 74
0
 42
0.0000001
 43
0.0000001
 44
0.0000000001
 40
0.0
 40
0.0
 40
0.0
 40
0.0
 40
0.5000011284
 40
1.0
 40
1.0
 40
1.0
 40
1.0
 10
181.322226053
 20
462.4415444456
 30
0.0
 10
181.322226053
 20
462.0375287588
 30
0.0
 10
181.5983306729
 20
461.2397810336
 30
0.0
 10
182.1511512076
 20
460.6017945787
 30
0.0
 10
182.5010394555
 20
460.3997910745
 30
0.0
  0
SPLINE
  5
4F2
100
AcDbEntity
  8
0
100
AcDbSpline
 62
7
  6
CONTINUOUS
 70
0
 71
3
 72
9
 73
5
 74
0
 42
0.0000001
 43
0.0000001
 44
0.0000000001
 40
0.0
 40
0.0
 40
0.0
 40
0.0
 40
0.2838548173
 40
1.0
 40
1.0
 40
1.0
 40
1.0
 10
222.5289133156
 20
437.2902101348
 30
0.0
 10
222.5841133098
 20
437.2583411243
 30
0.0
 10
222.783904503
 20
437.158548633
 30
0.0
 10
223.0223586667
 20
437.1138534441
 30
0.0
 10
223.1795416598
 20
437.1478106028
 30
0.0
  0
SPLINE
  5
4F3
100
AcDbEntity
  8
0
100
AcDbSpline
 62
7
  6
CONTINUOUS
 70
0
 71
3
 72
9
 73
5
 74
0
 42
0.0000001
 43
0.0000001
 44
0.0000000001
 40
0.0
 40
0.0
 40
0.0
 40
0.0
 40
0.5000048537
 40
1.0
 40
1.0
 40
1.0
 40
1.0
 10
187.1912385575
 20
439.9330433105
 30
0.0
 10
187.5270494276
 20
439.7391316735
 30
0.0
 10
188.0576375102
 20
439.1267832897
 30
0.0
 10
188.3225833315
 20
438.3611036073
 30
0.0
 10
188.3226140993
 20
437.9733345732
 30
0.0
  0
SPLINE
  5
4F4
100
AcDbEntity
  8
0
100
AcDbSpline
 62
7
  6
CONTINUOUS
 70
0
 71
3
 72
9
 73
5
 74
0
 42
0.0000001
 43
0.0000001
 44
0.0000000001
 40
0.0
 40
0.0
 40
0.0
 40
0.0
 40
0.5000048537
 40
1.0
 40
1.0
 40
1.0
 40
1.0
 10
187.1912385575
 20
428.5020094706
 30
0.0
 10
187.5270494276
 20
428.3080978337
 30
0.0
 10
188.0576375102
 20
427.6957494499
 30
0.0
 10
188.3225833315
 20
426.9300697675
 30
0.0
 10
188.3226140993
 20
426.5423007335
 30
0.0
  0
SPLINE
  5
4F5
100
AcDbEntity
  8
0
100
AcDbSpline
 62
7
  6
CONTINUOUS
 70
0
 71
3
 72
13
 73
9
 74
0
 42
0.0000001
 43
0.0000001
 44
0.0000000001
 40
0.0
 40
0.0
 40
0.0
 40
0.0
 40
0.0873220992
 40
0.1874409166
 40
0.3052209002
 40
0.4390681911
 40
0.7296029987
 40
1.0
 40
1.0
 40
1.0
 40
1.0
 10
204.566954744
 20
410.8143460943
 30
0.0
 10
204.2963713209
 20
410.6704564637
 30
0.0
 10
203.6255735772
 20
410.5195103127
 30
0.0
 10
202.5570569822
 20
410.7498735898
 30
0.0
 10
201.4660317984
 20
411.3542587552
 30
0.0
 10
200.0357559222
 20
412.6271415895
 30
0.0
 10
198.6837246879
 20
414.7054682668
 30
0.0
 10
198.150242568
 20
416.6606634585
 30
0.0
 10
198.1344687039
 20
417.60950972
 30
0.0
  0
ENDSEC
  0
SECTION
  2
OBJECTS
  0
DICTIONARY
  5
C
100
AcDbDictionary
280
0
281
1
  3
ACAD_GROUP
350
D
  3
ACAD_MLINESTYLE
350
17
  3
ACAD_LAYOUT
350
1A
  3
ACAD_PLOTSETTINGS
350
19
  3
ACAD_PLOTSTYLENAME
350
E
  0
DICTIONARY
  5
D
102
{ACAD_REACTORS
330
C
102
}
100
AcDbDictionary
280
0
281
1
  0
ACDBDICTIONARYWDFLT
  5
E
102
{ACAD_REACTORS
330
C
102
}
100
AcDbDictionary
281
1
  3
Normal
350
F
100
AcDbDictionaryWithDefault
340
F
  0
DICTIONARY
  5
17
102
{ACAD_REACTORS
330
C
102
}
100
AcDbDictionary
280
0
281
1
  3
Standard
350
18
  0
DICTIONARY
  5
19
102
{ACAD_REACTORS
330
C
102
}
100
AcDbDictionary
281
1
  0
DICTIONARY
  5
1A
102
{ACAD_REACTORS
330
C
102
}
100
AcDbDictionary
281
1
  3
Model
350
4F6
  3
Layout1
350
4F7
  0
ACDBPLACEHOLDER
  5
F
102
{ACAD_REACTORS
330
E
102
}
  0
MLINESTYLE
  5
18
102
{ACAD_REACTORS
330
17
102
}
100
AcDbMlineStyle
  2
STANDARD
 70
0
  3

 62
256
 51
90.0
 52
90.0
 71
2
 49
0.5
 62
256
  6
BYLAYER
 49
-0.5
 62
256
  6
BYLAYER
  0
LAYOUT
  5
4F6
102
{ACAD_REACTORS
330
1A
102
}
100
AcDbPlotSettings
  1

  2
none_device
  4

  6

 40
0.0
 41
0.0
 42
0.0
 43
0.0
 44
210.0
 45
297.0
 46
0.0
 47
0.0
 48
0.0
 49
0.0
140
0.0
141
0.0
142
1.0
143
1.0
 70
1024
 72
1
 73
0
 74
0
  7

 75
0
147
1.0
148
0.0
149
0.0
100
AcDbLayout
  1
Model
 70
0
 71
0
 10
0.0
 20
0.0
 11
210.0
 21
297.0
 12
0.0
 22
0.0
 32
0.0
 14
0.0
 24
0.0
 34
0.0
 15
0.0
 25
0.0
 35
0.0
146
0.0
 13
0.0
 23
0.0
 33
0.0
 16
1.0
 26
0.0
 36
0.0
 17
0.0
 27
1.0
 37
0.0
 76
0
330
210
345
0
346
0
  0
LAYOUT
  5
4F7
102
{ACAD_REACTORS
330
1A
102
}
100
AcDbPlotSettings
  1

  2
none_device
  4

  6

 40
0.0
 41
0.0
 42
0.0
 43
0.0
 44
210.0
 45
297.0
 46
0.0
 47
0.0
 48
0.0
 49
0.0
140
0.0
141
0.0
142
1.0
143
1.0
 70
0
 72
1
 73
0
 74
0
  7

 75
0
147
1.0
148
0.0
149
0.0
100
AcDbLayout
  1
Layout1
 70
0
 71
1
 10
0.0
 20
0.0
 11
210.0
 21
297.0
 12
0.0
 22
0.0
 32
0.0
 14
0.0
 24
0.0
 34
0.0
 15
0.0
 25
0.0
 35
0.0
146
0.0
 13
0.0
 23
0.0
 33
0.0
 16
1.0
 26
0.0
 36
0.0
 17
0.0
 27
1.0
 37
0.0
 76
0
330
211
345
0
346
0
  0
ENDSEC
  0
EOF
