999
DXF file: Y:\001_SCHNEIDER_PARIS\maxime fuentes - génération CAD 2D\TRAVAIL\XB5AA45_2D-Views\xb5aa45_2d-views_5.dxf
999
Pro/ENGINEER 2018260 by Parametric Technology Corporation
  0
SECTION
  2
HEADER
  9
$ACADVER
  1
AC1027
  9
$DWGCODEPAGE
  3
ANSI_1252
  9
$EXTMAX
 10
558.8
 20
431.8
 30
0.0
  9
$EXTMIN
 10
0.0
 20
0.0
 30
0.0
  9
$LIMMIN
 10
0.0
 20
0.0
  9
$LIMMAX
 10
558.8
 20
431.8
  9
$VIEWCTR
 10
279.4
 20
215.9
  9
$VIEWSIZE
 40
431.8
  9
$CLAYER
  8
0
  9
$LTSCALE
 40
30.734
  9
$CELTYPE
  6
BYLAYER
  9
$DIMSCALE
 40
1.0
  9
$DIMASZ
 40
3.5
  9
$DIMEXO
 40
1.0
  9
$DIMDLI
 40
21.2344
  9
$DIMEXE
 40
3.0
  9
$DIMCEN
 40
5.0292
  9
$DIMLFAC
 40
1.0
  9
$DIMBLK
  1
_FILLED
  9
$DIMALT
 70
0
  9
$DIMALTF
 40
0.0393700787
  9
$DIMTXT
 40
4.0
  9
$DIMTOL
 70
1
  9
$DIMLIM
 70
0
  9
$DIMTFAC
 40
1.0
  9
$DIMTP
 40
0.0001
  9
$DIMTM
 40
0.0001
  9
$DIMGAP
 40
0.625
  9
$DIMDSEP
 70
46
  9
$AUNITS
 70
0
  9
$PDMODE
 70
0
  9
$PDSIZE
 40
0.01
  9
$HANDSEED
  5
304
  9
$TILEMODE
 70
1
  9
$MEASUREMENT
 70
1
  9
$INSUNITS
 70
4
  0
ENDSEC
  0
SECTION
  2
CLASSES
  0
CLASS
  1
ACDBDICTIONARYWDFLT
  2
AcDbDictionaryWithDefault
  3
AutoCAD 2000
 90
0
 91
1
280
0
281
0
  0
CLASS
  1
ACDBPLACEHOLDER
  2
AcDbPlaceHolder
  3
AutoCAD 2000
 90
0
 91
1
280
0
281
0
  0
CLASS
  1
LAYOUT
  2
AcDbLayout
  3
AutoCAD 2000
 90
0
 91
0
280
0
281
0
  0
ENDSEC
  0
SECTION
  2
TABLES
  0
TABLE
  2
VPORT
  5
8
100
AcDbSymbolTable
 70
2
  0
VPORT
  5
1F4
100
AcDbSymbolTableRecord
100
AcDbViewportTableRecord
  2
*ACTIVE
 70
0
 10
0.0
 20
0.0
 11
1.0
 21
1.0
 12
279.4
 22
215.9
 13
0.0
 23
0.0
 14
1.0
 24
1.0
 15
0.0
 25
0.0
 16
0.0
 26
0.0
 36
1.0
 17
0.0
 27
0.0
 37
0.0
 40
431.8
 41
1.2941176471
 42
50.0
 43
0.0
 44
0.0
 50
0.0
 51
0.0
 71
0
 72
100
 73
1
 74
1
 75
0
 76
0
 77
0
 78
0
  0
ENDTAB
  0
TABLE
  2
LTYPE
  5
5
100
AcDbSymbolTable
 70
6
  0
LTYPE
  5
14
100
AcDbSymbolTableRecord
100
AcDbLinetypeTableRecord
  2
BYBLOCK
 70
0
  3

 72
65
 73
0
 40
0.0
  0
LTYPE
  5
15
100
AcDbSymbolTableRecord
100
AcDbLinetypeTableRecord
  2
BYLAYER
 70
0
  3

 72
65
 73
0
 40
0.0
  0
LTYPE
  5
16
100
AcDbSymbolTableRecord
100
AcDbLinetypeTableRecord
  2
CONTINUOUS
 70
64
  3
Solid line
 72
65
 73
0
 40
0.0
  0
LTYPE
  5
1F5
100
AcDbSymbolTableRecord
100
AcDbLinetypeTableRecord
  2
CENTER
 70
64
  3
____ _ ____ _ ____ _ ____ _ ____ _ ____ _ ____
 72
65
 73
4
 40
0.6
 49
0.375
 74
0
 49
-0.075
 74
0
 49
0.075
 74
0
 49
-0.075
 74
0
  0
LTYPE
  5
1F6
100
AcDbSymbolTableRecord
100
AcDbLinetypeTableRecord
  2
HIDDEN
 70
64
  3
- - - - - - - - - - - - - - - - - - - -
 72
65
 73
2
 40
0.2
 49
0.1
 74
0
 49
-0.1
 74
0
  0
LTYPE
  5
1F7
100
AcDbSymbolTableRecord
100
AcDbLinetypeTableRecord
  2
PHANTOM
 70
64
  3
_____ _ _ _____ _ _ _____ _ _ _____
 72
65
 73
6
 40
0.8
 49
0.45
 74
0
 49
-0.05
 74
0
 49
0.1
 74
0
 49
-0.05
 74
0
 49
0.1
 74
0
 49
-0.05
 74
0
  0
LTYPE
  5
1F8
100
AcDbSymbolTableRecord
100
AcDbLinetypeTableRecord
  2
DOT
 70
64
  3
. . . . . . . . . . . . . . . . . . . .
 72
65
 73
2
 40
0.2
 49
0.1
 74
0
 49
-0.1
 74
0
  0
LTYPE
  5
1F9
100
AcDbSymbolTableRecord
100
AcDbLinetypeTableRecord
  2
DASHED
 70
64
  3
- - - - - - - - - - - - - - - - - - - -
 72
65
 73
2
 40
0.2
 49
0.1
 74
0
 49
-0.1
 74
0
  0
ENDTAB
  0
TABLE
  2
LAYER
  5
2
100
AcDbSymbolTable
 70
36
  0
LAYER
  5
10
100
AcDbSymbolTableRecord
100
AcDbLayerTableRecord
  2
0
 70
0
 62
7
  6
CONTINUOUS
370
-3
390
F
  0
LAYER
  5
1FA
100
AcDbSymbolTableRecord
100
AcDbLayerTableRecord
  2
DEFAULT_1
 70
0
 62
7
  6
CENTER
370
-3
390
F
  0
LAYER
  5
1FB
100
AcDbSymbolTableRecord
100
AcDbLayerTableRecord
  2
DEFAULT_2
 70
0
 62
8
  6
HIDDEN
370
-3
390
F
  0
LAYER
  5
1FC
100
AcDbSymbolTableRecord
100
AcDbLayerTableRecord
  2
DEFAULT_3
 70
0
 62
7
  6
PHANTOM
370
-3
390
F
  0
LAYER
  5
1FD
100
AcDbSymbolTableRecord
100
AcDbLayerTableRecord
  2
01_ALL_DTM_PLN
 70
0
 62
7
  6
CONTINUOUS
370
-3
390
F
  0
LAYER
  5
1FE
100
AcDbSymbolTableRecord
100
AcDbLayerTableRecord
  2
01__ASM_ALL_DTM_PLN
 70
0
 62
7
  6
CONTINUOUS
370
-3
390
F
  0
LAYER
  5
1FF
100
AcDbSymbolTableRecord
100
AcDbLayerTableRecord
  2
01__ASM_DEF_DTM_PLN
 70
0
 62
7
  6
CONTINUOUS
370
-3
390
F
  0
LAYER
  5
200
100
AcDbSymbolTableRecord
100
AcDbLayerTableRecord
  2
01___PRT_ALL_DTM_PLN
 70
0
 62
7
  6
CONTINUOUS
370
-3
390
F
  0
LAYER
  5
201
100
AcDbSymbolTableRecord
100
AcDbLayerTableRecord
  2
01___PRT_DEF_DTM_PLN
 70
0
 62
7
  6
CONTINUOUS
370
-3
390
F
  0
LAYER
  5
202
100
AcDbSymbolTableRecord
100
AcDbLayerTableRecord
  2
02_ALL_AXES
 70
0
 62
7
  6
CONTINUOUS
370
-3
390
F
  0
LAYER
  5
203
100
AcDbSymbolTableRecord
100
AcDbLayerTableRecord
  2
02__ASM_ALL_AXES
 70
0
 62
7
  6
CONTINUOUS
370
-3
390
F
  0
LAYER
  5
204
100
AcDbSymbolTableRecord
100
AcDbLayerTableRecord
  2
02___PRT_ALL_AXES
 70
0
 62
7
  6
CONTINUOUS
370
-3
390
F
  0
LAYER
  5
205
100
AcDbSymbolTableRecord
100
AcDbLayerTableRecord
  2
03_ALL_CURVES
 70
0
 62
7
  6
CONTINUOUS
370
-3
390
F
  0
LAYER
  5
206
100
AcDbSymbolTableRecord
100
AcDbLayerTableRecord
  2
03__ASM_ALL_CURVES
 70
0
 62
7
  6
CONTINUOUS
370
-3
390
F
  0
LAYER
  5
207
100
AcDbSymbolTableRecord
100
AcDbLayerTableRecord
  2
03___PRT_ALL_CURVES
 70
0
 62
7
  6
CONTINUOUS
370
-3
390
F
  0
LAYER
  5
208
100
AcDbSymbolTableRecord
100
AcDbLayerTableRecord
  2
04_ALL_DTM_PNT
 70
0
 62
7
  6
CONTINUOUS
370
-3
390
F
  0
LAYER
  5
209
100
AcDbSymbolTableRecord
100
AcDbLayerTableRecord
  2
04__ASM_ALL_DTM_PNT
 70
0
 62
7
  6
CONTINUOUS
370
-3
390
F
  0
LAYER
  5
20A
100
AcDbSymbolTableRecord
100
AcDbLayerTableRecord
  2
04___PRT_ALL_DTM_PNT
 70
0
 62
7
  6
CONTINUOUS
370
-3
390
F
  0
LAYER
  5
20B
100
AcDbSymbolTableRecord
100
AcDbLayerTableRecord
  2
05_ALL_DTM_CSYS
 70
0
 62
7
  6
CONTINUOUS
370
-3
390
F
  0
LAYER
  5
20C
100
AcDbSymbolTableRecord
100
AcDbLayerTableRecord
  2
05__ASM_ALL_DTM_CSYS
 70
0
 62
7
  6
CONTINUOUS
370
-3
390
F
  0
LAYER
  5
20D
100
AcDbSymbolTableRecord
100
AcDbLayerTableRecord
  2
05__ASM_DEF_DTM_CSYS
 70
0
 62
7
  6
CONTINUOUS
370
-3
390
F
  0
LAYER
  5
20E
100
AcDbSymbolTableRecord
100
AcDbLayerTableRecord
  2
05___PRT_ALL_DTM_CSYS
 70
0
 62
7
  6
CONTINUOUS
370
-3
390
F
  0
LAYER
  5
20F
100
AcDbSymbolTableRecord
100
AcDbLayerTableRecord
  2
05___PRT_DEF_DTM_CSYS
 70
0
 62
7
  6
CONTINUOUS
370
-3
390
F
  0
LAYER
  5
210
100
AcDbSymbolTableRecord
100
AcDbLayerTableRecord
  2
06_ALL_SURFS
 70
0
 62
7
  6
CONTINUOUS
370
-3
390
F
  0
LAYER
  5
211
100
AcDbSymbolTableRecord
100
AcDbLayerTableRecord
  2
06__ASM_ALL_SURFS
 70
0
 62
7
  6
CONTINUOUS
370
-3
390
F
  0
LAYER
  5
212
100
AcDbSymbolTableRecord
100
AcDbLayerTableRecord
  2
06___PRT_ALL_SURFS
 70
0
 62
7
  6
CONTINUOUS
370
-3
390
F
  0
LAYER
  5
213
100
AcDbSymbolTableRecord
100
AcDbLayerTableRecord
  2
07__ASM_ALL_SKELETONS
 70
0
 62
7
  6
CONTINUOUS
370
-3
390
F
  0
LAYER
  5
214
100
AcDbSymbolTableRecord
100
AcDbLayerTableRecord
  2
CLOSED_SHELL
 70
0
 62
7
  6
CONTINUOUS
370
-3
390
F
  0
ENDTAB
  0
TABLE
  2
STYLE
  5
3
100
AcDbSymbolTable
 70
1
  0
STYLE
  5
11
100
AcDbSymbolTableRecord
100
AcDbTextStyleTableRecord
  2
STANDARD
 70
0
 40
0.0
 41
0.6
 50
0.0
 71
0
 42
0.2
  3
txt
  4

  0
STYLE
  5
215
100
AcDbSymbolTableRecord
100
AcDbTextStyleTableRecord
  2
TEXTSTYLE_1
 70
0
 40
0.0
 41
0.8
 50
0.0
 71
0
 42
0.2
  3
gdt
  4

  0
ENDTAB
  0
TABLE
  2
VIEW
  5
6
100
AcDbSymbolTable
 70
0
  0
ENDTAB
  0
TABLE
  2
UCS
  5
7
100
AcDbSymbolTable
 70
0
  0
ENDTAB
  0
TABLE
  2
APPID
  5
9
100
AcDbSymbolTable
 70
1
  0
APPID
  5
216
100
AcDbSymbolTableRecord
100
AcDbRegAppTableRecord
  2
ACAD
 70
0
  0
ENDTAB
  0
TABLE
  2
BLOCK_RECORD
  5
1
100
AcDbSymbolTable
 70
0
  0
BLOCK_RECORD
  5
217
100
AcDbSymbolTableRecord
100
AcDbBlockTableRecord
  2
*Model_Space
  0
BLOCK_RECORD
  5
218
100
AcDbSymbolTableRecord
100
AcDbBlockTableRecord
  2
*Paper_Space
  0
BLOCK_RECORD
  5
219
100
AcDbSymbolTableRecord
100
AcDbBlockTableRecord
  2
_FILLED
  0
ENDTAB
  0
TABLE
  2
DIMSTYLE
  5
A
100
AcDbSymbolTable
 70
1
100
AcDbDimStyleTable
 71
0
  0
DIMSTYLE
105
21A
100
AcDbSymbolTableRecord
100
AcDbDimStyleTableRecord
  2
STANDARD
 70
0
  3

  4

 40
1.0
 41
3.5
 42
1.0
 43
0.38
 44
3.0
 45
0.0
 46
0.0
 47
0.0001
 48
0.0001
140
4.0
141
0.09
142
0.0
143
25.4
144
1.0
145
0.0
146
1.0
147
0.625
 71
1.0
 72
0.0
 73
0
 74
0
 75
0
 76
0
 77
1
 78
8
 79
2
170
0
171
3
172
0
173
0
174
0
175
0
176
0
177
0
178
0
270
2
179
4
271
4
272
4
273
2
274
2
275
0
280
0
281
0
282
0
283
1
284
8
285
0
286
0
287
3
288
0
340
11
278
46
341
219
342
219
343
219
344
219
  0
ENDTAB
  0
ENDSEC
  0
SECTION
  2
BLOCKS
  0
BLOCK
  5
20
100
AcDbEntity
  8
0
100
AcDbBlockBegin
  2
*Model_Space
 70
0
 10
0.0
 20
0.0
 30
0.0
  3
*Model_Space
  1

  0
ENDBLK
  5
21
100
AcDbEntity
  8
0
100
AcDbBlockEnd
  0
BLOCK
  5
1C
100
AcDbEntity
  8
0
100
AcDbBlockBegin
  2
*Paper_Space
 70
0
 10
0.0
 20
0.0
 30
0.0
  3
*Paper_Space
  1

  0
ENDBLK
  5
1D
100
AcDbEntity
  8
0
100
AcDbBlockEnd
  0
BLOCK
  5
21B
100
AcDbEntity
  8
0
100
AcDbBlockBegin
  2
_FILLED
 70
64
 10
0.0
 20
0.0
  3
_FILLED
  1

  0
SOLID
  5
21C
100
AcDbEntity
  8
0
  6
BYBLOCK
 62
0
100
AcDbTrace
 10
0.0
 20
0.0
 11
-1.0
 21
0.2857142857
 12
-1.0
 22
-0.2857142857
 13
-1.0
 23
-0.2857142857
  0
ENDBLK
  5
21D
100
AcDbEntity
  8
0
  6
BYBLOCK
 62
0
100
AcDbBlockEnd
  0
ENDSEC
  0
SECTION
  2
ENTITIES
  0
LINE
  5
21E
100
AcDbEntity
  8
0
100
AcDbLine
 62
7
  6
CONTINUOUS
 10
346.4179804385
 20
180.3432841153
 11
346.4179804385
 21
209.3432841153
  0
LINE
  5
21F
100
AcDbEntity
  8
0
100
AcDbLine
 62
7
  6
CONTINUOUS
 10
346.8946818763
 20
207.3432841153
 11
346.4179804378
 21
206.9432841149
  0
LINE
  5
220
100
AcDbEntity
  8
0
100
AcDbLine
 62
7
  6
CONTINUOUS
 10
346.4179804378
 20
180.3432841153
 11
350.5391965673
 21
178.8432841153
  0
LINE
  5
221
100
AcDbEntity
  8
0
100
AcDbLine
 62
7
  6
CONTINUOUS
 10
350.4179804378
 20
210.7991650522
 11
350.4179804378
 21
208.0750509787
  0
LINE
  5
222
100
AcDbEntity
  8
0
100
AcDbLine
 62
7
  6
CONTINUOUS
 10
350.3509237445
 20
207.9046639344
 11
347.9530234157
 21
205.3300562261
  0
LINE
  5
223
100
AcDbEntity
  8
0
100
AcDbLine
 62
7
  6
CONTINUOUS
 10
347.5246733141
 20
205.4527410279
 11
347.1391731204
 21
207.435967595
  0
LINE
  5
224
100
AcDbEntity
  8
0
100
AcDbLine
 62
7
  6
CONTINUOUS
 10
351.4179804385
 20
210.8432841153
 11
351.4179804385
 21
208.7335827459
  0
LINE
  5
225
100
AcDbEntity
  8
0
100
AcDbLine
 62
7
  6
CONTINUOUS
 10
351.4179804378
 20
178.8432841153
 11
351.4179804378
 21
180.9528778542
  0
LINE
  5
226
100
AcDbEntity
  8
0
100
AcDbLine
 62
7
  6
CONTINUOUS
 10
350.5391965675
 20
210.8432841153
 11
346.4179804385
 21
209.3432841153
  0
LINE
  5
227
100
AcDbEntity
  8
0
100
AcDbLine
 62
7
  6
CONTINUOUS
 10
374.9179804389
 20
176.6432841153
 11
373.317980439
 21
176.6432841153
  0
LINE
  5
228
100
AcDbEntity
  8
0
100
AcDbLine
 62
7
  6
CONTINUOUS
 10
376.5179804385
 20
177.3254939124
 11
375.0179804385
 21
177.3254939124
  0
LINE
  5
229
100
AcDbEntity
  8
0
100
AcDbLine
 62
7
  6
CONTINUOUS
 10
378.6179804385
 20
177.3432841153
 11
376.6179804385
 21
177.3432841153
  0
LINE
  5
22A
100
AcDbEntity
  8
0
100
AcDbLine
 62
7
  6
CONTINUOUS
 10
366.8179804392
 20
177.7894094897
 11
373.3179804394
 21
176.6432841153
  0
LINE
  5
22B
100
AcDbEntity
  8
0
100
AcDbLine
 62
7
  6
CONTINUOUS
 10
366.6179804382
 20
177.7894094897
 11
366.8179804392
 21
177.7894094897
  0
LINE
  5
22C
100
AcDbEntity
  8
0
100
AcDbLine
 62
7
  6
CONTINUOUS
 10
375.0179804385
 20
178.2223073804
 11
374.9179804385
 21
178.2223073804
  0
LINE
  5
22D
100
AcDbEntity
  8
0
100
AcDbLine
 62
7
  6
CONTINUOUS
 10
356.4050027441
 20
178.8432841153
 11
350.5391965674
 21
178.8432841153
  0
LINE
  5
22E
100
AcDbEntity
  8
0
100
AcDbLine
 62
7
  6
CONTINUOUS
 10
378.6179804385
 20
178.9532841153
 11
376.6179804385
 21
178.9532841153
  0
LINE
  5
22F
100
AcDbEntity
  8
0
100
AcDbLine
 62
7
  6
CONTINUOUS
 10
351.77007489
 20
181.2484278106
 11
359.1410621698
 21
179.9487238788
  0
LINE
  5
230
100
AcDbEntity
  8
0
100
AcDbLine
 62
7
  6
CONTINUOUS
 10
372.4351453929
 20
214.3657177323
 11
369.3179804385
 21
213.0432841153
  0
LINE
  5
231
100
AcDbEntity
  8
0
100
AcDbLine
 62
9
  6
CONTINUOUS
 10
375.0179804385
 20
180.4760707208
 11
376.5179804385
 21
180.4760707208
  0
LINE
  5
232
100
AcDbEntity
  8
0
100
AcDbLine
 62
7
  6
CONTINUOUS
 10
387.2379804385
 20
180.6432841153
 11
388.7379804378
 21
180.6432841153
  0
LINE
  5
233
100
AcDbEntity
  8
0
100
AcDbLine
 62
7
  6
CONTINUOUS
 10
390.2379804385
 20
180.8932841153
 11
397.237980438
 21
180.8932841153
  0
LINE
  5
234
100
AcDbEntity
  8
0
100
AcDbLine
 62
7
  6
CONTINUOUS
 10
366.6179804385
 20
181.1908028157
 11
366.8179804385
 21
181.1908028157
  0
LINE
  5
235
100
AcDbEntity
  8
0
100
AcDbLine
 62
7
  6
CONTINUOUS
 10
390.2379804385
 20
181.5682841153
 11
388.9879804385
 21
181.5682841153
  0
LINE
  5
236
100
AcDbEntity
  8
0
100
AcDbLine
 62
7
  6
CONTINUOUS
 10
383.0379804385
 20
181.918311955
 11
387.2379804385
 21
181.918311955
  0
LINE
  5
237
100
AcDbEntity
  8
0
100
AcDbLine
 62
7
  6
CONTINUOUS
 10
375.0179804385
 20
181.9932841153
 11
374.9179804385
 21
181.9932841153
  0
LINE
  5
238
100
AcDbEntity
  8
0
100
AcDbLine
 62
9
  6
CONTINUOUS
 10
387.2379804385
 20
182.0654305519
 11
383.0379804385
 21
182.0654305519
  0
LINE
  5
239
100
AcDbEntity
  8
0
100
AcDbLine
 62
7
  6
CONTINUOUS
 10
372.4679804386
 20
214.3566815749
 11
370.0179804385
 21
212.9421734152
  0
LINE
  5
23A
100
AcDbEntity
  8
0
100
AcDbLine
 62
7
  6
CONTINUOUS
 10
376.6179804385
 20
182.1432841153
 11
378.6179804385
 21
182.1432841153
  0
LINE
  5
23B
100
AcDbEntity
  8
0
100
AcDbLine
 62
9
  6
CONTINUOUS
 10
376.5179804385
 20
182.4178888828
 11
375.0179804385
 21
182.4178888828
  0
LINE
  5
23C
100
AcDbEntity
  8
0
100
AcDbLine
 62
7
  6
CONTINUOUS
 10
369.9179804385
 20
182.4432841153
 11
374.9179804389
 21
182.4432841153
  0
LINE
  5
23D
100
AcDbEntity
  8
0
100
AcDbLine
 62
7
  6
CONTINUOUS
 10
366.8179804385
 20
183.0432841153
 11
366.8003675293
 21
183.0432841153
  0
LINE
  5
23E
100
AcDbEntity
  8
0
100
AcDbLine
 62
9
  6
CONTINUOUS
 10
387.2379804378
 20
183.1808151672
 11
383.0379804385
 21
183.1808151672
  0
LINE
  5
23F
100
AcDbEntity
  8
0
100
AcDbLine
 62
7
  6
CONTINUOUS
 10
388.9879804385
 20
184.2682841153
 11
388.7379804385
 21
184.2682841153
  0
LINE
  5
240
100
AcDbEntity
  8
0
100
AcDbLine
 62
7
  6
CONTINUOUS
 10
376.8619050063
 20
185.0432841153
 11
382.7379804385
 21
185.0432841153
  0
LINE
  5
241
100
AcDbEntity
  8
0
100
AcDbLine
 62
9
  6
CONTINUOUS
 10
383.9502065779
 20
185.1683119546
 11
383.0379804385
 21
185.1683119546
  0
LINE
  5
242
100
AcDbEntity
  8
0
100
AcDbLine
 62
7
  6
CONTINUOUS
 10
376.6179804385
 20
185.4871979516
 11
376.8379804385
 21
185.4871979516
  0
LINE
  5
243
100
AcDbEntity
  8
0
100
AcDbLine
 62
7
  6
CONTINUOUS
 10
376.6179804385
 20
188.1432841153
 11
376.5179804385
 21
188.1432841153
  0
LINE
  5
244
100
AcDbEntity
  8
0
100
AcDbLine
 62
7
  6
CONTINUOUS
 10
375.0179804385
 20
188.1432841153
 11
374.9179804385
 21
188.1432841153
  0
LINE
  5
245
100
AcDbEntity
  8
0
100
AcDbLine
 62
7
  6
CONTINUOUS
 10
384.7298250786
 20
181.918311955
 11
387.2379804385
 21
181.0054180611
  0
LINE
  5
246
100
AcDbEntity
  8
0
100
AcDbLine
 62
7
  6
CONTINUOUS
 10
371.6096684242
 20
205.9869744754
 11
373.5643350834
 21
208.0856854966
  0
LINE
  5
247
100
AcDbEntity
  8
0
100
AcDbLine
 62
7
  6
CONTINUOUS
 10
390.2379804385
 20
190.0914898796
 11
388.9879804385
 21
190.0914898796
  0
LINE
  5
248
100
AcDbEntity
  8
0
100
AcDbLine
 62
7
  6
CONTINUOUS
 10
374.9179804389
 20
189.8752158999
 11
375.0179804385
 21
189.8751351095
  0
LINE
  5
249
100
AcDbEntity
  8
0
100
AcDbLine
 62
7
  6
CONTINUOUS
 10
376.5179804385
 20
189.8739232533
 11
376.8369545258
 21
189.8736655528
  0
LINE
  5
24A
100
AcDbEntity
  8
0
100
AcDbLine
 62
9
  6
CONTINUOUS
 10
383.9502065779
 20
185.1683119546
 11
383.0379804385
 21
185.4626617187
  0
LINE
  5
24B
100
AcDbEntity
  8
0
100
AcDbLine
 62
7
  6
CONTINUOUS
 10
366.2179804385
 20
187.186666146
 11
366.2179804385
 21
182.8079844568
  0
LINE
  5
24C
100
AcDbEntity
  8
0
100
AcDbLine
 62
7
  6
CONTINUOUS
 10
366.6179804382
 20
181.1908028157
 11
366.6179804382
 21
177.7894094897
  0
LINE
  5
24D
100
AcDbEntity
  8
0
100
AcDbLine
 62
7
  6
CONTINUOUS
 10
366.8179804385
 20
187.7878377538
 11
366.8179804385
 21
181.1908028152
  0
LINE
  5
24E
100
AcDbEntity
  8
0
100
AcDbLine
 62
7
  6
CONTINUOUS
 10
367.6179804389
 20
207.1432841152
 11
367.6179804389
 21
210.3432841153
  0
LINE
  5
24F
100
AcDbEntity
  8
0
100
AcDbLine
 62
7
  6
CONTINUOUS
 10
367.7179804385
 20
210.4432841153
 11
367.7179804385
 21
207.1432841153
  0
LINE
  5
250
100
AcDbEntity
  8
0
100
AcDbLine
 62
7
  6
CONTINUOUS
 10
384.7298250786
 20
208.3682562756
 11
387.2379804385
 21
209.2811501695
  0
LINE
  5
251
100
AcDbEntity
  8
0
100
AcDbLine
 62
7
  6
CONTINUOUS
 10
370.0179804393
 20
191.0432841145
 11
369.5179804393
 21
191.0432841145
  0
LINE
  5
252
100
AcDbEntity
  8
0
100
AcDbLine
 62
7
  6
CONTINUOUS
 10
383.0379804385
 20
192.6432841153
 11
383.9502065779
 21
192.6432841153
  0
LINE
  5
253
100
AcDbEntity
  8
0
100
AcDbLine
 62
7
  6
CONTINUOUS
 10
368.5179804385
 20
210.4432841153
 11
368.5179804385
 21
210.2932841153
  0
LINE
  5
254
100
AcDbEntity
  8
0
100
AcDbLine
 62
7
  6
CONTINUOUS
 10
368.5179804385
 20
207.7432841153
 11
368.5179804385
 21
207.1432841153
  0
LINE
  5
255
100
AcDbEntity
  8
0
100
AcDbLine
 62
7
  6
CONTINUOUS
 10
368.8179804382
 20
210.443284116
 11
368.8179804384
 21
210.2932841157
  0
LINE
  5
256
100
AcDbEntity
  8
0
100
AcDbLine
 62
7
  6
CONTINUOUS
 10
368.8179804384
 20
207.7432841149
 11
368.8179804382
 21
207.6432841153
  0
LINE
  5
257
100
AcDbEntity
  8
0
100
AcDbLine
 62
9
  6
CONTINUOUS
 10
368.8179804384
 20
207.7432841149
 11
368.8179804384
 21
210.2932841157
  0
LINE
  5
258
100
AcDbEntity
  8
0
100
AcDbLine
 62
7
  6
CONTINUOUS
 10
369.3179804385
 20
213.0432841153
 11
369.3179804385
 21
210.5432841153
  0
LINE
  5
259
100
AcDbEntity
  8
0
100
AcDbLine
 62
7
  6
CONTINUOUS
 10
369.5179804385
 20
198.6432841153
 11
369.5179804385
 21
191.0432841145
  0
LINE
  5
25A
100
AcDbEntity
  8
0
100
AcDbLine
 62
7
  6
CONTINUOUS
 10
370.0179804385
 20
212.9421734152
 11
370.0179804385
 21
210.443284116
  0
LINE
  5
25B
100
AcDbEntity
  8
0
100
AcDbLine
 62
7
  6
CONTINUOUS
 10
370.0179804385
 20
207.6432841153
 11
370.0179804385
 21
190.2432841153
  0
LINE
  5
25C
100
AcDbEntity
  8
0
100
AcDbLine
 62
9
  6
CONTINUOUS
 10
383.0379804385
 20
204.8239065131
 11
383.9502065779
 21
205.1182562756
  0
LINE
  5
25D
100
AcDbEntity
  8
0
100
AcDbLine
 62
7
  6
CONTINUOUS
 10
382.7379804385
 20
193.3932841153
 11
376.8379804381
 21
193.3932841153
  0
LINE
  5
25E
100
AcDbEntity
  8
0
100
AcDbLine
 62
7
  6
CONTINUOUS
 10
374.9379804385
 20
193.7432841153
 11
374.9179804389
 21
193.7432841153
  0
LINE
  5
25F
100
AcDbEntity
  8
0
100
AcDbLine
 62
9
  6
CONTINUOUS
 10
387.2379804385
 20
194.0278994999
 11
383.0379804385
 21
194.0278994999
  0
LINE
  5
260
100
AcDbEntity
  8
0
100
AcDbLine
 62
9
  6
CONTINUOUS
 10
387.2379804378
 20
196.2586687307
 11
383.0379804385
 21
196.2586687307
  0
LINE
  5
261
100
AcDbEntity
  8
0
100
AcDbLine
 62
7
  6
CONTINUOUS
 10
374.9179804389
 20
196.5432841153
 11
374.9379804389
 21
196.5432841153
  0
LINE
  5
262
100
AcDbEntity
  8
0
100
AcDbLine
 62
7
  6
CONTINUOUS
 10
376.8379804381
 20
196.8932841153
 11
382.7379804385
 21
196.8932841153
  0
LINE
  5
263
100
AcDbEntity
  8
0
100
AcDbLine
 62
7
  6
CONTINUOUS
 10
372.6179804385
 20
214.6164891956
 11
372.6179804385
 21
217.8931658796
  0
LINE
  5
264
100
AcDbEntity
  8
0
100
AcDbLine
 62
7
  6
CONTINUOUS
 10
373.6179804385
 20
209.3278140615
 11
373.6179804385
 21
208.2219951372
  0
LINE
  5
265
100
AcDbEntity
  8
0
100
AcDbLine
 62
7
  6
CONTINUOUS
 10
383.9502065779
 20
197.6432841153
 11
383.0379804385
 21
197.6432841153
  0
LINE
  5
266
100
AcDbEntity
  8
0
100
AcDbLine
 62
7
  6
CONTINUOUS
 10
370.0179804385
 20
198.6432841153
 11
369.5179804385
 21
198.6432841153
  0
LINE
  5
267
100
AcDbEntity
  8
0
100
AcDbLine
 62
7
  6
CONTINUOUS
 10
370.8416864739
 20
207.8814459139
 11
371.1406748404
 21
206.3432841148
  0
LINE
  5
268
100
AcDbEntity
  8
0
100
AcDbLine
 62
7
  6
CONTINUOUS
 10
371.2191080466
 20
205.6432841146
 11
370.8664540849
 21
207.6432841153
  0
LINE
  5
269
100
AcDbEntity
  8
0
100
AcDbLine
 62
7
  6
CONTINUOUS
 10
374.9179804385
 20
176.6432841153
 11
374.9179804385
 21
217.8931658796
  0
LINE
  5
26A
100
AcDbEntity
  8
0
100
AcDbLine
 62
7
  6
CONTINUOUS
 10
374.9379804385
 20
198.1432835822
 11
374.9379804385
 21
196.5432841153
  0
LINE
  5
26B
100
AcDbEntity
  8
0
100
AcDbLine
 62
7
  6
CONTINUOUS
 10
374.9379804385
 20
193.7432841153
 11
374.9379804385
 21
192.1432841149
  0
LINE
  5
26C
100
AcDbEntity
  8
0
100
AcDbLine
 62
7
  6
CONTINUOUS
 10
375.0179804385
 20
177.3254939124
 11
375.0179804385
 21
214.627336372
  0
LINE
  5
26D
100
AcDbEntity
  8
0
100
AcDbLine
 62
7
  6
CONTINUOUS
 10
376.5179804385
 20
214.627336372
 11
376.5179804385
 21
177.3254939124
  0
LINE
  5
26E
100
AcDbEntity
  8
0
100
AcDbLine
 62
7
  6
CONTINUOUS
 10
376.6179804385
 20
177.3432841146
 11
376.6179804385
 21
181.1849937376
  0
LINE
  5
26F
100
AcDbEntity
  8
0
100
AcDbLine
 62
7
  6
CONTINUOUS
 10
376.6179804385
 20
182.1432841153
 11
376.6179804385
 21
188.1432841153
  0
LINE
  5
270
100
AcDbEntity
  8
0
100
AcDbLine
 62
7
  6
CONTINUOUS
 10
376.6179804385
 20
202.1432841153
 11
376.6179804385
 21
208.6432841153
  0
LINE
  5
271
100
AcDbEntity
  8
0
100
AcDbLine
 62
7
  6
CONTINUOUS
 10
376.6179804385
 20
211.9932841149
 11
376.6179804385
 21
216.4432841153
  0
LINE
  5
272
100
AcDbEntity
  8
0
100
AcDbLine
 62
7
  6
CONTINUOUS
 10
376.8379804385
 20
185.1355071397
 11
376.8379804385
 21
205.2432762378
  0
LINE
  5
273
100
AcDbEntity
  8
0
100
AcDbLine
 62
7
  6
CONTINUOUS
 10
374.9379804384
 20
192.1432841149
 11
374.9179804389
 21
192.0009767237
  0
LINE
  5
274
100
AcDbEntity
  8
0
100
AcDbLine
 62
7
  6
CONTINUOUS
 10
376.8366969554
 20
200.4110699696
 11
376.5179573588
 21
198.1431198943
  0
LINE
  5
275
100
AcDbEntity
  8
0
100
AcDbLine
 62
7
  6
CONTINUOUS
 10
366.6023189627
 20
187.9746768997
 11
370.0179804393
 21
190.643284116
  0
LINE
  5
276
100
AcDbEntity
  8
0
100
AcDbLine
 62
7
  6
CONTINUOUS
 10
370.0179804385
 20
190.2432841153
 11
366.8179804385
 21
187.7878377538
  0
LINE
  5
277
100
AcDbEntity
  8
0
100
AcDbLine
 62
7
  6
CONTINUOUS
 10
376.8368862531
 20
200.4124168928
 11
376.5179804385
 21
200.4122445423
  0
LINE
  5
278
100
AcDbEntity
  8
0
100
AcDbLine
 62
7
  6
CONTINUOUS
 10
375.0179804385
 20
200.4114338775
 11
374.9179804389
 21
200.4113798332
  0
LINE
  5
279
100
AcDbEntity
  8
0
100
AcDbLine
 62
7
  6
CONTINUOUS
 10
388.9879804385
 20
200.1950783518
 11
390.2379804385
 21
200.1950783518
  0
LINE
  5
27A
100
AcDbEntity
  8
0
100
AcDbLine
 62
7
  6
CONTINUOUS
 10
371.1941785789
 20
206.1962838041
 11
371.2884489858
 21
206.0262154951
  0
LINE
  5
27B
100
AcDbEntity
  8
0
100
AcDbLine
 62
7
  6
CONTINUOUS
 10
374.9179804389
 20
198.2855915071
 11
374.9379805134
 21
198.1432835822
  0
LINE
  5
27C
100
AcDbEntity
  8
0
100
AcDbLine
 62
7
  6
CONTINUOUS
 10
376.5179613156
 20
192.1434201823
 11
376.8366958588
 21
189.875506064
  0
LINE
  5
27D
100
AcDbEntity
  8
0
100
AcDbLine
 62
7
  6
CONTINUOUS
 10
377.0416218243
 20
185.0432802785
 11
377.0416218243
 21
193.3932841153
  0
LINE
  5
27E
100
AcDbEntity
  8
0
100
AcDbLine
 62
7
  6
CONTINUOUS
 10
377.0416218448
 20
196.8932841154
 11
377.0416218448
 21
205.2432828924
  0
LINE
  5
27F
100
AcDbEntity
  8
0
100
AcDbLine
 62
7
  6
CONTINUOUS
 10
378.6179804385
 20
177.3432841146
 11
378.6179804385
 21
182.1432841153
  0
LINE
  5
280
100
AcDbEntity
  8
0
100
AcDbLine
 62
7
  6
CONTINUOUS
 10
378.6179804378
 20
208.6432841153
 11
378.6179804378
 21
216.443284116
  0
LINE
  5
281
100
AcDbEntity
  8
0
100
AcDbLine
 62
7
  6
CONTINUOUS
 10
376.6179804378
 20
202.1432841153
 11
376.5179804385
 21
202.1432841153
  0
LINE
  5
282
100
AcDbEntity
  8
0
100
AcDbLine
 62
7
  6
CONTINUOUS
 10
375.0179804385
 20
202.1432841153
 11
374.9179804385
 21
202.1432841153
  0
LINE
  5
283
100
AcDbEntity
  8
0
100
AcDbLine
 62
7
  6
CONTINUOUS
 10
367.6179804389
 20
210.3432841153
 11
367.1179804389
 21
210.8432841153
  0
LINE
  5
284
100
AcDbEntity
  8
0
100
AcDbLine
 62
9
  6
CONTINUOUS
 10
383.0379804385
 20
205.1182562756
 11
383.9502065779
 21
205.1182562756
  0
LINE
  5
285
100
AcDbEntity
  8
0
100
AcDbLine
 62
7
  6
CONTINUOUS
 10
376.8379804385
 20
205.1432841153
 11
376.6179804385
 21
205.1432841153
  0
LINE
  5
286
100
AcDbEntity
  8
0
100
AcDbLine
 62
7
  6
CONTINUOUS
 10
376.8379804385
 20
205.2432841153
 11
382.7379804385
 21
205.2432841153
  0
LINE
  5
287
100
AcDbEntity
  8
0
100
AcDbLine
 62
7
  6
CONTINUOUS
 10
382.4379804385
 20
205.3432841153
 11
382.7379804385
 21
205.3432841153
  0
LINE
  5
288
100
AcDbEntity
  8
0
100
AcDbLine
 62
7
  6
CONTINUOUS
 10
371.2191080465
 20
205.6432841153
 11
374.9179804393
 21
205.6432841153
  0
LINE
  5
289
100
AcDbEntity
  8
0
100
AcDbLine
 62
7
  6
CONTINUOUS
 10
388.9879804385
 20
206.0182841153
 11
388.7379804385
 21
206.0182841153
  0
LINE
  5
28A
100
AcDbEntity
  8
0
100
AcDbLine
 62
7
  6
CONTINUOUS
 10
367.6179804389
 20
207.143284116
 11
356.4050027447
 21
210.8432841153
  0
LINE
  5
28B
100
AcDbEntity
  8
0
100
AcDbLine
 62
7
  6
CONTINUOUS
 10
382.4379804385
 20
205.3432841149
 11
382.4379804385
 21
205.2432841153
  0
LINE
  5
28C
100
AcDbEntity
  8
0
100
AcDbLine
 62
7
  6
CONTINUOUS
 10
382.7379804385
 20
182.2185471817
 11
382.7379804385
 21
208.068203237
  0
LINE
  5
28D
100
AcDbEntity
  8
0
100
AcDbLine
 62
9
  6
CONTINUOUS
 10
382.9353743955
 20
185.8864998622
 11
382.9353743955
 21
192.404693556
  0
LINE
  5
28E
100
AcDbEntity
  8
0
100
AcDbLine
 62
9
  6
CONTINUOUS
 10
382.9353743955
 20
197.8818746745
 11
382.9353743955
 21
204.4000683683
  0
LINE
  5
28F
100
AcDbEntity
  8
0
100
AcDbLine
 62
9
  6
CONTINUOUS
 10
383.0379804385
 20
181.918311955
 11
383.0379804385
 21
185.4626617187
  0
LINE
  5
290
100
AcDbEntity
  8
0
100
AcDbLine
 62
9
  6
CONTINUOUS
 10
383.0379804385
 20
192.6432841153
 11
383.0379804385
 21
197.6432841153
  0
LINE
  5
291
100
AcDbEntity
  8
0
100
AcDbLine
 62
9
  6
CONTINUOUS
 10
383.0379804385
 20
204.8239065131
 11
383.0379804385
 21
208.3682562756
  0
LINE
  5
292
100
AcDbEntity
  8
0
100
AcDbLine
 62
7
  6
CONTINUOUS
 10
356.4050027447
 20
178.8432841153
 11
366.8179804385
 21
183.0504001926
  0
LINE
  5
293
100
AcDbEntity
  8
0
100
AcDbLine
 62
9
  6
CONTINUOUS
 10
387.2379804385
 20
207.1057530634
 11
383.0379804385
 21
207.1057530634
  0
LINE
  5
294
100
AcDbEntity
  8
0
100
AcDbLine
 62
7
  6
CONTINUOUS
 10
367.6179804391
 20
207.1432841153
 11
370.0179804385
 21
207.1432841153
  0
LINE
  5
295
100
AcDbEntity
  8
0
100
AcDbLine
 62
7
  6
CONTINUOUS
 10
346.8946818757
 20
207.3432841153
 11
347.1571889638
 21
207.3432841153
  0
LINE
  5
296
100
AcDbEntity
  8
0
100
AcDbLine
 62
7
  6
CONTINUOUS
 10
368.8179804385
 20
207.6432841153
 11
370.8664540843
 21
207.6432841153
  0
LINE
  5
297
100
AcDbEntity
  8
0
100
AcDbLine
 62
7
  6
CONTINUOUS
 10
368.8179804385
 20
207.7432841153
 11
367.7179804385
 21
207.7432841153
  0
LINE
  5
298
100
AcDbEntity
  8
0
100
AcDbLine
 62
7
  6
CONTINUOUS
 10
370.4953610391
 20
208.0432841157
 11
370.6453610371
 21
208.0432841157
  0
LINE
  5
299
100
AcDbEntity
  8
0
100
AcDbLine
 62
9
  6
CONTINUOUS
 10
387.2379804378
 20
208.2211376787
 11
383.0379804385
 21
208.2211376787
  0
LINE
  5
29A
100
AcDbEntity
  8
0
100
AcDbLine
 62
7
  6
CONTINUOUS
 10
383.0379804385
 20
208.3682562756
 11
387.2379804385
 21
208.3682562756
  0
LINE
  5
29B
100
AcDbEntity
  8
0
100
AcDbLine
 62
7
  6
CONTINUOUS
 10
373.5179804393
 20
209.5010191419
 11
371.9323397927
 21
210.4164891963
  0
LINE
  5
29C
100
AcDbEntity
  8
0
100
AcDbLine
 62
7
  6
CONTINUOUS
 10
366.8179804385
 20
181.1908028152
 11
369.9179804385
 21
182.4432841153
  0
LINE
  5
29D
100
AcDbEntity
  8
0
100
AcDbLine
 62
7
  6
CONTINUOUS
 10
347.1391731204
 20
207.435967595
 11
350.044214402
 21
207.5753523996
  0
LINE
  5
29E
100
AcDbEntity
  8
0
100
AcDbLine
 62
7
  6
CONTINUOUS
 10
376.6179804385
 20
208.6432841153
 11
378.6179804378
 21
208.6432841153
  0
LINE
  5
29F
100
AcDbEntity
  8
0
100
AcDbLine
 62
7
  6
CONTINUOUS
 10
390.2379804385
 20
208.7182841153
 11
388.9879804385
 21
208.7182841153
  0
LINE
  5
2A0
100
AcDbEntity
  8
0
100
AcDbLine
 62
7
  6
CONTINUOUS
 10
390.2379804385
 20
209.3932841153
 11
397.237980438
 21
209.3932841153
  0
LINE
  5
2A1
100
AcDbEntity
  8
0
100
AcDbLine
 62
7
  6
CONTINUOUS
 10
387.2379804385
 20
209.6432841153
 11
388.7379804378
 21
209.6432841153
  0
LINE
  5
2A2
100
AcDbEntity
  8
0
100
AcDbLine
 62
7
  6
CONTINUOUS
 10
367.7179804385
 20
210.2932841153
 11
368.8179804385
 21
210.2932841153
  0
LINE
  5
2A3
100
AcDbEntity
  8
0
100
AcDbLine
 62
7
  6
CONTINUOUS
 10
371.8323397932
 20
210.443284116
 11
368.8179804382
 21
210.443284116
  0
LINE
  5
2A4
100
AcDbEntity
  8
0
100
AcDbLine
 62
7
  6
CONTINUOUS
 10
367.7179804385
 20
210.4432841153
 11
368.5179804385
 21
210.4432841153
  0
LINE
  5
2A5
100
AcDbEntity
  8
0
100
AcDbLine
 62
7
  6
CONTINUOUS
 10
369.3179804385
 20
210.5432841153
 11
370.0179804385
 21
210.5432841153
  0
LINE
  5
2A6
100
AcDbEntity
  8
0
100
AcDbLine
 62
7
  6
CONTINUOUS
 10
387.2379804385
 20
180.6433785559
 11
387.2379804385
 21
182.065430552
  0
LINE
  5
2A7
100
AcDbEntity
  8
0
100
AcDbLine
 62
7
  6
CONTINUOUS
 10
387.2379804385
 20
183.1808151673
 11
387.2379804385
 21
194.0278995002
  0
LINE
  5
2A8
100
AcDbEntity
  8
0
100
AcDbLine
 62
7
  6
CONTINUOUS
 10
387.2379804385
 20
196.2586687304
 11
387.2379804385
 21
207.1057530636
  0
LINE
  5
2A9
100
AcDbEntity
  8
0
100
AcDbLine
 62
7
  6
CONTINUOUS
 10
387.2379804385
 20
208.2211376785
 11
387.2379804385
 21
209.6431896747
  0
LINE
  5
2AA
100
AcDbEntity
  8
0
100
AcDbLine
 62
7
  6
CONTINUOUS
 10
359.5412367876
 20
209.808405934
 11
351.7700748905
 21
208.43814042
  0
LINE
  5
2AB
100
AcDbEntity
  8
0
100
AcDbLine
 62
7
  6
CONTINUOUS
 10
350.539196568
 20
210.8432841153
 11
367.1179804378
 21
210.8432841153
  0
LINE
  5
2AC
100
AcDbEntity
  8
0
100
AcDbLine
 62
9
  6
CONTINUOUS
 10
375.0179804385
 20
211.0768955959
 11
376.5179804385
 21
211.0768955959
  0
LINE
  5
2AD
100
AcDbEntity
  8
0
100
AcDbLine
 62
7
  6
CONTINUOUS
 10
374.9179804385
 20
211.9932841153
 11
375.0179804382
 21
211.9932841153
  0
LINE
  5
2AE
100
AcDbEntity
  8
0
100
AcDbLine
 62
7
  6
CONTINUOUS
 10
376.5179804382
 20
211.9932841153
 11
376.6179804385
 21
211.9932841153
  0
LINE
  5
2AF
100
AcDbEntity
  8
0
100
AcDbLine
 62
7
  6
CONTINUOUS
 10
388.7379804385
 20
209.6431637338
 11
388.7379804385
 21
180.6434044968
  0
LINE
  5
2B0
100
AcDbEntity
  8
0
100
AcDbLine
 62
7
  6
CONTINUOUS
 10
388.9879804385
 20
181.568284116
 11
388.9879804385
 21
208.7182841146
  0
LINE
  5
2B1
100
AcDbEntity
  8
0
100
AcDbLine
 62
7
  6
CONTINUOUS
 10
390.2379804385
 20
180.8932841153
 11
390.2379804385
 21
209.3932841153
  0
LINE
  5
2B2
100
AcDbEntity
  8
0
100
AcDbLine
 62
7
  6
CONTINUOUS
 10
376.5179804385
 20
213.8432841153
 11
375.0179804385
 21
213.8432841153
  0
LINE
  5
2B3
100
AcDbEntity
  8
0
100
AcDbLine
 62
9
  6
CONTINUOUS
 10
371.9643905976
 20
214.0659338453
 11
374.9179804389
 21
214.0659338453
  0
LINE
  5
2B4
100
AcDbEntity
  8
0
100
AcDbLine
 62
7
  6
CONTINUOUS
 10
376.5179804385
 20
214.6273363722
 11
375.0179804385
 21
214.6273363722
  0
LINE
  5
2B5
100
AcDbEntity
  8
0
100
AcDbLine
 62
9
  6
CONTINUOUS
 10
374.9179804385
 20
214.9319592503
 11
372.6179804378
 21
214.9319592503
  0
LINE
  5
2B6
100
AcDbEntity
  8
0
100
AcDbLine
 62
9
  6
CONTINUOUS
 10
372.6179804378
 20
216.3093095192
 11
374.9179804385
 21
216.3093095192
  0
LINE
  5
2B7
100
AcDbEntity
  8
0
100
AcDbLine
 62
7
  6
CONTINUOUS
 10
378.6179804378
 20
216.443284116
 11
376.6179804378
 21
216.443284116
  0
LINE
  5
2B8
100
AcDbEntity
  8
0
100
AcDbLine
 62
7
  6
CONTINUOUS
 10
374.9179804393
 20
216.4432841153
 11
372.6179804385
 21
216.4432841153
  0
LINE
  5
2B9
100
AcDbEntity
  8
0
100
AcDbLine
 62
9
  6
CONTINUOUS
 10
374.9179804387
 20
216.8165427542
 11
372.6179804385
 21
216.8165427542
  0
LINE
  5
2BA
100
AcDbEntity
  8
0
100
AcDbLine
 62
7
  6
CONTINUOUS
 10
372.6179804385
 20
217.8932841153
 11
374.9179804385
 21
217.8932841153
  0
LINE
  5
2BB
100
AcDbEntity
  8
0
100
AcDbLine
 62
7
  6
CONTINUOUS
 10
397.237980438
 20
209.3932841153
 11
397.237980438
 21
180.8932842039
  0
LINE
  5
2BC
100
AcDbEntity
  8
0
100
AcDbLine
 62
7
  6
CONTINUOUS
 10
397.711100051
 20
182.4956535058
 11
397.7107382193
 21
207.4932856203
  0
LINE
  5
2BD
100
AcDbEntity
  8
0
100
AcDbLine
 62
7
  6
CONTINUOUS
 10
397.8404755942
 20
207.0390428209
 11
397.8404755942
 21
183.2475254097
  0
LINE
  5
2BE
100
AcDbEntity
  8
0
100
AcDbLine
 62
7
  6
CONTINUOUS
 10
398.2106760158
 20
204.3411350539
 11
398.2106760158
 21
185.9454331767
  0
LINE
  5
2BF
100
AcDbEntity
  8
0
100
AcDbLine
 62
7
  6
CONTINUOUS
 10
397.7107382193
 20
207.4932856203
 11
397.7107968142
 21
207.792012385
  0
LINE
  5
2C0
100
AcDbEntity
  8
0
100
AcDbLine
 62
7
  6
CONTINUOUS
 10
397.8404755942
 20
183.2475254097
 11
397.7106836224
 21
182.7932826185
  0
LINE
  5
2C1
100
AcDbEntity
  8
0
100
AcDbLine
 62
7
  6
CONTINUOUS
 10
397.8404755942
 20
207.0390428209
 11
397.7106836224
 21
207.4932856121
  0
ARC
  5
2C2
100
AcDbEntity
  8
0
100
AcDbCircle
 62
7
  6
CONTINUOUS
 10
351.9258683712
 20
195.1432841153
 40
47.5
100
AcDbArc
 50
15.4440711735
 51
17.4576030217
  0
ARC
  5
2C3
100
AcDbEntity
  8
0
100
AcDbCircle
 62
7
  6
CONTINUOUS
 10
351.9258683712
 20
195.1432841153
 40
47.5
100
AcDbArc
 50
342.5423969783
 51
344.5559288265
  0
ARC
  5
2C4
100
AcDbEntity
  8
0
100
AcDbCircle
 62
7
  6
CONTINUOUS
 10
388.2109593657
 20
204.3433475483
 40
9.9997166501
100
AcDbArc
 50
0.0
 51
15.6391054834
  0
ARC
  5
2C5
100
AcDbEntity
  8
0
100
AcDbCircle
 62
7
  6
CONTINUOUS
 10
388.2109593657
 20
185.9432206823
 40
9.9997166501
100
AcDbArc
 50
344.3608945166
 51
360.0
  0
ARC
  5
2C6
100
AcDbEntity
  8
0
100
AcDbCircle
 62
7
  6
CONTINUOUS
 10
367.2179804385
 20
187.186666146
 40
1.0
100
AcDbArc
 50
128.0000000214
 51
179.9999999989
  0
ARC
  5
2C7
100
AcDbEntity
  8
0
100
AcDbCircle
 62
7
  6
CONTINUOUS
 10
371.6314884321
 20
206.438688613
 40
0.5
100
AcDbArc
 50
191.0000000576
 51
208.999999899
  0
ARC
  5
2C8
100
AcDbEntity
  8
0
100
AcDbCircle
 62
7
  6
CONTINUOUS
 10
383.0379804385
 20
208.0682562756
 40
0.3
100
AcDbArc
 50
90.0
 51
180.0
  0
ARC
  5
2C9
100
AcDbEntity
  8
0
100
AcDbCircle
 62
7
  6
CONTINUOUS
 10
383.0379804385
 20
182.218311955
 40
0.3
100
AcDbArc
 50
180.0
 51
270.0
  0
ARC
  5
2CA
100
AcDbEntity
  8
0
100
AcDbCircle
 62
7
  6
CONTINUOUS
 10
383.0379804385
 20
192.9432841153
 40
0.3
100
AcDbArc
 50
180.0
 51
270.0
  0
ARC
  5
2CB
100
AcDbEntity
  8
0
100
AcDbCircle
 62
7
  6
CONTINUOUS
 10
383.0379804385
 20
197.3432841153
 40
0.3
100
AcDbArc
 50
90.0000000057
 51
180.0
  0
ARC
  5
2CC
100
AcDbEntity
  8
0
100
AcDbCircle
 62
7
  6
CONTINUOUS
 10
372.3179804385
 20
214.6418922667
 40
0.3
100
AcDbArc
 50
292.9887168661
 51
343.1705656929
  0
ARC
  5
2CD
100
AcDbEntity
  8
0
100
AcDbCircle
 62
7
  6
CONTINUOUS
 10
372.3179804385
 20
214.6164891961
 40
0.3
100
AcDbArc
 50
300.0000000034
 51
359.9999999045
  0
ARC
  5
2CE
100
AcDbEntity
  8
0
100
AcDbCircle
 62
7
  6
CONTINUOUS
 10
351.7179804385
 20
180.9529854838
 40
0.3
100
AcDbArc
 50
80.0000003769
 51
180.0205557333
  0
ARC
  5
2CF
100
AcDbEntity
  8
0
100
AcDbCircle
 62
7
  6
CONTINUOUS
 10
351.7179804385
 20
208.7335827468
 40
0.3
100
AcDbArc
 50
180.0080254403
 51
279.9999997248
  0
ARC
  5
2D0
100
AcDbEntity
  8
0
100
AcDbCircle
 62
7
  6
CONTINUOUS
 10
347.7700801101
 20
205.5004432765
 40
0.25
100
AcDbArc
 50
190.9999999305
 51
317.0352562399
  0
ARC
  5
2D1
100
AcDbEntity
  8
0
100
AcDbCircle
 62
7
  6
CONTINUOUS
 10
350.1679804385
 20
208.0750509843
 40
0.25
100
AcDbArc
 50
317.0352563859
 51
359.9999987231
  0
ARC
  5
2D2
100
AcDbEntity
  8
0
100
AcDbCircle
 62
7
  6
CONTINUOUS
 10
370.0953610377
 20
207.8432841153
 40
0.2
100
AcDbArc
 50
270.0000253926
 51
0.0000062596
  0
ARC
  5
2D3
100
AcDbEntity
  8
0
100
AcDbCircle
 62
7
  6
CONTINUOUS
 10
370.4953610377
 20
207.8432841153
 40
0.2
100
AcDbArc
 50
89.9999995967
 51
179.9999937404
  0
ARC
  5
2D4
100
AcDbEntity
  8
0
100
AcDbCircle
 62
7
  6
CONTINUOUS
 10
370.6453610377
 20
207.8432841153
 40
0.2
100
AcDbArc
 50
10.9999999034
 51
90.0000001649
  0
ARC
  5
2D5
100
AcDbEntity
  8
0
100
AcDbCircle
 62
7
  6
CONTINUOUS
 10
371.4633137797
 20
206.1232841153
 40
0.2
100
AcDbArc
 50
209.0349486637
 51
317.0352563331
  0
ARC
  5
2D6
100
AcDbEntity
  8
0
100
AcDbCircle
 62
7
  6
CONTINUOUS
 10
373.4179804385
 20
208.2219951372
 40
0.2
100
AcDbArc
 50
317.0352562717
 51
359.9999999427
  0
ARC
  5
2D7
100
AcDbEntity
  8
0
100
AcDbCircle
 62
7
  6
CONTINUOUS
 10
373.4179804385
 20
209.3278140615
 40
0.2
100
AcDbArc
 50
359.9999997422
 51
59.9999997692
  0
ARC
  5
2D8
100
AcDbEntity
  8
0
100
AcDbCircle
 62
7
  6
CONTINUOUS
 10
371.8323397925
 20
210.2432841153
 40
0.2
100
AcDbArc
 50
59.9999999829
 51
89.9999997937
  0
SPLINE
  5
2D9
100
AcDbEntity
  8
0
100
AcDbSpline
 62
9
  6
CONTINUOUS
 70
0
 71
3
 72
11
 73
7
 74
0
 42
0.0000001
 43
0.0000001
 44
0.0000000001
 40
0.0
 40
0.0
 40
0.0
 40
0.0
 40
0.2866908866
 40
0.5556079549
 40
0.7930256894
 40
1.0
 40
1.0
 40
1.0
 40
1.0
 10
382.9353743954
 20
185.886499843
 30
0.0
 10
382.9070959722
 20
185.8940783232
 30
0.0
 10
382.8536981701
 20
185.9152356997
 30
0.0
 10
382.7883400336
 20
185.965120385
 30
0.0
 10
382.7472069886
 20
186.0271564857
 30
0.0
 10
382.7379804385
 20
186.0729357278
 30
0.0
 10
382.7379804385
 20
186.0940715409
 30
0.0
  0
SPLINE
  5
2DA
100
AcDbEntity
  8
0
100
AcDbSpline
 62
9
  6
CONTINUOUS
 70
0
 71
3
 72
13
 73
9
 74
0
 42
0.0000001
 43
0.0000001
 44
0.0000000001
 40
0.0
 40
0.0
 40
0.0
 40
0.0
 40
0.0766660533
 40
0.1654469465
 40
0.2723869752
 40
0.3984500209
 40
0.6938695569
 40
1.0
 40
1.0
 40
1.0
 40
1.0
 10
382.7379804385
 20
185.3126617187
 30
0.0
 10
382.7379804385
 20
185.3219219611
 30
0.0
 10
382.7418956817
 20
185.3420372879
 30
0.0
 10
382.7591295661
 20
185.3706915718
 30
0.0
 10
382.7879849318
 20
185.3973081728
 30
0.0
 10
382.8429766593
 20
185.4303396847
 30
0.0
 10
382.9282748276
 20
185.4560321146
 30
0.0
 10
383.0010039411
 20
185.4626617184
 30
0.0
 10
383.0379804385
 20
185.4626617184
 30
0.0
  0
SPLINE
  5
2DB
100
AcDbEntity
  8
0
100
AcDbSpline
 62
9
  6
CONTINUOUS
 70
0
 71
3
 72
12
 73
8
 74
0
 42
0.0000001
 43
0.0000001
 44
0.0000000001
 40
0.0
 40
0.0
 40
0.0
 40
0.0
 40
0.115380041
 40
0.2114361869
 40
0.3344369172
 40
0.6452314817
 40
1.0
 40
1.0
 40
1.0
 40
1.0
 10
382.7379804385
 20
192.4661029967
 30
0.0
 10
382.7379804385
 20
192.4578881662
 30
0.0
 10
382.7512040573
 20
192.4453889965
 30
0.0
 10
382.7719346495
 20
192.4354693937
 30
0.0
 10
382.8079774357
 20
192.4228844934
 30
0.0
 10
382.8630233011
 20
192.4120474155
 30
0.0
 10
382.9101945979
 20
192.4066899496
 30
0.0
 10
382.9353743954
 20
192.404693556
 30
0.0
  0
SPLINE
  5
2DC
100
AcDbEntity
  8
0
100
AcDbSpline
 62
9
  6
CONTINUOUS
 70
0
 71
3
 72
14
 73
10
 74
0
 42
0.0000001
 43
0.0000001
 44
0.0000000001
 40
0.0
 40
0.0
 40
0.0
 40
0.0
 40
0.3793779898
 40
0.5508445027
 40
0.701291713
 40
0.8251212985
 40
0.917647315
 40
0.9758248697
 40
1.0
 40
1.0
 40
1.0
 40
1.0
 10
383.0379804385
 20
194.0278994998
 30
0.0
 10
382.9997031812
 20
194.0278994998
 30
0.0
 10
382.9440891291
 20
194.0286821991
 30
0.0
 10
382.8734575387
 20
194.0315004298
 30
0.0
 10
382.8283938035
 20
194.0342864891
 30
0.0
 10
382.792001707
 20
194.0374968757
 30
0.0
 10
382.763386765
 20
194.0413888269
 30
0.0
 10
382.7482778819
 20
194.0446944928
 30
0.0
 10
382.7379804385
 20
194.0485372785
 30
0.0
 10
382.7379804385
 20
194.0509764229
 30
0.0
  0
SPLINE
  5
2DD
100
AcDbEntity
  8
0
100
AcDbSpline
 62
9
  6
CONTINUOUS
 70
0
 71
3
 72
14
 73
10
 74
0
 42
0.0000001
 43
0.0000001
 44
0.0000000001
 40
0.0
 40
0.0
 40
0.0
 40
0.0
 40
0.3793779903
 40
0.5508445033
 40
0.7012917137
 40
0.8251212992
 40
0.9176473155
 40
0.97582487
 40
1.0
 40
1.0
 40
1.0
 40
1.0
 10
383.0379804385
 20
196.2586687308
 30
0.0
 10
382.9997031812
 20
196.2586687308
 30
0.0
 10
382.944089129
 20
196.2578860315
 30
0.0
 10
382.8734575385
 20
196.2550678008
 30
0.0
 10
382.8283938033
 20
196.2522817415
 30
0.0
 10
382.7920017068
 20
196.2490713548
 30
0.0
 10
382.7633867648
 20
196.2451794036
 30
0.0
 10
382.7482778818
 20
196.2418737378
 30
0.0
 10
382.7379804385
 20
196.238030952
 30
0.0
 10
382.7379804385
 20
196.2355918077
 30
0.0
  0
SPLINE
  5
2DE
100
AcDbEntity
  8
0
100
AcDbSpline
 62
9
  6
CONTINUOUS
 70
0
 71
3
 72
12
 73
8
 74
0
 42
0.0000001
 43
0.0000001
 44
0.0000000001
 40
0.0
 40
0.0
 40
0.0
 40
0.0
 40
0.1245229905
 40
0.2491063081
 40
0.4986332753
 40
0.7489166054
 40
1.0
 40
1.0
 40
1.0
 40
1.0
 10
387.2379804385
 20
197.1591977493
 30
0.0
 10
387.109294045
 20
197.2108060898
 30
0.0
 10
386.8462575765
 20
197.3002746634
 30
0.0
 10
386.308322466
 20
197.4388978384
 30
0.0
 10
385.6215103532
 20
197.55435114
 30
0.0
 10
384.7881898266
 20
197.6283827305
 30
0.0
 10
384.2297735812
 20
197.6432840818
 30
0.0
 10
383.9502065798
 20
197.6432841153
 30
0.0
  0
SPLINE
  5
2DF
100
AcDbEntity
  8
0
100
AcDbSpline
 62
9
  6
CONTINUOUS
 70
0
 71
3
 72
12
 73
8
 74
0
 42
0.0000001
 43
0.0000001
 44
0.0000000001
 40
0.0
 40
0.0
 40
0.0
 40
0.0
 40
0.1374452959
 40
0.2360702697
 40
0.3580368932
 40
0.660894127
 40
1.0
 40
1.0
 40
1.0
 40
1.0
 10
383.9502069374
 20
197.6432841153
 30
0.0
 10
383.9628409
 20
197.6432842426
 30
0.0
 10
383.983744017
 20
197.656002979
 30
0.0
 10
384.0028545077
 20
197.6824987373
 30
0.0
 10
384.0246094394
 20
197.7257848158
 30
0.0
 10
384.0430652473
 20
197.7940166218
 30
0.0
 10
384.0506159395
 20
197.8526640573
 30
0.0
 10
384.0528125479
 20
197.8837571525
 30
0.0
  0
SPLINE
  5
2E0
100
AcDbEntity
  8
0
100
AcDbSpline
 62
9
  6
CONTINUOUS
 70
0
 71
3
 72
13
 73
9
 74
0
 42
0.0000001
 43
0.0000001
 44
0.0000000001
 40
0.0
 40
0.0
 40
0.0
 40
0.0
 40
0.3802060606
 40
0.6702177771
 40
0.7797538304
 40
0.8677294466
 40
0.9381175273
 40
1.0
 40
1.0
 40
1.0
 40
1.0
 10
382.9352049956
 20
197.8819753353
 30
0.0
 10
382.9381954259
 20
197.8472520077
 30
0.0
 10
382.9467901753
 20
197.786328902
 30
0.0
 10
382.9668857343
 20
197.7170758769
 30
0.0
 10
382.9883599488
 20
197.6776770539
 30
0.0
 10
383.0037072313
 20
197.6583268153
 30
0.0
 10
383.0200501465
 20
197.6458610027
 30
0.0
 10
383.0323083145
 20
197.6429786326
 30
0.0
 10
383.0379808102
 20
197.6429709067
 30
0.0
  0
SPLINE
  5
2E1
100
AcDbEntity
  8
0
100
AcDbSpline
 62
9
  6
CONTINUOUS
 70
0
 71
3
 72
12
 73
8
 74
0
 42
0.0000001
 43
0.0000001
 44
0.0000000001
 40
0.0
 40
0.0
 40
0.0
 40
0.0
 40
0.3833828196
 40
0.6943540793
 40
0.8097622123
 40
0.8967929472
 40
1.0
 40
1.0
 40
1.0
 40
1.0
 10
382.9353743954
 20
197.8818746471
 30
0.0
 10
382.9081445834
 20
197.879715716
 30
0.0
 10
382.8589211472
 20
197.8739965934
 30
0.0
 10
382.8023864235
 20
197.8623018205
 30
0.0
 10
382.7677781753
 20
197.8493058434
 30
0.0
 10
382.7489976747
 20
197.8395409377
 30
0.0
 10
382.7379804385
 20
197.8278184765
 30
0.0
 10
382.7379804385
 20
197.8204651791
 30
0.0
  0
SPLINE
  5
2E2
100
AcDbEntity
  8
0
100
AcDbSpline
 62
9
  6
CONTINUOUS
 70
0
 71
3
 72
13
 73
9
 74
0
 42
0.0000001
 43
0.0000001
 44
0.0000000001
 40
0.0
 40
0.0
 40
0.0
 40
0.0
 40
0.3061304427
 40
0.6015499785
 40
0.7276130242
 40
0.8345530531
 40
0.9233339464
 40
1.0
 40
1.0
 40
1.0
 40
1.0
 10
383.0379804385
 20
204.8239065131
 30
0.0
 10
383.0010039411
 20
204.8239065131
 30
0.0
 10
382.9282748276
 20
204.830536117
 30
0.0
 10
382.8429766593
 20
204.856228547
 30
0.0
 10
382.7879849318
 20
204.8892600591
 30
0.0
 10
382.7591295661
 20
204.9158766602
 30
0.0
 10
382.7418956817
 20
204.9445309442
 30
0.0
 10
382.7379804385
 20
204.9646462711
 30
0.0
 10
382.7379804385
 20
204.9739065136
 30
0.0
  0
SPLINE
  5
2E3
100
AcDbEntity
  8
0
100
AcDbSpline
 62
9
  6
CONTINUOUS
 70
0
 71
3
 72
11
 73
7
 74
0
 42
0.0000001
 43
0.0000001
 44
0.0000000001
 40
0.0
 40
0.0
 40
0.0
 40
0.0
 40
0.2256680456
 40
0.4723712251
 40
0.7358538724
 40
1.0
 40
1.0
 40
1.0
 40
1.0
 10
382.7379804385
 20
204.1924966517
 30
0.0
 10
382.7379804385
 20
204.2155381582
 30
0.0
 10
382.7487591092
 20
204.2642507768
 30
0.0
 10
382.7935244599
 20
204.3266452209
 30
0.0
 10
382.8585540406
 20
204.3734882496
 30
0.0
 10
382.9093234292
 20
204.3930868353
 30
0.0
 10
382.9353743954
 20
204.4000683686
 30
0.0
  0
SPLINE
  5
2E4
100
AcDbEntity
  8
0
100
AcDbSpline
 62
9
  6
CONTINUOUS
 70
0
 71
3
 72
13
 73
9
 74
0
 42
0.0000001
 43
0.0000001
 44
0.0000000001
 40
0.0
 40
0.0
 40
0.0
 40
0.0
 40
0.0822452088
 40
0.1731402532
 40
0.2778863345
 40
0.39845992
 40
0.6815811013
 40
1.0
 40
1.0
 40
1.0
 40
1.0
 10
382.7379804385
 20
205.2682562765
 30
0.0
 10
382.7379804385
 20
205.2583219322
 30
0.0
 10
382.7423968392
 20
205.2372550486
 30
0.0
 10
382.7606930798
 20
205.2084926055
 30
0.0
 10
382.7892899828
 20
205.1826583652
 30
0.0
 10
382.8423894567
 20
205.151221335
 30
0.0
 10
382.9267192117
 20
205.1250905721
 30
0.0
 10
382.9995188305
 20
205.1182562765
 30
0.0
 10
383.0379804385
 20
205.1182562765
 30
0.0
  0
SPLINE
  5
2E5
100
AcDbEntity
  8
0
100
AcDbSpline
 62
9
  6
CONTINUOUS
 70
0
 71
3
 72
11
 73
7
 74
0
 42
0.0000001
 43
0.0000001
 44
0.0000000001
 40
0.0
 40
0.0
 40
0.0
 40
0.0
 40
0.2717115033
 40
0.5311941033
 40
0.7724584064
 40
1.0
 40
1.0
 40
1.0
 40
1.0
 10
383.0379804385
 20
207.1057530634
 30
0.0
 10
382.9991957276
 20
207.1057530634
 30
0.0
 10
382.9227538013
 20
207.0935855952
 30
0.0
 10
382.8236427521
 20
207.040350033
 30
0.0
 10
382.7548596552
 20
206.9585248138
 30
0.0
 10
382.7379804385
 20
206.8907335043
 30
0.0
 10
382.7379804385
 20
206.8582537056
 30
0.0
  0
SPLINE
  5
2E6
100
AcDbEntity
  8
0
100
AcDbSpline
 62
9
  6
CONTINUOUS
 70
0
 71
3
 72
10
 73
6
 74
0
 42
0.0000001
 43
0.0000001
 44
0.0000000001
 40
0.0
 40
0.0
 40
0.0
 40
0.0
 40
0.5107608888
 40
0.7591941527
 40
1.0
 40
1.0
 40
1.0
 40
1.0
 10
383.0379804385
 20
208.2211376788
 30
0.0
 10
382.9767299604
 20
208.2211376788
 30
0.0
 10
382.8826205559
 20
208.1944400142
 30
0.0
 10
382.7922510509
 20
208.1134308376
 30
0.0
 10
382.7624404976
 20
208.061346061
 30
0.0
 10
382.7526634836
 20
208.034174067
 30
0.0
  0
SPLINE
  5
2E7
100
AcDbEntity
  8
0
100
AcDbSpline
 62
9
  6
CONTINUOUS
 70
0
 71
3
 72
8
 73
4
 74
0
 42
0.0000001
 43
0.0000001
 44
0.0000000001
 40
0.0
 40
0.0
 40
0.0
 40
0.0
 40
1.0
 40
1.0
 40
1.0
 40
1.0
 10
382.7526634836
 20
208.034174067
 30
0.0
 10
382.7430828677
 20
208.007547897
 30
0.0
 10
382.7379804386
 20
207.9788587681
 30
0.0
 10
382.7379804385
 20
207.9505613985
 30
0.0
  0
SPLINE
  5
2E8
100
AcDbEntity
  8
0
100
AcDbSpline
 62
9
  6
CONTINUOUS
 70
0
 71
3
 72
12
 73
8
 74
0
 42
0.0000001
 43
0.0000001
 44
0.0000000001
 40
0.0
 40
0.0
 40
0.0
 40
0.0
 40
0.1374452972
 40
0.2360703172
 40
0.3580369291
 40
0.6608941913
 40
1.0
 40
1.0
 40
1.0
 40
1.0
 10
383.9502069375
 20
192.6432841153
 30
0.0
 10
383.9628409002
 20
192.6432839879
 30
0.0
 10
383.9837440313
 20
192.6305652597
 30
0.0
 10
384.0028544924
 20
192.6040694743
 30
0.0
 10
384.0246094598
 20
192.5607834111
 30
0.0
 10
384.0430652409
 20
192.4925515929
 30
0.0
 10
384.0506159152
 20
192.4339041646
 30
0.0
 10
384.052812548
 20
192.402811077
 30
0.0
  0
SPLINE
  5
2E9
100
AcDbEntity
  8
0
100
AcDbSpline
 62
9
  6
CONTINUOUS
 70
0
 71
3
 72
12
 73
8
 74
0
 42
0.0000001
 43
0.0000001
 44
0.0000000001
 40
0.0
 40
0.0
 40
0.0
 40
0.0
 40
0.136916254
 40
0.2301347514
 40
0.344562793
 40
0.6379651708
 40
1.0
 40
1.0
 40
1.0
 40
1.0
 10
383.0379804017
 20
192.6432841153
 30
0.0
 10
383.0254775512
 20
192.6432841026
 30
0.0
 10
383.0052064855
 20
192.6310826833
 30
0.0
 10
382.9864879562
 20
192.6060852445
 30
0.0
 10
382.9652653584
 20
192.5651874724
 30
0.0
 10
382.9459532352
 20
192.4971216047
 30
0.0
 10
382.9377844939
 20
192.4376667544
 30
0.0
 10
382.9353744716
 20
192.4046945976
 30
0.0
  0
SPLINE
  5
2EA
100
AcDbEntity
  8
0
100
AcDbSpline
 62
9
  6
CONTINUOUS
 70
0
 71
3
 72
11
 73
7
 74
0
 42
0.0000001
 43
0.0000001
 44
0.0000000001
 40
0.0
 40
0.0
 40
0.0
 40
0.0
 40
0.249576751
 40
0.4990381143
 40
0.7490536003
 40
1.0
 40
1.0
 40
1.0
 40
1.0
 10
387.2380167773
 20
192.9210830299
 30
0.0
 10
386.9902525117
 20
192.8136248277
 30
0.0
 10
386.4729091769
 20
192.6491127693
 30
0.0
 10
385.6755051503
 20
192.4986569979
 30
0.0
 10
384.8666663295
 20
192.4173517809
 30
0.0
 10
384.32436009
 20
192.4023369154
 30
0.0
 10
384.0528146838
 20
192.4027805239
 30
0.0
  0
SPLINE
  5
2EB
100
AcDbEntity
  8
0
100
AcDbSpline
 62
9
  6
CONTINUOUS
 70
0
 71
3
 72
8
 73
4
 74
0
 42
0.0000001
 43
0.0000001
 44
0.0000000001
 40
0.0
 40
0.0
 40
0.0
 40
0.0
 40
1.0
 40
1.0
 40
1.0
 40
1.0
 10
384.0529854103
 20
192.4029115311
 30
0.0
 10
383.680392756
 20
192.4038723029
 30
0.0
 10
383.3077975128
 20
192.4035803343
 30
0.0
 10
382.9352049956
 20
192.4045928953
 30
0.0
  0
LINE
  5
2EC
100
AcDbEntity
  8
0
100
AcDbLine
 62
9
  6
CONTINUOUS
 10
382.935204952
 20
185.8861553811
 11
384.0529853667
 21
185.5275354346
  0
SPLINE
  5
2ED
100
AcDbEntity
  8
0
100
AcDbSpline
 62
9
  6
CONTINUOUS
 70
0
 71
3
 72
9
 73
5
 74
0
 42
0.0000001
 43
0.0000001
 44
0.0000000001
 40
0.0
 40
0.0
 40
0.0
 40
0.0
 40
0.2487024671
 40
1.0
 40
1.0
 40
1.0
 40
1.0
 10
384.0528126175
 20
185.5271836103
 30
0.0
 10
384.1831034179
 20
185.4853138814
 30
0.0
 10
384.7054843698
 20
185.3123656582
 30
0.0
 10
385.2214067137
 20
185.1195857815
 30
0.0
 10
385.6034866474
 20
184.961702697
 30
0.0
  0
SPLINE
  5
2EE
100
AcDbEntity
  8
0
100
AcDbSpline
 62
9
  6
CONTINUOUS
 70
0
 71
3
 72
9
 73
5
 74
0
 42
0.0000001
 43
0.0000001
 44
0.0000000001
 40
0.0
 40
0.0
 40
0.0
 40
0.0
 40
0.4998559255
 40
1.0
 40
1.0
 40
1.0
 40
1.0
 10
385.6034866474
 20
184.961702697
 30
0.0
 10
385.883815532
 20
184.8458651848
 30
0.0
 10
386.4389210547
 20
184.6001366314
 30
0.0
 10
386.9772809486
 20
184.31814198
 30
0.0
 10
387.238005715
 20
184.1627994168
 30
0.0
  0
SPLINE
  5
2EF
100
AcDbEntity
  8
0
100
AcDbSpline
 62
9
  6
CONTINUOUS
 70
0
 71
3
 72
11
 73
7
 74
0
 42
0.0000001
 43
0.0000001
 44
0.0000000001
 40
0.0
 40
0.0
 40
0.0
 40
0.0
 40
0.2231337763
 40
0.4849939455
 40
0.7509745219
 40
1.0
 40
1.0
 40
1.0
 40
1.0
 10
382.935204952
 20
185.8861553811
 30
0.0
 10
382.9390664738
 20
185.8539178457
 30
0.0
 10
382.9509844268
 20
185.7842899534
 30
0.0
 10
382.9746105852
 20
185.6775633218
 30
0.0
 10
383.0044570715
 20
185.5685241161
 30
0.0
 10
383.0258697108
 20
185.4966525427
 30
0.0
 10
383.0379808246
 20
185.4625009744
 30
0.0
  0
SPLINE
  5
2F0
100
AcDbEntity
  8
0
100
AcDbSpline
 62
9
  6
CONTINUOUS
 70
0
 71
3
 72
10
 73
6
 74
0
 42
0.0000001
 43
0.0000001
 44
0.0000000001
 40
0.0
 40
0.0
 40
0.0
 40
0.0
 40
0.5328137271
 40
0.7963925884
 40
1.0
 40
1.0
 40
1.0
 40
1.0
 10
383.9502069249
 20
185.1683127637
 30
0.0
 10
383.9764568575
 20
185.2293633259
 30
0.0
 10
384.0090603505
 20
185.3235727816
 30
0.0
 10
384.0398991474
 20
185.4444390315
 30
0.0
 10
384.0501270581
 20
185.5019305965
 30
0.0
 10
384.0528125479
 20
185.5271829571
 30
0.0
  0
SPLINE
  5
2F1
100
AcDbEntity
  8
0
100
AcDbSpline
 62
9
  6
CONTINUOUS
 70
0
 71
3
 72
10
 73
6
 74
0
 42
0.0000001
 43
0.0000001
 44
0.0000000001
 40
0.0
 40
0.0
 40
0.0
 40
0.0
 40
0.2501054007
 40
0.5009985066
 40
1.0
 40
1.0
 40
1.0
 40
1.0
 10
387.2379804385
 20
183.9705284223
 30
0.0
 10
386.9787966713
 20
184.1053751536
 30
0.0
 10
386.4446638881
 20
184.3467300166
 30
0.0
 10
385.3523613904
 20
184.7615455882
 30
0.0
 10
384.5131497726
 20
185.0170324267
 30
0.0
 10
383.9502065794
 20
185.1683119546
 30
0.0
  0
SPLINE
  5
2F2
100
AcDbEntity
  8
0
100
AcDbSpline
 62
9
  6
CONTINUOUS
 70
0
 71
3
 72
10
 73
6
 74
0
 42
0.0000001
 43
0.0000001
 44
0.0000000001
 40
0.0
 40
0.0
 40
0.0
 40
0.0
 40
0.5107608888
 40
0.7591941527
 40
1.0
 40
1.0
 40
1.0
 40
1.0
 10
383.0379804385
 20
182.0654305518
 30
0.0
 10
382.9767299604
 20
182.0654305518
 30
0.0
 10
382.8826205559
 20
182.0921282164
 30
0.0
 10
382.7922510509
 20
182.173137393
 30
0.0
 10
382.7624404977
 20
182.2252221696
 30
0.0
 10
382.7526634836
 20
182.2523941636
 30
0.0
  0
SPLINE
  5
2F3
100
AcDbEntity
  8
0
100
AcDbSpline
 62
9
  6
CONTINUOUS
 70
0
 71
3
 72
8
 73
4
 74
0
 42
0.0000001
 43
0.0000001
 44
0.0000000001
 40
0.0
 40
0.0
 40
0.0
 40
0.0
 40
1.0
 40
1.0
 40
1.0
 40
1.0
 10
382.7526634836
 20
182.2523941636
 30
0.0
 10
382.7430828676
 20
182.2790203337
 30
0.0
 10
382.7379804385
 20
182.3077094629
 30
0.0
 10
382.7379804385
 20
182.3360068327
 30
0.0
  0
SPLINE
  5
2F4
100
AcDbEntity
  8
0
100
AcDbSpline
 62
9
  6
CONTINUOUS
 70
0
 71
3
 72
12
 73
8
 74
0
 42
0.0000001
 43
0.0000001
 44
0.0000000001
 40
0.0
 40
0.0
 40
0.0
 40
0.0
 40
0.2510833884
 40
0.501366719
 40
0.7508936841
 40
0.8754770013
 40
1.0
 40
1.0
 40
1.0
 40
1.0
 10
383.9502065779
 20
192.6432841153
 30
0.0
 10
384.2297735726
 20
192.6432841487
 30
0.0
 10
384.7881898125
 20
192.6581854927
 30
0.0
 10
385.6215103297
 20
192.7322170895
 30
0.0
 10
386.3083224444
 20
192.8476703768
 30
0.0
 10
386.8462575562
 20
192.9862935706
 30
0.0
 10
387.1092940382
 20
193.075762133
 30
0.0
 10
387.2379804385
 20
193.1273704812
 30
0.0
  0
SPLINE
  5
2F5
100
AcDbEntity
  8
0
100
AcDbSpline
 62
9
  6
CONTINUOUS
 70
0
 71
3
 72
10
 73
6
 74
0
 42
0.0000001
 43
0.0000001
 44
0.0000000001
 40
0.0
 40
0.0
 40
0.0
 40
0.0
 40
0.5328137656
 40
0.7963925961
 40
1.0
 40
1.0
 40
1.0
 40
1.0
 10
383.950206925
 20
205.1182554666
 30
0.0
 10
383.9764568595
 20
205.0572049
 30
0.0
 10
384.0090603473
 20
204.9629954431
 30
0.0
 10
384.0398991563
 20
204.8421291932
 30
0.0
 10
384.0501270356
 20
204.78463763
 30
0.0
 10
384.052812548
 20
204.7593852727
 30
0.0
  0
SPLINE
  5
2F6
100
AcDbEntity
  8
0
100
AcDbSpline
 62
9
  6
CONTINUOUS
 70
0
 71
3
 72
10
 73
6
 74
0
 42
0.0000001
 43
0.0000001
 44
0.0000000001
 40
0.0
 40
0.0
 40
0.0
 40
0.0
 40
0.4990014876
 40
0.7498945912
 40
1.0
 40
1.0
 40
1.0
 40
1.0
 10
383.9502065779
 20
205.1182562756
 30
0.0
 10
384.513149765
 20
205.2695358017
 30
0.0
 10
385.3523613747
 20
205.5250226364
 30
0.0
 10
386.4446638731
 20
205.9398382063
 30
0.0
 10
386.9787966662
 20
206.1811930659
 30
0.0
 10
387.2379804385
 20
206.3160398083
 30
0.0
  0
SPLINE
  5
2F7
100
AcDbEntity
  8
0
100
AcDbSpline
 62
9
  6
CONTINUOUS
 70
0
 71
3
 72
11
 73
7
 74
0
 42
0.0000001
 43
0.0000001
 44
0.0000000001
 40
0.0
 40
0.0
 40
0.0
 40
0.0
 40
0.2717115032
 40
0.5311941033
 40
0.7724584064
 40
1.0
 40
1.0
 40
1.0
 40
1.0
 10
383.0379804385
 20
183.1808151671
 30
0.0
 10
382.9991957277
 20
183.1808151671
 30
0.0
 10
382.9227538014
 20
183.1929826353
 30
0.0
 10
382.8236427523
 20
183.2462181974
 30
0.0
 10
382.7548596554
 20
183.3280434164
 30
0.0
 10
382.7379804386
 20
183.3958347258
 30
0.0
 10
382.7379804385
 20
183.4283145244
 30
0.0
  0
SPLINE
  5
2F8
100
AcDbEntity
  8
0
100
AcDbSpline
 62
9
  6
CONTINUOUS
 70
0
 71
3
 72
10
 73
6
 74
0
 42
0.0000001
 43
0.0000001
 44
0.0000000001
 40
0.0
 40
0.0
 40
0.0
 40
0.0
 40
0.5328821751
 40
0.7902503997
 40
1.0
 40
1.0
 40
1.0
 40
1.0
 10
383.0379803981
 20
204.8239063927
 30
0.0
 10
383.0132204051
 20
204.7504025468
 30
0.0
 10
382.9813645864
 20
204.6396707901
 30
0.0
 10
382.9497981593
 20
204.4975904151
 30
0.0
 10
382.9384710873
 20
204.4304411342
 30
0.0
 10
382.9353744716
 20
204.4000691157
 30
0.0
  0
SPLINE
  5
2F9
100
AcDbEntity
  8
0
100
AcDbSpline
 62
9
  6
CONTINUOUS
 70
0
 71
3
 72
9
 73
5
 74
0
 42
0.0000001
 43
0.0000001
 44
0.0000000001
 40
0.0
 40
0.0
 40
0.0
 40
0.0
 40
0.5001430431
 40
1.0
 40
1.0
 40
1.0
 40
1.0
 10
387.2379850507
 20
206.1237355267
 30
0.0
 10
386.977458598
 20
205.9685125323
 30
0.0
 10
386.4395196207
 20
205.6867134906
 30
0.0
 10
385.8848525123
 20
205.4411359869
 30
0.0
 10
385.6047450716
 20
205.3253653122
 30
0.0
  0
SPLINE
  5
2FA
100
AcDbEntity
  8
0
100
AcDbSpline
 62
9
  6
CONTINUOUS
 70
0
 71
3
 72
9
 73
5
 74
0
 42
0.0000001
 43
0.0000001
 44
0.0000000001
 40
0.0
 40
0.0
 40
0.0
 40
0.0
 40
0.2512728294
 40
1.0
 40
1.0
 40
1.0
 40
1.0
 10
385.6047450716
 20
205.3253653122
 30
0.0
 10
385.4768547256
 20
205.2725071961
 30
0.0
 10
384.9654772819
 20
205.0679840158
 30
0.0
 10
384.445387931
 20
204.8855207881
 30
0.0
 10
384.0528146838
 20
204.7593649708
 30
0.0
  0
LINE
  5
2FB
100
AcDbEntity
  8
0
100
AcDbLine
 62
9
  6
CONTINUOUS
 10
384.0529853667
 20
204.759032796
 11
382.9352049521
 21
204.4004128495
  0
SPLINE
  5
2FC
100
AcDbEntity
  8
0
100
AcDbSpline
 62
9
  6
CONTINUOUS
 70
0
 71
3
 72
8
 73
4
 74
0
 42
0.0000001
 43
0.0000001
 44
0.0000000001
 40
0.0
 40
0.0
 40
0.0
 40
0.0
 40
1.0
 40
1.0
 40
1.0
 40
1.0
 10
382.9352049956
 20
197.8819753353
 30
0.0
 10
383.3077975128
 20
197.8829878963
 30
0.0
 10
383.6803927559
 20
197.8826959324
 30
0.0
 10
384.0529854103
 20
197.8836566995
 30
0.0
  0
SPLINE
  5
2FD
100
AcDbEntity
  8
0
100
AcDbSpline
 62
9
  6
CONTINUOUS
 70
0
 71
3
 72
13
 73
9
 74
0
 42
0.0000001
 43
0.0000001
 44
0.0000000001
 40
0.0
 40
0.0
 40
0.0
 40
0.0
 40
0.3184188987
 40
0.60154008
 40
0.7221136655
 40
0.8268597468
 40
0.9177547912
 40
1.0
 40
1.0
 40
1.0
 40
1.0
 10
383.0379804385
 20
185.1683119546
 30
0.0
 10
382.9995188305
 20
185.1683119546
 30
0.0
 10
382.9267192117
 20
185.161477659
 30
0.0
 10
382.8423894567
 20
185.1353468961
 30
0.0
 10
382.7892899828
 20
185.1039098659
 30
0.0
 10
382.7606930798
 20
185.0780756255
 30
0.0
 10
382.7423968392
 20
185.0493131825
 30
0.0
 10
382.7379804385
 20
185.0282462989
 30
0.0
 10
382.7379804385
 20
185.0183119546
 30
0.0
  0
SPLINE
  5
2FE
100
AcDbEntity
  8
0
100
AcDbSpline
 62
9
  6
CONTINUOUS
 70
0
 71
3
 72
11
 73
7
 74
0
 42
0.0000001
 43
0.0000001
 44
0.0000000001
 40
0.0
 40
0.0
 40
0.0
 40
0.0
 40
0.2509466732
 40
0.5009623439
 40
0.7504237028
 40
1.0
 40
1.0
 40
1.0
 40
1.0
 10
384.0528126175
 20
197.8837581362
 30
0.0
 10
384.3243545803
 20
197.8842017306
 30
0.0
 10
384.8666538418
 20
197.8691871944
 30
0.0
 10
385.6754820881
 20
197.7878840193
 30
0.0
 10
386.4728751754
 20
197.6374323085
 30
0.0
 10
386.9902116929
 20
197.4729256766
 30
0.0
 10
387.2379730243
 20
197.3654712893
 30
0.0
  0
SPLINE
  5
2FF
100
AcDbEntity
  8
0
100
AcDbSpline
 62
7
  6
CONTINUOUS
 70
0
 71
3
 72
9
 73
5
 74
0
 42
0.0000001
 43
0.0000001
 44
0.0000000001
 40
0.0
 40
0.0
 40
0.0
 40
0.0
 40
0.5440893609
 40
1.0
 40
1.0
 40
1.0
 40
1.0
 10
376.5217924833
 20
178.0929962093
 30
0.0
 10
376.5495944009
 20
178.0738835861
 30
0.0
 10
376.597499165
 20
178.0314000597
 30
0.0
 10
376.6179804386
 20
177.9687105991
 30
0.0
 10
376.6179804385
 20
177.9404405721
 30
0.0
  0
SPLINE
  5
300
100
AcDbEntity
  8
0
100
AcDbSpline
 62
7
  6
CONTINUOUS
 70
0
 71
3
 72
9
 73
5
 74
0
 42
0.0000001
 43
0.0000001
 44
0.0000000001
 40
0.0
 40
0.0
 40
0.0
 40
0.0
 40
0.749161732
 40
1.0
 40
1.0
 40
1.0
 40
1.0
 10
376.6179804385
 20
181.1849937381
 30
0.0
 10
376.6179804386
 20
181.2925027279
 30
0.0
 10
376.5926935495
 20
181.4379493037
 30
0.0
 10
376.5345980935
 20
181.5693909745
 30
0.0
 10
376.5179804382
 20
181.6013224282
 30
0.0
  0
LINE
  5
301
100
AcDbEntity
  8
0
100
AcDbLine
 62
7
  6
CONTINUOUS
 10
376.8379804385
 20
185.1355071397
 11
376.861907993
 21
185.0432827913
  0
ENDSEC
  0
SECTION
  2
OBJECTS
  0
DICTIONARY
  5
C
100
AcDbDictionary
280
0
281
1
  3
ACAD_GROUP
350
D
  3
ACAD_MLINESTYLE
350
17
  3
ACAD_LAYOUT
350
1A
  3
ACAD_PLOTSETTINGS
350
19
  3
ACAD_PLOTSTYLENAME
350
E
  0
DICTIONARY
  5
D
102
{ACAD_REACTORS
330
C
102
}
100
AcDbDictionary
280
0
281
1
  0
ACDBDICTIONARYWDFLT
  5
E
102
{ACAD_REACTORS
330
C
102
}
100
AcDbDictionary
281
1
  3
Normal
350
F
100
AcDbDictionaryWithDefault
340
F
  0
DICTIONARY
  5
17
102
{ACAD_REACTORS
330
C
102
}
100
AcDbDictionary
280
0
281
1
  3
Standard
350
18
  0
DICTIONARY
  5
19
102
{ACAD_REACTORS
330
C
102
}
100
AcDbDictionary
281
1
  0
DICTIONARY
  5
1A
102
{ACAD_REACTORS
330
C
102
}
100
AcDbDictionary
281
1
  3
Model
350
302
  3
Layout1
350
303
  0
ACDBPLACEHOLDER
  5
F
102
{ACAD_REACTORS
330
E
102
}
  0
MLINESTYLE
  5
18
102
{ACAD_REACTORS
330
17
102
}
100
AcDbMlineStyle
  2
STANDARD
 70
0
  3

 62
256
 51
90.0
 52
90.0
 71
2
 49
0.5
 62
256
  6
BYLAYER
 49
-0.5
 62
256
  6
BYLAYER
  0
LAYOUT
  5
302
102
{ACAD_REACTORS
330
1A
102
}
100
AcDbPlotSettings
  1

  2
none_device
  4
ANSI_C_(22.00_x_17.00_Inches)
  6

 40
0.0
 41
0.0
 42
0.0
 43
0.0
 44
558.8
 45
431.8
 46
0.0
 47
0.0
 48
0.0
 49
0.0
140
0.0
141
0.0
142
1.0
143
1.0
 70
1024
 72
1
 73
0
 74
0
  7

 75
0
147
1.0
148
0.0
149
0.0
100
AcDbLayout
  1
Model
 70
0
 71
0
 10
0.0
 20
0.0
 11
558.8
 21
431.8
 12
0.0
 22
0.0
 32
0.0
 14
0.0
 24
0.0
 34
0.0
 15
0.0
 25
0.0
 35
0.0
146
0.0
 13
0.0
 23
0.0
 33
0.0
 16
1.0
 26
0.0
 36
0.0
 17
0.0
 27
1.0
 37
0.0
 76
0
330
217
345
0
346
0
  0
LAYOUT
  5
303
102
{ACAD_REACTORS
330
1A
102
}
100
AcDbPlotSettings
  1

  2
none_device
  4
ANSI_C_(22.00_x_17.00_Inches)
  6

 40
0.0
 41
0.0
 42
0.0
 43
0.0
 44
558.8
 45
431.8
 46
0.0
 47
0.0
 48
0.0
 49
0.0
140
0.0
141
0.0
142
1.0
143
1.0
 70
0
 72
1
 73
0
 74
0
  7

 75
0
147
1.0
148
0.0
149
0.0
100
AcDbLayout
  1
Layout1
 70
0
 71
1
 10
0.0
 20
0.0
 11
558.8
 21
431.8
 12
0.0
 22
0.0
 32
0.0
 14
0.0
 24
0.0
 34
0.0
 15
0.0
 25
0.0
 35
0.0
146
0.0
 13
0.0
 23
0.0
 33
0.0
 16
1.0
 26
0.0
 36
0.0
 17
0.0
 27
1.0
 37
0.0
 76
0
330
218
345
0
346
0
  0
ENDSEC
  0
EOF
