  0
SECTION
  2
HEADER
  9
$ACADVER
  1
AC1024
  9
$ACADMAINTVER
 70
   205
  9
$DWGCODEPAGE
  3
ANSI_1252
  9
$LASTSAVEDBY
  1
SESA36641
  9
$INSBASE
 10
0.0
 20
0.0
 30
0.0
  9
$EXTMIN
 10
-0.00000000001303
 20
-22.5000000000008
 30
0.0
  9
$EXTMAX
 10
140.0003156300143
 20
22.50000000008141
 30
0.0
  9
$LIMMIN
 10
0.0
 20
0.0
  9
$LIMMAX
 10
420.0
 20
297.0
  9
$ORTHOMODE
 70
     0
  9
$REGENMODE
 70
     1
  9
$FILLMODE
 70
     1
  9
$QTEXTMODE
 70
     0
  9
$MIRRTEXT
 70
     0
  9
$LTSCALE
 40
1.0
  9
$ATTMODE
 70
     1
  9
$TEXTSIZE
 40
2.5
  9
$TRACEWID
 40
1.0
  9
$TEXTSTYLE
  7
Standard
  9
$CLAYER
  8
0
  9
$CELTYPE
  6
ByLayer
  9
$CECOLOR
 62
   256
  9
$CELTSCALE
 40
1.0
  9
$DISPSILH
 70
     0
  9
$DIMSCALE
 40
1.0
  9
$DIMASZ
 40
2.5
  9
$DIMEXO
 40
0.625
  9
$DIMDLI
 40
3.75
  9
$DIMRND
 40
0.0
  9
$DIMDLE
 40
0.0
  9
$DIMEXE
 40
1.25
  9
$DIMTP
 40
0.0
  9
$DIMTM
 40
0.0
  9
$DIMTXT
 40
2.5
  9
$DIMCEN
 40
2.5
  9
$DIMTSZ
 40
0.0
  9
$DIMTOL
 70
     0
  9
$DIMLIM
 70
     0
  9
$DIMTIH
 70
     0
  9
$DIMTOH
 70
     0
  9
$DIMSE1
 70
     0
  9
$DIMSE2
 70
     0
  9
$DIMTAD
 70
     1
  9
$DIMZIN
 70
     8
  9
$DIMBLK
  1

  9
$DIMASO
 70
     1
  9
$DIMSHO
 70
     1
  9
$DIMPOST
  1

  9
$DIMAPOST
  1

  9
$DIMALT
 70
     0
  9
$DIMALTD
 70
     3
  9
$DIMALTF
 40
0.03937007874016
  9
$DIMLFAC
 40
1.0
  9
$DIMTOFL
 70
     1
  9
$DIMTVP
 40
0.0
  9
$DIMTIX
 70
     0
  9
$DIMSOXD
 70
     0
  9
$DIMSAH
 70
     0
  9
$DIMBLK1
  1

  9
$DIMBLK2
  1

  9
$DIMSTYLE
  2
ISO-25
  9
$DIMCLRD
 70
     0
  9
$DIMCLRE
 70
     0
  9
$DIMCLRT
 70
     0
  9
$DIMTFAC
 40
1.0
  9
$DIMGAP
 40
0.625
  9
$DIMJUST
 70
     0
  9
$DIMSD1
 70
     0
  9
$DIMSD2
 70
     0
  9
$DIMTOLJ
 70
     0
  9
$DIMTZIN
 70
     8
  9
$DIMALTZ
 70
     0
  9
$DIMALTTZ
 70
     0
  9
$DIMUPT
 70
     0
  9
$DIMDEC
 70
     2
  9
$DIMTDEC
 70
     2
  9
$DIMALTU
 70
     2
  9
$DIMALTTD
 70
     3
  9
$DIMTXSTY
  7
Standard
  9
$DIMAUNIT
 70
     0
  9
$DIMADEC
 70
     0
  9
$DIMALTRND
 40
0.0
  9
$DIMAZIN
 70
     0
  9
$DIMDSEP
 70
    44
  9
$DIMATFIT
 70
     3
  9
$DIMFRAC
 70
     0
  9
$DIMLDRBLK
  1

  9
$DIMLUNIT
 70
     2
  9
$DIMLWD
 70
    -2
  9
$DIMLWE
 70
    -2
  9
$DIMTMOVE
 70
     0
  9
$DIMFXL
 40
1.0
  9
$DIMFXLON
 70
     0
  9
$DIMJOGANG
 40
0.7853981633974483
  9
$DIMTFILL
 70
     0
  9
$DIMTFILLCLR
 70
     0
  9
$DIMARCSYM
 70
     0
  9
$DIMLTYPE
  6

  9
$DIMLTEX1
  6

  9
$DIMLTEX2
  6

  9
$DIMTXTDIRECTION
 70
     0
  9
$LUNITS
 70
     2
  9
$LUPREC
 70
     4
  9
$SKETCHINC
 40
1.0
  9
$FILLETRAD
 40
0.0
  9
$AUNITS
 70
     0
  9
$AUPREC
 70
     0
  9
$MENU
  1
.
  9
$ELEVATION
 40
0.0
  9
$PELEVATION
 40
0.0
  9
$THICKNESS
 40
0.0
  9
$LIMCHECK
 70
     0
  9
$CHAMFERA
 40
0.0
  9
$CHAMFERB
 40
0.0
  9
$CHAMFERC
 40
0.0
  9
$CHAMFERD
 40
0.0
  9
$SKPOLY
 70
     0
  9
$TDCREATE
 40
2456203.114918611
  9
$TDUCREATE
 40
2456203.364918611
  9
$TDUPDATE
 40
2457774.467624734
  9
$TDUUPDATE
 40
2457774.717624733
  9
$TDINDWG
 40
0.0050270139
  9
$TDUSRTIMER
 40
0.0050261227
  9
$USRTIMER
 70
     1
  9
$ANGBASE
 50
0.0
  9
$ANGDIR
 70
     0
  9
$PDMODE
 70
     0
  9
$PDSIZE
 40
0.0
  9
$PLINEWID
 40
0.0
  9
$SPLFRAME
 70
     0
  9
$SPLINETYPE
 70
     6
  9
$SPLINESEGS
 70
     8
  9
$HANDSEED
  5
36F
  9
$SURFTAB1
 70
     6
  9
$SURFTAB2
 70
     6
  9
$SURFTYPE
 70
     6
  9
$SURFU
 70
     6
  9
$SURFV
 70
     6
  9
$UCSBASE
  2

  9
$UCSNAME
  2

  9
$UCSORG
 10
0.0
 20
0.0
 30
0.0
  9
$UCSXDIR
 10
1.0
 20
0.0
 30
0.0
  9
$UCSYDIR
 10
0.0
 20
1.0
 30
0.0
  9
$UCSORTHOREF
  2

  9
$UCSORTHOVIEW
 70
     0
  9
$UCSORGTOP
 10
0.0
 20
0.0
 30
0.0
  9
$UCSORGBOTTOM
 10
0.0
 20
0.0
 30
0.0
  9
$UCSORGLEFT
 10
0.0
 20
0.0
 30
0.0
  9
$UCSORGRIGHT
 10
0.0
 20
0.0
 30
0.0
  9
$UCSORGFRONT
 10
0.0
 20
0.0
 30
0.0
  9
$UCSORGBACK
 10
0.0
 20
0.0
 30
0.0
  9
$PUCSBASE
  2

  9
$PUCSNAME
  2

  9
$PUCSORG
 10
0.0
 20
0.0
 30
0.0
  9
$PUCSXDIR
 10
1.0
 20
0.0
 30
0.0
  9
$PUCSYDIR
 10
0.0
 20
1.0
 30
0.0
  9
$PUCSORTHOREF
  2

  9
$PUCSORTHOVIEW
 70
     0
  9
$PUCSORGTOP
 10
0.0
 20
0.0
 30
0.0
  9
$PUCSORGBOTTOM
 10
0.0
 20
0.0
 30
0.0
  9
$PUCSORGLEFT
 10
0.0
 20
0.0
 30
0.0
  9
$PUCSORGRIGHT
 10
0.0
 20
0.0
 30
0.0
  9
$PUCSORGFRONT
 10
0.0
 20
0.0
 30
0.0
  9
$PUCSORGBACK
 10
0.0
 20
0.0
 30
0.0
  9
$USERI1
 70
     0
  9
$USERI2
 70
     0
  9
$USERI3
 70
     0
  9
$USERI4
 70
     0
  9
$USERI5
 70
     0
  9
$USERR1
 40
0.0
  9
$USERR2
 40
0.0
  9
$USERR3
 40
0.0
  9
$USERR4
 40
0.0
  9
$USERR5
 40
0.0
  9
$WORLDVIEW
 70
     1
  9
$SHADEDGE
 70
     3
  9
$SHADEDIF
 70
    70
  9
$TILEMODE
 70
     0
  9
$MAXACTVP
 70
    64
  9
$PINSBASE
 10
0.0
 20
0.0
 30
0.0
  9
$PLIMCHECK
 70
     0
  9
$PEXTMIN
 10
1.132065535443871
 20
19.49020437778699
 30
-0.0015258207003583
  9
$PEXTMAX
 10
249.9991766854646
 20
175.3816227718275
 30
0.0000000349246037
  9
$PLIMMIN
 10
-0.7251516838435848
 20
17.63298715849954
  9
$PLIMMAX
 10
251.8563867921379
 20
181.0681013400914
  9
$UNITMODE
 70
     0
  9
$VISRETAIN
 70
     1
  9
$PLINEGEN
 70
     0
  9
$PSLTSCALE
 70
     1
  9
$TREEDEPTH
 70
  3020
  9
$CMLSTYLE
  2
Standard
  9
$CMLJUST
 70
     0
  9
$CMLSCALE
 40
20.0
  9
$PROXYGRAPHICS
 70
     1
  9
$MEASUREMENT
 70
     1
  9
$CELWEIGHT
370
    -1
  9
$ENDCAPS
280
     0
  9
$JOINSTYLE
280
     0
  9
$LWDISPLAY
290
     0
  9
$INSUNITS
 70
     0
  9
$HYPERLINKBASE
  1

  9
$STYLESHEET
  1

  9
$XEDIT
290
     1
  9
$CEPSNTYPE
380
     0
  9
$PSTYLEMODE
290
     1
  9
$FINGERPRINTGUID
  2
{AF31C451-6140-4FAB-95B8-D80A5274A0D0}
  9
$VERSIONGUID
  2
{4CA04DBD-A939-4AD2-857D-EEFB1C4FE60E}
  9
$EXTNAMES
290
     1
  9
$PSVPSCALE
 40
0.0
  9
$OLESTARTUP
290
     0
  9
$SORTENTS
280
   127
  9
$INDEXCTL
280
     0
  9
$HIDETEXT
280
     1
  9
$XCLIPFRAME
280
     2
  9
$HALOGAP
280
     0
  9
$OBSCOLOR
 70
   257
  9
$OBSLTYPE
280
     0
  9
$INTERSECTIONDISPLAY
280
     0
  9
$INTERSECTIONCOLOR
 70
   257
  9
$DIMASSOC
280
     2
  9
$PROJECTNAME
  1

  9
$CAMERADISPLAY
290
     0
  9
$LENSLENGTH
 40
50.0
  9
$CAMERAHEIGHT
 40
0.0
  9
$STEPSPERSEC
 40
2.0
  9
$STEPSIZE
 40
6.0
  9
$3DDWFPREC
 40
2.0
  9
$PSOLWIDTH
 40
5.0
  9
$PSOLHEIGHT
 40
80.0
  9
$LOFTANG1
 40
1.570796326794896
  9
$LOFTANG2
 40
1.570796326794896
  9
$LOFTMAG1
 40
0.0
  9
$LOFTMAG2
 40
0.0
  9
$LOFTPARAM
 70
     7
  9
$LOFTNORMALS
280
     1
  9
$LATITUDE
 40
37.795
  9
$LONGITUDE
 40
-122.394
  9
$NORTHDIRECTION
 40
0.0
  9
$TIMEZONE
 70
 -8000
  9
$LIGHTGLYPHDISPLAY
280
     1
  9
$TILEMODELIGHTSYNCH
280
     1
  9
$CMATERIAL
347
36
  9
$SOLIDHIST
280
     0
  9
$SHOWHIST
280
     1
  9
$DWFFRAME
280
     2
  9
$DGNFRAME
280
     0
  9
$REALWORLDSCALE
290
     1
  9
$INTERFERECOLOR
 62
     1
  9
$INTERFEREOBJVS
345
43
  9
$INTERFEREVPVS
346
44
  9
$CSHADOW
280
     0
  9
$SHADOWPLANELOCATION
 40
0.0
  0
ENDSEC
  0
SECTION
  2
CLASSES
  0
CLASS
  1
ACDBDICTIONARYWDFLT
  2
AcDbDictionaryWithDefault
  3
ObjectDBX Classes
 90
        0
 91
        1
280
     0
281
     0
  0
CLASS
  1
DICTIONARYVAR
  2
AcDbDictionaryVar
  3
ObjectDBX Classes
 90
        0
 91
       13
280
     0
281
     0
  0
CLASS
  1
TABLESTYLE
  2
AcDbTableStyle
  3
ObjectDBX Classes
 90
     4095
 91
        1
280
     0
281
     0
  0
CLASS
  1
MATERIAL
  2
AcDbMaterial
  3
ObjectDBX Classes
 90
     1153
 91
        3
280
     0
281
     0
  0
CLASS
  1
VISUALSTYLE
  2
AcDbVisualStyle
  3
ObjectDBX Classes
 90
     4095
 91
       24
280
     0
281
     0
  0
CLASS
  1
SCALE
  2
AcDbScale
  3
ObjectDBX Classes
 90
     1153
 91
       17
280
     0
281
     0
  0
CLASS
  1
MLEADERSTYLE
  2
AcDbMLeaderStyle
  3
ACDB_MLEADERSTYLE_CLASS
 90
     4095
 91
        1
280
     0
281
     0
  0
CLASS
  1
CELLSTYLEMAP
  2
AcDbCellStyleMap
  3
ObjectDBX Classes
 90
     1152
 91
        1
280
     0
281
     0
  0
CLASS
  1
EXACXREFPANELOBJECT
  2
ExAcXREFPanelObject
  3
EXAC_ESW
 90
     1025
 91
        0
280
     1
281
     0
  0
CLASS
  1
NPOCOLLECTION
  2
AcDbImpNonPersistentObjectsCollection
  3
ObjectDBX Classes
 90
     1153
 91
        0
280
     0
281
     0
  0
CLASS
  1
LAYER_INDEX
  2
AcDbLayerIndex
  3
ObjectDBX Classes
 90
        0
 91
        0
280
     0
281
     0
  0
CLASS
  1
SPATIAL_INDEX
  2
AcDbSpatialIndex
  3
ObjectDBX Classes
 90
        0
 91
        0
280
     0
281
     0
  0
CLASS
  1
IDBUFFER
  2
AcDbIdBuffer
  3
ObjectDBX Classes
 90
        0
 91
        0
280
     0
281
     0
  0
CLASS
  1
SORTENTSTABLE
  2
AcDbSortentsTable
  3
ObjectDBX Classes
 90
        0
 91
        1
280
     0
281
     0
  0
CLASS
  1
ACDBSECTIONVIEWSTYLE
  2
AcDbSectionViewStyle
  3
ObjectDBX Classes
 90
     1025
 91
        2
280
     0
281
     0
  0
CLASS
  1
ACDBDETAILVIEWSTYLE
  2
AcDbDetailViewStyle
  3
ObjectDBX Classes
 90
     1025
 91
        2
280
     0
281
     0
  0
CLASS
  1
PLOTSETTINGS
  2
AcDbPlotSettings
  3
ObjectDBX Classes
 90
        0
 91
        1
280
     0
281
     0
  0
CLASS
  1
RAPIDRTRENDERSETTINGS
  2
AcDbRapidRTRenderSettings
  3
ObjectDBX Classes
 90
     1024
 91
        6
280
     0
281
     0
  0
ENDSEC
  0
SECTION
  2
TABLES
  0
TABLE
  2
VPORT
  5
2A
330
0
100
AcDbSymbolTable
 70
     1
  0
VPORT
  5
2B
330
2A
100
AcDbSymbolTableRecord
100
AcDbViewportTableRecord
  2
*Active
 70
     0
 10
0.0
 20
0.0
 11
1.0
 21
1.0
 12
70.00213704536759
 22
0.0014082074058592
 13
0.0
 23
0.0
 14
10.0
 24
10.0
 15
10.0
 25
10.0
 16
0.0
 26
0.0
 36
1.0
 17
0.0
 27
0.0
 37
0.0
 40
59.79725178796456
 41
2.351097178683385
 42
50.0
 43
0.0
 44
0.0
 50
0.0
 51
0.0
 71
     0
 72
  1000
 73
     1
 74
     3
 75
     0
 76
     0
 77
     0
 78
     0
281
     0
 65
     1
110
0.0
120
0.0
130
0.0
111
1.0
121
0.0
131
0.0
112
0.0
122
1.0
132
0.0
 79
     0
146
0.0
348
2C
 60
     3
 61
     5
292
     1
282
     1
141
0.0
142
0.0
 63
   250
421
  3355443
1001
ACAD_NAV_VCDISPLAY
1070
     3
  0
ENDTAB
  0
TABLE
  2
LTYPE
  5
25
330
0
100
AcDbSymbolTable
 70
     1
  0
LTYPE
  5
26
330
25
100
AcDbSymbolTableRecord
100
AcDbLinetypeTableRecord
  2
ByBlock
 70
     0
  3

 72
    65
 73
     0
 40
0.0
  0
LTYPE
  5
27
330
25
100
AcDbSymbolTableRecord
100
AcDbLinetypeTableRecord
  2
ByLayer
 70
     0
  3

 72
    65
 73
     0
 40
0.0
  0
LTYPE
  5
14
330
25
100
AcDbSymbolTableRecord
100
AcDbLinetypeTableRecord
  2
Continuous
 70
     0
  3
Solid line
 72
    65
 73
     0
 40
0.0
  0
ENDTAB
  0
TABLE
  2
LAYER
  5
1F
102
{ACAD_XDICTIONARY
360
20
102
}
330
0
100
AcDbSymbolTable
 70
     3
  0
LAYER
  5
6
102
{ACAD_XDICTIONARY
360
7
102
}
330
1F
100
AcDbSymbolTableRecord
100
AcDbLayerTableRecord
  2
0
 70
     0
 62
     7
  6
Continuous
370
    -3
390
8
347
B
  0
LAYER
  5
29B
330
1F
100
AcDbSymbolTableRecord
100
AcDbLayerTableRecord
  2
CONTINUOUS1
 70
     0
 62
     7
  6
Continuous
370
    20
390
8
347
B
  0
LAYER
  5
2AE
330
1F
100
AcDbSymbolTableRecord
100
AcDbLayerTableRecord
  2
Defpoints
 70
     0
 62
     7
  6
Continuous
290
     0
370
    -3
390
8
347
B
  0
ENDTAB
  0
TABLE
  2
STYLE
  5
22
330
0
100
AcDbSymbolTable
 70
     3
  0
STYLE
  5
23
330
22
100
AcDbSymbolTableRecord
100
AcDbTextStyleTableRecord
  2
Standard
 70
     0
 40
0.0
 41
1.0
 50
0.0
 71
     0
 42
2.5
  3
arial.ttf
  4

1001
ACAD
1000
Arial
1071
       34
  0
ENDTAB
  0
TABLE
  2
VIEW
  5
28
330
0
100
AcDbSymbolTable
 70
     0
  0
ENDTAB
  0
TABLE
  2
UCS
  5
29
330
0
100
AcDbSymbolTable
 70
     0
  0
ENDTAB
  0
TABLE
  2
APPID
  5
2F
330
0
100
AcDbSymbolTable
 70
     4
  0
APPID
  5
13
330
2F
100
AcDbSymbolTableRecord
100
AcDbRegAppTableRecord
  2
ACAD
 70
     0
  0
APPID
  5
1A
330
2F
100
AcDbSymbolTableRecord
100
AcDbRegAppTableRecord
  2
ACAD_PSEXT
 70
     0
  0
APPID
  5
2E
330
2F
100
AcDbSymbolTableRecord
100
AcDbRegAppTableRecord
  2
ACAD_NAV_VCDISPLAY
 70
     0
  0
APPID
  5
2B4
330
2F
100
AcDbSymbolTableRecord
100
AcDbRegAppTableRecord
  2
DCO15
 70
     0
  0
ENDTAB
  0
TABLE
  2
DIMSTYLE
  5
30
330
0
100
AcDbSymbolTable
 70
     3
100
AcDbDimStyleTable
 71
     1
340
31
  0
DIMSTYLE
105
31
330
30
100
AcDbSymbolTableRecord
100
AcDbDimStyleTableRecord
  2
ISO-25
 70
     0
 41
2.5
 42
0.625
 43
3.75
 44
1.25
 73
     0
 74
     0
 77
     1
 78
     8
140
2.5
141
2.5
143
0.03937007874016
147
0.625
171
     3
172
     1
271
     2
272
     2
274
     3
278
    44
283
     0
284
     8
340
23
  0
ENDTAB
  0
TABLE
  2
BLOCK_RECORD
  5
1
330
0
100
AcDbSymbolTable
 70
     3
  0
BLOCK_RECORD
  5
2
102
{ACAD_XDICTIONARY
360
3
102
}
330
1
100
AcDbSymbolTableRecord
100
AcDbBlockTableRecord
  2
*Model_Space
340
16
 70
     0
280
     1
281
     0
  0
BLOCK_RECORD
  5
1B
330
1
100
AcDbSymbolTableRecord
100
AcDbBlockTableRecord
  2
*Paper_Space
340
1E
 70
     0
280
     1
281
     0
  0
BLOCK_RECORD
  5
2B8
102
{ACAD_XDICTIONARY
360
2B9
102
}
330
1
100
AcDbSymbolTableRecord
100
AcDbBlockTableRecord
  2
Setup
340
0
102
{BLKREFS
331
2BE
102
}
 70
     1
280
     1
281
     0
  0
ENDTAB
  0
ENDSEC
  0
SECTION
  2
BLOCKS
  0
BLOCK
  5
5
330
2
100
AcDbEntity
  8
0
100
AcDbBlockBegin
  2
*Model_Space
 70
     0
 10
0.0
 20
0.0
 30
0.0
  3
*Model_Space
  1

  0
ENDBLK
  5
15
330
2
100
AcDbEntity
  8
0
100
AcDbBlockEnd
  0
BLOCK
  5
1C
330
1B
100
AcDbEntity
 67
     1
  8
0
100
AcDbBlockBegin
  2
*Paper_Space
 70
     0
 10
0.0
 20
0.0
 30
0.0
  3
*Paper_Space
  1

  0
ENDBLK
  5
1D
330
1B
100
AcDbEntity
 67
     1
  8
0
100
AcDbBlockEnd
  0
BLOCK
  5
2BA
330
2B8
100
AcDbEntity
  8
0
100
AcDbBlockBegin
  2
Setup
 70
     0
 10
0.0
 20
0.0
 30
0.0
  3
Setup
  1

  0
ENDBLK
  5
2BB
330
2B8
100
AcDbEntity
  8
0
100
AcDbBlockEnd
  0
ENDSEC
  0
SECTION
  2
ENTITIES
  0
LINE
  5
56
330
2
100
AcDbEntity
  8
CONTINUOUS1
100
AcDbLine
 10
1.299657324961909
 20
22.1999999999994
 30
0.0
 11
62.74999999998645
 21
22.2000000000359
 31
0.0
  0
LINE
  5
57
330
2
100
AcDbEntity
  8
CONTINUOUS1
100
AcDbLine
 10
1.682588688914159
 20
-21.01741131109748
 30
0.0
 11
50.1851034005109
 21
-21.01741131106871
 31
0.0
  0
LINE
  5
58
330
2
100
AcDbEntity
  8
CONTINUOUS1
100
AcDbLine
 10
1.682520153909989
 20
-21.81713717107789
 30
0.0
 11
49.38513386206011
 21
-21.81713717104958
 31
0.0
  0
LINE
  5
59
330
2
100
AcDbEntity
  8
CONTINUOUS1
100
AcDbLine
 10
1.682588688889949
 20
21.01741131109684
 30
0.0
 11
138.3174113110841
 21
21.01741131117789
 31
0.0
  0
LINE
  5
5A
330
2
100
AcDbEntity
  8
CONTINUOUS1
100
AcDbLine
 10
138.7003426750368
 20
-22.19999999991899
 30
0.0
 11
1.29965732498806
 21
-22.2000000000005
 31
0.0
  0
LINE
  5
5B
330
2
100
AcDbEntity
  8
CONTINUOUS1
100
AcDbLine
 10
138.317479846089
 20
21.81713717115842
 30
0.0
 11
1.682520153884069
 21
21.81713717107729
 31
0.0
  0
LINE
  5
5C
330
2
100
AcDbEntity
  8
CONTINUOUS1
100
AcDbLine
 10
0.130929607854
 20
-14.50000000000068
 30
0.0
 11
0.13092960785195
 21
-11.50000000000068
 31
0.0
  0
LINE
  5
5D
330
2
100
AcDbEntity
  8
CONTINUOUS1
100
AcDbLine
 10
1.482588688914
 20
-20.81741131109766
 30
0.0
 11
1.482588688890019
 21
20.81741131109673
 31
0.0
  0
LINE
  5
5E
330
2
100
AcDbEntity
  8
CONTINUOUS1
100
AcDbLine
 10
0.30000000001201
 20
-21.20034267502558
 30
0.0
 11
0.29999999998699
 21
21.20034267502327
 31
0.0
  0
LINE
  5
5F
330
2
100
AcDbEntity
  8
CONTINUOUS1
100
AcDbLine
 10
0.6828628289089201
 20
20.81747984610116
 30
0.0
 11
0.6828628289339301
 21
-20.81747984610297
 31
0.0
  0
LINE
  5
60
330
2
100
AcDbEntity
  8
CONTINUOUS1
100
AcDbLine
 10
0.30000000000803
 20
-14.50000000000057
 30
0.0
 11
0.130929607854
 21
-14.50000000000068
 31
0.0
  0
LINE
  5
61
330
2
100
AcDbEntity
  8
CONTINUOUS1
100
AcDbLine
 10
1.682520153909989
 20
-21.81713717107789
 30
0.0
 11
1.682520153909989
 21
-21.01741131109748
 31
0.0
  0
LINE
  5
62
330
2
100
AcDbEntity
  8
CONTINUOUS1
100
AcDbLine
 10
1.29965732498806
 20
-22.2000000000005
 30
0.0
 11
1.682520153909989
 21
-21.81713717107789
 31
0.0
  0
LINE
  5
63
330
2
100
AcDbEntity
  8
CONTINUOUS1
100
AcDbLine
 10
0.19993146500803
 20
-22.5000000000008
 30
0.0
 11
0.52828368589599
 21
-22.17164777911262
 31
0.0
  0
LINE
  5
64
330
2
100
AcDbEntity
  8
CONTINUOUS1
100
AcDbLine
 10
0.32835222090011
 20
-21.97171631411766
 30
0.0
 11
0.0
 21
-22.30006853500561
 31
0.0
  0
LINE
  5
65
330
2
100
AcDbEntity
  8
CONTINUOUS1
100
AcDbLine
 10
0.6828628289339301
 20
-20.81747984610297
 30
0.0
 11
0.30000000001201
 21
-21.20034267502558
 31
0.0
  0
LINE
  5
66
330
2
100
AcDbEntity
  8
CONTINUOUS1
100
AcDbLine
 10
0.52835222090027
 20
-22.17164777911262
 30
0.0
 11
1.063202642333069
 21
-22.17164777911228
 31
0.0
  0
LINE
  5
67
330
2
100
AcDbEntity
  8
CONTINUOUS1
100
AcDbLine
 10
0.6828628289339301
 20
-20.81747984610297
 30
0.0
 11
1.482588688914
 21
-20.81747984610252
 31
0.0
  0
LINE
  5
68
330
2
100
AcDbEntity
  8
CONTINUOUS1
100
AcDbLine
 10
0.35630287201104
 20
5.599999999998869
 30
0.0
 11
0.35630287201809
 21
-5.600000000001159
 31
0.0
  0
LINE
  5
69
330
2
100
AcDbEntity
  8
CONTINUOUS1
100
AcDbLine
 10
0.44271013191292
 20
-5.60000000000105
 30
0.0
 11
0.44271013190712
 21
5.59999999999896
 31
0.0
  0
LINE
  5
6A
330
2
100
AcDbEntity
  8
CONTINUOUS1
100
AcDbLine
 10
0.44271013191292
 20
-5.51582577407635
 30
0.0
 11
0.35630287201809
 21
-5.60000000000105
 31
0.0
  0
LINE
  5
6B
330
2
100
AcDbEntity
  8
CONTINUOUS1
100
AcDbLine
 10
0.35630287201809
 20
-5.60000000000105
 30
0.0
 11
0.44271013191292
 21
-5.60000000000105
 31
0.0
  0
LINE
  5
6C
330
2
100
AcDbEntity
  8
CONTINUOUS1
100
AcDbLine
 10
0.13092960785195
 20
-11.50000000000068
 30
0.0
 11
0.30000000000609
 21
-11.50000000000057
 31
0.0
  0
LINE
  5
6D
330
2
100
AcDbEntity
  8
CONTINUOUS1
100
AcDbLine
 10
0.44271013190712
 20
5.59999999999896
 30
0.0
 11
0.35630287201104
 21
5.599999999998869
 31
0.0
  0
LINE
  5
6E
330
2
100
AcDbEntity
  8
CONTINUOUS1
100
AcDbLine
 10
0.35630287201104
 20
5.599999999998869
 30
0.0
 11
0.44271013190712
 21
5.51582577407434
 31
0.0
  0
LINE
  5
6F
330
2
100
AcDbEntity
  8
CONTINUOUS1
100
AcDbLine
 10
1.682520153884069
 20
21.81713717107729
 30
0.0
 11
1.299657324961909
 21
22.1999999999994
 31
0.0
  0
LINE
  5
70
330
2
100
AcDbEntity
  8
CONTINUOUS1
100
AcDbLine
 10
1.682520153884069
 20
21.81713717107729
 30
0.0
 11
1.68252015388498
 21
21.01741131109684
 31
0.0
  0
LINE
  5
71
330
2
100
AcDbEntity
  8
CONTINUOUS1
100
AcDbLine
 10
0.5282836858699501
 20
22.17164777911174
 30
0.0
 11
0.19993146498098
 21
22.49999999999936
 31
0.0
  0
LINE
  5
72
330
2
100
AcDbEntity
  8
CONTINUOUS1
100
AcDbLine
 10
0.0
 20
22.30006853500417
 30
0.0
 11
0.32835222087397
 21
21.97171631411656
 31
0.0
  0
LINE
  5
73
330
2
100
AcDbEntity
  8
CONTINUOUS1
100
AcDbLine
 10
0.29999999998699
 20
21.20034267502329
 30
0.0
 11
0.6828628289089201
 21
20.81747984610116
 31
0.0
  0
LINE
  5
74
330
2
100
AcDbEntity
  8
CONTINUOUS1
100
AcDbLine
 10
1.06320264231101
 20
22.17164777911206
 30
0.0
 11
0.5283522208739001
 21
22.17164777911174
 31
0.0
  0
LINE
  5
75
330
2
100
AcDbEntity
  8
CONTINUOUS1
100
AcDbLine
 10
0.6828628289089201
 20
20.81747984610113
 30
0.0
 11
1.482588688890019
 21
20.81747984610159
 31
0.0
  0
LINE
  5
76
330
2
100
AcDbEntity
  8
CONTINUOUS1
100
AcDbLine
 10
0.299999999992
 20
11.49999999999941
 30
0.0
 11
0.13092960783899
 21
11.4999999999993
 31
0.0
  0
LINE
  5
77
330
2
100
AcDbEntity
  8
CONTINUOUS1
100
AcDbLine
 10
0.13092960783899
 20
11.4999999999993
 30
0.0
 11
0.13092960783706
 21
14.49999999999936
 31
0.0
  0
LINE
  5
78
330
2
100
AcDbEntity
  8
CONTINUOUS1
100
AcDbLine
 10
0.13092960783706
 20
14.49999999999936
 30
0.0
 11
0.29999999999097
 21
14.49999999999944
 31
0.0
  0
LINE
  5
79
330
2
100
AcDbEntity
  8
CONTINUOUS1
100
AcDbLine
 10
139.4716477790977
 20
22.17164777919341
 30
0.0
 11
138.9367973576651
 21
22.17164777919307
 31
0.0
  0
LINE
  5
7A
330
2
100
AcDbEntity
  8
CONTINUOUS1
100
AcDbLine
 10
138.5174113110841
 20
20.81747984618299
 30
0.0
 11
139.3171371710649
 21
20.81747984618344
 31
0.0
  0
LINE
  5
7B
330
2
100
AcDbEntity
  8
CONTINUOUS1
100
AcDbLine
 10
138.936797357689
 20
-22.17164777903133
 30
0.0
 11
139.471647779124
 21
-22.17164777903099
 31
0.0
  0
LINE
  5
7C
330
2
100
AcDbEntity
  8
CONTINUOUS1
100
AcDbLine
 10
138.5174113111089
 20
-20.81747984602123
 30
0.0
 11
139.317137171089
 21
-20.81747984602077
 31
0.0
  0
LINE
  5
7D
330
2
100
AcDbEntity
  8
CONTINUOUS1
100
AcDbLine
 10
139.8003156300141
 20
22.50000000008141
 30
0.0
 11
0.19999999998686
 21
22.50000000000012
 31
0.0
  0
LINE
  5
7E
330
2
100
AcDbEntity
  8
CONTINUOUS1
100
AcDbLine
 10
0.20000000001323
 20
-22.49999999999989
 30
0.0
 11
139.8000000004919
 21
-22.4999999999186
 31
0.0
  0
LINE
  5
7F
330
2
100
AcDbEntity
  8
CONTINUOUS1
100
AcDbLine
 10
63.26203889640203
 20
22.0690703921903
 30
0.0
 11
76.73796110357091
 21
22.06907039219833
 31
0.0
  0
LINE
  5
80
330
2
100
AcDbEntity
  8
CONTINUOUS1
100
AcDbLine
 10
76.99999999998602
 20
22.20000000004443
 30
0.0
 11
62.999999999986
 21
22.2000000000361
 31
0.0
  0
LINE
  5
81
330
2
100
AcDbEntity
  8
CONTINUOUS1
100
AcDbLine
 10
77.06841199862981
 20
22.06383320788465
 30
0.0
 11
62.93158800134314
 21
22.06383320787621
 31
0.0
  0
LINE
  5
82
330
2
100
AcDbEntity
  8
CONTINUOUS1
100
AcDbLine
 10
76.60000000001206
 20
-22.05728986804525
 30
0.0
 11
63.40000000001204
 21
-22.05728986805298
 31
0.0
  0
LINE
  5
83
330
2
100
AcDbEntity
  8
CONTINUOUS1
100
AcDbLine
 10
63.40000000001204
 20
-22.14369712794849
 30
0.0
 11
76.60000000001206
 21
-22.14369712794064
 31
0.0
  0
LINE
  5
84
330
2
100
AcDbEntity
  8
CONTINUOUS1
100
AcDbLine
 10
56.61486613796512
 20
-21.81713717104526
 30
0.0
 11
119.3851338620588
 21
-21.81713717100809
 31
0.0
  0
LINE
  5
85
330
2
100
AcDbEntity
  8
CONTINUOUS1
100
AcDbLine
 10
55.81489659951294
 20
-21.01741131106542
 30
0.0
 11
55.75000000001034
 21
-21.10669019342072
 31
0.0
  0
LINE
  5
86
330
2
100
AcDbEntity
  8
CONTINUOUS1
100
AcDbLine
 10
56.55000000001052
 20
-21.93260197497045
 30
0.0
 11
56.61486613796512
 21
-21.81713717104537
 31
0.0
  0
LINE
  5
87
330
2
100
AcDbEntity
  8
CONTINUOUS1
100
AcDbLine
 10
55.81489659951294
 20
-21.01741131106542
 30
0.0
 11
120.18510340051
 21
-21.01741131102722
 31
0.0
  0
LINE
  5
88
330
2
100
AcDbEntity
  8
CONTINUOUS1
100
AcDbLine
 10
50.24883208428525
 20
-21.10664329396468
 30
0.0
 11
50.1851034005109
 21
-21.01741131106871
 31
0.0
  0
LINE
  5
89
330
2
100
AcDbEntity
  8
CONTINUOUS1
100
AcDbLine
 10
49.38513386206011
 20
-21.81713717104969
 30
0.0
 11
49.4500000000104
 21
-21.93260197497045
 31
0.0
  0
ARC
  5
8A
330
2
100
AcDbEntity
  8
CONTINUOUS1
100
AcDbCircle
 10
53.00000000001056
 20
-17.94839985879624
 30
0.0
 40
3.56472051270312
100
AcDbArc
 50
5.20877887115774
 51
174.7912211288429
  0
LINE
  5
8B
330
2
100
AcDbEntity
  8
CONTINUOUS1
100
AcDbLine
 10
63.40000000001204
 20
-22.05728986805309
 30
0.0
 11
63.40000000001204
 21
-22.14369712794849
 31
0.0
  0
LINE
  5
8C
330
2
100
AcDbEntity
  8
CONTINUOUS1
100
AcDbLine
 10
63.40000000001204
 20
-22.14369712794849
 30
0.0
 11
63.48417422593695
 21
-22.05728986805298
 31
0.0
  0
LINE
  5
8D
330
2
100
AcDbEntity
  8
CONTINUOUS1
100
AcDbLine
 10
37.14999999998703
 20
22.0572898681101
 30
0.0
 11
48.34999999998705
 21
22.05728986811674
 31
0.0
  0
LINE
  5
8E
330
2
100
AcDbEntity
  8
CONTINUOUS1
100
AcDbLine
 10
48.34999999998615
 20
22.14369712801218
 30
0.0
 11
37.14999999998611
 21
22.14369712800549
 31
0.0
  0
LINE
  5
8F
330
2
100
AcDbEntity
  8
CONTINUOUS1
100
AcDbLine
 10
37.14999999998611
 20
22.14369712800554
 30
0.0
 11
37.14999999998703
 21
22.0572898681101
 31
0.0
  0
LINE
  5
90
330
2
100
AcDbEntity
  8
CONTINUOUS1
100
AcDbLine
 10
37.23417422591103
 20
22.05728986811015
 30
0.0
 11
37.14999999998611
 21
22.14369712800549
 31
0.0
  0
LINE
  5
91
330
2
100
AcDbEntity
  8
CONTINUOUS1
100
AcDbLine
 10
48.34999999998705
 20
22.05728986811671
 30
0.0
 11
48.34999999998615
 21
22.14369712801218
 31
0.0
  0
LINE
  5
92
330
2
100
AcDbEntity
  8
CONTINUOUS1
100
AcDbLine
 10
48.34999999998615
 20
22.14369712801218
 30
0.0
 11
48.26582577406191
 21
22.05728986811669
 31
0.0
  0
LINE
  5
93
330
2
100
AcDbEntity
  8
CONTINUOUS1
100
AcDbLine
 10
62.999999999986
 20
22.17164777914813
 30
0.0
 11
62.78780968209311
 21
22.17164777914801
 31
0.0
  0
LINE
  5
94
330
2
100
AcDbEntity
  8
CONTINUOUS1
100
AcDbLine
 10
63.26203889640203
 20
22.06383320787647
 30
0.0
 11
63.26203889640203
 21
22.0690703921903
 31
0.0
  0
LINE
  5
95
330
2
100
AcDbEntity
  8
CONTINUOUS1
100
AcDbLine
 10
62.999999999986
 20
22.2000000000361
 30
0.0
 11
62.999999999986
 21
22.06497637717091
 31
0.0
  0
LINE
  5
96
330
2
100
AcDbEntity
  8
CONTINUOUS1
100
AcDbLine
 10
62.999999999986
 20
22.2000000000361
 30
0.0
 11
63.26203889640203
 21
22.0690703921903
 31
0.0
  0
LINE
  5
97
330
2
100
AcDbEntity
  8
CONTINUOUS1
100
AcDbLine
 10
62.93158800134314
 20
22.06383320787621
 30
0.0
 11
62.74999999998645
 21
22.2000000000359
 31
0.0
  0
LINE
  5
98
330
2
100
AcDbEntity
  8
CONTINUOUS1
100
AcDbLine
 10
138.5174113110841
 20
20.81741131117802
 30
0.0
 11
138.5174113111089
 21
-20.81741131101626
 31
0.0
  0
LINE
  5
99
330
2
100
AcDbEntity
  8
CONTINUOUS1
100
AcDbLine
 10
76.60000000001206
 20
-22.14369712794064
 30
0.0
 11
76.60000000001206
 21
-22.05728986804525
 31
0.0
  0
LINE
  5
9A
330
2
100
AcDbEntity
  8
CONTINUOUS1
100
AcDbLine
 10
76.51582577408806
 20
-22.05728986804536
 30
0.0
 11
76.60000000001206
 21
-22.14369712794064
 31
0.0
  0
ARC
  5
9B
330
2
100
AcDbEntity
  8
CONTINUOUS1
100
AcDbCircle
 10
123.0000000000105
 20
-17.94839985875469
 30
0.0
 40
3.56472051270318
100
AcDbArc
 50
5.208778871156876
 51
174.7912211288438
  0
LINE
  5
9C
330
2
100
AcDbEntity
  8
CONTINUOUS1
100
AcDbLine
 10
120.2488320842852
 20
-21.10664329392319
 30
0.0
 11
120.18510340051
 21
-21.01741131102722
 31
0.0
  0
LINE
  5
9D
330
2
100
AcDbEntity
  8
CONTINUOUS1
100
AcDbLine
 10
119.3851338620588
 20
-21.81713717100809
 30
0.0
 11
119.4500000000104
 21
-21.93260197492884
 31
0.0
  0
LINE
  5
9E
330
2
100
AcDbEntity
  8
CONTINUOUS1
100
AcDbLine
 10
126.6148661379651
 20
-21.81713717100377
 30
0.0
 11
138.317479846114
 21
-21.81713717099683
 31
0.0
  0
LINE
  5
9F
330
2
100
AcDbEntity
  8
CONTINUOUS1
100
AcDbLine
 10
125.8148965995139
 20
-21.01741131102381
 30
0.0
 11
125.7500000000103
 21
-21.10669019337922
 31
0.0
  0
LINE
  5
A0
330
2
100
AcDbEntity
  8
CONTINUOUS1
100
AcDbLine
 10
126.5500000000105
 20
-21.93260197492884
 30
0.0
 11
126.6148661379651
 21
-21.81713717100377
 31
0.0
  0
LINE
  5
A1
330
2
100
AcDbEntity
  8
CONTINUOUS1
100
AcDbLine
 10
125.8148965995139
 20
-21.01741131102381
 30
0.0
 11
138.3174113111091
 21
-21.01741131101642
 31
0.0
  0
LINE
  5
A2
330
2
100
AcDbEntity
  8
CONTINUOUS1
100
AcDbLine
 10
138.317479846114
 20
-21.01741131101642
 30
0.0
 11
138.317479846114
 21
-21.81713717099683
 31
0.0
  0
LINE
  5
A3
330
2
100
AcDbEntity
  8
CONTINUOUS1
100
AcDbLine
 10
138.317479846114
 20
-21.81713717099694
 30
0.0
 11
138.7003426750368
 21
-22.19999999991899
 31
0.0
  0
LINE
  5
A4
330
2
100
AcDbEntity
  8
CONTINUOUS1
100
AcDbLine
 10
77.24999999998647
 20
22.20000000004452
 30
0.0
 11
138.70034267501
 21
22.20000000008098
 31
0.0
  0
LINE
  5
A5
330
2
100
AcDbEntity
  8
CONTINUOUS1
100
AcDbLine
 10
86.00000000000397
 20
-6.579863524024629
 30
0.0
 11
85.99999999999601
 21
6.58083053843732
 31
0.0
  0
LINE
  5
A6
330
2
100
AcDbEntity
  8
CONTINUOUS1
100
AcDbLine
 10
77.21219031788006
 20
22.17164777915711
 30
0.0
 11
76.99999999998602
 21
22.171647779157
 31
0.0
  0
LINE
  5
A7
330
2
100
AcDbEntity
  8
CONTINUOUS1
100
AcDbLine
 10
76.73796110357091
 20
22.06907039219833
 30
0.0
 11
76.73796110357091
 21
22.06383320788445
 31
0.0
  0
LINE
  5
A8
330
2
100
AcDbEntity
  8
CONTINUOUS1
100
AcDbLine
 10
76.99999999998602
 20
22.06497637717921
 30
0.0
 11
76.99999999998602
 21
22.20000000004443
 31
0.0
  0
LINE
  5
A9
330
2
100
AcDbEntity
  8
CONTINUOUS1
100
AcDbLine
 10
76.99999999998602
 20
22.20000000004443
 30
0.0
 11
76.73796110357091
 21
22.06907039219833
 31
0.0
  0
LINE
  5
AA
330
2
100
AcDbEntity
  8
CONTINUOUS1
100
AcDbLine
 10
77.24999999998647
 20
22.20000000004452
 30
0.0
 11
77.06841199862981
 21
22.06383320788465
 31
0.0
  0
LINE
  5
AB
330
2
100
AcDbEntity
  8
CONTINUOUS1
100
AcDbLine
 10
91.64999999998613
 20
22.05728986814246
 30
0.0
 11
102.849999999987
 21
22.05728986814911
 31
0.0
  0
LINE
  5
AC
330
2
100
AcDbEntity
  8
CONTINUOUS1
100
AcDbLine
 10
102.8499999999861
 20
22.14369712804451
 30
0.0
 11
91.64999999998613
 21
22.14369712803783
 31
0.0
  0
LINE
  5
AD
330
2
100
AcDbEntity
  8
CONTINUOUS1
100
AcDbLine
 10
91.64999999998613
 20
22.14369712803783
 30
0.0
 11
91.64999999998613
 21
22.05728986814246
 31
0.0
  0
LINE
  5
AE
330
2
100
AcDbEntity
  8
CONTINUOUS1
100
AcDbLine
 10
91.73417422591105
 20
22.05728986814255
 30
0.0
 11
91.64999999998613
 21
22.14369712803783
 31
0.0
  0
LINE
  5
AF
330
2
100
AcDbEntity
  8
CONTINUOUS1
100
AcDbLine
 10
102.849999999987
 20
22.05728986814911
 30
0.0
 11
102.8499999999861
 21
22.14369712804451
 31
0.0
  0
LINE
  5
B0
330
2
100
AcDbEntity
  8
CONTINUOUS1
100
AcDbLine
 10
102.8499999999861
 20
22.14369712804451
 30
0.0
 11
102.7658257740619
 21
22.05728986814905
 31
0.0
  0
LINE
  5
B1
330
2
100
AcDbEntity
  8
CONTINUOUS1
100
AcDbLine
 10
138.70034267501
 20
22.20000000008098
 30
0.0
 11
138.317479846089
 21
21.81713717115836
 31
0.0
  0
LINE
  5
B2
330
2
100
AcDbEntity
  8
CONTINUOUS1
100
AcDbLine
 10
138.317479846089
 20
21.01741131117794
 30
0.0
 11
138.317479846089
 21
21.81713717115842
 31
0.0
  0
LINE
  5
B3
330
2
100
AcDbEntity
  8
CONTINUOUS1
100
AcDbLine
 10
139.8690703921598
 20
-11.4999999999186
 30
0.0
 11
139.8690703921619
 21
-14.4999999999186
 31
0.0
  0
LINE
  5
B4
330
2
100
AcDbEntity
  8
CONTINUOUS1
100
AcDbLine
 10
139.700000000004
 20
-7.124435229732849
 30
0.0
 11
139.700000000012
 21
-21.20034267494282
 31
0.0
  0
LINE
  5
B5
330
2
100
AcDbEntity
  8
CONTINUOUS1
100
AcDbLine
 10
139.317137171089
 20
-20.81747984602066
 30
0.0
 11
139.3171371710649
 21
20.81747984618344
 31
0.0
  0
LINE
  5
B6
330
2
100
AcDbEntity
  8
CONTINUOUS1
100
AcDbLine
 10
139.6436971279948
 20
-17.49999999991837
 30
0.0
 11
139.643697127991
 21
-10.49999999991849
 31
0.0
  0
LINE
  5
B7
330
2
100
AcDbEntity
  8
CONTINUOUS1
100
AcDbLine
 10
139.5625270524091
 20
-10.49999999991849
 30
0.0
 11
139.562527052413
 21
-17.49999999991849
 31
0.0
  0
LINE
  5
B8
330
2
100
AcDbEntity
  8
CONTINUOUS1
100
AcDbLine
 10
139.8690703921619
 20
-14.4999999999186
 30
0.0
 11
139.7000000000081
 21
-14.49999999991871
 31
0.0
  0
LINE
  5
B9
330
2
100
AcDbEntity
  8
CONTINUOUS1
100
AcDbLine
 10
139.562527052413
 20
-17.49999999991849
 30
0.0
 11
139.6436971279948
 21
-17.49999999991837
 31
0.0
  0
LINE
  5
BA
330
2
100
AcDbEntity
  8
CONTINUOUS1
100
AcDbLine
 10
139.562527052413
 20
-17.42092761307741
 30
0.0
 11
139.6436971279948
 21
-17.49999999991837
 31
0.0
  0
LINE
  5
BB
330
2
100
AcDbEntity
  8
CONTINUOUS1
100
AcDbLine
 10
140.0000000000119
 20
-22.30006853492341
 30
0.0
 11
139.6716477791239
 21
-21.9717163140358
 31
0.0
  0
LINE
  5
BC
330
2
100
AcDbEntity
  8
CONTINUOUS1
100
AcDbLine
 10
139.4717163141289
 20
-22.17164777903099
 30
0.0
 11
139.800068535017
 21
-22.4999999999186
 31
0.0
  0
LINE
  5
BD
330
2
100
AcDbEntity
  8
CONTINUOUS1
100
AcDbLine
 10
139.700000000012
 20
-21.20034267494282
 30
0.0
 11
139.317137171089
 21
-20.81747984602066
 31
0.0
  0
LINE
  5
BE
330
2
100
AcDbEntity
  8
CONTINUOUS1
100
AcDbLine
 10
139.643697127978
 20
10.50000000008152
 30
0.0
 11
139.6436971279739
 21
17.50000000008153
 31
0.0
  0
LINE
  5
BF
330
2
100
AcDbEntity
  8
CONTINUOUS1
100
AcDbLine
 10
139.562527052392
 20
17.50000000008142
 30
0.0
 11
139.562527052397
 21
10.5000000000815
 31
0.0
  0
LINE
  5
C0
330
2
100
AcDbEntity
  8
CONTINUOUS1
100
AcDbLine
 10
139.6999999999869
 20
21.200342675106
 30
0.0
 11
139.699999999999
 21
0.52443522989572
 31
0.0
  0
LINE
  5
C1
330
2
100
AcDbEntity
  8
CONTINUOUS1
100
AcDbLine
 10
139.638497188845
 20
-7.103938456291869
 30
0.0
 11
139.6384971888411
 21
0.5039384564550901
 31
0.0
  0
LINE
  5
C2
330
2
100
AcDbEntity
  8
CONTINUOUS1
100
AcDbLine
 10
139.62667941961
 20
-7.0999999999184
 30
0.0
 11
139.626679419606
 21
0.5000000000818101
 31
0.0
  0
LINE
  5
C3
330
2
100
AcDbEntity
  8
CONTINUOUS1
100
AcDbLine
 10
139.700000000004
 20
-7.124435229732849
 30
0.0
 11
139.62667941961
 21
-7.0999999999184
 31
0.0
  0
LINE
  5
C4
330
2
100
AcDbEntity
  8
CONTINUOUS1
100
AcDbLine
 10
139.700000000006
 20
-11.49999999991871
 30
0.0
 11
139.8690703921598
 21
-11.49999999991849
 31
0.0
  0
LINE
  5
C5
330
2
100
AcDbEntity
  8
CONTINUOUS1
100
AcDbLine
 10
139.643697127991
 20
-10.49999999991837
 30
0.0
 11
139.5625270524091
 21
-10.49999999991849
 31
0.0
  0
LINE
  5
C6
330
2
100
AcDbEntity
  8
CONTINUOUS1
100
AcDbLine
 10
139.643697127991
 20
-10.49999999991837
 30
0.0
 11
139.5625270524091
 21
-10.57907238675955
 31
0.0
  0
LINE
  5
C7
330
2
100
AcDbEntity
  8
CONTINUOUS1
100
AcDbLine
 10
139.562527052397
 20
10.5000000000815
 30
0.0
 11
139.643697127978
 21
10.50000000008152
 31
0.0
  0
LINE
  5
C8
330
2
100
AcDbEntity
  8
CONTINUOUS1
100
AcDbLine
 10
139.5625270523958
 20
10.57907238692245
 30
0.0
 11
139.643697127978
 21
10.50000000008152
 31
0.0
  0
LINE
  5
C9
330
2
100
AcDbEntity
  8
CONTINUOUS1
100
AcDbLine
 10
139.626679419606
 20
0.5000000000818101
 30
0.0
 11
139.699999999999
 21
0.52443522989572
 31
0.0
  0
LINE
  5
CA
330
2
100
AcDbEntity
  8
CONTINUOUS1
100
AcDbLine
 10
139.8000685349908
 20
22.50000000008141
 30
0.0
 11
139.471716314103
 21
22.17164777919338
 31
0.0
  0
LINE
  5
CB
330
2
100
AcDbEntity
  8
CONTINUOUS1
100
AcDbLine
 10
139.6716477790979
 20
21.97171631419842
 30
0.0
 11
139.999999999986
 21
22.30006853508642
 31
0.0
  0
LINE
  5
CC
330
2
100
AcDbEntity
  8
CONTINUOUS1
100
AcDbLine
 10
139.3171371710649
 20
20.81747984618344
 30
0.0
 11
139.6999999999869
 21
21.20034267510606
 31
0.0
  0
LINE
  5
CD
330
2
100
AcDbEntity
  8
CONTINUOUS1
100
AcDbLine
 10
139.6436971279739
 20
17.50000000008153
 30
0.0
 11
139.562527052392
 21
17.50000000008149
 31
0.0
  0
LINE
  5
CE
330
2
100
AcDbEntity
  8
CONTINUOUS1
100
AcDbLine
 10
139.6436971279739
 20
17.50000000008153
 30
0.0
 11
139.562527052392
 21
17.42092761324044
 31
0.0
  0
LINE
  5
CF
330
2
100
AcDbEntity
  8
CONTINUOUS1
100
AcDbLine
 10
139.6999999999908
 20
14.50000000008133
 30
0.0
 11
139.8690703921451
 21
14.50000000008144
 31
0.0
  0
LINE
  5
D0
330
2
100
AcDbEntity
  8
CONTINUOUS1
100
AcDbLine
 10
139.8690703921451
 20
14.50000000008144
 30
0.0
 11
139.869070392146
 21
11.50000000008144
 31
0.0
  0
LINE
  5
D1
330
2
100
AcDbEntity
  8
CONTINUOUS1
100
AcDbLine
 10
139.869070392146
 20
11.50000000008144
 30
0.0
 11
139.699999999993
 21
11.50000000008133
 31
0.0
  0
LINE
  5
D2
330
2
100
AcDbEntity
  8
CONTINUOUS1
100
AcDbLine
 10
0.0
 20
-22.29999999999996
 30
0.0
 11
0.0
 21
22.3
 31
0.0
  0
LINE
  5
D3
330
2
100
AcDbEntity
  8
CONTINUOUS1
100
AcDbLine
 10
140.0003156300092
 20
22.29999858470238
 30
0.0
 11
140.0000000004868
 21
-22.30000141529763
 31
0.0
  0
ARC
  5
D4
330
2
100
AcDbEntity
  8
CONTINUOUS1
100
AcDbCircle
 10
70.0000000000001
 20
0.0
 30
0.0
 40
14.70875965144014
100
AcDbArc
 50
33.33258521080877
 51
138.1783546218277
  0
ARC
  5
D5
330
2
100
AcDbEntity
  8
CONTINUOUS1
100
AcDbCircle
 10
70.0000000000001
 20
0.0
 30
0.0
 40
14.70875965144083
100
AcDbArc
 50
221.8216453781719
 51
326.6674147892142
  0
ARC
  5
D6
330
2
100
AcDbEntity
  8
CONTINUOUS1
100
AcDbCircle
 10
70.0000000000001
 20
0.0
 30
0.0
 40
15.99999999999983
100
AcDbArc
 50
29.51666390154781
 51
148.8700883027983
  0
ARC
  5
D7
330
2
100
AcDbEntity
  8
CONTINUOUS1
100
AcDbCircle
 10
70.0000000000001
 20
0.0
 30
0.0
 40
16.00000000000016
100
AcDbArc
 50
211.1299116797896
 51
330.4833360984543
  0
ARC
  5
D8
330
2
100
AcDbEntity
  8
CONTINUOUS1
100
AcDbCircle
 10
69.9999999999999
 20
0.0
 30
0.0
 40
15.99999999999977
100
AcDbArc
 50
151.9823887871748
 51
208.0176112104052
  0
LINE
  5
D9
330
2
100
AcDbEntity
  8
CONTINUOUS1
100
AcDbLine
 10
73.54999999999984
 20
3.35000000004972
 30
0.0
 11
73.54999999999984
 21
-3.349999999950339
 31
0.0
  0
ARC
  5
DA
330
2
100
AcDbEntity
  8
CONTINUOUS1
100
AcDbCircle
 10
73.34999999999979
 20
-3.349999999950339
 30
0.0
 40
0.19999999999993
100
AcDbArc
 50
270.0
 51
0.0
  0
LINE
  5
DB
330
2
100
AcDbEntity
  8
CONTINUOUS1
100
AcDbLine
 10
66.45000000000016
 20
-3.349999999950339
 30
0.0
 11
66.45000000000016
 21
3.35000000004972
 31
0.0
  0
ARC
  5
DC
330
2
100
AcDbEntity
  8
CONTINUOUS1
100
AcDbCircle
 10
66.6500000000002
 20
3.35000000004972
 30
0.0
 40
0.2
100
AcDbArc
 50
90.0
 51
180.0
  0
LINE
  5
DD
330
2
100
AcDbEntity
  8
CONTINUOUS1
100
AcDbLine
 10
67.47500000000025
 20
-2.524999999950299
 30
0.0
 11
67.47500000000025
 21
2.525000000049669
 31
0.0
  0
LINE
  5
DE
330
2
100
AcDbEntity
  8
CONTINUOUS1
100
AcDbLine
 10
72.5250000000002
 20
-1.12499999995032
 30
0.0
 11
72.5250000000002
 21
-2.524999999950299
 31
0.0
  0
LINE
  5
DF
330
2
100
AcDbEntity
  8
CONTINUOUS1
100
AcDbLine
 10
72.56697521113155
 20
1.54238670178397
 30
0.0
 11
72.56697521113199
 21
-2.56697521108208
 31
0.0
  0
LINE
  5
E0
330
2
100
AcDbEntity
  8
CONTINUOUS1
100
AcDbLine
 10
67.43302478886846
 20
-2.56697521108208
 30
0.0
 11
67.43302478886846
 21
2.56697521118143
 31
0.0
  0
LINE
  5
E1
330
2
100
AcDbEntity
  8
CONTINUOUS1
100
AcDbLine
 10
70.36150281115793
 20
2.525000000049729
 30
0.0
 11
70.36150281115793
 21
-2.524999999950299
 31
0.0
  0
LINE
  5
E2
330
2
100
AcDbEntity
  8
CONTINUOUS1
100
AcDbLine
 10
70.56143427615268
 20
-2.524999999950299
 30
0.0
 11
70.56143427615315
 21
2.525000000049729
 31
0.0
  0
LINE
  5
E3
330
2
100
AcDbEntity
  8
CONTINUOUS1
100
AcDbLine
 10
69.63849718884228
 20
-2.524999999950299
 30
0.0
 11
69.63849718884228
 21
2.525000000049669
 31
0.0
  0
LINE
  5
E4
330
2
100
AcDbEntity
  8
CONTINUOUS1
100
AcDbLine
 10
69.43856572384729
 20
2.525000000049669
 30
0.0
 11
69.43856572384729
 21
-2.524999999950299
 31
0.0
  0
LINE
  5
E5
330
2
100
AcDbEntity
  8
CONTINUOUS1
100
AcDbLine
 10
70.00000000000262
 20
-2.52499999995018
 30
0.0
 11
70.00000000000262
 21
2.52500000004984
 31
0.0
  0
LINE
  5
E6
330
2
100
AcDbEntity
  8
CONTINUOUS1
100
AcDbLine
 10
66.6500000000002
 20
-3.54999999995027
 30
0.0
 11
73.34999999999979
 21
-3.54999999995027
 31
0.0
  0
ARC
  5
E7
330
2
100
AcDbEntity
  8
CONTINUOUS1
100
AcDbCircle
 10
66.6500000000002
 20
-3.349999999950339
 30
0.0
 40
0.19999999999993
100
AcDbArc
 50
180.0
 51
270.0
  0
LINE
  5
E8
330
2
100
AcDbEntity
  8
CONTINUOUS1
100
AcDbLine
 10
72.5250000000002
 20
-2.524999999950299
 30
0.0
 11
67.47500000000025
 21
-2.524999999950299
 31
0.0
  0
LINE
  5
E9
330
2
100
AcDbEntity
  8
CONTINUOUS1
100
AcDbLine
 10
72.56697521113199
 20
-2.56697521108208
 30
0.0
 11
67.43302478886846
 21
-2.56697521108208
 31
0.0
  0
LINE
  5
EA
330
2
100
AcDbEntity
  8
CONTINUOUS1
100
AcDbLine
 10
67.47500000000025
 20
-2.524999999950299
 30
0.0
 11
67.43302478886846
 21
-2.56697521108208
 31
0.0
  0
LINE
  5
EB
330
2
100
AcDbEntity
  8
CONTINUOUS1
100
AcDbLine
 10
72.56697521113199
 20
-2.56697521108208
 30
0.0
 11
72.5250000000002
 21
-2.524999999950299
 31
0.0
  0
LINE
  5
EC
330
2
100
AcDbEntity
  8
CONTINUOUS1
100
AcDbLine
 10
73.34999999999979
 20
3.550000000049709
 30
0.0
 11
66.6500000000002
 21
3.550000000049709
 31
0.0
  0
ARC
  5
ED
330
2
100
AcDbEntity
  8
CONTINUOUS1
100
AcDbCircle
 10
73.34999999999979
 20
3.35000000004972
 30
0.0
 40
0.2
100
AcDbArc
 50
0.0
 51
90.0
  0
LINE
  5
EE
330
2
100
AcDbEntity
  8
CONTINUOUS1
100
AcDbLine
 10
67.47500000000025
 20
2.525000000049669
 30
0.0
 11
71.52500000000021
 21
2.525000000049729
 31
0.0
  0
LINE
  5
EF
330
2
100
AcDbEntity
  8
CONTINUOUS1
100
AcDbLine
 10
67.43302478886846
 20
2.566975211181399
 30
0.0
 11
71.54238670173424
 21
2.566975211181399
 31
0.0
  0
LINE
  5
F0
330
2
100
AcDbEntity
  8
CONTINUOUS1
100
AcDbLine
 10
67.47500000000025
 20
2.525000000049669
 30
0.0
 11
67.43302478886846
 21
2.56697521118143
 31
0.0
  0
LINE
  5
F1
330
2
100
AcDbEntity
  8
CONTINUOUS1
100
AcDbLine
 10
72.56697521113155
 20
1.12500000004969
 30
0.0
 11
72.20675000321908
 21
1.125000000049669
 31
0.0
  0
LINE
  5
F2
330
2
100
AcDbEntity
  8
CONTINUOUS1
100
AcDbLine
 10
72.56697521113176
 20
-1.12499999995032
 30
0.0
 11
72.20675000321908
 21
-1.12499999995032
 31
0.0
  0
LINE
  5
F3
330
2
100
AcDbEntity
  8
CONTINUOUS1
100
AcDbLine
 10
72.20675000321908
 20
-1.12499999995032
 30
0.0
 11
72.20675000321908
 21
1.125000000049669
 31
0.0
  0
LINE
  5
F4
330
2
100
AcDbEntity
  8
CONTINUOUS1
100
AcDbLine
 10
71.52500000000021
 20
2.525000000049729
 30
0.0
 11
72.5250000000002
 21
1.525000000049669
 31
0.0
  0
LINE
  5
F5
330
2
100
AcDbEntity
  8
CONTINUOUS1
100
AcDbLine
 10
71.54238670173424
 20
2.56697521118143
 30
0.0
 11
71.52500000000021
 21
2.525000000049669
 31
0.0
  0
LINE
  5
F6
330
2
100
AcDbEntity
  8
CONTINUOUS1
100
AcDbLine
 10
72.5250000000002
 20
1.525000000049729
 30
0.0
 11
72.56697521113155
 21
1.54238670178397
 31
0.0
  0
LINE
  5
F7
330
2
100
AcDbEntity
  8
CONTINUOUS1
100
AcDbLine
 10
72.5250000000002
 20
1.525000000049729
 30
0.0
 11
72.5250000000002
 21
1.12500000004969
 31
0.0
  0
LINE
  5
F8
330
2
100
AcDbEntity
  8
CONTINUOUS1
100
AcDbLine
 10
72.56349813163126
 20
0.50000000004967
 30
0.0
 11
72.56373874594203
 21
0.50000000004967
 31
0.0
  0
LINE
  5
F9
330
2
100
AcDbEntity
  8
CONTINUOUS1
100
AcDbLine
 10
72.56697521113155
 20
1.54238670178397
 30
0.0
 11
71.54238670173424
 21
2.56697521118143
 31
0.0
  0
LINE
  5
FA
330
2
100
AcDbEntity
  8
CONTINUOUS1
100
AcDbLine
 10
95.94335767783958
 20
-2.524999999950299
 30
0.0
 11
95.94335767783958
 21
2.525000000049729
 31
0.0
  0
LINE
  5
FB
330
2
100
AcDbEntity
  8
CONTINUOUS1
100
AcDbLine
 10
95.44335767783957
 20
2.525000000049729
 30
0.0
 11
95.44335767783957
 21
-2.524999999950299
 31
0.0
  0
LINE
  5
FC
330
2
100
AcDbEntity
  8
CONTINUOUS1
100
AcDbLine
 10
94.44335767783957
 20
-2.524999999950299
 30
0.0
 11
94.44335767783957
 21
2.525000000049729
 31
0.0
  0
LINE
  5
FD
330
2
100
AcDbEntity
  8
CONTINUOUS1
100
AcDbLine
 10
93.94335767783957
 20
2.525000000049729
 30
0.0
 11
93.94335767783957
 21
-2.524999999950299
 31
0.0
  0
ARC
  5
FE
330
2
100
AcDbEntity
  8
CONTINUOUS1
100
AcDbCircle
 10
76.84335767783966
 20
0.0
 30
0.0
 40
24.22897915294679
100
AcDbArc
 50
348.0118340094665
 51
11.98816599053347
  0
LINE
  5
FF
330
2
100
AcDbEntity
  8
CONTINUOUS1
100
AcDbLine
 10
87.54335767783969
 20
-2.524999999950519
 30
0.0
 11
87.54335767783969
 21
2.525000000049189
 31
0.0
  0
ARC
  5
100
330
2
100
AcDbEntity
  8
CONTINUOUS1
100
AcDbCircle
 10
75.0000000000001
 20
0.0
 30
0.0
 40
24.94344936777973
100
AcDbArc
 50
347.064553661374
 51
12.93544633862602
  0
ARC
  5
101
330
2
100
AcDbEntity
  8
CONTINUOUS1
100
AcDbCircle
 10
75.0000000000001
 20
0.0
 30
0.0
 40
25.93797126314794
100
AcDbArc
 50
347.064553661374
 51
12.93544633862602
  0
ARC
  5
102
330
2
100
AcDbEntity
  8
CONTINUOUS1
100
AcDbCircle
 10
75.0000000000001
 20
0.0
 30
0.0
 40
27.00000000000012
100
AcDbArc
 50
345.5990876198604
 51
14.40091238013956
  0
LINE
  5
103
330
2
100
AcDbEntity
  8
CONTINUOUS1
100
AcDbLine
 10
87.00000000000011
 20
2.650000000049669
 30
0.0
 11
87.00000000000011
 21
-2.649999999950299
 31
0.0
  0
LINE
  5
104
330
2
100
AcDbEntity
  8
CONTINUOUS1
100
AcDbLine
 10
87.50000000000012
 20
-2.649999999950299
 30
0.0
 11
87.50000000000012
 21
2.650000000049669
 31
0.0
  0
LINE
  5
105
330
2
100
AcDbEntity
  8
CONTINUOUS1
100
AcDbLine
 10
97.50000000000014
 20
-2.649999999950299
 30
0.0
 11
97.50000000000014
 21
2.650000000049729
 31
0.0
  0
LINE
  5
106
330
2
100
AcDbEntity
  8
CONTINUOUS1
100
AcDbLine
 10
96.99999999999988
 20
2.650000000049669
 30
0.0
 11
96.99999999999988
 21
-2.649999999950299
 31
0.0
  0
ARC
  5
107
330
2
100
AcDbEntity
  8
CONTINUOUS1
100
AcDbCircle
 10
74.99999999999966
 20
0.0
 30
0.0
 40
25.96472328263322
100
AcDbArc
 50
347.0608990104239
 51
12.93910098957885
  0
LINE
  5
108
330
2
100
AcDbEntity
  8
CONTINUOUS1
100
AcDbLine
 10
99.31045677902297
 20
-5.583668825932929
 30
0.0
 11
86.00000000000013
 21
-5.583668825932929
 31
0.0
  0
LINE
  5
109
330
2
100
AcDbEntity
  8
CONTINUOUS1
100
AcDbLine
 10
97.50000000000014
 20
-2.649999999950299
 30
0.0
 11
87.00000000000011
 21
-2.649999999950299
 31
0.0
  0
LINE
  5
10A
330
2
100
AcDbEntity
  8
CONTINUOUS1
100
AcDbLine
 10
86.00000000000013
 20
-6.579863524024629
 30
0.0
 11
99.31045677902297
 21
-6.579863524024629
 31
0.0
  0
LINE
  5
10B
330
2
100
AcDbEntity
  8
CONTINUOUS1
100
AcDbLine
 10
100.1868702700525
 20
-7.462375298739059
 30
0.0
 11
84.74627388895246
 21
-7.462375298735419
 31
0.0
  0
LINE
  5
10C
330
2
100
AcDbEntity
  8
CONTINUOUS1
100
AcDbLine
 10
75.0000000000001
 20
-6.617444234973159
 30
0.0
 11
75.0000000000001
 21
-7.097121758939239
 31
0.0
  0
ARC
  5
10D
330
2
100
AcDbEntity
  8
CONTINUOUS1
100
AcDbCircle
 10
69.99999999999875
 20
0.9961946981223197
 30
0.0
 40
16.99999999998912
100
AcDbArc
 50
330.1611039711669
 51
330.4833360985111
  0
LINE
  5
10E
330
2
100
AcDbEntity
  8
CONTINUOUS1
100
AcDbLine
 10
85.99999999999694
 20
-6.580830538316259
 30
0.0
 11
86.00000000000013
 21
-6.579863524024629
 31
0.0
  0
LINE
  5
10F
330
2
100
AcDbEntity
  8
CONTINUOUS1
100
AcDbLine
 10
87.74335767783975
 20
-2.649999999950299
 30
0.0
 11
87.74335767783975
 21
-2.524999999950519
 31
0.0
  0
LINE
  5
110
330
2
100
AcDbEntity
  8
CONTINUOUS1
100
AcDbLine
 10
87.54335767783969
 20
-2.524999999950519
 30
0.0
 11
96.99999999999988
 21
-2.524999999950069
 31
0.0
  0
LINE
  5
111
330
2
100
AcDbEntity
  8
CONTINUOUS1
100
AcDbLine
 10
92.00000000000013
 20
-6.820483518333049
 30
0.0
 11
91.99999999999921
 21
-7.318580867378959
 31
0.0
  0
LINE
  5
112
330
2
100
AcDbEntity
  8
CONTINUOUS1
100
AcDbLine
 10
99.31045677902297
 20
-5.583668825932929
 30
0.0
 11
99.31045677902297
 21
-6.579863524024629
 31
0.0
  0
LINE
  5
113
330
2
100
AcDbEntity
  8
CONTINUOUS1
100
AcDbLine
 10
99.31045677902297
 20
-5.58366882593282
 30
0.0
 11
100.2797405856314
 21
-5.806295649594969
 31
0.0
  0
LINE
  5
114
330
2
100
AcDbEntity
  8
CONTINUOUS1
100
AcDbLine
 10
101.0248790878155
 20
-2.731139553342699
 30
0.0
 11
101.2454058376542
 21
-2.730877790296289
 31
0.0
  0
ARC
  5
115
330
2
100
AcDbEntity
  8
CONTINUOUS1
100
AcDbCircle
 10
89.92335767783959
 20
1.27500000004953
 30
0.0
 40
0.79999999999995
100
AcDbArc
 50
0.0
 51
180.0
  0
ARC
  5
116
330
2
100
AcDbEntity
  8
CONTINUOUS1
100
AcDbCircle
 10
89.92335767783933
 20
1.27500000004953
 30
0.0
 40
0.78250226729506
100
AcDbArc
 50
0.0
 51
178.7186876695669
  0
LINE
  5
117
330
2
100
AcDbEntity
  8
CONTINUOUS1
100
AcDbLine
 10
92.44335767784029
 20
-1.524999999950409
 30
0.0
 11
90.04335767784018
 21
-1.524999999950639
 31
0.0
  0
LINE
  5
118
330
2
100
AcDbEntity
  8
CONTINUOUS1
100
AcDbLine
 10
92.4258599451349
 20
-1.50750226724529
 30
0.0
 11
90.06085541054529
 21
-1.507502267245399
 31
0.0
  0
LINE
  5
119
330
2
100
AcDbEntity
  8
CONTINUOUS1
100
AcDbLine
 10
90.32335767784012
 20
-1.24499999995055
 30
0.0
 11
92.16335767784007
 21
-1.244999999950439
 31
0.0
  0
LINE
  5
11A
330
2
100
AcDbEntity
  8
CONTINUOUS1
100
AcDbLine
 10
90.30585994513499
 20
-1.26249773265579
 30
0.0
 11
92.18085541054518
 21
-1.262497732655669
 31
0.0
  0
LINE
  5
11B
330
2
100
AcDbEntity
  8
CONTINUOUS1
100
AcDbLine
 10
91.76335767783994
 20
-0.00499999995043
 30
0.0
 11
90.32335767784012
 21
-0.00499999995066
 31
0.0
  0
LINE
  5
11C
330
2
100
AcDbEntity
  8
CONTINUOUS1
100
AcDbLine
 10
91.74585994513485
 20
0.01249773275468
 30
0.0
 11
90.30585994513456
 21
0.0124977327546
 31
0.0
  0
LINE
  5
11D
330
2
100
AcDbEntity
  8
CONTINUOUS1
100
AcDbLine
 10
86.00000000000013
 20
5.583668826032309
 30
0.0
 11
99.31045677902297
 21
5.583668826032309
 31
0.0
  0
LINE
  5
11E
330
2
100
AcDbEntity
  8
CONTINUOUS1
100
AcDbLine
 10
87.00000000000011
 20
2.650000000049669
 30
0.0
 11
97.50000000000014
 21
2.650000000049729
 31
0.0
  0
LINE
  5
11F
330
2
100
AcDbEntity
  8
CONTINUOUS1
100
AcDbLine
 10
84.7462738889502
 20
7.462375298835079
 30
0.0
 11
100.1868702700518
 21
7.462375298838349
 31
0.0
  0
LINE
  5
120
330
2
100
AcDbEntity
  8
CONTINUOUS1
100
AcDbLine
 10
99.31045677902297
 20
6.579863524124089
 30
0.0
 11
86.00000000000013
 21
6.57986352412404
 31
0.0
  0
LINE
  5
121
330
2
100
AcDbEntity
  8
CONTINUOUS1
100
AcDbLine
 10
75.0000000000001
 20
6.617444235072599
 30
0.0
 11
75.0000000000001
 21
7.097121759038639
 31
0.0
  0
LINE
  5
122
330
2
100
AcDbEntity
  8
CONTINUOUS1
100
AcDbLine
 10
87.74335767783975
 20
2.525000000049189
 30
0.0
 11
87.74335767783975
 21
2.650000000049669
 31
0.0
  0
LINE
  5
123
330
2
100
AcDbEntity
  8
CONTINUOUS1
100
AcDbLine
 10
87.54335767783969
 20
2.525000000049189
 30
0.0
 11
96.99999999999988
 21
2.525000000049729
 31
0.0
  0
LINE
  5
124
330
2
100
AcDbEntity
  8
CONTINUOUS1
100
AcDbLine
 10
89.40335767783961
 20
1.27500000004953
 30
0.0
 11
89.12335767783963
 21
1.27500000004953
 31
0.0
  0
LINE
  5
125
330
2
100
AcDbEntity
  8
CONTINUOUS1
100
AcDbLine
 10
89.38614483174104
 20
1.29249773275471
 30
0.0
 11
89.14105107063766
 21
1.29249773275471
 31
0.0
  0
ARC
  5
126
330
2
100
AcDbEntity
  8
CONTINUOUS1
100
AcDbCircle
 10
89.92335767783959
 20
1.27500000004953
 30
0.0
 40
0.51999999999998
100
AcDbArc
 50
0.0
 51
180.0
  0
ARC
  5
127
330
2
100
AcDbEntity
  8
CONTINUOUS1
100
AcDbCircle
 10
89.92335767783959
 20
1.27500000004953
 30
0.0
 40
0.5374977327051101
100
AcDbArc
 50
0.0
 51
178.1344602291948
  0
LINE
  5
128
330
2
100
AcDbEntity
  8
CONTINUOUS1
100
AcDbLine
 10
90.4433576778398
 20
0.27500000004945
 30
0.0
 11
90.4433576778398
 21
1.275000000049419
 31
0.0
  0
LINE
  5
129
330
2
100
AcDbEntity
  8
CONTINUOUS1
100
AcDbLine
 10
90.4433576778398
 20
1.275000000049419
 30
0.0
 11
90.46085541054493
 21
1.275000000049419
 31
0.0
  0
LINE
  5
12A
330
2
100
AcDbEntity
  8
CONTINUOUS1
100
AcDbLine
 10
90.46085541054514
 20
0.25750226734424
 30
0.0
 11
90.46085541054493
 21
1.275000000049389
 31
0.0
  0
LINE
  5
12B
330
2
100
AcDbEntity
  8
CONTINUOUS1
100
AcDbLine
 10
90.04335767784018
 20
0.27500000004942
 30
0.0
 11
90.4433576778398
 21
0.27500000004945
 31
0.0
  0
LINE
  5
12C
330
2
100
AcDbEntity
  8
CONTINUOUS1
100
AcDbLine
 10
90.4433576778398
 20
0.27500000004945
 30
0.0
 11
90.46085541054514
 21
0.25750226734424
 31
0.0
  0
LINE
  5
12D
330
2
100
AcDbEntity
  8
CONTINUOUS1
100
AcDbLine
 10
90.06085541054529
 20
0.25750226734424
 30
0.0
 11
90.46085541054514
 21
0.25750226734424
 31
0.0
  0
LINE
  5
12E
330
2
100
AcDbEntity
  8
CONTINUOUS1
100
AcDbLine
 10
90.04335767784018
 20
-1.524999999950639
 30
0.0
 11
90.04335767784018
 21
0.27500000004942
 31
0.0
  0
LINE
  5
12F
330
2
100
AcDbEntity
  8
CONTINUOUS1
100
AcDbLine
 10
90.04335767784018
 20
0.27500000004942
 30
0.0
 11
90.06085541054529
 21
0.25750226734424
 31
0.0
  0
LINE
  5
130
330
2
100
AcDbEntity
  8
CONTINUOUS1
100
AcDbLine
 10
90.06085541054529
 20
-1.507502267245399
 30
0.0
 11
90.06085541054529
 21
0.25750226734424
 31
0.0
  0
LINE
  5
131
330
2
100
AcDbEntity
  8
CONTINUOUS1
100
AcDbLine
 10
90.04335767784018
 20
-1.524999999950639
 30
0.0
 11
90.06085541054529
 21
-1.507502267245399
 31
0.0
  0
LINE
  5
132
330
2
100
AcDbEntity
  8
CONTINUOUS1
100
AcDbLine
 10
90.32335767784012
 20
-0.00499999995054
 30
0.0
 11
90.32335767784012
 21
-1.24499999995055
 31
0.0
  0
LINE
  5
133
330
2
100
AcDbEntity
  8
CONTINUOUS1
100
AcDbLine
 10
90.32335767784012
 20
-1.24499999995055
 30
0.0
 11
90.30585994513499
 21
-1.26249773265579
 31
0.0
  0
LINE
  5
134
330
2
100
AcDbEntity
  8
CONTINUOUS1
100
AcDbLine
 10
90.30585994513456
 20
0.0124977327546
 30
0.0
 11
90.30585994513499
 21
-1.26249773265579
 31
0.0
  0
LINE
  5
135
330
2
100
AcDbEntity
  8
CONTINUOUS1
100
AcDbLine
 10
90.32335767784012
 20
-0.00499999995054
 30
0.0
 11
90.30585994513456
 21
0.01249773275462
 31
0.0
  0
ARC
  5
136
330
2
100
AcDbEntity
  8
CONTINUOUS1
100
AcDbCircle
 10
70.00000000000489
 20
-0.9961946980576099
 30
0.0
 40
17.00000000000352
100
AcDbArc
 50
29.51666390160143
 51
29.83889602894129
  0
LINE
  5
137
330
2
100
AcDbEntity
  8
CONTINUOUS1
100
AcDbLine
 10
90.72335767784023
 20
0.27500000004945
 30
0.0
 11
91.76335767783994
 21
0.2750000000495301
 31
0.0
  0
LINE
  5
138
330
2
100
AcDbEntity
  8
CONTINUOUS1
100
AcDbLine
 10
90.70585994513463
 20
0.25750226734424
 30
0.0
 11
91.74585994513485
 21
0.25750226734429
 31
0.0
  0
LINE
  5
139
330
2
100
AcDbEntity
  8
CONTINUOUS1
100
AcDbLine
 10
90.72335767784023
 20
1.275000000049419
 30
0.0
 11
90.72335767784023
 21
0.27500000004945
 31
0.0
  0
LINE
  5
13A
330
2
100
AcDbEntity
  8
CONTINUOUS1
100
AcDbLine
 10
90.72335767784023
 20
0.27500000004945
 30
0.0
 11
90.70585994513463
 21
0.25750226734424
 31
0.0
  0
LINE
  5
13B
330
2
100
AcDbEntity
  8
CONTINUOUS1
100
AcDbLine
 10
90.70585994513441
 20
1.275000000049449
 30
0.0
 11
90.70585994513463
 21
0.25750226734424
 31
0.0
  0
LINE
  5
13C
330
2
100
AcDbEntity
  8
CONTINUOUS1
100
AcDbLine
 10
90.72335767784023
 20
1.275000000049419
 30
0.0
 11
90.70585994513441
 21
1.275000000049419
 31
0.0
  0
LINE
  5
13D
330
2
100
AcDbEntity
  8
CONTINUOUS1
100
AcDbLine
 10
92.44335767783979
 20
0.2750000000495301
 30
0.0
 11
92.44335767784029
 21
-1.524999999950409
 31
0.0
  0
LINE
  5
13E
330
2
100
AcDbEntity
  8
CONTINUOUS1
100
AcDbLine
 10
92.44335767784029
 20
-1.524999999950409
 30
0.0
 11
92.4258599451349
 21
-1.50750226724529
 31
0.0
  0
LINE
  5
13F
330
2
100
AcDbEntity
  8
CONTINUOUS1
100
AcDbLine
 10
92.4258599451349
 20
0.25750226734432
 30
0.0
 11
92.4258599451349
 21
-1.50750226724529
 31
0.0
  0
LINE
  5
140
330
2
100
AcDbEntity
  8
CONTINUOUS1
100
AcDbLine
 10
92.04335767784016
 20
0.2750000000495301
 30
0.0
 11
92.44335767783979
 21
0.2750000000495301
 31
0.0
  0
LINE
  5
141
330
2
100
AcDbEntity
  8
CONTINUOUS1
100
AcDbLine
 10
92.44335767783979
 20
0.2750000000495301
 30
0.0
 11
92.4258599451349
 21
0.25750226734432
 31
0.0
  0
LINE
  5
142
330
2
100
AcDbEntity
  8
CONTINUOUS1
100
AcDbLine
 10
92.06085541054504
 20
0.25750226734432
 30
0.0
 11
92.4258599451349
 21
0.25750226734432
 31
0.0
  0
LINE
  5
143
330
2
100
AcDbEntity
  8
CONTINUOUS1
100
AcDbLine
 10
92.04335767784016
 20
-0.00499999995043
 30
0.0
 11
92.04335767784016
 21
0.2750000000495301
 31
0.0
  0
LINE
  5
144
330
2
100
AcDbEntity
  8
CONTINUOUS1
100
AcDbLine
 10
92.04335767784016
 20
0.2750000000495301
 30
0.0
 11
92.06085541054504
 21
0.25750226734432
 31
0.0
  0
LINE
  5
145
330
2
100
AcDbEntity
  8
CONTINUOUS1
100
AcDbLine
 10
92.06085541054504
 20
0.01249773275471
 30
0.0
 11
92.06085541054504
 21
0.25750226734432
 31
0.0
  0
LINE
  5
146
330
2
100
AcDbEntity
  8
CONTINUOUS1
100
AcDbLine
 10
92.16335767784007
 20
-0.00499999995043
 30
0.0
 11
92.04335767784016
 21
-0.00499999995043
 31
0.0
  0
LINE
  5
147
330
2
100
AcDbEntity
  8
CONTINUOUS1
100
AcDbLine
 10
92.04335767784016
 20
-0.00499999995043
 30
0.0
 11
92.06085541054504
 21
0.01249773275471
 31
0.0
  0
LINE
  5
148
330
2
100
AcDbEntity
  8
CONTINUOUS1
100
AcDbLine
 10
92.18085541054518
 20
0.01249773275471
 30
0.0
 11
92.06085541054504
 21
0.01249773275471
 31
0.0
  0
LINE
  5
149
330
2
100
AcDbEntity
  8
CONTINUOUS1
100
AcDbLine
 10
92.16335767784007
 20
-1.244999999950439
 30
0.0
 11
92.16335767784007
 21
-0.00499999995043
 31
0.0
  0
LINE
  5
14A
330
2
100
AcDbEntity
  8
CONTINUOUS1
100
AcDbLine
 10
92.16335767784007
 20
-0.00499999995043
 30
0.0
 11
92.18085541054518
 21
0.01249773275471
 31
0.0
  0
LINE
  5
14B
330
2
100
AcDbEntity
  8
CONTINUOUS1
100
AcDbLine
 10
92.18085541054518
 20
-1.262497732655669
 30
0.0
 11
92.18085541054518
 21
0.01249773275471
 31
0.0
  0
LINE
  5
14C
330
2
100
AcDbEntity
  8
CONTINUOUS1
100
AcDbLine
 10
92.16335767784007
 20
-1.244999999950439
 30
0.0
 11
92.18085541054518
 21
-1.262497732655669
 31
0.0
  0
LINE
  5
14D
330
2
100
AcDbEntity
  8
CONTINUOUS1
100
AcDbLine
 10
91.76335767783994
 20
0.2750000000495301
 30
0.0
 11
91.74585994513485
 21
0.25750226734429
 31
0.0
  0
LINE
  5
14E
330
2
100
AcDbEntity
  8
CONTINUOUS1
100
AcDbLine
 10
91.76335767783994
 20
0.2750000000495301
 30
0.0
 11
91.76335767783994
 21
-0.00499999995043
 31
0.0
  0
LINE
  5
14F
330
2
100
AcDbEntity
  8
CONTINUOUS1
100
AcDbLine
 10
91.76335767783994
 20
-0.00499999995043
 30
0.0
 11
91.74585994513485
 21
0.01249773275468
 31
0.0
  0
LINE
  5
150
330
2
100
AcDbEntity
  8
CONTINUOUS1
100
AcDbLine
 10
91.74585994513485
 20
0.25750226734429
 30
0.0
 11
91.74585994513485
 21
0.01249773275468
 31
0.0
  0
LINE
  5
151
330
2
100
AcDbEntity
  8
CONTINUOUS1
100
AcDbLine
 10
92.00000000000013
 20
6.820483518421709
 30
0.0
 11
92.00000000000013
 21
7.318580867467589
 31
0.0
  0
LINE
  5
152
330
2
100
AcDbEntity
  8
CONTINUOUS1
100
AcDbLine
 10
101.2454058376542
 20
2.73087779039566
 30
0.0
 11
101.0248790878146
 21
2.7311395534421
 31
0.0
  0
LINE
  5
153
330
2
100
AcDbEntity
  8
CONTINUOUS1
100
AcDbLine
 10
100.2797405856314
 20
5.806295649694349
 30
0.0
 11
99.31045677902297
 21
5.583668826032309
 31
0.0
  0
LINE
  5
154
330
2
100
AcDbEntity
  8
CONTINUOUS1
100
AcDbLine
 10
99.31045677902297
 20
6.579863524124089
 30
0.0
 11
99.31045677902297
 21
5.583668826032309
 31
0.0
  0
LINE
  5
155
330
2
100
AcDbEntity
  8
CONTINUOUS1
100
AcDbLine
 10
100.5131206435129
 20
5.81462324453115
 30
0.0
 11
100.3054429242016
 21
5.8138983095897
 31
0.0
  0
ELLIPSE
  5
156
330
2
100
AcDbEntity
  8
CONTINUOUS1
100
AcDbEllipse
 10
91.99983208427523
 20
-7.02109329394523
 30
0.0
 11
3.40000000036774
 21
0.0
 31
0.0
210
0.0
220
0.0
230
1.0
 40
0.0874852941081842
 41
0.0
 42
6.283185307179584
  0
ELLIPSE
  5
157
330
2
100
AcDbEntity
  8
CONTINUOUS1
100
AcDbEllipse
 10
91.99959130584636
 20
18.85114250244343
 30
0.0
 11
-25.67162602675987
 21
0.0
 31
0.0
210
0.0
220
0.0
230
1.0
 40
0.99999999989342
 41
1.505004723939399
 42
1.63652865282752
  0
ELLIPSE
  5
158
330
2
100
AcDbEntity
  8
CONTINUOUS1
100
AcDbEllipse
 10
91.99983208427523
 20
7.02206030835795
 30
0.0
 11
3.40000000036774
 21
0.0
 31
0.0
210
0.0
220
0.0
230
-1.0
 40
0.0874852941081842
 41
0.0
 42
6.283185307179584
  0
ARC
  5
159
330
2
100
AcDbEntity
  8
CONTINUOUS1
100
AcDbCircle
 10
91.99959130584636
 20
-18.85017549076089
 30
0.0
 40
25.67162602675987
100
AcDbArc
 50
86.23381514075289
 51
93.76958117102054
  0
ARC
  5
15A
330
2
100
AcDbEntity
  8
CONTINUOUS1
100
AcDbCircle
 10
69.79938163599682
 20
-0.00004329394518
 30
0.0
 40
15.35274089407376
100
AcDbArc
 50
152.8864286897723
 51
207.1135713102277
  0
ARC
  5
15B
330
2
100
AcDbEntity
  8
CONTINUOUS1
100
AcDbCircle
 10
69.18934490364143
 20
0.00000670605485
 30
0.0
 40
12.22354036471053
100
AcDbArc
 50
143.0261733490593
 51
216.9738266509407
  0
LINE
  5
15C
330
2
100
AcDbEntity
  8
CONTINUOUS1
100
AcDbLine
 10
75.0000000000001
 20
6.617444235072599
 30
0.0
 11
86.00000000000013
 21
6.617444235072599
 31
0.0
  0
LINE
  5
15D
330
2
100
AcDbEntity
  8
CONTINUOUS1
100
AcDbLine
 10
86.00000000000013
 20
5.583668826032309
 30
0.0
 11
74.93483208427517
 21
5.621256706054809
 31
0.0
  0
LINE
  5
15E
330
2
100
AcDbEntity
  8
CONTINUOUS1
100
AcDbLine
 10
86.00000000000013
 20
-5.583668825932929
 30
0.0
 11
74.93483208427517
 21
-5.62124329394521
 31
0.0
  0
LINE
  5
15F
330
2
100
AcDbEntity
  8
CONTINUOUS1
100
AcDbLine
 10
85.99999999999694
 20
-6.580830538316259
 30
0.0
 11
75.0000000000001
 21
-6.617444234973159
 31
0.0
  0
LINE
  5
160
330
2
100
AcDbEntity
  8
CONTINUOUS1
100
AcDbLine
 10
74.92683208427536
 20
7.97495670605478
 30
0.0
 11
82.28883208427522
 21
8.082456706054799
 31
0.0
  0
LINE
  5
161
330
2
100
AcDbEntity
  8
CONTINUOUS1
100
AcDbLine
 10
75.0000000000001
 20
7.097121759038639
 30
0.0
 11
82.40583208427519
 21
7.162756706054789
 31
0.0
  0
LINE
  5
162
330
2
100
AcDbEntity
  8
CONTINUOUS1
100
AcDbLine
 10
100.5439154540203
 20
5.032592959137179
 30
0.0
 11
100.4723352532084
 21
5.032592959137179
 31
0.0
  0
LINE
  5
163
330
2
100
AcDbEntity
  8
CONTINUOUS1
100
AcDbLine
 10
99.31045677902297
 20
6.579863524124089
 30
0.0
 11
100.1868702700518
 21
7.462375298838349
 31
0.0
  0
LINE
  5
164
330
2
100
AcDbEntity
  8
CONTINUOUS1
100
AcDbLine
 10
100.2797405856312
 20
5.80629564969441
 30
0.0
 11
101.1516384231864
 21
6.715043394021519
 31
0.0
  0
ARC
  5
165
330
2
100
AcDbEntity
  8
CONTINUOUS1
100
AcDbCircle
 10
99.30121159039178
 20
5.574236979389419
 30
0.0
 40
1.005669041478389
100
AcDbArc
 50
13.34126295157136
 51
89.47326831292135
  0
ARC
  5
166
330
2
100
AcDbEntity
  8
CONTINUOUS1
100
AcDbCircle
 10
100.1926592553451
 20
6.473448893828058
 30
0.0
 40
0.9889433486693699
100
AcDbArc
 50
14.1402092002686
 51
90.33539466106047
  0
ARC
  5
167
330
2
100
AcDbEntity
  8
CONTINUOUS1
100
AcDbCircle
 10
92.67296723146149
 20
0.0
 30
0.0
 40
8.996910423181269
100
AcDbArc
 50
342.329948397594
 51
17.67005160240595
  0
ARC
  5
168
330
2
100
AcDbEntity
  8
CONTINUOUS1
100
AcDbCircle
 10
94.27968684493441
 20
-0.00033569996569
 30
0.0
 40
7.091738227558651
100
AcDbArc
 50
340.224893170631
 51
19.78413007383631
  0
ARC
  5
169
330
2
100
AcDbEntity
  8
CONTINUOUS1
100
AcDbCircle
 10
100.9453113897097
 20
2.70029199982873
 30
0.0
 40
0.30164908133731
100
AcDbArc
 50
271.5180069615132
 51
5.819522086172321
  0
ARC
  5
16A
330
2
100
AcDbEntity
  8
CONTINUOUS1
100
AcDbCircle
 10
100.730147350868
 20
2.69848691381195
 30
0.0
 40
0.29653497540475
100
AcDbArc
 50
316.2440079517892
 51
6.321884749655229
  0
LINE
  5
16B
330
2
100
AcDbEntity
  8
CONTINUOUS1
100
AcDbLine
 10
101.0248790878146
 20
2.7311395534421
 30
0.0
 11
100.5131206435129
 21
5.81462324453115
 31
0.0
  0
LINE
  5
16C
330
2
100
AcDbEntity
  8
CONTINUOUS1
100
AcDbLine
 10
100.5131206435129
 20
-5.81462324443169
 30
0.0
 11
100.3054429242016
 21
-5.81389830949024
 31
0.0
  0
LINE
  5
16D
330
2
100
AcDbEntity
  8
CONTINUOUS1
100
AcDbLine
 10
99.31045677902297
 20
-6.579863524024629
 30
0.0
 11
100.1868702700518
 21
-7.462375298738829
 31
0.0
  0
LINE
  5
16E
330
2
100
AcDbEntity
  8
CONTINUOUS1
100
AcDbLine
 10
100.2797405856312
 20
-5.80629564959486
 30
0.0
 11
101.1516384231864
 21
-6.71504339392197
 31
0.0
  0
ARC
  5
16F
330
2
100
AcDbEntity
  8
CONTINUOUS1
100
AcDbCircle
 10
99.30121159039178
 20
-5.57423697928985
 30
0.0
 40
1.005669041478489
100
AcDbArc
 50
270.5267316870656
 51
346.658737048427
  0
ARC
  5
170
330
2
100
AcDbEntity
  8
CONTINUOUS1
100
AcDbCircle
 10
100.1926592553451
 20
-6.473448893728549
 30
0.0
 40
0.9889433486693198
100
AcDbArc
 50
269.6646053389265
 51
345.8597907997313
  0
ARC
  5
171
330
2
100
AcDbEntity
  8
CONTINUOUS1
100
AcDbCircle
 10
100.9453113897097
 20
-2.70029199972925
 30
0.0
 40
0.30164908133732
100
AcDbArc
 50
354.1804779138283
 51
88.48199303848685
  0
ARC
  5
172
330
2
100
AcDbEntity
  8
CONTINUOUS1
100
AcDbCircle
 10
100.730147350868
 20
-2.69848691371244
 30
0.0
 40
0.29653497540475
100
AcDbArc
 50
353.6781152503464
 51
43.75599204821109
  0
LINE
  5
173
330
2
100
AcDbEntity
  8
CONTINUOUS1
100
AcDbLine
 10
101.0248790878146
 20
-2.731139553342589
 30
0.0
 11
100.5131206435129
 21
-5.81462324443169
 31
0.0
  0
ARC
  5
174
330
2
100
AcDbEntity
  8
CONTINUOUS1
100
AcDbCircle
 10
85.40789965480156
 20
8.011958022518269
 30
0.0
 40
3.119864191577749
100
AcDbArc
 50
178.7051933644941
 51
195.7947308928904
  0
ARC
  5
175
330
2
100
AcDbEntity
  8
CONTINUOUS1
100
AcDbCircle
 10
84.75268508609191
 20
8.490381696005639
 30
0.0
 40
1.02802638880156
100
AcDbArc
 50
216.2274039931866
 51
269.6426775392135
  0
ARC
  5
176
330
2
100
AcDbEntity
  8
CONTINUOUS1
100
AcDbCircle
 10
84.7938671802043
 20
8.38000240916512
 30
0.0
 40
1.0024461674944
100
AcDbArc
 50
209.7332338576234
 51
270.0551500332171
  0
ARC
  5
177
330
2
100
AcDbEntity
  8
CONTINUOUS1
100
AcDbCircle
 10
83.91001415375454
 20
7.87208232108232
 30
0.0
 40
0.01716390505119
100
AcDbArc
 50
300.9138397992668
 51
38.75498069536531
  0
ARC
  5
178
330
2
100
AcDbEntity
  8
CONTINUOUS1
100
AcDbCircle
 10
83.84380875594922
 20
8.00007026828641
 30
0.0
 40
0.16123169861402
100
AcDbArc
 50
274.8113430875406
 51
297.7305301114981
  0
ARC
  5
179
330
2
100
AcDbEntity
  8
CONTINUOUS1
100
AcDbCircle
 10
83.74681363049203
 20
10.18232962245821
 30
0.0
 40
2.34552811128643
100
AcDbArc
 50
258.1418409135188
 51
272.7007079529222
  0
ARC
  5
17A
330
2
100
AcDbEntity
  8
CONTINUOUS1
100
AcDbCircle
 10
85.35635225747444
 20
20.86011239013901
 30
0.0
 40
13.14070640391884
100
AcDbArc
 50
256.5005238042429
 51
260.8571140831342
  0
ARC
  5
17B
330
2
100
AcDbEntity
  8
CONTINUOUS1
100
AcDbCircle
 10
84.78222522163568
 20
7.37007533349123
 30
0.0
 40
0.01465960166736
100
AcDbArc
 50
313.5855096484541
 51
39.03939632348561
  0
ARC
  5
17C
330
2
100
AcDbEntity
  8
CONTINUOUS1
100
AcDbCircle
 10
84.58949408662112
 20
7.63938744275205
 30
0.0
 40
0.34569418658721
100
AcDbArc
 50
274.702050747286
 51
305.9271117134101
  0
ARC
  5
17D
330
2
100
AcDbEntity
  8
CONTINUOUS1
100
AcDbCircle
 10
82.62589271756644
 20
22.06376415616512
 30
0.0
 40
14.90263230810477
100
AcDbArc
 50
269.1539076099333
 51
277.681349000978
  0
LINE
  5
17E
330
2
100
AcDbEntity
  8
CONTINUOUS1
100
AcDbLine
 10
56.13383208427524
 20
6.99705670605507
 30
0.0
 11
55.8751480325758
 21
7.51588696689211
 31
0.0
  0
ARC
  5
17F
330
2
100
AcDbEntity
  8
CONTINUOUS1
100
AcDbCircle
 10
79.07446208046838
 20
7.878696666151509
 30
0.0
 40
4.14874686870655
100
AcDbArc
 50
178.6704927610616
 51
190.8587356465648
  0
ARC
  5
180
330
2
100
AcDbEntity
  8
CONTINUOUS1
100
AcDbCircle
 10
80.80313334588334
 20
5.73759349974511
 30
0.0
 40
5.869454314206691
100
AcDbArc
 50
171.3786756807814
 51
181.1357178101284
  0
LINE
  5
181
330
2
100
AcDbEntity
  8
CONTINUOUS1
100
AcDbLine
 10
59.26183208427517
 20
8.84215670605478
 30
0.0
 11
59.54183208427514
 21
8.378956706054809
 31
0.0
  0
LINE
  5
182
330
2
100
AcDbEntity
  8
CONTINUOUS1
100
AcDbLine
 10
55.8751480325758
 20
7.51588696689211
 30
0.0
 11
56.30404307557171
 21
8.27168446720616
 31
0.0
  0
ARC
  5
183
330
2
100
AcDbEntity
  8
CONTINUOUS1
100
AcDbCircle
 10
57.72990723911369
 20
5.593626184746879
 30
0.0
 40
2.12534070869405
100
AcDbArc
 50
88.62701638725331
 51
138.6748006334502
  0
ARC
  5
184
330
2
100
AcDbEntity
  8
CONTINUOUS1
100
AcDbCircle
 10
57.77025051170529
 20
4.01497226121117
 30
0.0
 40
3.70339956202241
100
AcDbArc
 50
68.86070062657783
 51
89.83629088256106
  0
LINE
  5
185
330
2
100
AcDbEntity
  8
CONTINUOUS1
100
AcDbLine
 10
59.105832084275
 20
7.46915670605485
 30
0.0
 11
59.42383208427497
 21
7.35185670605465
 31
0.0
  0
LINE
  5
186
330
2
100
AcDbEntity
  8
CONTINUOUS1
100
AcDbLine
 10
74.92683208427536
 20
-7.97398969164203
 30
0.0
 11
82.28883208427522
 21
-8.081489691642099
 31
0.0
  0
LINE
  5
187
330
2
100
AcDbEntity
  8
CONTINUOUS1
100
AcDbLine
 10
75.0000000000001
 20
-7.096154744625889
 30
0.0
 11
82.40583208427519
 21
-7.161789691642069
 31
0.0
  0
ARC
  5
188
330
2
100
AcDbEntity
  8
CONTINUOUS1
100
AcDbCircle
 10
85.40789965480156
 20
-8.010991008105579
 30
0.0
 40
3.1198641915777
100
AcDbArc
 50
164.2052691071095
 51
181.2948066355059
  0
ARC
  5
189
330
2
100
AcDbEntity
  8
CONTINUOUS1
100
AcDbCircle
 10
84.75268508609191
 20
-8.489414681592919
 30
0.0
 40
1.028026388801499
100
AcDbArc
 50
90.3573224607865
 51
143.7725960068133
  0
ARC
  5
18A
330
2
100
AcDbEntity
  8
CONTINUOUS1
100
AcDbCircle
 10
84.7938671802043
 20
-8.379035394752341
 30
0.0
 40
1.00244616749438
100
AcDbArc
 50
89.94484996678293
 51
150.2667661423766
  0
ARC
  5
18B
330
2
100
AcDbEntity
  8
CONTINUOUS1
100
AcDbCircle
 10
83.91001415375454
 20
-7.871115306669599
 30
0.0
 40
0.01716390505116
100
AcDbArc
 50
321.2450193046346
 51
59.08616020073321
  0
ARC
  5
18C
330
2
100
AcDbEntity
  8
CONTINUOUS1
100
AcDbCircle
 10
83.84380875594922
 20
-7.999103253874089
 30
0.0
 40
0.16123169861443
100
AcDbArc
 50
62.26946988850181
 51
85.18865691245936
  0
ARC
  5
18D
330
2
100
AcDbEntity
  8
CONTINUOUS1
100
AcDbCircle
 10
83.74681363049203
 20
-10.18136260804366
 30
0.0
 40
2.345528111284589
100
AcDbArc
 50
87.29929204707778
 51
101.8581590864812
  0
ARC
  5
18E
330
2
100
AcDbEntity
  8
CONTINUOUS1
100
AcDbCircle
 10
85.35635225747444
 20
-20.85914537572475
 30
0.0
 40
13.14070640391723
100
AcDbArc
 50
99.14288591686585
 51
103.4994761957571
  0
ARC
  5
18F
330
2
100
AcDbEntity
  8
CONTINUOUS1
100
AcDbCircle
 10
84.78222522163568
 20
-7.369108319078559
 30
0.0
 40
0.01465960166736
100
AcDbArc
 50
320.9606036765144
 51
46.41449035154582
  0
ARC
  5
190
330
2
100
AcDbEntity
  8
CONTINUOUS1
100
AcDbCircle
 10
84.58949408662112
 20
-7.638420428339009
 30
0.0
 40
0.3456941865868599
100
AcDbArc
 50
54.07288828658986
 51
85.29794925271408
  0
ARC
  5
191
330
2
100
AcDbEntity
  8
CONTINUOUS1
100
AcDbCircle
 10
82.62589271756644
 20
-22.06279714174821
 30
0.0
 40
14.90263230810056
100
AcDbArc
 50
82.31865099902199
 51
90.8460923900667
  0
ARC
  5
192
330
2
100
AcDbEntity
  8
CONTINUOUS1
100
AcDbCircle
 10
79.07446208046838
 20
-7.87772965173878
 30
0.0
 40
4.14874686870643
100
AcDbArc
 50
169.1412643534344
 51
181.3295072389376
  0
ARC
  5
193
330
2
100
AcDbEntity
  8
CONTINUOUS1
100
AcDbCircle
 10
80.80313334588334
 20
-5.73662648533244
 30
0.0
 40
5.86945431420642
100
AcDbArc
 50
178.8642821898716
 51
188.6213243192186
  0
ARC
  5
194
330
2
100
AcDbEntity
  8
CONTINUOUS1
100
AcDbCircle
 10
59.94254404846595
 20
5.08266119580452
 30
0.0
 40
4.811015897564519
100
AcDbArc
 50
100.8287638786764
 51
139.9030127875123
  0
ARC
  5
195
330
2
100
AcDbEntity
  8
CONTINUOUS1
100
AcDbCircle
 10
58.5297132558577
 20
5.30050180000978
 30
0.0
 40
3.62295301569342
100
AcDbArc
 50
84.81967108701011
 51
130.4576154136767
  0
ARC
  5
196
330
2
100
AcDbEntity
  8
CONTINUOUS1
100
AcDbCircle
 10
58.8128029097546
 20
5.28356313326753
 30
0.0
 40
3.18008567616577
100
AcDbArc
 50
76.74718104523414
 51
147.3966568813954
  0
ARC
  5
197
330
2
100
AcDbEntity
  8
CONTINUOUS1
100
AcDbCircle
 10
58.65494027279885
 20
5.765000639254889
 30
0.0
 40
4.0611770932127
100
AcDbArc
 50
76.92287511075978
 51
84.57808528805863
  0
ARC
  5
198
330
2
100
AcDbEntity
  8
CONTINUOUS1
100
AcDbCircle
 10
74.31126432790382
 20
70.9399467635792
 30
0.0
 40
62.9679989884293
100
AcDbArc
 50
256.4645831615699
 51
270.5601257274547
  0
ARC
  5
199
330
2
100
AcDbEntity
  8
CONTINUOUS1
100
AcDbCircle
 10
58.55815400004654
 20
5.823119125414999
 30
0.0
 40
3.09995979966498
100
AcDbArc
 50
76.87972945310081
 51
84.47103090967294
  0
LINE
  5
19A
330
2
100
AcDbEntity
  8
CONTINUOUS1
100
AcDbLine
 10
59.76883208427523
 20
8.32715670605479
 30
0.0
 11
59.54183208427514
 21
8.378956706054809
 31
0.0
  0
ARC
  5
19B
330
2
100
AcDbEntity
  8
CONTINUOUS1
100
AcDbCircle
 10
55.7575244336125
 20
10.00338384951209
 30
0.0
 40
3.28696447076604
100
AcDbArc
 50
340.5459299594747
 51
356.5923464083173
  0
ARC
  5
19C
330
2
100
AcDbEntity
  8
CONTINUOUS1
100
AcDbCircle
 10
56.68755148994353
 20
10.25094740872193
 30
0.0
 40
2.93455479115168
100
AcDbArc
 50
331.3100486877549
 51
349.5931042073831
  0
ARC
  5
19D
330
2
100
AcDbEntity
  8
CONTINUOUS1
100
AcDbCircle
 10
60.70687308965228
 20
7.261267215678169
 30
0.0
 40
1.61448144650484
100
AcDbArc
 50
136.1883369234461
 51
172.6017396136754
  0
ARC
  5
19E
330
2
100
AcDbEntity
  8
CONTINUOUS1
100
AcDbCircle
 10
61.92211216247722
 20
7.01679151382657
 30
0.0
 40
2.520649129130209
100
AcDbArc
 50
148.6776568688723
 51
172.3611689055271
  0
ARC
  5
19F
330
2
100
AcDbEntity
  8
CONTINUOUS1
100
AcDbCircle
 10
74.63926857261172
 20
75.6861701232857
 30
0.0
 40
68.58999695783437
100
AcDbArc
 50
257.0445381045569
 51
270.3013337880852
  0
ARC
  5
1A0
330
2
100
AcDbEntity
  8
CONTINUOUS1
100
AcDbCircle
 10
75.42969882050091
 20
79.14461672637372
 30
0.0
 40
72.52844538978681
100
AcDbArc
 50
257.5300681282217
 51
269.6605459723536
  0
ARC
  5
1A1
330
2
100
AcDbEntity
  8
CONTINUOUS1
100
AcDbCircle
 10
75.36222210365656
 20
79.82806086105097
 30
0.0
 40
74.20803490948012
100
AcDbArc
 50
257.597388551083
 51
269.6700117483899
  0
LINE
  5
1A2
330
2
100
AcDbEntity
  8
CONTINUOUS1
100
AcDbLine
 10
100.5439154540203
 20
-5.03259295903774
 30
0.0
 11
100.4723352532086
 21
-5.03259295903774
 31
0.0
  0
LINE
  5
1A3
330
2
100
AcDbEntity
  8
CONTINUOUS1
100
AcDbLine
 10
56.13383208427524
 20
-6.996089691642399
 30
0.0
 11
55.8751480325758
 21
-7.514919952479429
 31
0.0
  0
LINE
  5
1A4
330
2
100
AcDbEntity
  8
CONTINUOUS1
100
AcDbLine
 10
59.26183208427517
 20
-8.84118969164206
 30
0.0
 11
59.54183208427514
 21
-8.37798969164214
 31
0.0
  0
LINE
  5
1A5
330
2
100
AcDbEntity
  8
CONTINUOUS1
100
AcDbLine
 10
55.8751480325758
 20
-7.514919952479429
 30
0.0
 11
56.30404307557171
 21
-8.270717452793409
 31
0.0
  0
ARC
  5
1A6
330
2
100
AcDbEntity
  8
CONTINUOUS1
100
AcDbCircle
 10
57.72990723911369
 20
-5.592659170334069
 30
0.0
 40
2.125340708694159
100
AcDbArc
 50
221.3251993665497
 51
271.3729836127467
  0
ARC
  5
1A7
330
2
100
AcDbEntity
  8
CONTINUOUS1
100
AcDbCircle
 10
59.94254404846595
 20
-5.08169418139179
 30
0.0
 40
4.81101589756457
100
AcDbArc
 50
220.0969872124876
 51
259.1712361213235
  0
ARC
  5
1A8
330
2
100
AcDbEntity
  8
CONTINUOUS1
100
AcDbCircle
 10
58.5297132558577
 20
-5.29953478559712
 30
0.0
 40
3.622953015693319
100
AcDbArc
 50
229.5423845863232
 51
275.1803289129898
  0
ARC
  5
1A9
330
2
100
AcDbEntity
  8
CONTINUOUS1
100
AcDbCircle
 10
58.8128029097546
 20
-5.282596118854749
 30
0.0
 40
3.180085676165899
100
AcDbArc
 50
212.6033431186046
 51
283.2528189547659
  0
ARC
  5
1AA
330
2
100
AcDbEntity
  8
CONTINUOUS1
100
AcDbCircle
 10
74.31126432790382
 20
-70.9389797491678
 30
0.0
 40
62.96799898843059
100
AcDbArc
 50
89.43987427254532
 51
103.5354168384301
  0
ARC
  5
1AB
330
2
100
AcDbEntity
  8
CONTINUOUS1
100
AcDbCircle
 10
58.55815400004654
 20
-5.822152111004519
 30
0.0
 40
3.099959799662749
100
AcDbArc
 50
275.528969090327
 51
283.1202705468992
  0
ARC
  5
1AC
330
2
100
AcDbEntity
  8
CONTINUOUS1
100
AcDbCircle
 10
55.7575244336125
 20
-10.00241683509943
 30
0.0
 40
3.286964470766019
100
AcDbArc
 50
3.407653591681741
 51
19.4540700405253
  0
ARC
  5
1AD
330
2
100
AcDbEntity
  8
CONTINUOUS1
100
AcDbCircle
 10
56.68755148994353
 20
-10.24998039430922
 30
0.0
 40
2.934554791151779
100
AcDbArc
 50
10.40689579261685
 51
28.68995131224505
  0
ARC
  5
1AE
330
2
100
AcDbEntity
  8
CONTINUOUS1
100
AcDbCircle
 10
60.70687308965228
 20
-7.26030020126547
 30
0.0
 40
1.61448144650483
100
AcDbArc
 50
187.3982603863238
 51
223.8116630765538
  0
ARC
  5
1AF
330
2
100
AcDbEntity
  8
CONTINUOUS1
100
AcDbCircle
 10
61.92211216247722
 20
-7.015824499413919
 30
0.0
 40
2.520649129129979
100
AcDbArc
 50
187.6388310944728
 51
211.3223431311277
  0
ARC
  5
1B0
330
2
100
AcDbEntity
  8
CONTINUOUS1
100
AcDbCircle
 10
74.63926857261172
 20
-75.68520310887409
 30
0.0
 40
68.58999695783547
100
AcDbArc
 50
89.69866621191473
 51
102.9554618954431
  0
ARC
  5
1B1
330
2
100
AcDbEntity
  8
CONTINUOUS1
100
AcDbCircle
 10
75.42969882050091
 20
-79.14364971196099
 30
0.0
 40
72.52844538978681
100
AcDbArc
 50
90.33945402764642
 51
102.4699318717783
  0
ARC
  5
1B2
330
2
100
AcDbEntity
  8
CONTINUOUS1
100
AcDbCircle
 10
75.36222210365656
 20
-79.82709384663827
 30
0.0
 40
74.20803490948012
100
AcDbArc
 50
90.32998825161014
 51
102.4026114489169
  0
ARC
  5
1B3
330
2
100
AcDbEntity
  8
CONTINUOUS1
100
AcDbCircle
 10
57.77025051170529
 20
-4.01400524679888
 30
0.0
 40
3.703399562022
100
AcDbArc
 50
270.163709117439
 51
291.1392993734221
  0
LINE
  5
1B4
330
2
100
AcDbEntity
  8
CONTINUOUS1
100
AcDbLine
 10
59.105832084275
 20
-7.46818969164212
 30
0.0
 11
59.42383208427497
 21
-7.3508896916419
 31
0.0
  0
ARC
  5
1B5
330
2
100
AcDbEntity
  8
CONTINUOUS1
100
AcDbCircle
 10
58.65494027279885
 20
-5.76403362484315
 30
0.0
 40
4.06117709321171
100
AcDbArc
 50
275.4219147119414
 51
283.0771248892402
  0
LINE
  5
1B6
330
2
100
AcDbEntity
  8
CONTINUOUS1
100
AcDbLine
 10
59.76883208427523
 20
-8.326189691642069
 30
0.0
 11
59.54183208427514
 21
-8.37798969164214
 31
0.0
  0
LINE
  5
1B7
330
2
100
AcDbEntity
  8
CONTINUOUS1
100
AcDbLine
 10
54.46422842260735
 20
-17.43421406912341
 30
0.0
 11
53.66666593091157
 21
-17.49661656778926
 31
0.0
  0
LINE
  5
1B8
330
2
100
AcDbEntity
  8
CONTINUOUS1
100
AcDbLine
 10
53.72906842957707
 20
-18.29417905948515
 30
0.0
 11
54.5266309212733
 21
-18.2317765608193
 31
0.0
  0
ARC
  5
1B9
330
2
100
AcDbEntity
  8
CONTINUOUS1
100
AcDbCircle
 10
53.00000000001012
 20
-17.94999999996979
 30
0.0
 40
2.751730142493769
100
AcDbArc
 50
2.036348949908873
 51
177.9636510518606
  0
ARC
  5
1BA
330
2
100
AcDbEntity
  8
CONTINUOUS1
100
AcDbCircle
 10
53.00000000001012
 20
-17.9499999999697
 30
0.0
 40
2.76489659950154
100
AcDbArc
 50
5.944181274644601
 51
174.0558187253554
  0
LINE
  5
1BB
330
2
100
AcDbEntity
  8
CONTINUOUS1
100
AcDbLine
 10
50.67094403609996
 20
-20.92905596388016
 30
0.0
 11
55.32905596392049
 21
-20.92905596388016
 31
0.0
  0
LINE
  5
1BC
330
2
100
AcDbEntity
  8
CONTINUOUS1
100
AcDbLine
 10
55.349303517395
 20
-20.94930351735434
 30
0.0
 11
50.65069648262589
 21
-20.94930351735434
 31
0.0
  0
LINE
  5
1BD
330
2
100
AcDbEntity
  8
CONTINUOUS1
100
AcDbLine
 10
50.45060646545824
 20
-21.15477769351787
 30
0.0
 11
55.54971514390911
 21
-21.15477769351787
 31
0.0
  0
LINE
  5
1BE
330
2
100
AcDbEntity
  8
CONTINUOUS1
100
AcDbLine
 10
49.4500000000104
 20
-21.93260197497045
 30
0.0
 11
56.55000000001052
 21
-21.93260197497045
 31
0.0
  0
LINE
  5
1BF
330
2
100
AcDbEntity
  8
CONTINUOUS1
100
AcDbLine
 10
52.65582094049467
 20
-18.67906842953676
 30
0.0
 11
52.80950316089877
 21
-20.64327142229035
 31
0.0
  0
LINE
  5
1C0
330
2
100
AcDbEntity
  8
CONTINUOUS1
100
AcDbLine
 10
53.60706565259476
 20
-20.58086892362451
 30
0.0
 11
53.4533834321909
 21
-18.6166659308708
 31
0.0
  0
LINE
  5
1C1
330
2
100
AcDbEntity
  8
CONTINUOUS1
100
AcDbLine
 10
49.4500000000104
 20
-21.93260197497045
 30
0.0
 11
49.4500000000104
 21
-17.62477610551696
 31
0.0
  0
LINE
  5
1C2
330
2
100
AcDbEntity
  8
CONTINUOUS1
100
AcDbLine
 10
52.70722019498212
 20
-19.33599913514559
 30
0.0
 11
53.50478268667837
 21
-19.27359663647974
 31
0.0
  0
LINE
  5
1C3
330
2
100
AcDbEntity
  8
CONTINUOUS1
100
AcDbLine
 10
53.51578593085685
 20
-19.41422842256679
 30
0.0
 11
52.71822343916085
 21
-19.47663092123264
 31
0.0
  0
LINE
  5
1C4
330
2
100
AcDbEntity
  8
CONTINUOUS1
100
AcDbLine
 10
50.25000000001011
 20
-21.10669019342072
 30
0.0
 11
50.25000000001011
 21
-17.66396449325112
 31
0.0
  0
LINE
  5
1C5
330
2
100
AcDbEntity
  8
CONTINUOUS1
100
AcDbLine
 10
50.67094403609996
 20
-19.64429788727443
 30
0.0
 11
50.67094403609996
 21
-20.92905596388016
 31
0.0
  0
LINE
  5
1C6
330
2
100
AcDbEntity
  8
CONTINUOUS1
100
AcDbLine
 10
50.65069648262589
 20
-20.94930351735434
 30
0.0
 11
50.67094403609996
 21
-20.92905596388016
 31
0.0
  0
LINE
  5
1C7
330
2
100
AcDbEntity
  8
CONTINUOUS1
100
AcDbLine
 10
50.46965533701484
 20
-21.13287611498993
 30
0.0
 11
50.45041415429714
 21
-21.13287611498993
 31
0.0
  0
LINE
  5
1C8
330
2
100
AcDbEntity
  8
CONTINUOUS1
100
AcDbLine
 10
50.45069691607078
 20
-18.83941204521034
 30
0.0
 11
50.45069691607078
 21
-21.13287611498788
 31
0.0
  0
LINE
  5
1C9
330
2
100
AcDbEntity
  8
CONTINUOUS1
100
AcDbLine
 10
50.65069569760236
 20
-20.94930442883094
 30
0.0
 11
50.65069569760236
 21
-19.58530928187906
 31
0.0
  0
LINE
  5
1CA
330
2
100
AcDbEntity
  8
CONTINUOUS1
100
AcDbLine
 10
50.65069569760236
 20
-19.58530928187906
 30
0.0
 11
50.45069691607078
 21
-19.58530928187906
 31
0.0
  0
LINE
  5
1CB
330
2
100
AcDbEntity
  8
CONTINUOUS1
100
AcDbLine
 10
50.45000000001039
 20
-21.15477769351787
 30
0.0
 11
50.45000000001039
 21
-21.93260197497034
 31
0.0
  0
LINE
  5
1CC
330
2
100
AcDbEntity
  8
CONTINUOUS1
100
AcDbLine
 10
51.53577157741334
 20
-18.4657859308162
 30
0.0
 11
52.33333406910936
 21
-18.40338343215035
 31
0.0
  0
ARC
  5
1CD
330
2
100
AcDbEntity
  8
CONTINUOUS1
100
AcDbCircle
 10
24.84107955754382
 20
-20.15319663175198
 30
0.0
 40
27.00412671753735
100
AcDbArc
 50
3.625066706393736
 51
5.322522078200436
  0
LINE
  5
1CE
330
2
100
AcDbEntity
  8
CONTINUOUS1
100
AcDbLine
 10
53.29277980503809
 20
-16.56400086479403
 30
0.0
 11
52.49521731334232
 21
-16.62640336345987
 31
0.0
  0
LINE
  5
1CF
330
2
100
AcDbEntity
  8
CONTINUOUS1
100
AcDbLine
 10
52.2709315704434
 20
-17.60582094045446
 30
0.0
 11
51.47336907874739
 21
-17.66822343912031
 31
0.0
  0
LINE
  5
1D0
330
2
100
AcDbEntity
  8
CONTINUOUS1
100
AcDbLine
 10
52.48421406916406
 20
-16.48577157737282
 30
0.0
 11
53.28177656085983
 21
-16.42336907870697
 31
0.0
  0
LINE
  5
1D1
330
2
100
AcDbEntity
  8
CONTINUOUS1
100
AcDbLine
 10
52.39293434742592
 20
-15.3191310763151
 30
0.0
 11
52.5466165678298
 21
-17.2833340690687
 31
0.0
  0
LINE
  5
1D2
330
2
100
AcDbEntity
  8
CONTINUOUS1
100
AcDbLine
 10
53.34417905952578
 20
-17.22093157040297
 30
0.0
 11
53.19049683912169
 21
-15.25672857764926
 31
0.0
  0
LINE
  5
1D3
330
2
100
AcDbEntity
  8
CONTINUOUS1
100
AcDbLine
 10
56.55000000001052
 20
-21.93260197497045
 30
0.0
 11
56.55000000001052
 21
-17.62477610551696
 31
0.0
  0
LINE
  5
1D4
330
2
100
AcDbEntity
  8
CONTINUOUS1
100
AcDbLine
 10
55.75000000001034
 20
-21.10669019342072
 30
0.0
 11
55.75000000001034
 21
-17.66396449325123
 31
0.0
  0
LINE
  5
1D5
330
2
100
AcDbEntity
  8
CONTINUOUS1
100
AcDbLine
 10
55.32905596392049
 20
-20.92905596388016
 30
0.0
 11
55.32905596392049
 21
-19.64429788727443
 31
0.0
  0
LINE
  5
1D6
330
2
100
AcDbEntity
  8
CONTINUOUS1
100
AcDbLine
 10
55.349303517395
 20
-20.94930351735434
 30
0.0
 11
55.32905596392049
 21
-20.92905596388016
 31
0.0
  0
LINE
  5
1D7
330
2
100
AcDbEntity
  8
CONTINUOUS1
100
AcDbLine
 10
55.5493030839499
 20
-21.13287611498993
 30
0.0
 11
55.5493030839499
 21
-19.58530928187906
 31
0.0
  0
LINE
  5
1D8
330
2
100
AcDbEntity
  8
CONTINUOUS1
100
AcDbLine
 10
55.5499999957791
 20
-21.13287611498993
 30
0.0
 11
55.5303446630063
 21
-21.13287611498993
 31
0.0
  0
LINE
  5
1D9
330
2
100
AcDbEntity
  8
CONTINUOUS1
100
AcDbLine
 10
55.34930430241832
 20
-19.58530928187906
 30
0.0
 11
55.34930430241832
 21
-20.94930442883094
 31
0.0
  0
LINE
  5
1DA
330
2
100
AcDbEntity
  8
CONTINUOUS1
100
AcDbLine
 10
55.34930430241832
 20
-19.58530928187906
 30
0.0
 11
55.5493030839499
 21
-19.58530928187906
 31
0.0
  0
LINE
  5
1DB
330
2
100
AcDbEntity
  8
CONTINUOUS1
100
AcDbLine
 10
55.55000000001053
 20
-21.93260197497034
 30
0.0
 11
55.55000000001053
 21
-18.83741196743472
 31
0.0
  0
ARC
  5
1DC
330
2
100
AcDbEntity
  8
CONTINUOUS1
100
AcDbCircle
 10
81.15892044247756
 20
-15.74680336818026
 30
0.0
 40
27.0041267175368
100
AcDbArc
 50
183.6250667064095
 51
185.3225220782158
  0
CIRCLE
  5
1DD
330
2
100
AcDbEntity
  8
CONTINUOUS1
100
AcDbCircle
 10
53.00000000001012
 20
-17.94999999997003
 30
0.0
 40
2.70000000000019
  0
LINE
  5
1DE
330
2
100
AcDbEntity
  8
CONTINUOUS1
100
AcDbLine
 10
50.65069648262589
 20
-20.94930351735434
 30
0.0
 11
50.45000000001039
 21
-21.15477769351787
 31
0.0
  0
LINE
  5
1DF
330
2
100
AcDbEntity
  8
CONTINUOUS1
100
AcDbLine
 10
50.45000000001039
 20
-21.15477769351787
 30
0.0
 11
50.45041415429714
 21
-21.13287611498993
 31
0.0
  0
LINE
  5
1E0
330
2
100
AcDbEntity
  8
CONTINUOUS1
100
AcDbLine
 10
55.34930430241832
 20
-20.94930442883094
 30
0.0
 11
55.5303446630063
 21
-21.13287611498993
 31
0.0
  0
LINE
  5
1E1
330
2
100
AcDbEntity
  8
CONTINUOUS1
100
AcDbLine
 10
55.54971514390911
 20
-21.15477769351787
 30
0.0
 11
55.5303446630063
 21
-21.13287611498993
 31
0.0
  0
LINE
  5
1E2
330
2
100
AcDbEntity
  8
CONTINUOUS1
100
AcDbLine
 10
54.46422842260735
 20
-17.43421406912341
 30
0.0
 11
54.5266309212733
 21
-18.2317765608193
 31
0.0
  0
LINE
  5
1E3
330
2
100
AcDbEntity
  8
CONTINUOUS1
100
AcDbLine
 10
51.53577157741334
 20
-18.4657859308162
 30
0.0
 11
51.47336907874739
 21
-17.66822343912031
 31
0.0
  0
LINE
  5
1E4
330
2
100
AcDbEntity
  8
CONTINUOUS1
100
AcDbLine
 10
49.44983208428528
 20
-17.62474329396468
 30
0.0
 11
50.25000000001011
 21
-17.66396449325112
 31
0.0
  0
LINE
  5
1E5
330
2
100
AcDbEntity
  8
CONTINUOUS1
100
AcDbLine
 10
55.75000000001034
 20
-17.66396449325123
 30
0.0
 11
56.55000000001052
 21
-17.62477610551696
 31
0.0
  0
ARC
  5
1E6
330
2
100
AcDbEntity
  8
CONTINUOUS1
100
AcDbCircle
 10
52.24697644315131
 20
-17.30626124430361
 30
0.0
 40
0.30051598906143
100
AcDbArc
 50
274.572087573627
 51
4.375501210979426
  0
ARC
  5
1E7
330
2
100
AcDbEntity
  8
CONTINUOUS1
100
AcDbCircle
 10
53.64394294057422
 20
-17.19673759460838
 30
0.0
 40
0.30073864541485
100
AcDbArc
 50
184.6143465372495
 51
274.3332422473592
  0
ARC
  5
1E8
330
2
100
AcDbEntity
  8
CONTINUOUS1
100
AcDbCircle
 10
53.75176032474257
 20
-18.59265885385864
 30
0.0
 40
0.29934112606765
100
AcDbArc
 50
94.3475425653799
 51
184.6000462192556
  0
ARC
  5
1E9
330
2
100
AcDbEntity
  8
CONTINUOUS1
100
AcDbCircle
 10
52.35688397287447
 20
-18.70229511031416
 30
0.0
 40
0.29983793841016
100
AcDbArc
 50
4.442817804228163
 51
94.50477098035666
  0
LINE
  5
1EA
330
2
100
AcDbEntity
  8
CONTINUOUS1
100
AcDbLine
 10
50.45041415429714
 20
-21.13287611498993
 30
0.0
 11
50.25000000001011
 21
-21.10669019342072
 31
0.0
  0
LINE
  5
1EB
330
2
100
AcDbEntity
  8
CONTINUOUS1
100
AcDbLine
 10
55.5493030839499
 20
-21.13287611498993
 30
0.0
 11
55.75000000001034
 21
-21.10669019342072
 31
0.0
  0
ARC
  5
1EC
330
2
100
AcDbEntity
  8
CONTINUOUS1
100
AcDbCircle
 10
49.45066686074927
 20
-21.06804580730401
 30
0.0
 40
0.7990979226845301
100
AcDbArc
 50
269.9401460377221
 51
357.2314608414074
  0
ARC
  5
1ED
330
2
100
AcDbEntity
  8
CONTINUOUS1
100
AcDbCircle
 10
56.54900384635505
 20
-21.06813361919018
 30
0.0
 40
0.79900417283173
100
AcDbArc
 50
179.948204009425
 51
270.0714331876247
  0
ARC
  5
1EE
330
2
100
AcDbEntity
  8
CONTINUOUS1
100
AcDbCircle
 10
50.84925959012219
 20
-19.58530813157867
 30
0.0
 40
0.39842750738849
100
AcDbArc
 50
122.730919410002
 51
180.0050565191435
  0
ARC
  5
1EF
330
2
100
AcDbEntity
  8
CONTINUOUS1
100
AcDbCircle
 10
50.85412942399023
 20
-19.58715592350123
 30
0.0
 40
0.20344210753266
100
AcDbArc
 50
125.5546441525422
 51
179.479919739986
  0
ARC
  5
1F0
330
2
100
AcDbEntity
  8
CONTINUOUS1
100
AcDbCircle
 10
50.87286393674242
 20
-19.6454018740626
 30
0.0
 40
0.20192291861572
100
AcDbArc
 50
120.6807089717885
 51
179.6867413606665
  0
LINE
  5
1F1
330
2
100
AcDbEntity
  8
CONTINUOUS1
100
AcDbLine
 10
50.67094403609996
 20
-19.64429788727443
 30
0.0
 11
50.65069569760236
 21
-19.58530928187906
 31
0.0
  0
LINE
  5
1F2
330
2
100
AcDbEntity
  8
CONTINUOUS1
100
AcDbLine
 10
55.34930430241832
 20
-19.58530928187906
 30
0.0
 11
55.32905596392049
 21
-19.64429788727443
 31
0.0
  0
ARC
  5
1F3
330
2
100
AcDbEntity
  8
CONTINUOUS1
100
AcDbCircle
 10
55.1302372614756
 20
-19.64381879263598
 30
0.0
 40
0.19881927968261
100
AcDbArc
 50
359.8619342783051
 51
59.93835902081212
  0
ARC
  5
1F4
330
2
100
AcDbEntity
  8
CONTINUOUS1
100
AcDbCircle
 10
55.14826143507171
 20
-19.58614972513397
 30
0.0
 40
0.201044624041
100
AcDbArc
 50
0.2395189222784511
 51
54.91082049129682
  0
ARC
  5
1F5
330
2
100
AcDbEntity
  8
CONTINUOUS1
100
AcDbCircle
 10
55.14520632065488
 20
-19.58805415399081
 30
0.0
 40
0.40410608561166
100
AcDbArc
 50
0.3891819555985059
 51
56.74031315083289
  0
LINE
  5
1F6
330
2
100
AcDbEntity
  8
CONTINUOUS1
100
AcDbLine
 10
124.4642284226073
 20
-17.4342140690818
 30
0.0
 11
123.6666659309115
 21
-17.49661656774765
 31
0.0
  0
LINE
  5
1F7
330
2
100
AcDbEntity
  8
CONTINUOUS1
100
AcDbLine
 10
123.729068429577
 20
-18.29417905944364
 30
0.0
 11
124.5266309212733
 21
-18.2317765607778
 31
0.0
  0
ARC
  5
1F8
330
2
100
AcDbEntity
  8
CONTINUOUS1
100
AcDbCircle
 10
123.0000000000101
 20
-17.94999999992819
 30
0.0
 40
2.751730142493769
100
AcDbArc
 50
2.036348949908873
 51
177.9636510518606
  0
ARC
  5
1F9
330
2
100
AcDbEntity
  8
CONTINUOUS1
100
AcDbCircle
 10
123.0000000000101
 20
-17.94999999992821
 30
0.0
 40
2.76489659950154
100
AcDbArc
 50
5.944181274644601
 51
174.0558187253554
  0
LINE
  5
1FA
330
2
100
AcDbEntity
  8
CONTINUOUS1
100
AcDbLine
 10
120.6709440360999
 20
-20.92905596383866
 30
0.0
 11
125.3290559639205
 21
-20.92905596383866
 31
0.0
  0
LINE
  5
1FB
330
2
100
AcDbEntity
  8
CONTINUOUS1
100
AcDbLine
 10
125.349303517395
 20
-20.94930351731273
 30
0.0
 11
120.6506964826259
 21
-20.94930351731273
 31
0.0
  0
LINE
  5
1FC
330
2
100
AcDbEntity
  8
CONTINUOUS1
100
AcDbLine
 10
120.4506064654582
 20
-21.15477769347626
 30
0.0
 11
125.549715143909
 21
-21.15477769347626
 31
0.0
  0
LINE
  5
1FD
330
2
100
AcDbEntity
  8
CONTINUOUS1
100
AcDbLine
 10
119.4500000000104
 20
-21.93260197492884
 30
0.0
 11
126.5500000000105
 21
-21.93260197492884
 31
0.0
  0
LINE
  5
1FE
330
2
100
AcDbEntity
  8
CONTINUOUS1
100
AcDbLine
 10
122.6558209404946
 20
-18.67906842949515
 30
0.0
 11
122.8095031608988
 21
-20.64327142224875
 31
0.0
  0
LINE
  5
1FF
330
2
100
AcDbEntity
  8
CONTINUOUS1
100
AcDbLine
 10
123.6070656525948
 20
-20.5808689235829
 30
0.0
 11
123.4533834321909
 21
-18.6166659308293
 31
0.0
  0
LINE
  5
200
330
2
100
AcDbEntity
  8
CONTINUOUS1
100
AcDbLine
 10
119.4500000000104
 20
-21.93260197492884
 30
0.0
 11
119.4500000000104
 21
-17.62477610547546
 31
0.0
  0
LINE
  5
201
330
2
100
AcDbEntity
  8
CONTINUOUS1
100
AcDbLine
 10
122.7072201949821
 20
-19.33599913510398
 30
0.0
 11
123.5047826866783
 21
-19.27359663643813
 31
0.0
  0
LINE
  5
202
330
2
100
AcDbEntity
  8
CONTINUOUS1
100
AcDbLine
 10
123.5157859308568
 20
-19.41422842252518
 30
0.0
 11
122.7182234391608
 21
-19.47663092119103
 31
0.0
  0
LINE
  5
203
330
2
100
AcDbEntity
  8
CONTINUOUS1
100
AcDbLine
 10
120.2500000000101
 20
-21.10669019337922
 30
0.0
 11
120.2500000000101
 21
-17.66396449320951
 31
0.0
  0
LINE
  5
204
330
2
100
AcDbEntity
  8
CONTINUOUS1
100
AcDbLine
 10
120.6709440360999
 20
-19.64429788723294
 30
0.0
 11
120.6709440360999
 21
-20.92905596383866
 31
0.0
  0
LINE
  5
205
330
2
100
AcDbEntity
  8
CONTINUOUS1
100
AcDbLine
 10
120.6506964826259
 20
-20.94930351731273
 30
0.0
 11
120.6709440360999
 21
-20.92905596383866
 31
0.0
  0
LINE
  5
206
330
2
100
AcDbEntity
  8
CONTINUOUS1
100
AcDbLine
 10
120.4696553370148
 20
-21.13287611494843
 30
0.0
 11
120.4504141542971
 21
-21.13287611494843
 31
0.0
  0
LINE
  5
207
330
2
100
AcDbEntity
  8
CONTINUOUS1
100
AcDbLine
 10
120.4506969160708
 20
-18.83941204516873
 30
0.0
 11
120.4506969160708
 21
-21.13287611494638
 31
0.0
  0
LINE
  5
208
330
2
100
AcDbEntity
  8
CONTINUOUS1
100
AcDbLine
 10
120.6506956976024
 20
-20.94930442878956
 30
0.0
 11
120.6506956976024
 21
-19.58530928183757
 31
0.0
  0
LINE
  5
209
330
2
100
AcDbEntity
  8
CONTINUOUS1
100
AcDbLine
 10
120.6506956976024
 20
-19.58530928183757
 30
0.0
 11
120.4506969160708
 21
-19.58530928183757
 31
0.0
  0
LINE
  5
20A
330
2
100
AcDbEntity
  8
CONTINUOUS1
100
AcDbLine
 10
120.4500000000104
 20
-21.15477769347626
 30
0.0
 11
120.4500000000104
 21
-21.93260197492884
 31
0.0
  0
LINE
  5
20B
330
2
100
AcDbEntity
  8
CONTINUOUS1
100
AcDbLine
 10
121.5357715774133
 20
-18.4657859307747
 30
0.0
 11
122.3333340691093
 21
-18.40338343210885
 31
0.0
  0
ARC
  5
20C
330
2
100
AcDbEntity
  8
CONTINUOUS1
100
AcDbCircle
 10
94.8410795575438
 20
-20.15319663171012
 30
0.0
 40
27.0041267175335
100
AcDbArc
 50
3.625066706393736
 51
5.322522078200436
  0
LINE
  5
20D
330
2
100
AcDbEntity
  8
CONTINUOUS1
100
AcDbLine
 10
123.292779805038
 20
-16.56400086475253
 30
0.0
 11
122.4952173133422
 21
-16.62640336341838
 31
0.0
  0
LINE
  5
20E
330
2
100
AcDbEntity
  8
CONTINUOUS1
100
AcDbLine
 10
122.2709315704434
 20
-17.60582094041297
 30
0.0
 11
121.4733690787474
 21
-17.6682234390787
 31
0.0
  0
LINE
  5
20F
330
2
100
AcDbEntity
  8
CONTINUOUS1
100
AcDbLine
 10
122.484214069164
 20
-16.48577157733132
 30
0.0
 11
123.2817765608598
 21
-16.42336907866547
 31
0.0
  0
LINE
  5
210
330
2
100
AcDbEntity
  8
CONTINUOUS1
100
AcDbLine
 10
122.3929343474259
 20
-15.31913107627349
 30
0.0
 11
122.5466165678298
 21
-17.28333406902721
 31
0.0
  0
LINE
  5
211
330
2
100
AcDbEntity
  8
CONTINUOUS1
100
AcDbLine
 10
123.3441790595258
 20
-17.22093157036136
 30
0.0
 11
123.1904968391217
 21
-15.25672857760765
 31
0.0
  0
LINE
  5
212
330
2
100
AcDbEntity
  8
CONTINUOUS1
100
AcDbLine
 10
126.5500000000105
 20
-21.93260197492884
 30
0.0
 11
126.5500000000105
 21
-17.62477610547546
 31
0.0
  0
LINE
  5
213
330
2
100
AcDbEntity
  8
CONTINUOUS1
100
AcDbLine
 10
125.7500000000103
 20
-21.10669019337922
 30
0.0
 11
125.7500000000103
 21
-17.66396449320962
 31
0.0
  0
LINE
  5
214
330
2
100
AcDbEntity
  8
CONTINUOUS1
100
AcDbLine
 10
125.3290559639205
 20
-20.92905596383866
 30
0.0
 11
125.3290559639205
 21
-19.64429788723294
 31
0.0
  0
LINE
  5
215
330
2
100
AcDbEntity
  8
CONTINUOUS1
100
AcDbLine
 10
125.349303517395
 20
-20.94930351731273
 30
0.0
 11
125.3290559639205
 21
-20.92905596383866
 31
0.0
  0
LINE
  5
216
330
2
100
AcDbEntity
  8
CONTINUOUS1
100
AcDbLine
 10
125.5493030839499
 20
-21.13287611494843
 30
0.0
 11
125.5493030839499
 21
-19.58530928183757
 31
0.0
  0
LINE
  5
217
330
2
100
AcDbEntity
  8
CONTINUOUS1
100
AcDbLine
 10
125.549999995779
 20
-21.13287611494843
 30
0.0
 11
125.5303446630063
 21
-21.13287611494843
 31
0.0
  0
LINE
  5
218
330
2
100
AcDbEntity
  8
CONTINUOUS1
100
AcDbLine
 10
125.3493043024183
 20
-19.58530928183757
 30
0.0
 11
125.3493043024183
 21
-20.94930442878933
 31
0.0
  0
LINE
  5
219
330
2
100
AcDbEntity
  8
CONTINUOUS1
100
AcDbLine
 10
125.3493043024183
 20
-19.58530928183757
 30
0.0
 11
125.5493030839499
 21
-19.58530928183757
 31
0.0
  0
LINE
  5
21A
330
2
100
AcDbEntity
  8
CONTINUOUS1
100
AcDbLine
 10
125.5500000000105
 20
-21.93260197492884
 30
0.0
 11
125.5500000000105
 21
-18.83741196739322
 31
0.0
  0
ARC
  5
21B
330
2
100
AcDbEntity
  8
CONTINUOUS1
100
AcDbCircle
 10
151.1589204424774
 20
-15.74680336813867
 30
0.0
 40
27.00412671753656
100
AcDbArc
 50
183.6250667064095
 51
185.3225220782158
  0
CIRCLE
  5
21C
330
2
100
AcDbEntity
  8
CONTINUOUS1
100
AcDbCircle
 10
123.0000000000101
 20
-17.94999999992842
 30
0.0
 40
2.70000000000019
  0
LINE
  5
21D
330
2
100
AcDbEntity
  8
CONTINUOUS1
100
AcDbLine
 10
120.6506964826259
 20
-20.94930351731273
 30
0.0
 11
120.4500000000104
 21
-21.15477769347626
 31
0.0
  0
LINE
  5
21E
330
2
100
AcDbEntity
  8
CONTINUOUS1
100
AcDbLine
 10
120.4500000000104
 20
-21.15477769347626
 30
0.0
 11
120.4504141542971
 21
-21.13287611494843
 31
0.0
  0
LINE
  5
21F
330
2
100
AcDbEntity
  8
CONTINUOUS1
100
AcDbLine
 10
125.3493043024183
 20
-20.94930442878933
 30
0.0
 11
125.5303446630063
 21
-21.13287611494843
 31
0.0
  0
LINE
  5
220
330
2
100
AcDbEntity
  8
CONTINUOUS1
100
AcDbLine
 10
125.549715143909
 20
-21.15477769347626
 30
0.0
 11
125.5303446630063
 21
-21.13287611494843
 31
0.0
  0
LINE
  5
221
330
2
100
AcDbEntity
  8
CONTINUOUS1
100
AcDbLine
 10
124.4642284226073
 20
-17.4342140690818
 30
0.0
 11
124.5266309212733
 21
-18.2317765607778
 31
0.0
  0
LINE
  5
222
330
2
100
AcDbEntity
  8
CONTINUOUS1
100
AcDbLine
 10
121.5357715774133
 20
-18.4657859307747
 30
0.0
 11
121.4733690787474
 21
-17.6682234390787
 31
0.0
  0
LINE
  5
223
330
2
100
AcDbEntity
  8
CONTINUOUS1
100
AcDbLine
 10
119.4498320842853
 20
-17.62474329392319
 30
0.0
 11
120.2500000000101
 21
-17.66396449320951
 31
0.0
  0
LINE
  5
224
330
2
100
AcDbEntity
  8
CONTINUOUS1
100
AcDbLine
 10
125.7500000000103
 20
-17.66396449320962
 30
0.0
 11
126.5500000000105
 21
-17.62477610547546
 31
0.0
  0
ARC
  5
225
330
2
100
AcDbEntity
  8
CONTINUOUS1
100
AcDbCircle
 10
122.2469764431513
 20
-17.30626124426211
 30
0.0
 40
0.30051598906143
100
AcDbArc
 50
274.572087573627
 51
4.375501210979426
  0
ARC
  5
226
330
2
100
AcDbEntity
  8
CONTINUOUS1
100
AcDbCircle
 10
123.6439429405742
 20
-17.19673759456677
 30
0.0
 40
0.30073864541485
100
AcDbArc
 50
184.6143465372495
 51
274.3332422473592
  0
ARC
  5
227
330
2
100
AcDbEntity
  8
CONTINUOUS1
100
AcDbCircle
 10
123.7517603247425
 20
-18.59265885381715
 30
0.0
 40
0.29934112606765
100
AcDbArc
 50
94.3475425653799
 51
184.6000462192556
  0
ARC
  5
228
330
2
100
AcDbEntity
  8
CONTINUOUS1
100
AcDbCircle
 10
122.3568839728744
 20
-18.70229511027267
 30
0.0
 40
0.29983793841016
100
AcDbArc
 50
4.442817804228163
 51
94.50477098035666
  0
LINE
  5
229
330
2
100
AcDbEntity
  8
CONTINUOUS1
100
AcDbLine
 10
120.4504141542971
 20
-21.13287611494843
 30
0.0
 11
120.2500000000101
 21
-21.10669019337922
 31
0.0
  0
LINE
  5
22A
330
2
100
AcDbEntity
  8
CONTINUOUS1
100
AcDbLine
 10
125.5493030839499
 20
-21.13287611494843
 30
0.0
 11
125.7500000000103
 21
-21.10669019337922
 31
0.0
  0
ARC
  5
22B
330
2
100
AcDbEntity
  8
CONTINUOUS1
100
AcDbCircle
 10
119.4506668607492
 20
-21.06804580726252
 30
0.0
 40
0.7990979226845301
100
AcDbArc
 50
269.9401460377221
 51
357.2314608414074
  0
ARC
  5
22C
330
2
100
AcDbEntity
  8
CONTINUOUS1
100
AcDbCircle
 10
126.549003846355
 20
-21.06813361914869
 30
0.0
 40
0.79900417283173
100
AcDbArc
 50
179.948204009425
 51
270.0714331876247
  0
ARC
  5
22D
330
2
100
AcDbEntity
  8
CONTINUOUS1
100
AcDbCircle
 10
120.8492595901222
 20
-19.58530813153718
 30
0.0
 40
0.39842750738862
100
AcDbArc
 50
122.730919410002
 51
180.0050565191435
  0
ARC
  5
22E
330
2
100
AcDbEntity
  8
CONTINUOUS1
100
AcDbCircle
 10
120.8541294239902
 20
-19.58715592345973
 30
0.0
 40
0.20344210753266
100
AcDbArc
 50
125.5546441525422
 51
179.479919739986
  0
ARC
  5
22F
330
2
100
AcDbEntity
  8
CONTINUOUS1
100
AcDbCircle
 10
120.8728639367424
 20
-19.6454018740211
 30
0.0
 40
0.20192291861572
100
AcDbArc
 50
120.6807089717885
 51
179.6867413606665
  0
LINE
  5
230
330
2
100
AcDbEntity
  8
CONTINUOUS1
100
AcDbLine
 10
120.6709440360999
 20
-19.64429788723294
 30
0.0
 11
120.6506956976024
 21
-19.58530928183757
 31
0.0
  0
LINE
  5
231
330
2
100
AcDbEntity
  8
CONTINUOUS1
100
AcDbLine
 10
125.3493043024183
 20
-19.58530928183757
 30
0.0
 11
125.3290559639205
 21
-19.64429788723294
 31
0.0
  0
ARC
  5
232
330
2
100
AcDbEntity
  8
CONTINUOUS1
100
AcDbCircle
 10
125.1302372614755
 20
-19.64381879259448
 30
0.0
 40
0.19881927968274
100
AcDbArc
 50
359.8619342783051
 51
59.93835902081212
  0
ARC
  5
233
330
2
100
AcDbEntity
  8
CONTINUOUS1
100
AcDbCircle
 10
125.1482614350717
 20
-19.58614972509247
 30
0.0
 40
0.201044624041
100
AcDbArc
 50
0.2395189222784511
 51
54.91082049129682
  0
ARC
  5
234
330
2
100
AcDbEntity
  8
CONTINUOUS1
100
AcDbCircle
 10
125.1452063206548
 20
-19.58805415394932
 30
0.0
 40
0.4041060856118
100
AcDbArc
 50
0.3891819555985059
 51
56.74031315083289
  0
ARC
  5
235
330
2
100
AcDbEntity
  8
CONTINUOUS1
100
AcDbCircle
 10
0.20000000001312
 20
-22.29999999999984
 30
0.0
 40
0.20000000000005
100
AcDbArc
 50
180.0000000000335
 51
270.0000000000326
  0
LINE
  5
236
330
2
100
AcDbEntity
  8
CONTINUOUS1
100
AcDbLine
 10
0.32835222090011
 20
-21.97164777911269
 30
0.0
 11
0.3283522209002299
 21
-21.43680035489524
 31
0.0
  0
ARC
  5
237
330
2
100
AcDbEntity
  8
CONTINUOUS1
100
AcDbCircle
 10
0.52835222090016
 20
-21.97164777911269
 30
0.0
 40
0.19999999999993
100
AcDbArc
 50
180.0
 51
270.0000000000326
  0
ARC
  5
238
330
2
100
AcDbEntity
  8
CONTINUOUS1
100
AcDbCircle
 10
1.68258868891405
 20
-20.81741131109754
 30
0.0
 40
0.19999999999993
100
AcDbArc
 50
180.000000000033
 51
270.0000000000326
  0
ARC
  5
239
330
2
100
AcDbEntity
  8
CONTINUOUS1
100
AcDbCircle
 10
1.68324075243458
 20
-20.816712038966
 30
0.0
 40
1.000425391632639
100
AcDbArc
 50
180.0420631856369
 51
269.9587302980345
  0
ARC
  5
23A
330
2
100
AcDbEntity
  8
CONTINUOUS1
100
AcDbCircle
 10
1.29952535357745
 20
-21.20049027519178
 30
0.0
 40
0.99950973352122
100
AcDbArc
 50
179.9917578051279
 51
270.0075651137908
  0
ARC
  5
23B
330
2
100
AcDbEntity
  8
CONTINUOUS1
100
AcDbCircle
 10
-2.15165178902327
 20
-21.84439369259107
 30
0.0
 40
2.699910504137439
100
AcDbArc
 50
353.0381039104526
 51
359.6763130869362
  0
ARC
  5
23C
330
2
100
AcDbEntity
  8
CONTINUOUS1
100
AcDbCircle
 10
1.68258868889006
 20
20.81741131109684
 30
0.0
 40
0.2
100
AcDbArc
 50
90.00000000003252
 51
180.000000000033
  0
LINE
  5
23D
330
2
100
AcDbEntity
  8
CONTINUOUS1
100
AcDbLine
 10
0.32835222087397
 20
21.97164777911174
 30
0.0
 11
0.32835222087385
 21
21.43680035478702
 31
0.0
  0
ARC
  5
23E
330
2
100
AcDbEntity
  8
CONTINUOUS1
100
AcDbCircle
 10
0.5283522208740101
 20
21.97164777911174
 30
0.0
 40
0.2
100
AcDbArc
 50
90.00000000003252
 51
180.0
  0
ARC
  5
23F
330
2
100
AcDbEntity
  8
CONTINUOUS1
100
AcDbCircle
 10
0.19999999998697
 20
22.30000000000012
 30
0.0
 40
0.2
100
AcDbArc
 50
90.00000000003252
 51
180.0000000000335
  0
ARC
  5
240
330
2
100
AcDbEntity
  8
CONTINUOUS1
100
AcDbCircle
 10
1.68324075243458
 20
20.81671203896601
 30
0.0
 40
1.00042539163263
100
AcDbArc
 50
90.0412697019655
 51
179.957936814363
  0
ARC
  5
241
330
2
100
AcDbEntity
  8
CONTINUOUS1
100
AcDbCircle
 10
1.29952535357745
 20
21.20049027519184
 30
0.0
 40
0.9995097335211799
100
AcDbArc
 50
89.99243488620917
 51
180.0082421948719
  0
ARC
  5
242
330
2
100
AcDbEntity
  8
CONTINUOUS1
100
AcDbCircle
 10
-2.15165178902327
 20
21.84439369259109
 30
0.0
 40
2.69991050413738
100
AcDbArc
 50
0.3236869130638196
 51
6.961896089547418
  0
ARC
  5
243
330
2
100
AcDbEntity
  8
CONTINUOUS1
100
AcDbCircle
 10
139.8003156300143
 20
22.30000000008141
 30
0.0
 40
0.2
100
AcDbArc
 50
359.9995945237776
 51
90.00000000003252
  0
ARC
  5
244
330
2
100
AcDbEntity
  8
CONTINUOUS1
100
AcDbCircle
 10
138.3174113110841
 20
20.81741131117789
 30
0.0
 40
0.2
100
AcDbArc
 50
0.0000000000340955
 51
90.00000000003252
  0
LINE
  5
245
330
2
100
AcDbEntity
  8
CONTINUOUS1
100
AcDbLine
 10
139.6716477790979
 20
21.97164777919341
 30
0.0
 11
139.6716477790977
 21
21.43809376191888
 31
0.0
  0
ARC
  5
246
330
2
100
AcDbEntity
  8
CONTINUOUS1
100
AcDbCircle
 10
139.4716477790979
 20
21.97164777919341
 30
0.0
 40
0.2
100
AcDbArc
 50
0.0
 51
90.00000000003252
  0
ARC
  5
247
330
2
100
AcDbEntity
  8
CONTINUOUS1
100
AcDbCircle
 10
138.3174113111089
 20
-20.81741131101649
 30
0.0
 40
0.19999999999993
100
AcDbArc
 50
270.0000000000326
 51
0.0000000000340955
  0
ARC
  5
248
330
2
100
AcDbEntity
  8
CONTINUOUS1
100
AcDbCircle
 10
139.8000000004919
 20
-22.29999999991861
 30
0.0
 40
0.2
100
AcDbArc
 50
270.0000000000326
 51
359.9995945237775
  0
LINE
  5
249
330
2
100
AcDbEntity
  8
CONTINUOUS1
100
AcDbLine
 10
139.6716477791239
 20
-21.97164777903095
 30
0.0
 11
139.6716477791239
 21
-21.43809376181207
 31
0.0
  0
ARC
  5
24A
330
2
100
AcDbEntity
  8
CONTINUOUS1
100
AcDbCircle
 10
139.4716477791238
 20
-21.97164777903095
 30
0.0
 40
0.20000000000005
100
AcDbArc
 50
270.0000000000326
 51
0.0
  0
ARC
  5
24B
330
2
100
AcDbEntity
  8
CONTINUOUS1
100
AcDbCircle
 10
138.3170748775666
 20
-20.816712038966
 30
0.0
 40
1.000425391632639
100
AcDbArc
 50
270.0412697019654
 51
359.9579368143631
  0
ARC
  5
24C
330
2
100
AcDbEntity
  8
CONTINUOUS1
100
AcDbCircle
 10
138.7007902764236
 20
-21.20049027519189
 30
0.0
 40
0.9995097335211099
100
AcDbArc
 50
269.9924348862158
 51
0.0082421948719745
  0
ARC
  5
24D
330
2
100
AcDbEntity
  8
CONTINUOUS1
100
AcDbCircle
 10
142.1519674190243
 20
-21.84439369259107
 30
0.0
 40
2.699910504137839
100
AcDbArc
 50
180.3236869130638
 51
186.9618960895488
  0
ARC
  5
24E
330
2
100
AcDbEntity
  8
CONTINUOUS1
100
AcDbCircle
 10
138.3170748775666
 20
20.81671203896601
 30
0.0
 40
1.00042539163263
100
AcDbArc
 50
0.0420631856369244
 51
89.95873029803453
  0
ARC
  5
24F
330
2
100
AcDbEntity
  8
CONTINUOUS1
100
AcDbCircle
 10
138.7007902764236
 20
21.20049027519184
 30
0.0
 40
0.9995097335211799
100
AcDbArc
 50
359.9917578051281
 51
90.0075651137843
  0
ARC
  5
250
330
2
100
AcDbEntity
  8
CONTINUOUS1
100
AcDbCircle
 10
142.1519674190243
 20
21.84439369259109
 30
0.0
 40
2.69991050413738
100
AcDbArc
 50
173.0381039104511
 51
179.6763130869361
  0
INSERT
  5
2BE
330
2
100
AcDbEntity
  8
0
100
AcDbBlockReference
  2
Setup
 10
107.1785823187869
 20
32.31661720155512
 30
0.0
  0
VIEWPORT
  5
2C8
102
{ACAD_XDICTIONARY
360
2C9
102
}
330
1B
100
AcDbEntity
 67
     1
  8
0
100
AcDbViewport
 10
125.5656175541471
 20
99.35054424929552
 30
0.0
 40
406.5384423294458
 41
172.9143508041243
 68
     1
 69
     1
 12
125.5656175541471
 22
99.35054424929552
 13
0.0
 23
0.0
 14
0.5
 24
0.5
 15
0.5
 25
0.5
 16
0.0
 26
0.0
 36
1.0
 17
0.0
 27
0.0
 37
0.0
 42
50.0
 43
0.0
 44
0.0
 45
172.9143508041243
 50
0.0
 51
0.0
 72
  1000
 90
   819232
  1

281
     0
 71
     1
 74
     0
110
0.0
120
0.0
130
0.0
111
1.0
121
0.0
131
0.0
112
0.0
122
1.0
132
0.0
 79
     0
146
0.0
170
     0
 61
     5
348
2C
292
     1
282
     1
141
0.0
142
0.0
 63
   250
421
  3355443
  0
VIEWPORT
  5
2CC
102
{ACAD_XDICTIONARY
360
2CD
102
}
330
1B
100
AcDbEntity
 67
     1
  8
0
100
AcDbViewport
 10
125.563702328949
 20
97.43717016547433
 30
0.0
 40
248.8289420326953
 41
155.8743403309486
 68
     2
 69
     2
 12
67.98191343994961
 22
-0.0418198059133209
 13
0.0
 23
0.0
 14
10.0
 24
10.0
 15
10.0
 25
10.0
 16
0.0
 26
0.0
 36
1.0
 17
0.0
 27
0.0
 37
0.0
 42
50.0
 43
0.0
 44
0.0
 45
107.2442432932311
 50
0.0
 51
0.0
 72
  1000
 90
   819296
  1

281
     0
 71
     1
 74
     0
110
0.0
120
0.0
130
0.0
111
1.0
121
0.0
131
0.0
112
0.0
122
1.0
132
0.0
 79
     0
146
0.0
170
     0
 61
     5
348
2C
292
     1
282
     1
141
0.0
142
0.0
 63
   250
421
  3355443
  0
ENDSEC
  0
SECTION
  2
OBJECTS
  0
DICTIONARY
  5
A
330
0
100
AcDbDictionary
281
     1
  3
ACAD_CIP_PREVIOUS_PRODUCT_INFO
350
28C
  3
ACAD_COLOR
350
3C
  3
ACAD_DETAILVIEWSTYLE
350
288
  3
ACAD_GROUP
350
33
  3
ACAD_LAYOUT
350
17
  3
ACAD_MATERIAL
350
C
  3
ACAD_MLEADERSTYLE
350
3F
  3
ACAD_MLINESTYLE
350
34
  3
ACAD_PLOTSETTINGS
350
35
  3
ACAD_PLOTSTYLENAME
350
9
  3
ACAD_SCALELIST
350
3D
  3
ACAD_SECTIONVIEWSTYLE
350
286
  3
ACAD_TABLESTYLE
350
3E
  3
ACAD_VISUALSTYLE
350
2D
  3
ACDB_RECOMPOSE_DATA
350
334
  3
AcDbVariableDictionary
350
261
  0
DICTIONARY
  5
20
330
1F
100
AcDbDictionary
280
     1
281
     1
  3
ACAD_LAYERSTATES
360
21
  0
DICTIONARY
  5
7
330
6
100
AcDbDictionary
280
     1
281
     1
  0
DICTIONARY
  5
3
330
2
100
AcDbDictionary
280
     1
281
     1
  3
ACAD_SORTENTS
360
251
  0
DICTIONARY
  5
2B9
330
2B8
100
AcDbDictionary
280
     1
281
     1
  0
DICTIONARY
  5
2C9
330
2C8
100
AcDbDictionary
280
     1
281
     1
  3
ASDK_XREC_ANNOTATION_SCALE_INFO
360
2CA
  0
DICTIONARY
  5
2CD
330
2CC
100
AcDbDictionary
280
     1
281
     1
  3
ASDK_XREC_ANNOTATION_SCALE_INFO
360
2CE
  0
XRECORD
  5
28C
102
{ACAD_REACTORS
330
A
102
}
330
A
100
AcDbXrecord
280
     1
300
ACD
300
2016
300
86445ACD_2016_0F
  0
DICTIONARY
  5
3C
102
{ACAD_REACTORS
330
A
102
}
330
A
100
AcDbDictionary
281
     1
  0
DICTIONARY
  5
288
102
{ACAD_REACTORS
330
A
102
}
330
A
100
AcDbDictionary
281
     1
  3
Imperial24
350
2B7
  3
Metric50
350
289
  0
DICTIONARY
  5
33
102
{ACAD_REACTORS
330
A
102
}
330
A
100
AcDbDictionary
281
     1
  0
DICTIONARY
  5
17
102
{ACAD_REACTORS
330
A
102
}
330
A
100
AcDbDictionary
281
     1
  3
Model
350
16
  3
Układ1
350
1E
  0
DICTIONARY
  5
C
102
{ACAD_REACTORS
330
A
102
}
330
A
100
AcDbDictionary
281
     1
  3
ByBlock
350
39
  3
ByLayer
350
36
  3
Global
350
B
  0
DICTIONARY
  5
3F
102
{ACAD_REACTORS
330
A
102
}
330
A
100
AcDbDictionary
281
     1
  3
Standard
350
285
  0
DICTIONARY
  5
34
102
{ACAD_REACTORS
330
A
102
}
330
A
100
AcDbDictionary
281
     1
  3
Standard
350
40
  0
DICTIONARY
  5
35
102
{ACAD_REACTORS
330
A
102
}
330
A
100
AcDbDictionary
281
     1
  3
A Size Paper
350
2B5
  0
ACDBDICTIONARYWDFLT
  5
9
102
{ACAD_REACTORS
330
A
102
}
330
A
100
AcDbDictionary
281
     1
  3
Normal
350
8
100
AcDbDictionaryWithDefault
340
8
  0
DICTIONARY
  5
3D
102
{ACAD_REACTORS
330
A
102
}
330
A
100
AcDbDictionary
281
     1
  3
A0
350
45
  3
A1
350
46
  3
A2
350
47
  3
A3
350
48
  3
A4
350
49
  3
A5
350
4A
  3
A6
350
4B
  3
A7
350
4C
  3
A8
350
4D
  3
A9
350
4E
  3
B0
350
4F
  3
B1
350
50
  3
B2
350
51
  3
B3
350
52
  3
B4
350
53
  3
B5
350
54
  3
B6
350
55
  0
DICTIONARY
  5
286
102
{ACAD_REACTORS
330
A
102
}
330
A
100
AcDbDictionary
281
     1
  3
Imperial24
350
2B6
  3
Metric50
350
287
  0
DICTIONARY
  5
3E
102
{ACAD_REACTORS
330
A
102
}
330
A
100
AcDbDictionary
281
     1
  3
Standard
350
41
  0
DICTIONARY
  5
2D
102
{ACAD_REACTORS
330
A
102
}
330
A
100
AcDbDictionary
281
     1
  3
2dWireframe
350
2C
  3
Basic
350
274
  3
Brighten
350
278
  3
ColorChange
350
27C
  3
Conceptual
350
276
  3
Dim
350
277
  3
EdgeColorOff
350
284
  3
Facepattern
350
27B
  3
Flat
350
270
  3
FlatWithEdges
350
271
  3
Gouraud
350
272
  3
GouraudWithEdges
350
273
  3
Hidden
350
275
  3
JitterOff
350
282
  3
Linepattern
350
27A
  3
OverhangOff
350
283
  3
Realistic
350
43
  3
Shaded
350
281
  3
Shaded with edges
350
280
  3
Shades of Gray
350
27D
  3
Sketchy
350
27E
  3
Thicken
350
279
  3
Wireframe
350
44
  3
X-Ray
350
27F
  0
XRECORD
  5
334
102
{ACAD_REACTORS
330
A
102
}
330
A
100
AcDbXrecord
280
     1
 90
        1
330
41
  0
DICTIONARY
  5
261
102
{ACAD_REACTORS
330
A
102
}
330
A
100
AcDbDictionary
281
     1
  3
CANNOSCALE
350
265
  3
CMLEADERSTYLE
350
263
  3
CTABLESTYLE
350
262
  3
CVIEWDETAILSTYLE
350
311
  3
CVIEWSECTIONSTYLE
350
312
  3
DIMASSOC
350
26B
  3
HIDETEXT
350
26A
  3
INDEXCTL
350
269
  3
LAYEREVAL
350
266
  3
LAYERNOTIFY
350
267
  3
LIGHTINGUNITS
350
313
  3
MSLTSCALE
350
264
  3
SORTENTS
350
268
  0
DICTIONARY
  5
21
102
{ACAD_REACTORS
330
20
102
}
330
20
100
AcDbDictionary
281
     1
  0
SORTENTSTABLE
  5
251
102
{ACAD_REACTORS
330
3
102
}
330
3
100
AcDbSortentsTable
330
2
  0
XRECORD
  5
2CA
102
{ACAD_REACTORS
330
2C9
102
}
330
2C9
100
AcDbXrecord
280
     1
 90
        1
340
45
  0
XRECORD
  5
2CE
102
{ACAD_REACTORS
330
2CD
102
}
330
2CD
100
AcDbXrecord
280
     1
 90
        1
340
45
  0
ACDBDETAILVIEWSTYLE
  5
2B7
102
{ACAD_XDICTIONARY
360
36D
102
}
102
{ACAD_REACTORS
330
288
102
}
330
288
100
AcDbModelDocViewStyle
 70
     0
  3
Imperial24
290
     0
100
AcDbDetailViewStyle
 70
     0
 71
     0
 90
        3
 71
     1
340
23
 62
   256
 40
0.24
340
0
 62
   256
 40
0.24
300

 40
0.36
280
     3
 71
     2
340
14
 90
       25
 62
   256
 71
     3
340
23
 62
   256
 40
0.24
 90
        1
 40
0.75
 90
        1
300
%<\AcVar ViewType \f "%tc1">% %<\AcVar ViewDetailId>%\PSCALE %<\AcVar ViewScale \f "%sn">%
 71
     4
340
14
 90
       25
 62
   256
340
14
 90
       25
 62
   256
280
     0
  0
ACDBDETAILVIEWSTYLE
  5
289
102
{ACAD_XDICTIONARY
360
369
102
}
102
{ACAD_REACTORS
330
288
102
}
330
288
100
AcDbModelDocViewStyle
 70
     0
  3
Metric50
290
     0
100
AcDbDetailViewStyle
 70
     0
 71
     0
 90
        3
 71
     1
340
23
 62
   256
 40
5.0
340
0
 62
   256
 40
5.0
300

 40
0.0
280
     1
 71
     2
340
14
 90
       25
 62
   256
 71
     3
340
23
 62
   256
 40
5.0
 90
        0
 40
15.0
 90
        1
300
%<\AcVar ViewDetailId>% (%<\AcVar ViewScale \f "%sn">%)
 71
     4
340
14
 90
       25
 62
   256
340
14
 90
       25
 62
   256
280
     0
  0
LAYOUT
  5
16
102
{ACAD_XDICTIONARY
360
18
102
}
102
{ACAD_REACTORS
330
17
102
}
330
17
100
AcDbPlotSettings
  1

  2
none_device
  4
ISO_A4_(210.00_x_297.00_MM)
  6

 40
7.5
 41
20.0
 42
7.5
 43
20.0
 44
210.0
 45
297.0
 46
11.54999923706054
 47
-13.65000009536743
 48
0.0
 49
0.0
140
0.0
141
0.0
142
1.0
143
8.704084754739808
 70
 11952
 72
     1
 73
     0
 74
     0
  7

 75
     0
147
0.1148885871608098
 76
     0
 77
     2
 78
   300
148
0.0
149
0.0
100
AcDbLayout
  1
Model
 70
     1
 71
     0
 10
0.0
 20
0.0
 11
12.0
 21
9.0
 12
0.0
 22
0.0
 32
0.0
 14
0.0
 24
0.0
 34
0.0
 15
0.0
 25
0.0
 35
0.0
146
0.0
 13
0.0
 23
0.0
 33
0.0
 16
1.0
 26
0.0
 36
0.0
 17
0.0
 27
1.0
 37
0.0
 76
     0
330
2
331
2B
1001
ACAD_PSEXT
1000
None
1000
None
1000
Not applicable
1000
The layout will not be plotted unless a new plotter configuration name is selected.
1070
     0
  0
LAYOUT
  5
1E
102
{ACAD_REACTORS
330
17
102
}
330
17
100
AcDbPlotSettings
  1

  2
Adobe PDF
  4
Ledger
  6

 40
3.174999952316284
 41
3.174999952316284
 42
3.17498779296875
 43
3.17498779296875
 44
431.7999877929687
 45
279.3999938964844
 46
0.0
 47
0.0
 48
0.0
 49
0.0
140
0.0
141
0.0
142
1.0
143
14.85773797744048
 70
   688
 72
     0
 73
     0
 74
     1
  7

 75
     0
147
0.0673049963270565
 76
     0
 77
     2
 78
   300
148
-28.75446460027433
149
-495.0511911957896
100
AcDbLayout
  1
Układ1
 70
     1
 71
     1
 10
-0.7251516838435848
 20
17.63298715849954
 11
251.8563867921379
 21
181.0681013400914
 12
0.0
 22
0.0
 32
0.0
 14
1.132065535443871
 24
19.49020437778699
 34
-0.0015258207003583
 15
249.9991766854646
 25
175.3816227718275
 35
0.0000000349246037
146
0.0
 13
0.0
 23
0.0
 33
0.0
 16
1.0
 26
0.0
 36
0.0
 17
0.0
 27
1.0
 37
0.0
 76
     0
330
1B
331
2C8
1001
ACAD_PSEXT
1000
Adobe PDF
1000
Adobe PDF Converter
1000
Documents\*.pdf
1000

1070
     0
  0
MATERIAL
  5
39
102
{ACAD_XDICTIONARY
360
3A
102
}
102
{ACAD_REACTORS
330
C
102
}
330
C
100
AcDbMaterial
  1
ByBlock
 94
       63
  0
MATERIAL
  5
36
102
{ACAD_XDICTIONARY
360
37
102
}
102
{ACAD_REACTORS
330
C
102
}
330
C
100
AcDbMaterial
  1
ByLayer
 94
       63
  0
MATERIAL
  5
B
102
{ACAD_XDICTIONARY
360
D
102
}
102
{ACAD_REACTORS
330
C
102
}
330
C
100
AcDbMaterial
  1
Global
 43
0.0007999999797903
 43
0.0
 43
0.0
 43
0.0
 43
0.0
 43
0.0007999999797903
 43
0.0
 43
0.0
 43
0.0
 43
0.0
 43
1.0
 43
0.0
 43
0.0
 43
0.0
 43
0.0
 43
1.0
 49
0.0007999999797903
 49
0.0
 49
0.0
 49
0.0
 49
0.0
 49
0.0007999999797903
 49
0.0
 49
0.0
 49
0.0
 49
0.0
 49
1.0
 49
0.0
 49
0.0
 49
0.0
 49
0.0
 49
1.0
142
0.0007999999797903
142
0.0
142
0.0
142
0.0
142
0.0
142
0.0007999999797903
142
0.0
142
0.0
142
0.0
142
0.0
142
1.0
142
0.0
142
0.0
142
0.0
142
0.0
142
1.0
144
0.0007999999797903
144
0.0
144
0.0
144
0.0
144
0.0
144
0.0007999999797903
144
0.0
144
0.0
144
0.0
144
0.0
144
1.0
144
0.0
144
0.0
144
0.0
144
0.0
144
1.0
 94
       63
1001
ACAD
1070
    -1
1070
     3
1070
     0
1000

1071
        0
1070
     0
  0
MLEADERSTYLE
  5
285
102
{ACAD_XDICTIONARY
360
365
102
}
102
{ACAD_REACTORS
330
3F
102
}
330
3F
100
AcDbMLeaderStyle
179
     2
170
     2
171
     1
172
     0
 90
        2
 40
0.0
 41
0.0
173
     1
 91
-1056964608
340
26
 92
       -2
290
     1
 42
2.0
291
     1
 43
0.36
  3
Standard
 44
4.0
300

342
23
174
     1
178
     6
175
     1
176
     0
 93
-1056964608
 45
4.0
292
     0
297
     0
 46
4.0
 94
-1056964608
 47
1.0
 49
1.0
140
1.0
293
     1
141
0.0
294
     1
177
     0
142
1.0
295
     0
296
     0
143
0.125
271
     0
272
     9
273
     9
  0
MLINESTYLE
  5
40
102
{ACAD_REACTORS
330
34
102
}
330
34
100
AcDbMlineStyle
  2
STANDARD
 70
     0
  3

 62
   256
 51
90.0
 52
90.0
 71
     2
 49
0.5
 62
   256
  6
BYLAYER
 49
-0.5
 62
   256
  6
BYLAYER
  0
PLOTSETTINGS
  5
2B5
102
{ACAD_REACTORS
330
35
102
}
330
35
100
AcDbPlotSettings
  1
A Size Paper
  2
none_device
  4
ANSI_A_(8.50_x_11.00_Inches)
  6

 40
6.349999904632568
 41
19.04999923706055
 42
6.350006103515625
 43
19.04998779296875
 44
215.8999938964844
 45
279.3999938964844
 46
3.809999999999999
 47
-8.889999999999998
 48
0.0
 49
0.0
140
0.0
141
0.0
142
1.0
143
1.0
 70
   692
 72
     0
 73
     0
 74
     1
  7
monochrome.ctb
 75
    16
147
1.0
 76
     0
 77
     2
 78
   300
148
0.011307206981639
149
0.0024315583905917
  0
ACDBPLACEHOLDER
  5
8
102
{ACAD_REACTORS
330
9
102
}
330
9
  0
SCALE
  5
45
102
{ACAD_REACTORS
330
3D
102
}
330
3D
100
AcDbScale
 70
     0
300
1:1
140
1.0
141
1.0
290
     1
  0
SCALE
  5
46
102
{ACAD_REACTORS
330
3D
102
}
330
3D
100
AcDbScale
 70
     0
300
1:2
140
1.0
141
2.0
290
     0
  0
SCALE
  5
47
102
{ACAD_REACTORS
330
3D
102
}
330
3D
100
AcDbScale
 70
     0
300
1:4
140
1.0
141
4.0
290
     0
  0
SCALE
  5
48
102
{ACAD_REACTORS
330
3D
102
}
330
3D
100
AcDbScale
 70
     0
300
1:5
140
1.0
141
5.0
290
     0
  0
SCALE
  5
49
102
{ACAD_REACTORS
330
3D
102
}
330
3D
100
AcDbScale
 70
     0
300
1:8
140
1.0
141
8.0
290
     0
  0
SCALE
  5
4A
102
{ACAD_REACTORS
330
3D
102
}
330
3D
100
AcDbScale
 70
     0
300
1:10
140
1.0
141
10.0
290
     0
  0
SCALE
  5
4B
102
{ACAD_REACTORS
330
3D
102
}
330
3D
100
AcDbScale
 70
     0
300
1:16
140
1.0
141
16.0
290
     0
  0
SCALE
  5
4C
102
{ACAD_REACTORS
330
3D
102
}
330
3D
100
AcDbScale
 70
     0
300
1:20
140
1.0
141
20.0
290
     0
  0
SCALE
  5
4D
102
{ACAD_REACTORS
330
3D
102
}
330
3D
100
AcDbScale
 70
     0
300
1:30
140
1.0
141
30.0
290
     0
  0
SCALE
  5
4E
102
{ACAD_REACTORS
330
3D
102
}
330
3D
100
AcDbScale
 70
     0
300
1:40
140
1.0
141
40.0
290
     0
  0
SCALE
  5
4F
102
{ACAD_REACTORS
330
3D
102
}
330
3D
100
AcDbScale
 70
     0
300
1:50
140
1.0
141
50.0
290
     0
  0
SCALE
  5
50
102
{ACAD_REACTORS
330
3D
102
}
330
3D
100
AcDbScale
 70
     0
300
1:100
140
1.0
141
100.0
290
     0
  0
SCALE
  5
51
102
{ACAD_REACTORS
330
3D
102
}
330
3D
100
AcDbScale
 70
     0
300
2:1
140
2.0
141
1.0
290
     0
  0
SCALE
  5
52
102
{ACAD_REACTORS
330
3D
102
}
330
3D
100
AcDbScale
 70
     0
300
4:1
140
4.0
141
1.0
290
     0
  0
SCALE
  5
53
102
{ACAD_REACTORS
330
3D
102
}
330
3D
100
AcDbScale
 70
     0
300
8:1
140
8.0
141
1.0
290
     0
  0
SCALE
  5
54
102
{ACAD_REACTORS
330
3D
102
}
330
3D
100
AcDbScale
 70
     0
300
10:1
140
10.0
141
1.0
290
     0
  0
SCALE
  5
55
102
{ACAD_REACTORS
330
3D
102
}
330
3D
100
AcDbScale
 70
     0
300
100:1
140
100.0
141
1.0
290
     0
  0
ACDBSECTIONVIEWSTYLE
  5
2B6
102
{ACAD_XDICTIONARY
360
36B
102
}
102
{ACAD_REACTORS
330
286
102
}
330
286
100
AcDbModelDocViewStyle
 70
     0
  3
Imperial24
290
     0
100
AcDbSectionViewStyle
 70
     0
 71
     0
 90
       78
 71
     1
340
23
 62
   256
 40
0.24
340
0
340
0
 62
   256
 40
0.24
300
I, O, Q, S, X, Z
 40
0.48
 90
        3
 40
0.18
 90
        1
 71
     2
340
14
 90
       25
 62
   256
340
14
 90
       50
 62
   256
 40
0.24
 40
0.0
 40
0.24
 71
     3
340
23
 62
   256
 40
0.24
 90
        1
 40
0.75
 90
        1
300
%<\AcVar ViewType \f "%tc1">% %<\AcVar ViewSectionStartId>%-%<\AcVar ViewSectionEndId>%\PSCALE %<\AcVar ViewScale \f "%sn">%
 71
     4
 62
   256
 62
   257
300
ANSI31
 40
1.0
 90
        0
290
     0
290
     0
 90
        6
 40
0.0
 40
1.570796326794896
 40
0.2617993877991494
 40
1.308996938995747
 40
-0.2617993877991494
 40
1.832595714594046
  0
ACDBSECTIONVIEWSTYLE
  5
287
102
{ACAD_XDICTIONARY
360
367
102
}
102
{ACAD_REACTORS
330
286
102
}
330
286
100
AcDbModelDocViewStyle
 70
     0
  3
Metric50
290
     0
100
AcDbSectionViewStyle
 70
     0
 71
     0
 90
      102
 71
     1
340
23
 62
   256
 40
5.0
340
0
340
0
 62
   256
 40
5.0
300
I, O, Q, S, X, Z
 40
10.0
 90
        0
 40
2.5
 90
        0
 71
     2
340
14
 90
       25
 62
   256
340
14
 90
       50
 62
   256
 40
5.0
 40
2.5
 40
5.0
 71
     3
340
23
 62
   256
 40
5.0
 90
        0
 40
15.0
 90
        1
300
%<\AcVar ViewSectionStartId>%-%<\AcVar ViewSectionEndId>% (%<\AcVar ViewScale \f "%sn">%)
 71
     4
 62
   256
 62
   257
300
ANSI31
 40
1.0
 90
        0
290
     0
290
     0
 90
        6
 40
0.0
 40
1.570796326794896
 40
0.2617993877991494
 40
1.308996938995747
 40
-0.2617993877991494
 40
1.832595714594046
  0
TABLESTYLE
  5
41
102
{ACAD_XDICTIONARY
360
42
102
}
102
{ACAD_REACTORS
330
3E
102
}
330
3E
100
AcDbTableStyle
280
     0
  3
Standard
 70
     0
 71
     0
 40
1.5
 41
1.5
280
     0
281
     0
  7
Standard
140
4.5
170
     2
 62
     0
 63
     7
283
     0
 90
      512
 91
        0
  1

274
    -2
284
     1
 64
     0
275
    -2
285
     1
 65
     0
276
    -2
286
     1
 66
     0
277
    -2
287
     1
 67
     0
278
    -2
288
     1
 68
     0
279
    -2
289
     1
 69
     0
  7
Standard
140
6.0
170
     5
 62
     0
 63
     7
283
     0
 90
      512
 91
        0
  1

274
    -2
284
     1
 64
     0
275
    -2
285
     1
 65
     0
276
    -2
286
     1
 66
     0
277
    -2
287
     1
 67
     0
278
    -2
288
     1
 68
     0
279
    -2
289
     1
 69
     0
  7
Standard
140
4.5
170
     5
 62
     0
 63
     7
283
     0
 90
      512
 91
        0
  1

274
    -2
284
     1
 64
     0
275
    -2
285
     1
 65
     0
276
    -2
286
     1
 66
     0
277
    -2
287
     1
 67
     0
278
    -2
288
     1
 68
     0
279
    -2
289
     1
 69
     0
  0
VISUALSTYLE
  5
2C
102
{ACAD_XDICTIONARY
360
335
102
}
102
{ACAD_REACTORS
330
2D
102
}
330
2D
100
AcDbVisualStyle
  2
2dWireframe
 70
     4
177
     2
291
     0
 71
     0
176
     1
 72
     2
176
     1
 73
     1
176
     1
 90
        0
176
     1
 40
0.6
176
     1
 41
30.0
176
     1
 63
     7
176
     1
 74
     1
176
     1
 91
        4
176
     1
 64
     7
176
     1
 65
   257
176
     1
 75
     1
176
     1
175
     1
176
     1
 42
1.0
176
     1
 92
        0
176
     1
 66
   257
176
     1
 43
1.0
176
     1
 76
     1
176
     1
 77
     6
176
     1
 78
     2
176
     1
 67
     7
176
     1
 79
     5
176
     1
170
     0
176
     1
171
     0
176
     1
290
     0
176
     1
 93
        1
176
     1
 44
0.0
176
     1
173
     0
176
     1
1001
ACAD
1000
AcDbSavedByObjectVersion
1070
     0
  0
VISUALSTYLE
  5
274
102
{ACAD_XDICTIONARY
360
343
102
}
102
{ACAD_REACTORS
330
2D
102
}
330
2D
100
AcDbVisualStyle
  2
Basic
 70
     7
177
     2
291
     1
 71
     1
176
     1
 72
     0
176
     1
 73
     1
176
     1
 90
        0
176
     1
 40
0.6
176
     1
 41
30.0
176
     1
 63
     7
421
 16777215
176
     1
 74
     0
176
     1
 91
        4
176
     1
 64
     7
176
     1
 65
   257
176
     1
 75
     1
176
     1
175
     1
176
     1
 42
1.0
176
     1
 92
        8
176
     1
 66
     7
176
     1
 43
1.0
176
     1
 76
     1
176
     1
 77
     6
176
     1
 78
     2
176
     1
 67
     7
176
     1
 79
     5
176
     1
170
     0
176
     1
171
     0
176
     1
290
     0
176
     1
 93
        1
176
     1
 44
0.0
176
     1
173
     0
176
     1
1001
ACAD
1000
AcDbSavedByObjectVersion
1070
     0
  0
VISUALSTYLE
  5
278
102
{ACAD_XDICTIONARY
360
34B
102
}
102
{ACAD_REACTORS
330
2D
102
}
330
2D
100
AcDbVisualStyle
  2
Brighten
 70
    12
177
     2
291
     1
 71
     2
176
     1
 72
     2
176
     1
 73
     0
176
     1
 90
        0
176
     1
 40
0.6
176
     1
 41
30.0
176
     1
 63
     7
421
 16777215
176
     1
 74
     1
176
     1
 91
        4
176
     1
 64
     7
176
     1
 65
   257
176
     1
 75
     1
176
     1
175
     1
176
     1
 42
1.0
176
     1
 92
        8
176
     1
 66
     7
176
     1
 43
1.0
176
     1
 76
     1
176
     1
 77
     6
176
     1
 78
     2
176
     1
 67
     7
176
     1
 79
     5
176
     1
170
     0
176
     1
171
     0
176
     1
290
     0
176
     1
 93
        1
176
     1
 44
50.0
176
     1
173
     0
176
     1
1001
ACAD
1000
AcDbSavedByObjectVersion
1070
     0
  0
VISUALSTYLE
  5
27C
102
{ACAD_XDICTIONARY
360
353
102
}
102
{ACAD_REACTORS
330
2D
102
}
330
2D
100
AcDbVisualStyle
  2
ColorChange
 70
    16
177
     2
291
     1
 71
     2
176
     1
 72
     2
176
     1
 73
     3
176
     1
 90
        0
176
     1
 40
0.6
176
     1
 41
30.0
176
     1
 63
     8
421
  8421504
176
     1
 74
     1
176
     1
 91
        4
176
     1
 64
     7
176
     1
 65
   257
176
     1
 75
     1
176
     1
175
     1
176
     1
 42
1.0
176
     1
 92
        8
176
     1
 66
     8
424
  8421504
176
     1
 43
1.0
176
     1
 76
     1
176
     1
 77
     6
176
     1
 78
     2
176
     1
 67
     7
176
     1
 79
     5
176
     1
170
     0
176
     1
171
     0
176
     1
290
     0
176
     1
 93
        1
176
     1
 44
0.0
176
     1
173
     0
176
     1
1001
ACAD
1000
AcDbSavedByObjectVersion
1070
     0
  0
VISUALSTYLE
  5
276
102
{ACAD_XDICTIONARY
360
347
102
}
102
{ACAD_REACTORS
330
2D
102
}
330
2D
100
AcDbVisualStyle
  2
Conceptual
 70
     9
177
     2
291
     0
 71
     3
176
     1
 72
     2
176
     1
 73
     0
176
     1
 90
        0
176
     1
 40
0.6
176
     1
 41
30.0
176
     1
 63
     7
421
 16777215
176
     1
 74
     2
176
     1
 91
        2
176
     1
 64
     7
176
     1
 65
   257
176
     1
 75
     1
176
     1
175
     1
176
     1
 42
179.0
176
     1
 92
        8
176
     1
 66
     7
176
     1
 43
1.0
176
     1
 76
     1
176
     1
 77
     6
176
     1
 78
     2
176
     1
 67
     7
176
     1
 79
     3
176
     1
170
     0
176
     1
171
     0
176
     1
290
     0
176
     1
 93
        1
176
     1
 44
0.0
176
     1
173
     0
176
     1
1001
ACAD
1000
AcDbSavedByObjectVersion
1070
     0
  0
VISUALSTYLE
  5
277
102
{ACAD_XDICTIONARY
360
349
102
}
102
{ACAD_REACTORS
330
2D
102
}
330
2D
100
AcDbVisualStyle
  2
Dim
 70
    11
177
     2
291
     1
 71
     2
176
     1
 72
     2
176
     1
 73
     0
176
     1
 90
        0
176
     1
 40
0.6
176
     1
 41
30.0
176
     1
 63
     7
421
 16777215
176
     1
 74
     1
176
     1
 91
        4
176
     1
 64
     7
176
     1
 65
   257
176
     1
 75
     1
176
     1
175
     1
176
     1
 42
1.0
176
     1
 92
        8
176
     1
 66
     7
176
     1
 43
1.0
176
     1
 76
     1
176
     1
 77
     6
176
     1
 78
     2
176
     1
 67
     7
176
     1
 79
     5
176
     1
170
     0
176
     1
171
     0
176
     1
290
     0
176
     1
 93
        1
176
     1
 44
-50.0
176
     1
173
     0
176
     1
1001
ACAD
1000
AcDbSavedByObjectVersion
1070
     0
  0
VISUALSTYLE
  5
284
102
{ACAD_XDICTIONARY
360
363
102
}
102
{ACAD_REACTORS
330
2D
102
}
330
2D
100
AcDbVisualStyle
  2
EdgeColorOff
 70
    22
177
     2
291
     1
 71
     2
176
     0
 72
     2
176
     0
 73
     0
176
     0
 90
        0
176
     0
 40
0.6
176
     0
 41
30.0
176
     0
 63
     7
421
 16777215
176
     0
 74
     1
176
     0
 91
        4
176
     0
 64
     7
176
     0
 65
   257
176
     0
 75
     1
176
     0
175
     1
176
     0
 42
1.0
176
     0
 92
        8
176
     2
 66
     7
176
     0
 43
1.0
176
     0
 76
     1
176
     0
 77
     6
176
     0
 78
     2
176
     0
 67
     7
176
     0
 79
     5
176
     0
170
     0
176
     0
171
     0
176
     0
290
     0
176
     0
 93
        1
176
     0
 44
0.0
176
     0
173
     0
176
     0
1001
ACAD
1000
AcDbSavedByObjectVersion
1070
     0
  0
VISUALSTYLE
  5
27B
102
{ACAD_XDICTIONARY
360
351
102
}
102
{ACAD_REACTORS
330
2D
102
}
330
2D
100
AcDbVisualStyle
  2
Facepattern
 70
    15
177
     2
291
     1
 71
     2
176
     1
 72
     2
176
     1
 73
     0
176
     1
 90
        0
176
     1
 40
0.6
176
     1
 41
30.0
176
     1
 63
     7
421
 16777215
176
     1
 74
     1
176
     1
 91
        4
176
     1
 64
     7
176
     1
 65
   257
176
     1
 75
     1
176
     1
175
     1
176
     1
 42
1.0
176
     1
 92
        8
176
     1
 66
     7
176
     1
 43
1.0
176
     1
 76
     1
176
     1
 77
     6
176
     1
 78
     2
176
     1
 67
     7
176
     1
 79
     5
176
     1
170
     0
176
     1
171
     0
176
     1
290
     0
176
     1
 93
        1
176
     1
 44
0.0
176
     1
173
     0
176
     1
1001
ACAD
1000
AcDbSavedByObjectVersion
1070
     0
  0
VISUALSTYLE
  5
270
102
{ACAD_XDICTIONARY
360
33B
102
}
102
{ACAD_REACTORS
330
2D
102
}
330
2D
100
AcDbVisualStyle
  2
Flat
 70
     0
177
     2
291
     1
 71
     2
176
     1
 72
     1
176
     1
 73
     1
176
     1
 90
        2
176
     1
 40
0.6
176
     1
 41
30.0
176
     1
 63
     7
421
 16777215
176
     1
 74
     0
176
     1
 91
        0
176
     1
 64
     7
176
     1
 65
   257
176
     1
 75
     1
176
     1
175
     1
176
     1
 42
1.0
176
     1
 92
        8
176
     1
 66
     7
176
     1
 43
1.0
176
     1
 76
     1
176
     1
 77
     6
176
     1
 78
     2
176
     1
 67
     7
176
     1
 79
     5
176
     1
170
     0
176
     1
171
     0
176
     1
290
     0
176
     1
 93
       13
176
     1
 44
0.0
176
     1
173
     0
176
     1
1001
ACAD
1000
AcDbSavedByObjectVersion
1070
     0
  0
VISUALSTYLE
  5
271
102
{ACAD_XDICTIONARY
360
33D
102
}
102
{ACAD_REACTORS
330
2D
102
}
330
2D
100
AcDbVisualStyle
  2
FlatWithEdges
 70
     1
177
     2
291
     1
 71
     2
176
     1
 72
     1
176
     1
 73
     1
176
     1
 90
        2
176
     1
 40
0.6
176
     1
 41
30.0
176
     1
 63
     7
421
 16777215
176
     1
 74
     1
176
     1
 91
        0
176
     1
 64
     7
176
     1
 65
   257
176
     1
 75
     1
176
     1
175
     1
176
     1
 42
1.0
176
     1
 92
        0
176
     1
 66
   257
176
     1
 43
1.0
176
     1
 76
     1
176
     1
 77
     6
176
     1
 78
     2
176
     1
 67
     7
176
     1
 79
     5
176
     1
170
     0
176
     1
171
     0
176
     1
290
     0
176
     1
 93
       13
176
     1
 44
0.0
176
     1
173
     0
176
     1
1001
ACAD
1000
AcDbSavedByObjectVersion
1070
     0
  0
VISUALSTYLE
  5
272
102
{ACAD_XDICTIONARY
360
33F
102
}
102
{ACAD_REACTORS
330
2D
102
}
330
2D
100
AcDbVisualStyle
  2
Gouraud
 70
     2
177
     2
291
     1
 71
     2
176
     1
 72
     2
176
     1
 73
     1
176
     1
 90
        2
176
     1
 40
0.6
176
     1
 41
30.0
176
     1
 63
     7
421
 16777215
176
     1
 74
     0
176
     1
 91
        0
176
     1
 64
     7
176
     1
 65
   257
176
     1
 75
     1
176
     1
175
     1
176
     1
 42
1.0
176
     1
 92
        0
176
     1
 66
     7
176
     1
 43
1.0
176
     1
 76
     1
176
     1
 77
     6
176
     1
 78
     2
176
     1
 67
     7
176
     1
 79
     5
176
     1
170
     0
176
     1
171
     0
176
     1
290
     0
176
     1
 93
       13
176
     1
 44
0.0
176
     1
173
     0
176
     1
1001
ACAD
1000
AcDbSavedByObjectVersion
1070
     0
  0
VISUALSTYLE
  5
273
102
{ACAD_XDICTIONARY
360
341
102
}
102
{ACAD_REACTORS
330
2D
102
}
330
2D
100
AcDbVisualStyle
  2
GouraudWithEdges
 70
     3
177
     2
291
     1
 71
     2
176
     1
 72
     2
176
     1
 73
     1
176
     1
 90
        2
176
     1
 40
0.6
176
     1
 41
30.0
176
     1
 63
     7
421
 16777215
176
     1
 74
     1
176
     1
 91
        0
176
     1
 64
     7
176
     1
 65
   257
176
     1
 75
     1
176
     1
175
     1
176
     1
 42
1.0
176
     1
 92
        0
176
     1
 66
   257
176
     1
 43
1.0
176
     1
 76
     1
176
     1
 77
     6
176
     1
 78
     2
176
     1
 67
     7
176
     1
 79
     5
176
     1
170
     0
176
     1
171
     0
176
     1
290
     0
176
     1
 93
       13
176
     1
 44
0.0
176
     1
173
     0
176
     1
1001
ACAD
1000
AcDbSavedByObjectVersion
1070
     0
  0
VISUALSTYLE
  5
275
102
{ACAD_XDICTIONARY
360
345
102
}
102
{ACAD_REACTORS
330
2D
102
}
330
2D
100
AcDbVisualStyle
  2
Hidden
 70
     6
177
     2
291
     0
 71
     1
176
     1
 72
     2
176
     1
 73
     2
176
     1
 90
        0
176
     1
 40
0.6
176
     1
 41
30.0
176
     1
 63
     7
421
 16777215
176
     1
 74
     2
176
     1
 91
        2
176
     1
 64
     7
176
     1
 65
   257
176
     1
 75
     2
176
     1
175
     1
176
     1
 42
40.0
176
     1
 92
        0
176
     1
 66
   257
176
     1
 43
1.0
176
     1
 76
     1
176
     1
 77
     6
176
     1
 78
     2
176
     1
 67
     7
176
     1
 79
     3
176
     1
170
     0
176
     1
171
     0
176
     1
290
     0
176
     1
 93
        1
176
     1
 44
0.0
176
     1
173
     0
176
     1
1001
ACAD
1000
AcDbSavedByObjectVersion
1070
     0
  0
VISUALSTYLE
  5
282
102
{ACAD_XDICTIONARY
360
35F
102
}
102
{ACAD_REACTORS
330
2D
102
}
330
2D
100
AcDbVisualStyle
  2
JitterOff
 70
    20
177
     2
291
     1
 71
     2
176
     0
 72
     2
176
     0
 73
     0
176
     0
 90
        0
176
     0
 40
0.6
176
     0
 41
30.0
176
     0
 63
     7
421
 16777215
176
     0
 74
     1
176
     0
 91
        4
176
     0
 64
     7
176
     0
 65
   257
176
     0
 75
     1
176
     0
175
     1
176
     0
 42
1.0
176
     0
 92
       10
176
     2
 66
     7
176
     0
 43
1.0
176
     0
 76
     1
176
     0
 77
     6
176
     0
 78
     2
176
     0
 67
     7
176
     0
 79
     5
176
     0
170
     0
176
     0
171
     0
176
     0
290
     0
176
     0
 93
        1
176
     0
 44
0.0
176
     0
173
     0
176
     0
1001
ACAD
1000
AcDbSavedByObjectVersion
1070
     0
  0
VISUALSTYLE
  5
27A
102
{ACAD_XDICTIONARY
360
34F
102
}
102
{ACAD_REACTORS
330
2D
102
}
330
2D
100
AcDbVisualStyle
  2
Linepattern
 70
    14
177
     2
291
     1
 71
     2
176
     1
 72
     2
176
     1
 73
     0
176
     1
 90
        0
176
     1
 40
0.6
176
     1
 41
30.0
176
     1
 63
     7
421
 16777215
176
     1
 74
     1
176
     1
 91
        4
176
     1
 64
     7
176
     1
 65
   257
176
     1
 75
     7
176
     1
175
     7
176
     1
 42
1.0
176
     1
 92
        8
176
     1
 66
     7
176
     1
 43
1.0
176
     1
 76
     1
176
     1
 77
     6
176
     1
 78
     2
176
     1
 67
     7
176
     1
 79
     5
176
     1
170
     0
176
     1
171
     0
176
     1
290
     0
176
     1
 93
        1
176
     1
 44
0.0
176
     1
173
     0
176
     1
1001
ACAD
1000
AcDbSavedByObjectVersion
1070
     0
  0
VISUALSTYLE
  5
283
102
{ACAD_XDICTIONARY
360
361
102
}
102
{ACAD_REACTORS
330
2D
102
}
330
2D
100
AcDbVisualStyle
  2
OverhangOff
 70
    21
177
     2
291
     1
 71
     2
176
     0
 72
     2
176
     0
 73
     0
176
     0
 90
        0
176
     0
 40
0.6
176
     0
 41
30.0
176
     0
 63
     7
421
 16777215
176
     0
 74
     1
176
     0
 91
        4
176
     0
 64
     7
176
     0
 65
   257
176
     0
 75
     1
176
     0
175
     1
176
     0
 42
1.0
176
     0
 92
        9
176
     2
 66
     7
176
     0
 43
1.0
176
     0
 76
     1
176
     0
 77
     6
176
     0
 78
     2
176
     0
 67
     7
176
     0
 79
     5
176
     0
170
     0
176
     0
171
     0
176
     0
290
     0
176
     0
 93
        1
176
     0
 44
0.0
176
     0
173
     0
176
     0
1001
ACAD
1000
AcDbSavedByObjectVersion
1070
     0
  0
VISUALSTYLE
  5
43
102
{ACAD_XDICTIONARY
360
337
102
}
102
{ACAD_REACTORS
330
2D
102
}
330
2D
100
AcDbVisualStyle
  2
Realistic
 70
     8
177
     2
291
     0
 71
     2
176
     1
 72
     2
176
     1
 73
     0
176
     1
 90
        2
176
     1
 40
0.6
176
     1
 41
30.0
176
     1
 63
     7
176
     1
 74
     0
176
     1
 91
        0
176
     1
 64
     7
176
     1
 65
   257
176
     1
 75
     1
176
     1
175
     1
176
     1
 42
1.0
176
     1
 92
        8
176
     1
 66
   257
176
     1
 43
1.0
176
     1
 76
     1
176
     1
 77
     6
176
     1
 78
     2
176
     1
 67
     7
176
     1
 79
     3
176
     1
170
     0
176
     1
171
     0
176
     1
290
     0
176
     1
 93
       13
176
     1
 44
0.0
176
     1
173
     0
176
     1
1001
ACAD
1000
AcDbSavedByObjectVersion
1070
     0
  0
VISUALSTYLE
  5
281
102
{ACAD_XDICTIONARY
360
35D
102
}
102
{ACAD_REACTORS
330
2D
102
}
330
2D
100
AcDbVisualStyle
  2
Shaded
 70
    27
177
     2
291
     0
 71
     2
176
     1
 72
     2
176
     1
 73
     1
176
     1
 90
        2
176
     1
 40
0.6
176
     1
 41
30.0
176
     1
 63
     7
421
 16777215
176
     1
 74
     0
176
     1
 91
        4
176
     1
 64
     7
176
     1
 65
   257
176
     1
 75
     1
176
     1
175
     1
176
     1
 42
1.0
176
     1
 92
        8
176
     1
 66
   257
176
     1
 43
1.0
176
     1
 76
     1
176
     1
 77
     6
176
     1
 78
     2
176
     1
 67
     8
425
  7895160
176
     1
 79
     3
176
     1
170
     0
176
     1
171
     0
176
     1
290
     0
176
     1
 93
        5
176
     1
 44
0.0
176
     1
173
     0
176
     1
1001
ACAD
1000
AcDbSavedByObjectVersion
1070
     0
  0
VISUALSTYLE
  5
280
102
{ACAD_XDICTIONARY
360
35B
102
}
102
{ACAD_REACTORS
330
2D
102
}
330
2D
100
AcDbVisualStyle
  2
Shaded with edges
 70
    26
177
     2
291
     0
 71
     2
176
     1
 72
     2
176
     1
 73
     1
176
     1
 90
        2
176
     1
 40
0.6
176
     1
 41
30.0
176
     1
 63
     7
421
 16777215
176
     1
 74
     1
176
     1
 91
       10
176
     1
 64
     7
176
     1
 65
   257
176
     1
 75
     2
176
     1
175
     1
176
     1
 42
1.0
176
     1
 92
        8
176
     1
 66
   257
176
     1
 43
1.0
176
     1
 76
     1
176
     1
 77
     6
176
     1
 78
     2
176
     1
 67
     7
176
     1
 79
     3
176
     1
170
     0
176
     1
171
     0
176
     1
290
     0
176
     1
 93
        5
176
     1
 44
0.0
176
     1
173
     0
176
     1
1001
ACAD
1000
AcDbSavedByObjectVersion
1070
     0
  0
VISUALSTYLE
  5
27D
102
{ACAD_XDICTIONARY
360
355
102
}
102
{ACAD_REACTORS
330
2D
102
}
330
2D
100
AcDbVisualStyle
  2
Shades of Gray
 70
    23
177
     2
291
     0
 71
     2
176
     1
 72
     2
176
     1
 73
     3
176
     1
 90
        0
176
     1
 40
0.6
176
     1
 41
30.0
176
     1
 63
     7
421
 16777215
176
     1
 74
     2
176
     1
 91
        2
176
     1
 64
     7
176
     1
 65
     7
176
     1
 75
     1
176
     1
175
     1
176
     1
 42
40.0
176
     1
 92
        8
176
     1
 66
     7
176
     1
 43
1.0
176
     1
 76
     1
176
     1
 77
     6
176
     1
 78
     2
176
     1
 67
     7
176
     1
 79
     3
176
     1
170
     0
176
     1
171
     0
176
     1
290
     0
176
     1
 93
        1
176
     1
 44
0.0
176
     1
173
     0
176
     1
1001
ACAD
1000
AcDbSavedByObjectVersion
1070
     0
  0
VISUALSTYLE
  5
27E
102
{ACAD_XDICTIONARY
360
357
102
}
102
{ACAD_REACTORS
330
2D
102
}
330
2D
100
AcDbVisualStyle
  2
Sketchy
 70
    24
177
     2
291
     0
 71
     1
176
     1
 72
     2
176
     1
 73
     2
176
     1
 90
        0
176
     1
 40
0.6
176
     1
 41
30.0
176
     1
 63
     7
421
 16777215
176
     1
 74
     2
176
     1
 91
        2
176
     1
 64
     7
176
     1
 65
     7
176
     1
 75
     1
176
     1
175
     1
176
     1
 42
40.0
176
     1
 92
       11
176
     1
 66
     7
176
     1
 43
1.0
176
     1
 76
     1
176
     1
 77
     6
176
     1
 78
     2
176
     1
 67
     7
176
     1
 79
     6
176
     1
170
     0
176
     1
171
     0
176
     1
290
     0
176
     1
 93
        1
176
     1
 44
0.0
176
     1
173
     0
176
     1
1001
ACAD
1000
AcDbSavedByObjectVersion
1070
     0
  0
VISUALSTYLE
  5
279
102
{ACAD_XDICTIONARY
360
34D
102
}
102
{ACAD_REACTORS
330
2D
102
}
330
2D
100
AcDbVisualStyle
  2
Thicken
 70
    13
177
     2
291
     1
 71
     2
176
     1
 72
     2
176
     1
 73
     0
176
     1
 90
        0
176
     1
 40
0.6
176
     1
 41
30.0
176
     1
 63
     7
421
 16777215
176
     1
 74
     1
176
     1
 91
        4
176
     1
 64
     7
176
     1
 65
   257
176
     1
 75
     1
176
     1
175
     1
176
     1
 42
1.0
176
     1
 92
       12
176
     1
 66
     7
176
     1
 43
1.0
176
     1
 76
     1
176
     1
 77
     6
176
     1
 78
     2
176
     1
 67
     7
176
     1
 79
     5
176
     1
170
     0
176
     1
171
     0
176
     1
290
     0
176
     1
 93
        1
176
     1
 44
0.0
176
     1
173
     0
176
     1
1001
ACAD
1000
AcDbSavedByObjectVersion
1070
     0
  0
VISUALSTYLE
  5
44
102
{ACAD_XDICTIONARY
360
339
102
}
102
{ACAD_REACTORS
330
2D
102
}
330
2D
100
AcDbVisualStyle
  2
Wireframe
 70
     5
177
     2
291
     0
 71
     0
176
     1
 72
     2
176
     1
 73
     0
176
     1
 90
        0
176
     1
 40
0.6
176
     1
 41
30.0
176
     1
 63
     7
176
     1
 74
     1
176
     1
 91
        4
176
     1
 64
     7
176
     1
 65
   257
176
     1
 75
     1
176
     1
175
     1
176
     1
 42
1.0
176
     1
 92
        0
176
     1
 66
   257
176
     1
 43
1.0
176
     1
 76
     1
176
     1
 77
     6
176
     1
 78
     2
176
     1
 67
     7
176
     1
 79
     3
176
     1
170
     0
176
     1
171
     0
176
     1
290
     0
176
     1
 93
        1
176
     1
 44
0.0
176
     1
173
     0
176
     1
1001
ACAD
1000
AcDbSavedByObjectVersion
1070
     0
  0
VISUALSTYLE
  5
27F
102
{ACAD_XDICTIONARY
360
359
102
}
102
{ACAD_REACTORS
330
2D
102
}
330
2D
100
AcDbVisualStyle
  2
X-Ray
 70
    25
177
     2
291
     0
 71
     2
176
     1
 72
     2
176
     1
 73
     1
176
     1
 90
        1
176
     1
 40
0.5
176
     1
 41
30.0
176
     1
 63
     7
421
 16777215
176
     1
 74
     1
176
     1
 91
        0
176
     1
 64
     7
176
     1
 65
   257
176
     1
 75
     1
176
     1
175
     1
176
     1
 42
1.0
176
     1
 92
        8
176
     1
 66
     7
176
     1
 43
1.0
176
     1
 76
     1
176
     1
 77
     6
176
     1
 78
     2
176
     1
 67
     7
176
     1
 79
     3
176
     1
170
     0
176
     1
171
     0
176
     1
290
     0
176
     1
 93
       13
176
     1
 44
0.0
176
     1
173
     0
176
     1
1001
ACAD
1000
AcDbSavedByObjectVersion
1070
     0
  0
DICTIONARYVAR
  5
265
102
{ACAD_REACTORS
330
261
102
}
330
261
100
DictionaryVariables
280
     0
  1
1:1
  0
DICTIONARYVAR
  5
263
102
{ACAD_REACTORS
330
261
102
}
330
261
100
DictionaryVariables
280
     0
  1
STANDARD
  0
DICTIONARYVAR
  5
262
102
{ACAD_REACTORS
330
261
102
}
330
261
100
DictionaryVariables
280
     0
  1
STANDARD
  0
DICTIONARYVAR
  5
311
102
{ACAD_REACTORS
330
261
102
}
330
261
100
DictionaryVariables
280
     0
  1
Metric50
  0
DICTIONARYVAR
  5
312
102
{ACAD_REACTORS
330
261
102
}
330
261
100
DictionaryVariables
280
     0
  1
Metric50
  0
DICTIONARYVAR
  5
26B
102
{ACAD_REACTORS
330
261
102
}
330
261
100
DictionaryVariables
280
     0
  1
2
  0
DICTIONARYVAR
  5
26A
102
{ACAD_REACTORS
330
261
102
}
330
261
100
DictionaryVariables
280
     0
  1
1
  0
DICTIONARYVAR
  5
269
102
{ACAD_REACTORS
330
261
102
}
330
261
100
DictionaryVariables
280
     0
  1
0
  0
DICTIONARYVAR
  5
266
102
{ACAD_REACTORS
330
261
102
}
330
261
100
DictionaryVariables
280
     0
  1
0
  0
DICTIONARYVAR
  5
267
102
{ACAD_REACTORS
330
261
102
}
330
261
100
DictionaryVariables
280
     0
  1
0
  0
DICTIONARYVAR
  5
313
102
{ACAD_REACTORS
330
261
102
}
330
261
100
DictionaryVariables
280
     0
  1
0
  0
DICTIONARYVAR
  5
264
102
{ACAD_REACTORS
330
261
102
}
330
261
100
DictionaryVariables
280
     0
  1
1
  0
DICTIONARYVAR
  5
268
102
{ACAD_REACTORS
330
261
102
}
330
261
100
DictionaryVariables
280
     0
  1
127
  0
DICTIONARY
  5
36D
330
2B7
100
AcDbDictionary
280
     1
281
     1
  3
ACAD_XREC_ROUNDTRIP
360
36E
  0
DICTIONARY
  5
369
330
289
100
AcDbDictionary
280
     1
281
     1
  3
ACAD_XREC_ROUNDTRIP
360
36A
  0
DICTIONARY
  5
18
330
16
100
AcDbDictionary
280
     1
281
     1
  3
ADSK_XREC_LAYOUTTHUMBNAIL
360
19
  0
DICTIONARY
  5
3A
330
39
100
AcDbDictionary
280
     1
281
     1
  3
FBXASSET
360
3B
  0
DICTIONARY
  5
37
330
36
100
AcDbDictionary
280
     1
281
     1
  3
FBXASSET
360
38
  0
DICTIONARY
  5
D
330
B
100
AcDbDictionary
280
     1
281
     1
  3
BUMPTILE
360
E
  3
DIFFUSETILE
360
F
  3
FBXASSET
360
10
  3
OPACITYTILE
360
11
  3
REFLECTIONTILE
360
12
  0
DICTIONARY
  5
365
330
285
100
AcDbDictionary
280
     1
281
     1
  3
ACAD_XREC_ROUNDTRIP
360
366
  0
DICTIONARY
  5
36B
330
2B6
100
AcDbDictionary
280
     1
281
     1
  3
ACAD_XREC_ROUNDTRIP
360
36C
  0
DICTIONARY
  5
367
330
287
100
AcDbDictionary
280
     1
281
     1
  3
ACAD_XREC_ROUNDTRIP
360
368
  0
DICTIONARY
  5
42
330
41
100
AcDbDictionary
280
     1
281
     1
  3
ACAD_ROUNDTRIP_2008_TABLESTYLE_CELLSTYLEMAP
360
333
  0
DICTIONARY
  5
335
330
2C
100
AcDbDictionary
280
     1
281
     1
  3
ACAD_XREC_ROUNDTRIP
360
336
  0
DICTIONARY
  5
343
330
274
100
AcDbDictionary
280
     1
281
     1
  3
ACAD_XREC_ROUNDTRIP
360
344
  0
DICTIONARY
  5
34B
330
278
100
AcDbDictionary
280
     1
281
     1
  3
ACAD_XREC_ROUNDTRIP
360
34C
  0
DICTIONARY
  5
353
330
27C
100
AcDbDictionary
280
     1
281
     1
  3
ACAD_XREC_ROUNDTRIP
360
354
  0
DICTIONARY
  5
347
330
276
100
AcDbDictionary
280
     1
281
     1
  3
ACAD_XREC_ROUNDTRIP
360
348
  0
DICTIONARY
  5
349
330
277
100
AcDbDictionary
280
     1
281
     1
  3
ACAD_XREC_ROUNDTRIP
360
34A
  0
DICTIONARY
  5
363
330
284
100
AcDbDictionary
280
     1
281
     1
  3
ACAD_XREC_ROUNDTRIP
360
364
  0
DICTIONARY
  5
351
330
27B
100
AcDbDictionary
280
     1
281
     1
  3
ACAD_XREC_ROUNDTRIP
360
352
  0
DICTIONARY
  5
33B
330
270
100
AcDbDictionary
280
     1
281
     1
  3
ACAD_XREC_ROUNDTRIP
360
33C
  0
DICTIONARY
  5
33D
330
271
100
AcDbDictionary
280
     1
281
     1
  3
ACAD_XREC_ROUNDTRIP
360
33E
  0
DICTIONARY
  5
33F
330
272
100
AcDbDictionary
280
     1
281
     1
  3
ACAD_XREC_ROUNDTRIP
360
340
  0
DICTIONARY
  5
341
330
273
100
AcDbDictionary
280
     1
281
     1
  3
ACAD_XREC_ROUNDTRIP
360
342
  0
DICTIONARY
  5
345
330
275
100
AcDbDictionary
280
     1
281
     1
  3
ACAD_XREC_ROUNDTRIP
360
346
  0
DICTIONARY
  5
35F
330
282
100
AcDbDictionary
280
     1
281
     1
  3
ACAD_XREC_ROUNDTRIP
360
360
  0
DICTIONARY
  5
34F
330
27A
100
AcDbDictionary
280
     1
281
     1
  3
ACAD_XREC_ROUNDTRIP
360
350
  0
DICTIONARY
  5
361
330
283
100
AcDbDictionary
280
     1
281
     1
  3
ACAD_XREC_ROUNDTRIP
360
362
  0
DICTIONARY
  5
337
330
43
100
AcDbDictionary
280
     1
281
     1
  3
ACAD_XREC_ROUNDTRIP
360
338
  0
DICTIONARY
  5
35D
330
281
100
AcDbDictionary
280
     1
281
     1
  3
ACAD_XREC_ROUNDTRIP
360
35E
  0
DICTIONARY
  5
35B
330
280
100
AcDbDictionary
280
     1
281
     1
  3
ACAD_XREC_ROUNDTRIP
360
35C
  0
DICTIONARY
  5
355
330
27D
100
AcDbDictionary
280
     1
281
     1
  3
ACAD_XREC_ROUNDTRIP
360
356
  0
DICTIONARY
  5
357
330
27E
100
AcDbDictionary
280
     1
281
     1
  3
ACAD_XREC_ROUNDTRIP
360
358
  0
DICTIONARY
  5
34D
330
279
100
AcDbDictionary
280
     1
281
     1
  3
ACAD_XREC_ROUNDTRIP
360
34E
  0
DICTIONARY
  5
339
330
44
100
AcDbDictionary
280
     1
281
     1
  3
ACAD_XREC_ROUNDTRIP
360
33A
  0
DICTIONARY
  5
359
330
27F
100
AcDbDictionary
280
     1
281
     1
  3
ACAD_XREC_ROUNDTRIP
360
35A
  0
XRECORD
  5
36E
102
{ACAD_REACTORS
330
36D
102
}
330
36D
100
AcDbXrecord
280
     1
102
DISPLAYNAME
  1
Imperial24
102
FLAGS
 90
        0
  0
XRECORD
  5
36A
102
{ACAD_REACTORS
330
369
102
}
330
369
100
AcDbXrecord
280
     1
102
DISPLAYNAME
  1
Metric50
102
FLAGS
 90
        0
  0
XRECORD
  5
19
102
{ACAD_REACTORS
330
18
102
}
330
18
100
AcDbXrecord
280
     1
310
28000000000100006C0000000100080000000000006C0000010000000100000000010000000000000000000000000000C8C8C8FF000000FF000000FF000000FF000000FF000000FF000000FF000000FF000000FF330000FF660000FF990000FFCC0000FFFF0000FF003300FF333300FF663300FF993300FFCC3300FFFF3300
310
FF006600FF336600FF666600FF996600FFCC6600FFFF6600FF009900FF339900FF669900FF999900FFCC9900FFFF9900FF00CC00FF33CC00FF66CC00FF99CC00FFCCCC00FFFFCC00FF00FF00FF33FF00FF66FF00FF99FF00FFCCFF00FFFFFF00FF000033FF330033FF660033FF990033FFCC0033FFFF0033FF003333FF3333
310
33FF663333FF993333FFCC3333FFFF3333FF006633FF336633FF666633FF996633FFCC6633FFFF6633FF009933FF339933FF669933FF999933FFCC9933FFFF9933FF00CC33FF33CC33FF66CC33FF99CC33FFCCCC33FFFFCC33FF00FF33FF33FF33FF66FF33FF99FF33FFCCFF33FFFFFF33FF000066FF330066FF660066FF99
310
0066FFCC0066FFFF0066FF003366FF333366FF663366FF993366FFCC3366FFFF3366FF006666FF336666FF666666FF996666FFCC6666FFFF6666FF009966FF339966FF669966FF999966FFCC9966FFFF9966FF00CC66FF33CC66FF66CC66FF99CC66FFCCCC66FFFFCC66FF00FF66FF33FF66FF66FF66FF99FF66FFCCFF66FF
310
FFFF66FF000099FF330099FF660099FF990099FFCC0099FFFF0099FF003399FF333399FF663399FF993399FFCC3399FFFF3399FF006699FF336699FF666699FF996699FFCC6699FFFF6699FF009999FF339999FF669999FF999999FFCC9999FFFF9999FF00CC99FF33CC99FF66CC99FF99CC99FFCCCC99FFFFCC99FF00FF99
310
FF33FF99FF66FF99FF99FF99FFCCFF99FFFFFF99FF0000CCFF3300CCFF6600CCFF9900CCFFCC00CCFFFF00CCFF0033CCFF3333CCFF6633CCFF9933CCFFCC33CCFFFF33CCFF0066CCFF3366CCFF6666CCFF9966CCFFCC66CCFFFF66CCFF0099CCFF3399CCFF6699CCFF9999CCFFCC99CCFFFF99CCFF00CCCCFF33CCCCFF66CC
310
CCFF99CCCCFFCCCCCCFFFFCCCCFF00FFCCFF33FFCCFF66FFCCFF99FFCCFFCCFFCCFFFFFFCCFF0000FFFF3300FFFF6600FFFF9900FFFFCC00FFFFFF00FFFF0033FFFF3333FFFF6633FFFF9933FFFFCC33FFFFFF33FFFF0066FFFF3366FFFF6666FFFF9966FFFFCC66FFFFFF66FFFF0099FFFF3399FFFF6699FFFF9999FFFFCC
310
99FFFFFF99FFFF00CCFFFF33CCFFFF66CCFFFF99CCFFFFCCCCFFFFFFCCFFFF00FFFFFF33FFFFFF66FFFFFF99FFFFFFCCFFFFFFFFFFFFFF000000FF0D0D0DFF1A1A1AFF282828FF353535FF434343FF505050FF5D5D5DFF6B6B6BFF787878FF868686FF939393FFA1A1A1FFAEAEAEFFBBBBBBFFC9C9C9FFD6D6D6FFE4E4E4FF
310
F1F1F1FFFFFFFFFF000000FF000000FF000000FF000000FF000000FF000000FF000000FF000000FF000000FF000000FF00000000000000000000000000000000000000000000000000000000000000000000000000000000000000000000000000000000000000000000000000000000000000000000000000000000000000
310
00000000000000000000000000000000000000000000000000000000000000000000000000000000000000000000000000000000000000000000000000000000000000000000000000000000000000000000000000000000000000000000000000000000000000000000000000000000000000000000000000000000000000
310
00000000000000000000000000000000000000000000000000000000000000000000000000000000000000000000000000000000000000000000000000000000000000000000000000000000000000000000000000000000000000000000000000000000000000000000000000000000000000000000000000000000000000
310
00000000000000000000000000000000000000000000000000000000000000000000000000000000000000000000000000000000000000000000000000000000000000000000000000000000000000000000000000000000000000000000000000000000000000000000000000000000000000000000000000000000000000
310
00000000000000000000000000000000000000000000000000000000000000000000000000000000000000000000000000000000000000000000000000000000000000000000000000000000000000000000000000000000000000000000000000000000000000000000000000000000000000000000000000000000000000
310
00000000000000000000000000000000000000000000000000000000000000000000000000000000000000000000000000000000000000000000000000000000000000000000000000000000000000000000000000000000000000000000000000000000000000000000000000000000000000000000000000000000000000
310
00000000000000000000000000000000000000000000000000000000000000000000000000000000000000000000000000000000000000000000000000000000000000000000000000000000000000000000000000000000000000000000000000000000000000000000000000000000000000000000000000000000000000
310
00000000000000000000000000000000000000000000000000000000000000000000000000000000000000000000000000000000000000000000000000000000000000000000000000000000000000000000000000000000000000000000000000000000000000000000000000000000000000000000000000000000000000
310
00000000000000000000000000000000000000000000000000000000000000000000000000000000000000000000000000000000000000000000000000000000000000000000000000000000000000000000000000000000000000000000000000000000000000000000000000000000000000000000000000000000000000
310
00000000000000000000000000000000000000000000000000000000000000000000000000000000000000000000000000000000000000000000000000000000000000000000000000000000000000000000000000000000000000000000000000000000000000000000000000000000000000000000000000000000000000
310
00000000000000000000000000000000000000000000000000000000000000000000000000000000000000000000000000000000000000000000000000000000000000000000000000000000000000000000000000000000000000000000000000000000000000000000000000000000000000000000000000000000000000
310
00000000000000000000000000000000000000000000000000000000000000000000000000000000000000000000000000000000000000000000000000000000000000000000000000000000000000000000000000000000000000000000000000000000000000000000000000000000000000000000000000000000000000
310
00000000000000000000000000000000000000000000000000000000000000000000000000000000000000000000000000000000000000000000000000000000000000000000000000000000000000000000000000000000000000000000000000000000000000000000000000000000000000000000000000000000000000
310
00000000000000000000000000000000000000000000000000000000000000000000000000000000000000000000000000000000000000000000000000000000000000000000000000000000000000000000000000000000000000000000000000000000000000000000000000000000000000000000000000000000000000
310
00000000000000000000000000000000000000000000000000000000000000000000000000000000000000000000000000000000000000000000000000000000000000000000000000000000000000000000000000000000000000000000000000000000000000000000000000000000000000000000000000000000000000
310
00000000000000000000000000000000000000000000000000000000000000000000000000000000000000000000000000000000000000000000000000000000000000000000000000000000000000000000000000000000000000000000000000000000000000000000000000000000000000000000000000000000000000
310
00000000000000000000000000000000000000000000000000000000000000000000000000000000000000000000000000000000000000000000000000000000000000000000000000000000000000000000000000000000000000000000000000000000000000000000000000000000000000000000000000000000000000
310
00000000000000000000000000000000000000000000000000000000000000000000000000000000000000000000000000000000000000000000000000000000000000000000000000000000000000000000000000000000000000000000000000000000000000000000000000000000000000000000000000000000000000
310
00000000000000000000000000000000000000000000000000000000000000000000000000000000000000000000000000000000000000000000000000000000000000000000000000000000000000000000000000000000000000000000000000000000000000000000000000000000000000000000000000000000000000
310
00000000000000000000000000000000000000000000000000000000000000000000000000000000000000000000000000000000000000000000000000000000000000000000000000000000000000000000000000000000000000000000000000000000000000000000000000000000000000000000000000000000000000
310
00000000000000000000000000000000000000000000000000000000000000000000000000000000000000000000000000000000000000000000000000000000000000000000000000000000000000000000000000000000000000000000000000000000000000000000000000000000000000000000000000000000000000
310
00000000000000000000000000000000000000000000000000000000000000000000000000000000000000000000000000000000000000000000000000000000000000000000000000000000000000000000000000000000000000000000000000000000000000000000000000000000000000000000000000000000000000
310
00000000000000000000000000000000000000000000000000000000000000000000000000000000000000000000000000000000000000000000000000000000000000000000000000000000000000000000000000000000000000000000000000000000000000000000000000000000000000000000000000000000000000
310
00000000000000000000000000000000000000000000000000000000000000000000000000000000000000000000000000000000000000000000000000000000000000000000000000000000000000000000000000000000000000000000000000000000000000000000000000000000000000000000000000000000000000
310
00000000000000000000000000000000000000000000000000000000000000000000000000000000000000000000000000000000000000000000000000000000000000000000000000000000000000000000000000000000000000000000000000000000000000000000000000000000000000000000000000000000000000
310
00000000000000000000000000000000000000000000000000000000000000000000000000000000000000000000000000000000000000000000000000000000000000000000000000000000000000000000000000000000000000000000000000000000000000000000000000000000000000000000000000000000000000
310
000000000000000000000000000000000000000000000000000000000000000000000000000000000000000000000000000000000000000000000000000000000000000000000000000000F5F5F5F5F5F5F5F5F5F5F5F5F5F5F5F5F5F5F5F5F5F5F5F5F5F5F5F5F5F5F5F5F5F5F5F5F5F5F5F5F5F5F5F5F5F5F5F5F5F5F5F5
310
F5F5F5F5F5F5F5F5F5F5F5F5F5F5F5F5F5F5F5F5F5F5F5F5F5F5F5F5F5F5F5F5F5F5F5F5F5F5F5F5F5F5F5F5F5F5F5F5F5F5F5F5F5F5F5F5F5F5F5F5F5F5F5F5F5F5F5F5F5F5F5F5F5F5F5F5F5F5F5F5F5F5F5F5F5F5F5F5F5F5F5F5F5F5F5F5F5F5F5F5F5F5F5F5F5F5F5F5F5F5F5F5F5F5F5F5F5F5F5F5F5F5F5F5F5F5F5
310
F5F5F5F5F5F5F5F5F5F5F5F5F5F5F5F5F5F5F5F5F5F5F5F5F5F5F5F5F5F5F5F5F5F5F5F5F5F5F5F5F5F5F5F5F5F5F5F5F5F5F5F5F5F5F5F5F5F5F5F5F5F5F5F5F5F5F5F5F5F5F5F5F5F5F500F5F5F5F5F5F5F5F5F5F5F5F5F5F5F5F5F5F5F5F5F5F5F5F5F5F5F5F5F5F5F5F5F5F5F5F5F5F5F5F5F5F5F5F5F5F5F5F5F5F5F5
310
F5F5F5F5F5F5F5F5F5F5F5F5F5F5F5F5F5F5F5F5F5F5F5F5F5F5F5F5F5F5F5F5F5F5F5F5F5F5F5F5F5F5F5F5F5F5F5F5F5F5F5F5F5F5F5F5F5F5F5F5F5F5F5F5F5F5F5F5F5F5F5F5F5F5F5F5F5F5F5F5F5F5F5F5F5F5F5F5F5F5F5F5F5F5F5F5F5F5F5F5F5F5F5F5F5F5F5F5F5F5F5F5F5F5F5F5F5F5F5F5F5F5F5F5F5F5F5
310
F5F5F5F5F5F5F5F5F5F5F5F5F5F5F5F5F5F5F5F5F5F5F5F5F5F5F5F5F5F5F5F5F5F5F5F5F5F5F5F5F5F5F5F5F5F5F5F5F5F5F5F5F5F5F5F5F5F5F5F5F5F5F5F5F5F5F5F5F5F5F5F5F5F5F5F5F50000F500F5F50000000000000000000000000000000000000000000000000000000000000000000000000000000000000000
310
0000000000000000000000000000000000000000000000000000000000000000000000000000000000F500F50000000000000000F500F5000000000000000000000000000000000000000000000000000000000000000000000000000000000000000000000000000000000000000000000000000000000000000000000000
310
0000000000000000000000000000000000000000000000000000000000000000000000000000000000F500F50000000000000000F500F50000000000000000000000000000000000000000F5F500F50000F5F5F5F5F5F5F5F5F5F5F5F5F5F5F5F5F5F5F5F5F5F5F5F5F5F5F5F5F5F5F5F5F5F5F5F5F5F5F5F5F5F5F5F5F5F5
310
F5F5F5F5F5F5F5F5F5F5F5F5F5F5F5F5F5F5F5F5F5F5F5F5F5F5F5F5F5F5F5F5F5F5F5F5F5F5F5F5F5F5F5F5F5F5F5F5F5F5F5F5F5F5F5F5F5F5F5F5F5F5F5F5F5F5F5F5F5F5F5F5F5F5F5F5F5F5F5F5F5F5F5F5F5F5F5F5F5F5F5F5F5F5F5F5F5F5F5F5F5F5F5F5F5F5F5F5F5F5F5F5F5F5F5F5F5F5F5F5F5F5F5F5F5F5F5
310
F5F5F5F5F5F5F5F5F5F5F5F5F5F5F5F5F5F5F5F5F5F5F5F5F5F5F5F5F5F5F5F5F5F5F5F5F5F5F5F5F5F5F5F5F5F5F5F5F5F5F5F5F5F5F5F5F5F5F5F5F5F5F5F5F5F5F5F5F5F5F5F5F5F5F5F5F5F5F5F5F50000F5F5F5F500000000000000000000000000000000000000000000000000000000000000000000000000000000
310
000000000000000000000000000000000000000000000000000000000000000000000000000000000000000000F500F5F50000F5F5F50000F5F5F50000000000000000000000000000000000000000000000000000000000000000000000000000000000000000000000000000000000000000000000000000000000000000
310
000000000000000000000000000000000000000000000000000000000000000000000000000000000000000000F500F5F50000F5F5F500F5F5F5F50000000000000000000000000000000000000000F5F5F5F50000F5F5F5000000000000000000000000000000000000000000000000000000000000000000000000000000
310
0000000000000000000000000000000000000000000000000000000000000000000000000000000000000000000000F500F500F5F5F500F5F5F5F5F5F5000000000000000000000000000000000000000000000000000000000000000000000000000000000000000000000000000000000000000000000000000000000000
310
0000000000000000000000000000000000000000000000000000000000000000000000000000000000000000000000F500F500F5F5F500F5F5F5F5F5F5000000000000000000000000000000000000000000F5F5F50000F5F5F500000000000000000000000000000000000000000000000000000000000000000000000000
310
00000000000000000000000000000000000000000000000000000000000000000000000000000000000000000000000000F500F5F5F5F5F5F5F500F5F5F5F500000000000000000000000000000000000000000000000000000000000000000000000000000000000000000000000000000000000000000000000000000000
310
00000000000000000000000000000000000000000000000000000000000000000000000000000000000000000000000000F500F5F5F5F5F5F5F500F5F5F5F5000000000000000000000000000000000000000000F5F5F50000F5F5F50000000000000000000000000000000000000000000000000000000000000000000000
310
000000000000000000000000000000000000000000000000000000000000000000000000000000000000000000000000000000F500F5F5F500F5F500F500F5F5F50000000000000000000000000000000000000000000000000000000000000000000000000000000000000000000000000000000000000000000000000000
310
000000000000000000000000000000000000000000000000000000000000000000000000000000000000000000000000000000F500F5F5F500F5F500F500F5F5F5000000000000000000000000000000000000000000F5F5F50000F5F5F5000000000000000000000000000000000000000000000000000000000000000000
310
0000000000000000000000000000000000000000000000000000000000000000000000000000000000000000000000000000000000F500F5F5F5F50000F5F5F5F5F5F5000000000000000000000000000000000000000000000000000000000000000000000000000000000000000000000000000000000000000000000000
310
0000000000000000000000000000000000000000000000000000000000000000000000000000000000000000000000000000000000F500F5F5F5F50000F5F5F5F5F5F5000000000000000000000000000000000000000000F5F5F50000F5F5F500000000000000000000000000000000000000000000000000000000000000
310
00000000000000000000000000000000000000000000000000000000000000000000000000000000000000000000000000000000000000F5F5F5F5F5F50000F5F5F5F5F5F500000000000000000000000000000000000000000000000000000000000000000000000000000000000000000000000000000000000000000000
310
00000000000000000000000000000000000000000000000000000000000000000000000000000000000000000000000000000000000000F5F5F5F5F5F50000F5F5F5F5F5F5000000000000000000000000000000000000000000F5F5F50000F5F5F50000000000000000000000000000000000000000000000000000000000
310
0000000000000000000000000000000000000000000000000000000000000000000000000000000000000000000000000000000000000000000000F5F5F500F5F500F5F5F5F5000000000000000000000000000000000000000000000000000000000000000000000000000000000000000000000000000000000000000000
310
0000000000000000000000000000000000000000000000000000000000000000000000000000000000000000000000000000000000000000000000F5F5F500F5F500F5F5F5F500000000000000000000000000000000000000000000F5F5F50000F5F5F5000000000000000000000000000000000000000000000000000000
310
00000000000000000000000000000000000000000000000000000000000000000000000000000000000000000000000000000000000000000000000000F500F5F5F5F5F5F5F500F500000000000000000000000000000000000000000000000000000000000000000000000000000000000000000000000000000000000000
310
00000000000000000000000000000000000000000000000000000000000000000000000000000000000000000000000000000000000000000000000000F500F5F5F5F5F5F5F500F500000000000000000000000000000000000000000000F5F5F50000F5F5F500000000000000000000000000000000000000000000000000
310
00000000000000000000000000000000000000000000000000000000000000000000000000000000000000000000000000000000000000000000000000000000F50000F5F5F50000F50000000000000000000000000000000000000000F5F5F5F5F5F5F5F5F5F5F5F500000000000000000000000000000000000000000000
310
00000000000000000000000000000000000000000000000000000000000000000000000000000000000000000000000000000000000000000000000000000000F50000F5F5F50000F50000000000000000000000000000000000000000000000F5F5F50000F5F5F50000000000000000000000000000000000000000000000
310
00000000000000000000000000000000000000000000000000000000000000000000000000000000000000000000000000000000000000000000000000000000000000F5F5F5F500F5F5000000000000000000000000000000000000F5F5F5000000000000000000000000F5F5000000000000000000000000000000000000
310
00000000000000000000000000000000000000000000000000000000000000000000000000000000000000000000000000000000000000000000000000000000000000F5F5F5F500F5F5000000000000000000000000000000000000000000000000F5F5F50000F5F5F5000000000000000000000000000000000000000000
310
0000000000000000000000000000000000000000000000000000000000000000000000000000000000000000000000000000000000000000000000000000000000000000000000F5F5F5000000000000000000000000000000000000F5F500000000F5F5F5F5F5F500000000000000F5F5F500000000000000000000000000
310
0000000000000000000000000000000000000000000000000000000000000000000000000000000000000000000000000000000000000000000000000000000000000000000000F5F5F50000000000000000000000000000000000000000000000000000F5F5F50000F5F5F500000000000000000000000000000000000000
310
0000000000000000000000000000000000000000000000000000000000000000000000000000000000000000000000000000000000000000000000000000000000000000000000000000000000000000000000000000000000000000F5F5000000F5F5F5000000000000F5F5F5F5F5F500000000F5F5000000000000000000
310
000000000000000000000000000000000000000000000000000000000000000000000000000000000000000000000000000000000000000000000000000000000000000000000000000000000000000000000000000000000000000000000000000000000000F5F5F50000F5F5F50000000000000000000000000000000000
310
0000000000000000000000000000000000000000000000000000000000000000000000000000000000000000000000000000000000000000000000000000000000000000000000000000000000000000000000000000000000000000F5F50000F5F5F5000000000000000000000000000000F5F500000000F5F50000000000
310
0000000000000000000000000000000000000000000000000000000000000000000000000000000000000000000000000000000000000000000000000000000000000000000000000000000000000000000000000000000000000000000000000000000000000000F5F5F50000F5F5F5000000000000000000000000000000
310
0000000000000000000000000000000000000000000000000000000000000000000000000000000000000000000000000000000000000000000000000000000000000000000000000000000000000000000000000000000000000000F5F50000F5F50000000000000000000000000000000000000000F5F500000000F50000
310
00000000000000000000000000000000000000000000000000000000000000000000000000000000000000000000000000000000000000000000000000000000000000000000000000000000000000000000000000000000000000000000000000000000000000000000F5F5F50000F5F5F500000000000000000000000000
310
0000000000000000000000000000000000000000000000000000000000000000000000000000000000000000000000000000000000000000000000000000000000000000000000000000000000000000000000000000000000000000F5F5000000F5000000000000000000000000000000000000000000000000F5F5000000
310
F50000000000000000000000000000000000000000000000000000000000000000000000000000000000000000000000000000000000000000000000000000000000000000000000000000000000000000000000000000000000000000000000000000000000000000000000F5F5F50000F5F5F50000000000000000000000
310
000000000000000000000000000000000000000000000000000000000000000000000000000000000000000000000000000000000000000000000000000000000000000000000000000000000000000000000000000000000000000000F500000000F5000000000000000000000000000000000000000000000000000000F5
310
F50000F5F5000000000000000000000000000000000000000000000000000000000000000000000000000000000000000000000000000000000000000000000000000000000000000000000000000000000000000000000000000000000000000000000000000000000000000000F5F5F50000F5F5F5000000000000000000
310
00000000000000000000000000000000000000000000000000000000000000000000000000000000000000000000000000000000000000000000000000000000000000000000000000000000000000000000000000000000000000000000F5000000F5F5000000000000000000000000000000000000000000000000000000
310
000000F5000000F50000000000000000000000000000000000000000000000000000000000000000000000000000000000000000000000000000000000000000000000000000000000000000000000000000000000000000000000000000000000000000000000000000000000000000F5F5F50000F5F5F500000000000000
310
0000000000000000000000000000000000000000000000000000000000000000000000000000000000000000000000000000000000000000000000000000000000000000000000000000000000000000000000000000000000000000000000F5000000F5000000000000000000000000000000000000000000000000000000
310
000000000000F5000000F500000000000000000000000000000000000000000000000000000000000000000000000000000000000000000000000000000000000000000000000000000000000000000000000000000000000000000000000000000000000000000000000000000000000000F5F5F50000F5F5F50000000000
310
000000000000000000000000000000000000000000000000000000000000000000000000000000000000000000000000000000000000000000000000000000000000000000000000000000000000000000000000000000000000000000000000F5000000F50000000000000000000000000000000000000000000000000000
310
000000000000000000F5000000F5000000000000000000000000000000000000000000000000000000000000000000000000000000000000000000000000000000000000000000000000000000000000000000000000000000000000000000000000000000000000000000000000000000000000F5F5F50000F5F5F5000000
310
0000000000000000000000000000000000000000000000000000000000000000000000000000000000000000000000000000000000000000000000000000000000000000000000000000000000000000000000000000000000000000000000000000F500F5F5F5F5F5F5000000000000000000000000000000000000000000
310
000000000000000000000000F50000F5000000000000000000000000000000000000000000000000000000000000000000000000000000000000000000000000000000000000000000000000000000000000000000000000000000000000000000000000000000000000000000000000000000000000F5F5F50000F5F5F500
310
000000000000000000000000000000000000000000000000000000000000000000000000000000000000000000000000000000000000000000000000000000000000000000000000000000000000000000000000000000000000000000000000000000F5F5F5F5F5F5F5F5F5F5F5F5F5F5F5F5F5F5F5000000000000000000
310
000000000000000000000000000000F50000F50000000000000000000000000000000000000000000000000000000000000000000000000000000000000000000000000000000000000000000000000000000000000000000000000000000000000000000000000000000000000000000000000000000000F5F5F50000F5F5
310
F5000000000000000000000000000000000000000000000000000000000000000000000000000000000000000000000000000000000000000000000000000000000000000000000000000000000000000000000000000000000000000000000000000000F5F500F5F5F5F5F5F5F5F5F5F5F5F5F5F5F5F5F5F5F5F5F5F5F5F5
310
F5F500000000000000000000000000000000F500F5F500F50000000000000000000000000000000000000000000000000000000000000000000000000000000000000000000000000000000000000000000000000000000000000000000000000000000000000000000000000000000000000000000000000000F5F5F50000
310
F5F5F50000000000000000000000000000000000000000000000000000000000000000000000000000000000000000000000000000000000000000000000000000000000000000000000000000000000000000000000000000000000000000000000000000F5F5F5F500F5F5F5F5000000F5F5F5F5F5F5F5F5F5F5F5F5F5F5
310
F5F5F5F5F5F5F5F5F5F5F5F5F5F5F5F5F5F5F5F5F5F5F5F5F5F5F500000000000000000000000000000000000000000000000000000000000000000000000000000000000000000000000000000000000000000000000000000000000000000000000000000000000000000000000000000000000000000000000000F5F5F5
310
0000F5F5F500000000000000000000000000000000000000000000000000000000000000000000000000000000000000000000000000000000000000000000000000000000000000000000000000000000000000000000000000000000000000000000000000F5F50000F5F5F5F5F5F5F5F500000000000000000000F5F5F5
310
F5F5F5F5F5F500F5F5F5F5F5000000000000000000000000F5F5F5F5F5F5F5F5F5F5F5F5F5F5F5F5F5F5F5F5F5F5F5F5F5F5F5F5F5F5F5F5F5000000000000000000000000000000000000000000000000000000000000000000000000000000000000000000000000000000000000000000000000000000000000000000F5
310
F5F50000F5F5F500000000000000000000000000000000000000000000000000000000000000000000000000000000000000000000000000000000000000000000000000000000000000000000000000000000000000000000000000000000000000000000000000F5F5F5F5000000F5F5000000F5F5F5F5F5F5F5F5F5F500
310
0000000000000000F5F5F5F5F5F5F5F5F5F5F5F5F5F5F5F5F5F5F5000000F5000000000000F5F5F5F5F5F5F5F5F5F5F5F5F50000000000000000F5F5F5000000000000000000000000000000000000000000000000000000000000000000000000000000000000000000000000000000000000000000000000000000000000
310
00F5F5F50000F5F5F5000000000000000000000000000000000000000000000000000000000000000000000000000000000000000000000000000000000000000000000000000000000000000000000000000000000000000000000000000000000000000000000000F50000F5000000F50000000000000000000000000000
310
00F5F5F5F5F5F5F5F5F50000000000F5F5F5F5F5F5F5F5F5F5F5F5F5F5F5F5F5F5F5F5F5F5F5F5F5F5F5F5F5F5F5F5F5F5F5F5F5F5F5F5F5F5F5F5F500F50000000000000000000000000000000000000000000000000000000000000000000000000000000000000000000000000000000000000000000000000000000000
310
000000F5F5F50000F5F5F5000000000000000000000000000000000000000000000000000000000000000000000000000000000000000000000000000000000000000000000000000000000000000000000000000000000000000000000000000000000000000000000000F500F500000000F5000000000000000000000000
310
000000000000000000000000F5F5F5F5F5F5F5F5F5F5F5F5F5F5F500000000000000000000F50000000000000000000000000000000000000000000000F5F5F5000000000000000000000000000000000000000000000000000000000000000000000000000000000000000000000000000000000000000000000000000000
310
0000000000F5F5F50000F5F5F5000000000000000000000000000000000000000000000000000000000000000000000000000000000000000000000000000000000000000000000000000000000000000000000000000000000000000000000000000000000000000000000000F500F500000000F500000000000000000000
310
0000000000000000000000000000000000000000000000000000000000F5F5F5F5F5F5F5F5F5F5F5F5F5F5F5F5F5F5F5F5F5F5F5F5F5F5F5F5F5F5F5F5F5F5F5F5F500000000000000000000000000000000000000000000000000000000000000000000000000000000000000000000000000000000000000000000000000
310
00000000000000F5F5F50000F5F5F50000000000000000000000000000000000000000000000000000000000000000000000000000000000000000000000000000000000000000000000000000000000000000000000000000000000000000000000000000000000000000000000F50000F5000000F5000000000000000000
310
0000000000000000000000000000000000000000000000000000000000000000000000000000000000F50000000000000000000000000000000000000000000000F5F5F5F500000000000000000000000000000000000000000000000000000000000000000000000000000000000000000000000000000000000000000000
310
000000000000000000F5F5F50000F5F5F50000000000000000000000000000000000000000000000000000000000000000000000000000000000000000000000000000000000000000000000000000000000000000000000000000000000000000000000000000000000000000000000F500F500000000F500000000000000
310
00000000000000000000000000000000000000000000000000000000000000000000000000000000000000F50000000000000000000000000000000000000000000000F5F5F5F50000000000000000000000000000000000000000000000000000000000000000000000000000000000000000000000000000000000000000
310
0000000000000000000000F5F5F50000F5F5F500000000000000000000000000000000000000000000000000000000000000000000000000000000000000000000000000000000000000000000000000000000000000000000000000000000000000000000000000000000000000000000F50000F500000000F50000000000
310
000000000000000000F5F5F5F5F5F5F5F5F5F5F5F5F5F500000000000000000000000000000000000000000000F50000000000000000000000000000000000000000000000F5F5F5F5000000000000000000000000000000000000000000000000000000000000000000000000000000000000000000000000000000000000
310
00000000000000000000000000F5F5F50000F5F5F500000000000000000000000000000000000000000000000000000000000000000000000000000000000000000000000000000000000000000000000000000000000000000000000000000000000000000000000000000000000000000000F500F500000000F500000000
310
00000000000000000000F5F5F500000000000000000000F5F5F5000000000000000000000000000000000000000000F50000000000000000000000000000000000000000000000F5F5F5F500000000000000000000000000000000000000000000000000000000000000000000000000000000000000000000000000000000
310
000000000000000000000000000000F5F5F50000F5F5F500000000000000000000000000000000000000000000000000000000000000000000000000000000000000000000000000000000000000000000000000000000000000000000000000000000000000000000000000000000000000000000F500F500000000F50000
310
00000000000000000000000000F500F5F5F5F5F5F5F5F5F5F500F500000000000000000000000000000000000000000000F5F5F5F5F5F5F5F5F5F5F5F5F5F5F5F5F5F5F5F5F5000000F5F5F5F5F500000000000000000000000000000000000000000000000000000000000000000000000000000000000000000000000000
310
0000000000000000000000000000000000F5F5F50000F5F5F500000000000000000000000000000000000000000000000000000000000000000000000000000000000000000000000000000000000000000000000000000000000000000000000000000000000000000000000000000000000000000000F500F500000000F5
310
000000000000000000000000000000F500F50000F5F5F5F50000F500F500000000000000000000000000000000000000000000F5F5F50000000000000000000000F5F500F5F5F5F5000000F5F5F5F5000000000000000000000000000000000000000000000000000000000000000000000000000000000000000000000000
310
00000000000000000000000000000000000000F5F5F50000F5F5F500000000000000000000000000000000000000000000000000000000000000000000000000000000000000000000000000000000000000000000000000000000000000000000000000000000000000000000000000000000000000000000F500F5000000
310
00F5000000000000000000000000000000F500F50000F5F5F5F500F5F500F500000000000000000000000000000000000000000000F5F5F500000000F5F5F5F5F50000F5F500F5F5F5F5000000F5F5F5F5F5000000000000000000000000000000000000000000000000000000000000000000000000000000000000000000
310
000000000000000000000000000000000000000000F5F5F50000F5F5F500000000000000000000000000000000000000000000000000000000000000000000000000000000000000000000000000000000000000000000000000000000000000000000000000000000000000000000000000000000000000000000F500F500
310
000000F5000000000000000000000000000000F500F50000F5F5F5F500F5F500F500000000000000000000000000000000000000000000F5F5F500000000F5000000F50000F5F500F5F5F5F5000000F5F5F5F5F500000000000000000000000000000000000000000000000000000000000000000000000000000000000000
310
0000000000000000000000000000000000000000000000F5F5F50000F5F5F500000000000000000000000000000000000000000000000000000000000000000000000000000000000000000000000000000000000000000000000000000000000000000000000000000000000000000000000000000000000000000000F500
310
F500000000F5000000000000000000000000000000F500F50000F5F5F5F500F5F500F500000000000000000000000000000000000000000000F5F5F500000000F5F5F5F5F50000F5F500F5F5F5F5000000F5F5F5F5F50000000000000000000000000000000000000000000000000000000000000000000000000000000000
310
00000000000000000000000000000000000000000000000000F5F5F50000F5F5F500000000000000000000000000000000000000000000000000000000000000000000000000000000000000000000000000000000000000000000000000000000000000000000000000000000000000000000000000000000000000000000
310
F500F500000000F5000000000000000000000000000000F500F50000F5F5F5F500F5F500F500000000000000000000000000000000000000000000F5F5F500000000F5F5F5F5F50000F5F500F5F5F5F5000000F5F5F5F5F5000000000000000000000000000000000000000000000000000000000000000000000000000000
310
000000000000000000000000000000000000000000000000000000F5F5F50000F5F5F50000000000000000000000000000000000000000000000000000000000000000000000000000000000000000000000000000000000000000000000000000000000000000000000000000000000000000000000000000000000000000
310
0000F500F500000000F5000000000000000000000000000000F500F50000F5F5F5F500F5F500F500000000000000000000000000000000000000000000F5F5F500000000F5F50000000000F5F500F5F5F5F5000000F5F5F5F5F500000000000000000000000000000000000000000000000000000000000000000000000000
310
0000000000000000000000000000000000000000000000000000000000F5F5F50000F5F5F5000000000000000000000000000000000000000000000000000000000000000000000000000000000000000000000000000000000000000000000000000000000000000000000000000000000000000000000000000000000000
310
00000000F500F500000000F5000000000000000000000000000000F500F50000F5F5F5F500F5F500F500000000000000000000000000000000000000000000F5F5F50000F5F5F5F50000000000F5F500F5F5F5F5000000F5F5F5F5F50000000000000000000000000000000000000000000000000000000000000000000000
310
00000000000000000000000000000000000000000000000000000000000000F5F5F50000F5F5F500000000000000000000000000000000000000000000000000000000000000000000000000000000000000000000000000000000000000000000000000000000000000000000000000000000000000000000000000000000
310
000000000000F500F500000000F5000000000000000000000000000000F500F50000F5F5F5F500F50000F500000000000000000000000000000000000000000000F5F5F500000000F5000000000000F5F500F5F5F5F5000000F5F5F5F500000000000000000000000000000000000000000000000000000000000000000000
310
000000000000000000000000000000000000000000000000000000000000000000F5F5F50000F5F5F50000000000000000000000000000000000000000000000000000000000000000000000000000000000000000000000000000000000000000000000000000000000000000000000000000000000000000000000000000
310
0000000000000000F500F500000000F5000000000000000000000000000000F500F5F5F5F5F5F5F5F5000000F500000000000000000000000000000000000000000000F5F5F5F5F5F5F5F5F5F5F5F5F5F5F5F5F5F5F5F5F5000000F5F5F5F5F500000000000000000000000000000000000000000000000000000000000000
310
0000000000000000000000000000000000000000000000000000000000000000000000F5F5F50000F5F5F5000000000000000000000000000000000000000000000000000000000000000000000000000000000000000000000000000000000000000000000000000000000000000000000000000000000000000000000000
310
00000000000000000000F50000F500000000F500000000000000000000000000F5F5F500000000000000000000F5F5F5000000000000000000000000000000000000000000F50000000000000000000000000000000000000000000000F5F5F5F5000000000000000000000000000000000000000000000000000000000000
310
00000000000000000000000000000000000000000000000000000000000000000000000000F5F5F50000F5F5F500000000000000000000000000000000000000000000000000000000000000000000000000000000000000000000000000000000000000000000000000000000000000000000000000000000000000000000
310
00000000000000000000000000F500F500000000F50000000000000000000000000000F5F5F5F5F5F5F5F5F5F5F5F5F5F500000000000000000000000000000000000000000000F50000000000000000000000000000000000000000000000F5F5F5F500000000000000000000000000000000000000000000000000000000
310
000000000000000000000000000000000000000000000000000000000000000000000000000000F5F5F50000F5F5F50000000000000000000000000000000000000000000000000000000000000000000000000000000000000000000000000000000000000000000000000000000000000000000000000000000000000000
310
000000000000000000000000000000F50000F5000000F50000000000000000000000000000000000000000000000000000000000000000000000000000000000000000000000000000F50000000000000000000000000000000000000000000000F5F5F5F50000000000000000000000000000000000000000000000000000
310
0000000000000000000000000000000000000000000000000000000000000000000000000000000000F5F5F50000F5F5F5000000000000000000000000000000000000000000000000000000000000000000000000000000000000000000000000000000000000000000000000000000000000000000000000000000000000
310
000000000000000000000000000000000000F500F500000000F500000000000000000000000000000000000000000000000000000000000000000000000000000000000000000000000000F50000000000000000000000000000000000000000000000F5F5F5F5000000000000000000000000000000000000000000000000
310
00000000000000000000000000000000000000000000000000000000000000000000000000000000000000F5F5F50000F5F5F500000000000000000000000000000000000000000000000000000000000000000000000000000000000000000000000000000000000000000000000000000000000000000000000000000000
310
0000000000000000000000000000000000000000F500F500000000F5000000000000000000000000000000000000000000000000000000000000000000000000000000F5F5F5F5F5F5F5F5F5F5F5F5F5F5F5F5F5F5F5F5F5F5F5F5F5F5F5F5F5F5F5F5F5F5F5F5F50000000000000000000000000000000000000000000000
310
000000000000000000000000000000000000000000000000000000000000000000000000000000000000000000F5F5F50000F5F5F50000000000000000000000000000000000000000000000000000000000000000000000000000000000000000000000000000000000000000000000000000000000000000000000000000
310
00000000000000000000000000000000000000000000F50000F5000000F500000000000000000000000000F5F5F5F5F5F5F5F5F5F5F5F5F5F5F5F5F5F5F5F5F5F5F5F5F5F500000000000000000000F50000000000000000000000000000000000000000000000F5F5F5000000000000000000000000000000000000000000
310
0000000000000000000000000000000000000000000000000000000000000000000000000000000000000000000000F5F5F50000F5F5F5000000000000000000000000000000000000000000000000000000000000000000000000000000000000000000000000000000000000000000000000000000000000000000000000
310
00000000000000000000000000000000000000000000000000F500F500000000F50000000000F5F5F5F5F5F5F50000000000000000000000F5F5F5F5F5F5F5F5F5F5F5F5F5F5F5F5F5F5F5F5F5F5F5F5F5F5F5F5F5F5F5F5F5F5F5F5F5F5F5F5F5F5F5F5F5F5F5F5F5F500F500000000000000000000000000000000000000
310
00000000000000000000000000000000000000000000000000000000000000000000000000000000000000000000000000F5F5F50000F5F5F500000000000000000000000000000000000000000000000000000000000000000000000000000000000000000000000000000000000000000000000000000000000000000000
310
000000000000000000000000000000000000000000000000000000F5F5F5F5000000F5F500F5F5F5000000000000F5F5F5F5F5F5F5F5F5F5F5F50000000000F5F5F5F5F5F5F5F5F5F5F5F5F5F5000000F5000000000000F5F5F5F5F5F5F5F5F5F5F5F5F50000000000000000F500F500000000000000000000000000000000
310
000000000000000000000000000000000000000000000000000000000000000000000000000000000000000000000000000000F5F5F50000F5F5F50000000000000000000000000000000000000000000000000000000000000000000000000000000000000000000000000000000000000000000000000000000000000000
310
000000000000000000000000000000000000000000000000000000000000F500F5F5F5F5F5F5F50000000000F5F5F5F500000000000000000000000000F5F5F5F5F50000000000000000000000F5F5F5F5F5F5F5F5F5F5F5F5F5F5F5F5F5F5F5F5F5F5F5F5F5F5F5F5F5F5F5F5F5F500000000000000000000000000000000
310
0000000000000000000000000000000000000000000000000000000000000000000000000000000000000000000000000000000000F5F5F50000F5F5F5000000000000000000000000000000000000000000000000000000000000000000000000000000000000000000000000000000000000000000000000000000000000
310
000000000000000000000000000000000000000000000000000000000000000000F5F5F500F5F5F5F5F5F5F5F5F500000000000000F5F5F5F5F5F5F5F5F5F5F5F5F5F5F5F5F5F5F5F5F5F5F5F5F5F5F5F5F5F5F5F5000000000000000000000000000000000000000000000000000000000000000000000000000000000000
310
00000000000000000000000000000000000000000000000000000000000000000000000000000000000000000000000000000000000000F5F5F50000F5F5F500000000000000000000000000000000000000000000000000000000000000000000000000000000000000000000000000000000000000000000000000000000
310
000000000000000000000000000000000000000000000000000000000000000000000000F5F5F5F5F500000000F5F5F5F5F5F5F5F5F5F5F5F5F5F5F5F5F5F5F5000000000000000000000000000000F50000F50000F50000000000000000000000000000000000000000000000000000000000000000000000000000000000
310
000000000000000000000000000000000000000000000000000000000000000000000000000000000000000000000000000000000000000000F5F5F50000F5F5F50000000000000000000000000000000000000000000000000000000000000000000000000000000000000000000000000000000000000000000000000000
310
000000000000000000000000000000000000000000000000000000000000000000000000000000F5F5F5F5F5F5F5F5F5F5F5F5F5F5F5F5F5000000000000000000000000000000000000000000000000F5000000F5000000000000000000000000000000000000000000000000000000000000000000000000000000000000
310
0000000000000000000000000000000000000000000000000000000000000000000000000000000000000000000000000000000000000000000000F5F5F50000F5F5F5000000000000000000000000000000000000000000000000000000000000000000000000000000000000000000000000000000000000000000000000
310
0000000000000000000000000000000000000000000000000000000000000000000000000000000000F500F5F5F5F5F5F50000000000000000000000000000000000000000000000000000000000000000F5000000F50000000000000000000000000000000000000000000000000000000000000000000000000000000000
310
00000000000000000000000000000000000000000000000000000000000000000000000000000000000000000000000000000000000000000000000000F5F5F50000F5F5F500000000000000000000000000000000000000000000000000000000000000000000000000000000000000000000000000000000000000000000
310
0000000000000000000000000000000000000000000000000000000000000000000000000000000000000000F5000000F5000000000000000000000000000000000000000000000000000000000000000000F5000000F500000000000000000000000000000000000000000000000000000000000000000000000000000000
310
000000000000000000000000000000000000000000000000000000000000000000000000000000000000000000000000000000000000000000000000000000F5F5F50000F5F5F50000000000000000000000000000000000000000000000000000000000000000000000000000000000000000000000000000000000000000
310
0000000000000000000000000000000000000000000000000000000000000000000000000000000000000000000000F5000000F5F5000000000000000000000000000000000000000000000000000000000000F5000000F5000000000000000000000000000000000000000000000000000000000000000000000000000000
310
0000000000000000000000000000000000000000000000000000000000000000000000000000000000000000000000000000000000000000000000000000000000F5F5F50000F5F5F5000000000000000000000000000000000000000000000000000000000000000000000000000000000000000000000000000000000000
310
0000000000000000000000000000000000000000000000000000000000000000000000000000000000000000000000000000F500000000F500000000000000000000000000000000000000000000000000000000F50000F5F50000000000000000000000000000000000000000000000000000000000000000000000000000
310
00000000000000000000000000000000000000000000000000000000000000000000000000000000000000000000000000000000000000000000000000000000000000F5F5F50000F5F5F500000000000000000000000000000000000000000000000000000000000000000000000000000000000000000000000000000000
310
0000000000000000000000000000000000000000000000000000000000000000000000000000000000000000000000000000000000F5F5000000F500000000000000000000000000000000000000000000000000F5F50000F50000000000000000000000000000000000000000000000000000000000000000000000000000
310
000000000000000000000000000000000000000000000000000000000000000000000000000000000000000000000000000000000000000000000000000000000000000000F5F5F50000F5F5F50000000000000000000000000000000000000000000000000000000000000000000000000000000000000000000000000000
310
000000000000000000000000000000000000000000000000000000000000000000000000000000000000000000000000000000000000000000F5F50000F5F5000000000000000000000000000000000000000000F5F5000000F500000000000000000000000000000000000000000000000000000000000000000000000000
310
0000000000000000000000000000000000000000000000000000000000000000000000000000000000000000000000000000000000000000000000000000000000000000000000F5F5F50000F5F5F5000000000000000000000000000000000000000000000000000000000000000000000000000000000000000000000000
310
00000000000000000000000000000000000000000000000000000000000000000000000000000000000000000000000000000000000000000000000000F5F50000F5F5F500000000000000000000000000000000F5F5000000F5F5000000000000000000000000000000000000000000000000000000000000000000000000
310
00000000000000000000000000000000000000000000000000000000000000000000000000000000000000000000000000000000000000000000000000000000000000000000000000F5F5F50000F5F5F500000000000000000000000000000000000000000000000000000000000000000000000000000000000000000000
310
0000000000000000000000000000000000000000000000000000000000000000000000000000000000000000000000000000000000000000000000000000000000F5F5000000F5F5F500000000000000F5F5F5F5F5F5000000F5F5000000000000000000000000000000000000000000000000000000000000000000000000
310
000000000000000000000000000000000000000000000000000000000000000000000000000000000000000000000000000000000000000000000000000000000000000000000000000000F5F5F50000F5F5F50000000000000000000000000000000000000000000000000000000000000000000000000000000000000000
310
000000000000000000000000000000000000000000000000000000000000000000000000000000000000000000000000000000000000000000000000000000000000000000F5F5F5000000F5F5F5F5F5F5F500000000000000F5F5000000000000000000000000000000000000000000000000000000000000000000000000
310
0000000000000000000000000000000000000000000000000000000000000000000000000000000000000000000000000000000000000000000000000000000000000000000000000000000000F5F5F50000F5F5F5000000000000000000000000000000000000000000000000000000000000000000000000000000000000
310
0000000000000000000000000000000000000000000000000000000000000000000000000000000000000000000000000000000000000000000000000000000000000000000000000000F5F5000000000000000000000000F5F5F5000000000000000000000000000000000000000000000000000000000000000000000000
310
00000000000000000000000000000000000000000000000000000000000000000000000000000000000000000000000000000000000000000000000000000000000000000000000000000000000000F5F5F50000F5F5F500000000000000000000000000000000000000000000000000000000000000000000000000000000
310
000000000000000000000000000000000000000000000000000000000000000000000000000000000000000000000000000000000000000000000000000000000000000000000000000000000000F5F5F5F5F5F5F5F5F5F5F5F500000000000000000000000000000000000000000000000000000000000000000000000000
310
000000000000000000000000000000000000000000000000000000000000000000000000000000000000000000000000000000000000000000000000000000000000000000000000000000000000000000F5F5F50000F5F5F50000000000000000000000000000000000000000000000000000000000000000000000000000
310
00000000000000000000000000000000000000000000000000000000000000000000000000000000000000000000000000000000000000000000000000000000000000000000000000000000000000000000000000000000000000000000000000000000000000000000000000000000000000000000000000000000000000
310
0000000000000000000000000000000000000000000000000000000000000000000000000000000000000000000000000000000000000000000000000000000000000000000000000000000000000000000000F5F5F50000F5F5F5000000000000000000000000000000000000000000000000000000000000000000000000
310
00000000000000000000000000000000000000000000000000000000000000000000000000000000000000000000000000000000000000000000000000000000000000000000000000000000000000000000000000000000000000000000000000000000000000000000000000000000000000000000000000000000000000
310
00000000000000000000000000000000000000000000000000000000000000000000000000000000000000000000000000000000000000000000000000000000000000000000000000000000000000000000000000F5F5F50000F5F5F500000000000000000000000000000000000000000000000000000000000000000000
310
00000000000000000000000000000000000000000000000000000000000000000000000000000000000000000000000000000000000000000000000000000000000000000000000000000000000000000000000000000000000000000000000000000000000000000000000000000000000000000000000000000000000000
310
000000000000000000000000000000000000000000000000000000000000000000000000000000000000000000000000000000000000000000000000000000000000000000000000000000000000000000000000000000F5F5F50000F5F5F50000000000000000000000000000000000000000000000000000000000000000
310
00000000000000000000000000000000000000000000000000000000000000000000000000000000000000000000000000000000000000000000000000000000000000000000000000000000000000000000000000000000000000000000000000000000000000000000000000000000000000000000000000000000000000
310
0000000000000000000000000000000000000000000000000000000000000000000000000000000000000000000000000000000000000000000000000000000000000000000000000000000000000000000000000000000000F5F5F50000F5F5F5000000000000000000000000000000000000000000000000000000000000
310
00000000000000000000000000000000000000000000000000000000000000000000000000000000000000000000000000000000000000000000000000000000000000000000000000000000000000000000000000000000000000000000000000000000000000000000000000000000000000000000000000000000000000
310
00000000000000000000000000000000000000000000000000000000000000000000000000000000000000000000000000000000000000000000000000000000000000000000000000000000000000000000000000000000000000F5F5F50000F5F5F500000000000000000000000000000000000000000000000000000000
310
00000000000000000000000000000000000000000000000000000000000000000000000000000000000000000000000000000000000000000000000000000000000000000000000000000000000000000000000000000000000000000000000000000000000000000000000000000000000000000000000000000000000000
310
000000000000000000000000000000000000000000000000000000000000000000000000000000000000000000000000000000000000000000000000000000000000000000000000000000000000000000000000000000000000000000F5F5F50000F5F5F50000000000000000000000000000000000000000000000000000
310
00000000000000000000000000000000000000000000000000000000000000000000000000000000000000000000000000000000000000000000000000000000000000000000000000000000000000000000000000000000000000000000000000000000000000000000000000000000000000000000000000000000000000
310
0000000000000000000000000000000000000000000000000000000000000000000000000000000000000000000000000000000000000000000000000000000000000000000000000000000000000000000000000000000000000000000000F5F5F50000F5F5F5000000000000000000000000000000000000000000000000
310
00000000000000000000000000000000000000000000000000000000000000000000000000000000000000000000000000000000000000000000000000000000000000000000000000000000000000000000000000000000000000000000000000000000000000000000000000000000000000000000000000000000000000
310
00000000000000000000000000000000000000000000000000000000000000000000000000000000000000000000000000000000000000000000000000000000000000000000000000000000000000000000000000000000000000000000000000F5F5F50000F5F5F5F5000000000000000000000000000000000000000000
310
00000000000000000000000000000000000000000000000000000000000000000000000000000000000000000000000000000000000000000000000000000000000000000000000000000000000000000000000000000000000000000000000000000000000000000000000000000000000000000000000000000000000000
310
0000000000000000000000000000000000000000000000000000000000000000000000000000000000000000000000000000000000000000000000000000000000000000000000000000000000000000000000000000000000000000000000000000F5F5F5F50000F5F5F5F5F5F5F5F5F5F5F5F5F5F5F5F5F5F5F5F5F5F5F5
310
F5F5F5F5F5F5F5F5F5F5F5F5F5F5F5F5F5F5F5F5F5F5F5F5F5F5F5F5F5F5F5F5F5F5F5F5F5F5F5F5F5F5F5F5F5F5F5F5F5F5F5F5F5F5F5F5F5F5F5F5F5F5F5F5F5F5F5F5F5F5F5F5F5F5F5F5F5F5F5F5F5F5F5F5F5F5F5F5F5F5F5F5F5F5F5F5F5F5F5F5F5F5F5F5F5F5F5F5F5F5F5F5F5F5F5F5F5F5F5F5F5F5F5F5F5F5F5
310
F5F5F5F5F5F5F5F5F5F5F5F5F5F5F5F5F5F5F5F5F5F5F5F5F5F5F5F5F5F5F5F5F5F5F5F5F5F5F5F5F5F5F5F5F5F5F5F5F5F5F5F5F5F5F5F5F5F5F5F5F5F5F5F5F5F5F5F5F5F5F5F5F5F5F5F5F5F5F5F5F5F5F5F5F5F5F5F5F5F5F5F5F5F5F5F5F5F5F5F5F5F5F5F50000F500F5F50000000000000000000000000000000000
310
00000000000000000000000000000000000000000000000000000000000000000000000000000000000000000000000000000000000000000000000000000000000000000000000000000000000000000000000000000000000000000000000000000000000000000000000000000000000000000000000000000000000000
310
000000000000000000000000000000000000000000000000000000000000000000000000000000000000000000000000000000000000000000000000000000000000000000000000000000000000000000000000000000000000000000000000000000000000F5F500F500F5F5F5F5F5F5F5F5F5F5F5F5F5F5F5F5F5F5F5F5
310
F5F5F5F5F5F5F5F5F5F5F5F5F5F5F5F5F5F5F5F5F5F5F5F5F5F5F5F5F5F5F5F5F5F5F5F5F5F5F5F5F5F5F5F5F5F5F5F5F5F5F5F5F5F5F5F5F5F5F5F5F5F5F5F5F5F5F5F5F5F5F5F5F5F5F5F5F5F5F5F5F5F5F5F5F5F5F5F5F5F5F5F5F5F5F5F5F5F5F5F5F5F5F5F5F5F5F5F5F5F5F5F5F5F5F5F5F5F5F5F5F5F5F5F5F5F5F5
310
F5F5F5F5F5F5F5F5F5F5F5F5F5F5F5F5F5F5F5F5F5F5F5F5F5F5F5F5F5F5F5F5F5F5F5F5F5F5F5F5F5F5F5F5F5F5F5F5F5F5F5F5F5F5F5F5F5F5F5F5F5F5F5F5F5F5F5F5F5F5F5F5F5F5F5F5F5F5F5F5F5F5F5F5F5F5F5F5F5F5F5F5F5F5F5F5F5F5F5F5F5F5F5F5F5F5F5F50000F5F5F5F5F5F5F5F5F5F5F5F5F5F5F5F5F5
310
F5F5F5F5F5F5F5F5F5F5F5F5F5F5F5F5F5F5F5F5F5F5F5F5F5F5F5F5F5F5F5F5F5F5F5F5F5F5F5F5F5F5F5F5F5F5F5F5F5F5F5F5F5F5F5F5F5F5F5F5F5F5F5F5F5F5F5F5F5F5F5F5F5F5F5F5F5F5F5F5F5F5F5F5F5F5F5F5F5F5F5F5F5F5F5F5F5F5F5F5F5F5F5F5F5F5F5F5F5F5F5F5F5F5F5F5F5F5F5F5F5F5F5F5F5F5F5
310
F5F5F5F5F5F5F5F5F5F5F5F5F5F5F5F5F5F5F5F5F5F5F5F5F5F5F5F5F5F5F5F5F5F5F5F5F5F5F5F5F5F5F5F5F5F5F5F5F5F5F5F5F5F5F5F5F5F5F5F5F5F5F5F5F5F5F5F5F5F5F5F5F5F5F5F5F5F5F5F5F5F5F5F5F5F5F5F5F5F5F5F5F5F5F5F5F5F5F5F5F5F5F5F5F5F5F5F5F5F50000000000000000000000000000000000
310
00000000000000000000000000000000000000000000000000000000000000000000000000000000000000000000000000000000000000000000000000000000000000000000000000000000000000000000000000000000000000000000000000000000000000000000000000000000000000000000000000000000000000
310
00000000000000000000000000000000000000000000000000000000000000000000000000000000000000000000000000000000000000000000000000000000000000000000000000000000000000000000000000000000000000000000000000000000000000000000000000000000000000000000000000000000000000
310
00000000000000000000000000000000000000000000000000000000000000000000000000000000000000000000000000000000000000000000000000000000000000000000000000000000000000000000000000000000000000000000000000000000000000000000000000000000000000000000000000000000000000
310
00000000000000000000000000000000000000000000000000000000000000000000000000000000000000000000000000000000000000000000000000000000000000000000000000000000000000000000000000000000000000000000000000000000000000000000000000000000000000000000000000000000000000
310
00000000000000000000000000000000000000000000000000000000000000000000000000000000000000000000000000000000000000000000000000000000000000000000000000000000000000000000000000000000000000000000000000000000000000000000000000000000000000000000000000000000000000
310
00000000000000000000000000000000000000000000000000000000000000000000000000000000000000000000000000000000000000000000000000000000000000000000000000000000000000000000000000000000000000000000000000000000000000000000000000000000000000000000000000000000000000
310
00000000000000000000000000000000000000000000000000000000000000000000000000000000000000000000000000000000000000000000000000000000000000000000000000000000000000000000000000000000000000000000000000000000000000000000000000000000000000000000000000000000000000
310
00000000000000000000000000000000000000000000000000000000000000000000000000000000000000000000000000000000000000000000000000000000000000000000000000000000000000000000000000000000000000000000000000000000000000000000000000000000000000000000000000000000000000
310
00000000000000000000000000000000000000000000000000000000000000000000000000000000000000000000000000000000000000000000000000000000000000000000000000000000000000000000000000000000000000000000000000000000000000000000000000000000000000000000000000000000000000
310
00000000000000000000000000000000000000000000000000000000000000000000000000000000000000000000000000000000000000000000000000000000000000000000000000000000000000000000000000000000000000000000000000000000000000000000000000000000000000000000000000000000000000
310
00000000000000000000000000000000000000000000000000000000000000000000000000000000000000000000000000000000000000000000000000000000000000000000000000000000000000000000000000000000000000000000000000000000000000000000000000000000000000000000000000000000000000
310
00000000000000000000000000000000000000000000000000000000000000000000000000000000000000000000000000000000000000000000000000000000000000000000000000000000000000000000000000000000000000000000000000000000000000000000000000000000000000000000000000000000000000
310
00000000000000000000000000000000000000000000000000000000000000000000000000000000000000000000000000000000000000000000000000000000000000000000000000000000000000000000000000000000000000000000000000000000000000000000000000000000000000000000000000000000000000
310
00000000000000000000000000000000000000000000000000000000000000000000000000000000000000000000000000000000000000000000000000000000000000000000000000000000000000000000000000000000000000000000000000000000000000000000000000000000000000000000000000000000000000
310
00000000000000000000000000000000000000000000000000000000000000000000000000000000000000000000000000000000000000000000000000000000000000000000000000000000000000000000000000000000000000000000000000000000000000000000000000000000000000000000000000000000000000
310
00000000000000000000000000000000000000000000000000000000000000000000000000000000000000000000000000000000000000000000000000000000000000000000000000000000000000000000000000000000000000000000000000000000000000000000000000000000000000000000000000000000000000
310
00000000000000000000000000000000000000000000000000000000000000000000000000000000000000000000000000000000000000000000000000000000000000000000000000000000000000000000000000000000000000000000000000000000000000000000000000000000000000000000000000000000000000
310
00000000000000000000000000000000000000000000000000000000000000000000000000000000000000000000000000000000000000000000000000000000000000000000000000000000000000000000000000000000000000000000000000000000000000000000000000000000000000000000000000000000000000
310
00000000000000000000000000000000000000000000000000000000000000000000000000000000000000000000000000000000000000000000000000000000000000000000000000000000000000000000000000000000000000000000000000000000000000000000000000000000000000000000000000000000000000
310
00000000000000000000000000000000000000000000000000000000000000000000000000000000000000000000000000000000000000000000000000000000000000000000000000000000000000000000000000000000000000000000000000000000000000000000000000000000000000000000000000000000000000
310
00000000000000000000000000000000000000000000000000000000000000000000000000000000000000000000000000000000000000000000000000000000000000000000000000000000000000000000000000000000000000000000000000000000000000000000000000000000000000000000000000000000000000
310
00000000000000000000000000000000000000000000000000000000000000000000000000000000000000000000000000000000000000000000000000000000000000000000000000000000000000000000000000000000000000000000000000000000000000000000000000000000000000000000000000000000000000
310
00000000000000000000000000000000000000000000000000000000000000000000000000000000000000000000000000000000000000000000000000000000000000000000000000000000000000000000000000000000000000000000000000000000000000000000000000000000000000000000000000000000000000
310
00000000000000000000000000000000000000000000000000000000000000000000000000000000000000000000000000000000000000000000000000000000000000000000000000000000000000000000000000000000000000000000000000000000000000000000000000000000000000000000000000000000000000
310
00000000000000000000000000000000000000000000000000000000000000000000000000000000000000000000000000000000000000000000000000000000000000000000000000000000000000000000000000000000000000000000000000000000000000000000000000000000000000000000000000000000000000
310
00000000000000000000000000000000000000000000000000000000000000000000000000000000000000000000000000000000000000000000000000000000000000000000000000000000000000000000000000000000000000000000000000000000000000000000000000000000000000000000000000000000000000
310
00000000000000000000
  0
XRECORD
  5
3B
102
{ACAD_REACTORS
330
3A
102
}
330
3A
100
AcDbXrecord
280
     1
 70
     1
 90
429727718
  1
D62C5603-E3A1-4AEA-B7FB-FE5D8D0755AF
310
504B03040A0000080000CC70623B3DEE336E79000000790000001B0000006175746F6465736B2D64657369676E2D7061636B6167652E786D6C3C3F786D6C2076657273696F6E3D22312E302220656E636F64696E673D227574662D3822203F3E3C666F726D6174733E3C666F726D61743E687474703A2F2F736368656D612E
310
6175746F6465736B2E636F6D2F64657369676E2D7061636B6167652F323030393C2F666F726D61743E3C2F666F726D6174733E504B0304140006080800CC70623BD486FD9CA0000000F4000000130000005B436F6E74656E745F54797065735D2E786D6C7D8EC10E82300C865F65E91D8A1E8C310C0EEA1BF002731658846E
310
D98AC1B77784ABF1D8FE5FBFBF75BBCE937A534CCEB38643598122B6FEE978D0B0485F9C41B54DDD7D022595594E1A469170414C76A4D9A4D207E29CF43ECE46F218070CC6BECC4078ACAA135ACF422C856C0E68EA1BF5669944DDD7BCDE7B1F8E415D77AECB980613C2E4AC91FC167A2B244592486606FC29C8FD7F045B9A
310
EF7053A7E60B504B0304140006080800CC70623B853B8169EB0000007C01000008000000636F72652E786D6C8D90416EC3201045AF62CDB6C206821CC7C244919D9CA01740401C94182C03558F5F9C3852BBEB6A467FFE9B197D7EFC9E1EC5975982F5AE035262288C535E5B377690E21535501C055FBC8FBF6C503839990E
310
5619041F179FE64D52DE45E362569DD7661365082642A11EB9E920A89B99642953CC8E702F67A9EE7234257977194EC9EAE275C4EABCCF5EAD5940D4AC6F0E35A568B8F43562CD7046CD199FD07E60174276A7BE677B5EADB0E0D14EEFFB6A31321A0D82627C4084204C3F096B71DD52F6819B16635EADF63F509AF53FA164
310
5DDCD1EDDD17164090FCC8732078B56691CB33A85CD7DCC40F504B0304140006080800CC70623B55019EA25F0000007C00000007000000636E782E786D6C4DCB3B0E80201045D1AD90E915ED2CF8AC45050C11660C8261F98AB1B07AC9C97D42D718D865D3E909258CFD00CCE24AC6E326A164D74DC0B4128928FF32603847
310
2BA13128B1252AC747C6BAB984FC68F0B87FE8960A5C09FE86CFB69FBA01504B0304140006080800CC70623BDBABAAF470010000D40300000C0000006662782F636F72652E786D6CC553D16E823014FD95A6AF4B694182CC941A83FA05FB810A9511A125A5257EFE2E82712ECEB8A7F100CD39F7F69E734AF9FADC366850B6
310
AF8DCE7018308C942E4C59EB2AC3DE1D498AD15A706B8CFB56869196ADCAF00863C12B6B7C374385D14E6907A836A59A41D9F7CA615434B0C8705F7CAA5606D23BA8E84F41278B93AC54100640439DE0BDB320004D43C63716C7C399D30917DCFBBA9CD9BA8469F5B156168B24CED3F7248AC8769F27244EB73B92EED8862C
310
B7F13E0C179B3C8F979C8ECD82BBBABDAA2BAC924E9558448CBD9330242CFA08E3154B5651FCC6D215639C8EE5774DBE2B5F6CF2B5768B68963BB5F5588420E442FC700B1139D4CB01F450C1E918227C2E09DF070D8140C84E1E9AAB8F1340832A9CB13130A5F1376A908D57309505ECF2A0DF179C4E9D30F5B239B87E3823
310
7A79C6F31DE1A8A5AEC08474B03C7837EAE4938639B44E5932B833D2C6B6B279CDC613877FA26EE21F4A2A4C63EC7F29A2F301D1F9F7A0E37D145F504B0304140006080800CC70623B9C113CC27E0000009D0000000B0000006662782F636E782E786D6C4DCCDF0A83201C86E15B91DFB94BFB330DD428C8FB886521330DA7
310
6397BF1A1DECE883878F57749FCDA1B7892F1BBC047A23808C7F84D9FA55424E0BE6803A256208E9EF06C84F9B91703228B1C690F78B66B34CD9A5439DF5CF0BFBF65E35BCA1B8D6A5C6F540381E886698B5741C695F9503EBA150A2F8958E3DC3EA0B504B0304140006080800CC70623B7DF2F77C2A010000120200003100
310
00006662782F41393633353835312D344632462D344230382D423046372D3739314545314133324237412F636F72652E786D6C8D51DB8EC22014FC15C2939B0D2DB4B45643319AE817EC0F6041255A68B86CFCFC856D4D76DF7CE190393373060EDB3DC707F856CE6B6B7A480A0C81328395DA5C7B18C3057510EC3873D686
310
3F34088C18550F330C39BB3A1BA7051AAC09CA84841A2BD5020AEF55806078A44B0FFD7053A328440C89E1EFC52486BBB8AA8214A99D789CF9E05200300FC927E4FB4D5B375D43103D5527440FB843077C5AA3F5861C8F645F5787F59E95B390B318B55CE45AA638FAA2957BD7248B390B7A7CC51F9C124149C82B8C378810
310
84AB2F42B7B8DD56F413775B8C5999E9FF4471926F8AA236A1AE96B8B3CC434E5839373893369E1FAF30EA395917409EB7F26AF8801C171837A4A6AC9C89E9F9C9B1A58BA30FD6A5EF5DDDCF894B9AD9B6A59C957943A9FCAE2FD5BC4DFE03504B0304140006080800CC70623BAD7543B64E01000033030000300000006662
310
782F41393633353835312D344632462D344230382D423046372D3739314545314133324237412F636E782E786D6CD593CD6EC32010845F0571AD6CE3D48AD20813A9873E410FBD12D82434182C7EAAE6EDBB2424CD25871E7B41D6EC30B3FA84F9E67BB2E40B4234DE8DB46F1925E094D7C6ED479AD3AE5951B2113C789FEE
310
6C943839C1488B4C05DF079FE72A69D8C96C13AAD6B8631503449F83828872B949AC57D26200B826A308D316B4064D6E46FCDA41C05550DC9E483A00797BFD207EFB092A45DE9514C1BBD22178396BD39D891265658C238DEA00936C654E5E433CB65A26D9F6EDB5EBC14EBF49A45CB856E66048291F6939A9A81BB5C89177
310
38143CA680F4AA299D66A042CEB3354A2684DC9D8D178FE0D9B8B41CAAD720F880EE7EF93C0C18769E099ECC04D5A102C8049A8A05632F4DDF376CF1DE0F6BB65C2F8627B65A33C6BB62177CEBBDAD973006829F89F22E814B54F4BC2BE347F8AA8F681390B50FA73F804400B5F542E796F19FF974E7F78DB802FE05E20750
310
4B0304140006080800CC70623BE75B7789680500003C100000340000006662782F41393633353835312D344632462D344230382D423046372D3739314545314133324237412F6F626A656374732E786D6CAD575B8F9B3818FD2B887D06C22499CB8AA1CA655245D5B455A356FB305264C061D8018C6C3393D95FBFC7600890
310
A4CD5EF210B0B1BFEBF98E3F7B1FF6596ABC522E1296DF9BAE3D320D9A872C4AF2F8DE2CE5CEBA358D0FBEC719939D65A691938CDE9B6ADAF4BD98B3B2D05311DD91329583D9D5FC0F438434A7A611A644887B5384CF34233629258BA878B12322891DEFF6B66BD70BFB62634E8AE781D082709A4B588AF91C528CDA28B73F
310
1C998EEF39EABBEFA97FBD6A7C7E9553F9D3D79FE442923C3C523610337627CB87ABE99D359D4CC6D6E4FACAB5E6ABF9D2726FC6A3C5F56271377BB88362213924694B38DD99FE47C48627A1E7D49F5A8BB5E1A74C0A599ED3B0F21F1E56366B89112D681E218F0915D0D6F17AD41FBA2A369DCF6335D62ABBD39779D5DDD1
310
11D4D8DE3CBB96B2E04FB8202E41051754A1AA8E8F76B4C6DFE810B580B1547F4B84911149794252234D024EF8BBE963A95AE27B3D310A9D5C215C7960FAEE415ED75694C6AFB17BCACA5D99A60A9AA65F217B0BFC53292ACB92BF283FAD0D3621576592CB5BED907C2FA8E9DF794E35E97BEA31BED21FEB401ABB94C44839
310
DCACBF0E1C5DA8DA5B2F4DFFD32AD86F543D9E565E7056502E157C00AD2671CD534549AB752FCA9CDA00677A313F04E51B22FF19E57B300579E3C97EB29F682D92935CEC18CF901B7B54FD8C51F362B56FC72FE0B3C1EAE335EDCCBF5AEC39ADB17DC238973F804BA5E6F6BFE7AF1FB32E523BE9F3BD571418E3631DCA4D48
310
5250CF639223210A9446CA30052EDF057BD35F8329C1ECD84552BF0DC8D18BE7BCE23BFE6BD960AB4A7DE79923A103BEBD80F911CBAA2C60DB19B01CF164A5583B772EE6D3FFA56666CBCDA74DC97724A48F9A58967497E489C4D979006FD7A05E227A1EBDD0F737C623387A9C844D3709995625106D157315F8B8392CD4E0
310
A0B9A720C4BE9829CEF37EA1E13111214D53925356365ADA634861B52519DD27A00AEB808EAF0628E6F435519D446F45CF2C9CF5214F0A15B2F6D06B79DA3EE3CBF7F56780D2F4E7EF73A0F5E5B02A38D07DC852C6B7C1FBB6664213E0C39E3EBA7FF4E1AD23EA2829407C85E586727488B751B2DB9502BC7B228A3FD68B6E
310
A65A22397E690AA8D158D7E404EC8CDA235CC3B7D1898680131CEC2CDF2638C65196279577750F15884AEE19F94199155B92B13297978469D4F8D358DF0AEF7631E28DC8F0D9F437D5D39A83B2231A1D52D543813A824EF8D44BCFF2FA6A31BD1E8DAD87F1CCB526B3879935BF59CDADD5C37479BB1CDD4CA7B3556B516589
310
EF352754B706114D9C885EC9131DE6EFEB43D99AFE2391C2F958179413D7CFEF6B1B6DB1E7600F00DE6E5C67454A339A4BA2E0FBA85ED26F045D454F463DBFCE484C2F90F2E5E3666003662ED8F755951A7D1BECD5B30B550B2785C8E7320B7292A4838DDA71BBC863ED7613CAF659337A3354231D4FF4A182A54904C2898C
310
98B28C4AD0CE056CCF332A80986E571EE9DBC305BB5FEB7E509220A58D25CF042D712A806AC0AD0C657FDEF80D2D9CEAA2EE4D1C76F60BFE74219A06527D6F82DF6412526107381E55E353090704D085B52408A8913C4ED159D79BDA71BB4BC506F4831350EB6F975CD22D69BF7AC49B91A2C0A9DDA3D5CA36AD20FC478E37
310
E61844E2352865EBCB61A275A65283CAAA9DD27703B4102F5AF51EF5F573B75CBB5AD38BC845F7A49F82A0966A49C2E3EA5EA0ECD326CD965F1DB402C6FA8B51A4658C5C5E2EC9E214602E55810345408596591009A82E7E7FFACA19EEA299B14A0081A705CB3296EBC14CDF658DCD336EA6D1136881AAEB87B81AB9EE53D5
310
F5EB8BC8362082DA24122F98680A4E7930C01A0079749CEA14382A0783E5EBA5A10F8C098456A03D6A4AEB6BB881E2513747552A5DB22C7EDAF83BD5528081A365F7FF06504B0304140006080000CC70623B000000000000000000000000350000006662782F41393633353835312D344632462D344230382D423046372D37
310
39314545314133324237412F76657274696365732E62696E504B0304140006080800CC70623BF270F1330600000004000000360000006662782F41393633353835312D344632462D344230382D423046372D3739314545314133324237412F747269616E676C65732E62696E636660600000504B0304140006080000CC7062
310
3B000000000000000000000000370000006662782F41393633353835312D344632462D344230382D423046372D3739314545314133324237412F617474726962757465732E62696E504B0304140006080800CC70623B08DA0BD19000000041010000360000006662782F41393633353835312D344632462D344230382D4230
310
46372D3739314545314133324237412F6469726563746F72792E786D6C858F410AC3201045AF22B36F53E9A60B35CBEEBAE80D244E44489C6234F4F835464A48035D0DF398FF9F8AF63D0E6CC63039F212F8F9020C7D47C6792B21C5FE7403D62A1188E2E60C98D7234A5830286103A55745067B9D86B8A3CF9C7F90C11DE6
310
07FB144396D7B6A82D282E9A152AD114D5EF2CB866EEE831B8EEA07A7BB5A8D7D61A2BAAEB7FD5F70921FF497D00504B0304140006080800CC70623BEDD1DC58FD000000A00100003B0000006662782F41393633353835312D344632462D344230382D423046372D3739314545314133324237412F7265736F75726365732F
310
636F72652E786D6C8D504B6E833010BD0A9A6D65B00922041947112427E8052C33A156828DFCA97AFC9A40A576D7CDCCE87D344F8F9FBFE667F689CE6B6B3A6039850C8DB2A336530731DC4903D95970676DF82583CCC8193B5861107C72362E3BA4AC096842428D1D7107A5F7182053CF7474E0D507CE32973124857FE48B
310
540F3961CEF244279DE03EB81420DB9EAC1384436FA353E879B1B182C7A8C75DA3C7F453DF353A1075D537A7BA6464B8F535A99AE14A9A2BBD90E350DD183B5CFABE3AF262350B1EF4FC9351399401471025A527C218A1E53BAB5A5AB765F5469B96525EACF23FA6B88CFF34456DC2A1DCE36E360F82A5202F42F062ED2BAD
310
579969AFDD8A6F504B010214000A0000080000CC70623B3DEE336E79000000790000001B00000000000000000000000000000000006175746F6465736B2D64657369676E2D7061636B6167652E786D6C504B01021400140006080800CC70623BD486FD9CA0000000F40000001300000000000000000000000000B20000005B
310
436F6E74656E745F54797065735D2E786D6C504B01021400140006080800CC70623B853B8169EB0000007C010000080000000000000000000000000083010000636F72652E786D6C504B01021400140006080800CC70623B55019EA25F0000007C000000070000000000000000000000000094020000636E782E786D6C504B
310
01021400140006080800CC70623BDBABAAF470010000D40300000C00000000000000000000000000180300006662782F636F72652E786D6C504B01021400140006080800CC70623B9C113CC27E0000009D0000000B00000000000000000000000000B20400006662782F636E782E786D6C504B01021400140006080800CC70
310
623B7DF2F77C2A010000120200003100000000000000000000000000590500006662782F41393633353835312D344632462D344230382D423046372D3739314545314133324237412F636F72652E786D6C504B01021400140006080800CC70623BAD7543B64E010000330300003000000000000000000000000000D2060000
310
6662782F41393633353835312D344632462D344230382D423046372D3739314545314133324237412F636E782E786D6C504B01021400140006080800CC70623BE75B7789680500003C10000034000000000000000000000000006E0800006662782F41393633353835312D344632462D344230382D423046372D3739314545
310
314133324237412F6F626A656374732E786D6C504B01021400140006080000CC70623B0000000000000000000000003500000000000000000000000000280E00006662782F41393633353835312D344632462D344230382D423046372D3739314545314133324237412F76657274696365732E62696E504B01021400140006
310
080800CC70623BF270F133060000000400000036000000000000000000000000007B0E00006662782F41393633353835312D344632462D344230382D423046372D3739314545314133324237412F747269616E676C65732E62696E504B01021400140006080000CC70623B0000000000000000000000003700000000000000
310
000000000000D50E00006662782F41393633353835312D344632462D344230382D423046372D3739314545314133324237412F617474726962757465732E62696E504B01021400140006080800CC70623B08DA0BD1900000004101000036000000000000000000000000002A0F00006662782F41393633353835312D344632
310
462D344230382D423046372D3739314545314133324237412F6469726563746F72792E786D6C504B01021400140006080800CC70623BEDD1DC58FD000000A00100003B000000000000000000000000000E1000006662782F41393633353835312D344632462D344230382D423046372D3739314545314133324237412F7265
310
736F75726365732F636F72652E786D6C504B0506000000000E000E0080040000641100000000
  0
XRECORD
  5
38
102
{ACAD_REACTORS
330
37
102
}
330
37
100
AcDbXrecord
280
     1
 70
     1
 90
429727718
  1
30362254-06B7-45E0-A893-8CFA70E3D6BC
310
504B03040A0000080000CC70623B3DEE336E79000000790000001B0000006175746F6465736B2D64657369676E2D7061636B6167652E786D6C3C3F786D6C2076657273696F6E3D22312E302220656E636F64696E673D227574662D3822203F3E3C666F726D6174733E3C666F726D61743E687474703A2F2F736368656D612E
310
6175746F6465736B2E636F6D2F64657369676E2D7061636B6167652F323030393C2F666F726D61743E3C2F666F726D6174733E504B0304140006080800CC70623BD486FD9CA0000000F4000000130000005B436F6E74656E745F54797065735D2E786D6C7D8EC10E82300C865F65E91D8A1E8C310C0EEA1BF002731658846E
310
D98AC1B77784ABF1D8FE5FBFBF75BBCE937A534CCEB38643598122B6FEE978D0B0485F9C41B54DDD7D022595594E1A469170414C76A4D9A4D207E29CF43ECE46F218070CC6BECC4078ACAA135ACF422C856C0E68EA1BF5669944DDD7BCDE7B1F8E415D77AECB980613C2E4AC91FC167A2B244592486606FC29C8FD7F045B9A
310
EF7053A7E60B504B0304140006080800CC70623B1EC5D7A3EB0000007C01000008000000636F72652E786D6C8D90416EC3201045AF82665B6103C6756C6122AB4D4ED00B204C5C94182C03558F5F9C3852BBEB6A467FFE9B197D71FC9E6FE8CBACC17AD7032D0820E3B41FAD9B7A48F1820F808E52ACDEC75F36404ECDA687
310
4D0629A6D5A76597B477D1B89855E747B38B2A041301E95B6E7A08FAD3CCAA50296647B8168BD2573599823EBB0CA76447F43862C7BCCF5EAC59410E4DDD9C7973C2755553CCCFA4C603E3040F1565ED3B1FDE4E432BCA0D9622DAF9795FAF464533826484B498524CD807E51D79ED187F21878E10516EF63F505AC67F42C9
310
BA58B1FDDD071640D2FCC87D2045B96591CB3DA85CB7DCE40F504B0304140006080800CC70623B55019EA25F0000007C00000007000000636E782E786D6C4DCB3B0E80201045D1AD90E915ED2CF8AC45050C11660C8261F98AB1B07AC9C97D42D718D865D3E909258CFD00CCE24AC6E326A164D74DC0B4128928FF32603847
310
2BA13128B1252AC747C6BAB984FC68F0B87FE8960A5C09FE86CFB69FBA01504B0304140006080800CC70623B8C9102E971010000D40300000C0000006662782F636F72652E786D6CC5535B6E833010BC8AE5DF0A6C08340F1947A84D4ED00B38C6A128602363A31CBFCB234A53A551FA553EC09AD9F5CE8C31DB9E9B1AF5CA
310
7695D1198E428A91D2D214952E33ECDD315861B4E5CC1AE3BE9561A445A3323CC098B3D21ADFCE9034DA29ED00D5A6503328BA4E398C640D8B0C77F253352214DE4145770A5B214FA2546114020D759C75CE8200340D19DE981F0F6746269C33EFAB6266AB02A655C74A59CCF365BADC27CB5D902ED22848F6340DF238A141
310
BE88E2F57B92BFEDF23523433367AE6A2EEAA455C2A902F398D2751045018D3FA264435F3771F242571B4A1919CA6F9A7C5B3CD9E42BED16F12C776AEB308F40C848FC700B1139D4891EF410CEC810227CC6846F8386402064270EF5C5C709A05E49676C024C61FC95EA45ED154CA5211D1FF4FB8291A913A68E9B83EBBB33
310
E2A7673CDE118E5AE8124C0807CB8377834E366998436B950D7A7746DAD846D4CFD978E0F04FD455FC5D49D2D4C6FE9722321F10997F0F32DC47FE05504B0304140006080800CC70623BFFEA85907E0000009D0000000B0000006662782F636E782E786D6C4DCCD10A83201886E15B91FFDC95D95A811AB6F23E625948A6C3
310
E9D8E5AF46073BFAE0E1E365ED67B3E8ADC3CB78C7815C7240DA3DFC64DCC221C519D7805AC182F7F1EF06C88D9BE6703008B6049F9E274D7A1E938DBB5AE3D6131B2589BA0D3D965551E0B2EA732C9B9A624AAEB41E3A557677029960D9AFB4EF11165F504B0304140006080800CC70623B4FEEA4082C0100001202000031
310
0000006662782F39464131463745442D413632322D343644302D413938332D3331353338454246344243312F636F72652E786D6C8D515B6EC32010BC0AE2AB55850DD871ED0813254D72825EC00192A2C460F1A872FC42ED48ED5F7E00CDCECCCEB26C731F6FE05B39AFADE921293004CA082BB5B9F43086336A21D870E6AC
310
0D7F68109861543DCC30E4ECE26C9C164858139409093556AA051CBC570102714B8F1E7AF1A5C6A11862480C7F2DA6415C878B2A4891CA89C7990F2E050073937C42DE1DB7E4F87ED8A36D4329AA9B3D46DBAEAD504556557BD81DEBDD0761E52CE42C462D17B996298E3E6BE59E35C962CE821E1FF18553435012728A7187
310
0841987E927A8D9B35ADDF70BBC6989599FE4F1427F9A4286A132ABAC49D651EF234CD5CE04CDA78BA3DC2A8FB645D00B9DF8B57E215725C60BCA2A463E54C4CE327C7A65E1C7DB02E7DEFCBF594B864C5CA6CDBD49C957943E9FA5D5FBAF336F90F504B0304140006080800CC70623BAD7543B64E01000033030000300000
310
006662782F39464131463745442D413632322D343644302D413938332D3331353338454246344243312F636E782E786D6CD593CD6EC32010845F0571AD6CE3D48AD20813A9873E410FBD12D82434182C7EAAE6EDBB2424CD25871E7B41D6EC30B3FA84F9E67BB2E40B4234DE8DB46F1925E094D7C6ED479AD3AE5951B2113C
310
789FEE6C943839C1488B4C05DF079FE72A69D8C96C13AAD6B8631503449F83828872B949AC57D26200B826A308D316B4064D6E46FCDA41C05550DC9E483A00797BFD207EFB092A45DE9514C1BBD22178396BD39D891265658C238DEA00936C654E5E433CB65A26D9F6EDB5EBC14EBF49A45CB856E66048291F6939A9A81BB5
310
C8917738143CA680F4AA299D66A042CEB3354A2684DC9D8D178FE0D9B8B41CAAD720F880EE7EF93C0C18769E099ECC04D5A102C8049A8A05632F4DDF376CF1DE0F6BB65C2F8627B65A33C6BB62177CEBBDAD973006829F89F22E814B54F4BC2BE347F8AA8F681390B50FA73F804400B5F542E796F19FF974E7F78DB802FE05
310
E207504B0304140006080800CC70623B16AB87BA640500003C100000340000006662782F39464131463745442D413632322D343644302D413938332D3331353338454246344243312F6F626A656374732E786D6CAD575B6FA33818FD2B887DE6924B3BED8A326A92B68A663B534DD4D13E548A0C38942D60649B369D5FBFC7
310
600890A493BDE42160637FD7F31D7FF63E6FB3D478A55C242CBF3247B66B1A340F5994E4F19559CA8D75611A9F7D8F33263BCB4C232719BD32D5B4E97B316765A1A722BA21652A07B3B7B33F0D11D29C9A46981221AE4C113ED38CD8A4942CA2E2C58E882476BCD9DA23BB5ED8171B73523C0F841684D35CC252CCE79062D4
310
468DFA43D7747CCF51DF7D4FFDEB5593E3AB9CCA9FBEFE241792E4E19EB28198C968BAB8199F5D5A67D3E9C49A9E8F47D6EC76B6B0469F26EEFC7C3EBFBCBEB98462213924694B38DD98FE1D62C393D073EA4FADC5DAF04326852CCF6958F90F0F2B9BB5C48816348F90C7840A68EB78EDF68723159BCEE7891A6B95DDE9D3
310
BCEAEEE8086A6C6F9E5D4B59F0175C10A7A0820BAA5055C7473B5AE3CFDD452D602CD5DF12616444529E90D448938013FE6EFA58AA96F85E4F8C42275708571E98FE6827AF6B2B4AE3D7D83D64E5A64C53054DD3AF90BD06FEA9149565C94FCA0F6B834DC85599E4F2423B24DF0B6AFA979E534DFA9E7A4CC6FA631D486393
310
921829879BF5D781A373557BCB85E97FB90DB62B558F8795179C15944B051F40AB495CF35451D26A4727654E6D8033BD98EF82F21D91FF8AF2DD9982BCF1643BDD4EB516C9492E368C67C88DED563FC36D5EACF66DFF057C3658BDBFA69DF9578B3DA735B64F18C7F20770A9D45CFCF7FCF563D6456A277DBEF78A02637CA2
310
43B90A490AEAB94F72244481D24819A6C0E59B606BFA4B3025981DBB48EAB701D97BF19C577CC77F2D1B6C55A9EF3C732474C0B727303F625995056C3B02963D9EAC146BE78EC5FCEC7FA999EBC5EACBAAE41B12D27B4D2C0BBA49F244E2ECDC81B76B502F113D8F5EE8FB1BE3111CDD4FC2AA9B844CAB1288B68AB90A7CDC
310
1C166AB0D3DC5310625FCC14E779BFD0709F8890A629C9292B1B2DED31A4B0DA928CEE135085754027E3018A397D4D5427D15BD1330B677DC8934285AC3DF45A9EB68FF8F2B8FC0A509AFEECFD0FF2DE25CC6047F7214B195F07EFEB9A094D800F7BFAE8FED187B78EA8A3A400F115961BCAD1215E47C966530AF0EE8128FE
310
58CEBB996A8964FFA529A046635D9353B0336A8F700DDF46271A024E70B0B37C9DE01847591E54DED53D54202AB947E4076556AC49C6CA5C9E1226B7F1A7B1BE15DEED62C41B91E1B3E9AFAAA735036547343A925075041DF0A9979E893B391F8FCFA6967B3EFB644DCF6E5CEBFAE272625DCC6FAF3FB93793C5F90CE1EF57
310
407342756B10D1C489E8953CD1617E5CEECAD6F4EF8914CE5D5D504E5C3F1F9736DA62CFC11E00BCDDB8CC8A9466349744C1F75EBDA4DF09BA8A9E8C7A7E9991989E20E5DBDD6A6003664ED8F7A04A8DBE0DF6EAD9B9AA858342E47399053949D2C146EDB85DE4B176BB0965FBAC19BD19AA918E27FA50C1D22402E144464C
310
59462568E704B6E71915404CB72B8FF4EDE184DDAF753F284990D2C6926782963815403548A70C657FDEF80D2D9CEAA2AE4C1C76F60BFE74219A06527D6582DF6412526107381E55E353090704D085B52408D0933C4ED159D79BDA71BB4BC506F4831350EB6F979CD22D69BF7AC49B91A2C0A9DDA3D5CA36AD20FC478E37E6
310
1844E2352865EBCB6EA275A652E3836BE04EFB400BF1A2556F515F1FBB35B2AB35BD889C744FFA1004B5544B121E57F70215746DD2F5E2C1412B602CBF19455AC6C8E5E9922C4E01E65215385004546899059180EAFCF7A707CE7017CD8CDB0410789AB32C63B91E5CEBBBACB17AC6CD347A022D5075FD106377347AAABA7E
310
7D11590744509B44E205134DC1290F06580320F78E537D3D73540E06CB970B431F185308AD40BBD794D6D77003C5A36E8EAA54BA64597CD8F83BD552A080A365F7FF06504B0304140006080000CC70623B000000000000000000000000350000006662782F39464131463745442D413632322D343644302D413938332D3331
310
353338454246344243312F76657274696365732E62696E504B0304140006080800CC70623BF270F1330600000004000000360000006662782F39464131463745442D413632322D343644302D413938332D3331353338454246344243312F747269616E676C65732E62696E636660600000504B0304140006080000CC70623B
310
000000000000000000000000370000006662782F39464131463745442D413632322D343644302D413938332D3331353338454246344243312F617474726962757465732E62696E504B0304140006080800CC70623B08DA0BD19000000041010000360000006662782F39464131463745442D413632322D343644302D413938
310
332D3331353338454246344243312F6469726563746F72792E786D6C858F410AC3201045AF22B36F53E9A60B35CBEEBAE80D244E44489C6234F4F835464A48035D0DF398FF9F8AF63D0E6CC63039F212F8F9020C7D47C6792B21C5FE7403D62A1188E2E60C98D7234A5830286103A55745067B9D86B8A3CF9C7F90C11DE607
310
FB144396D7B6A82D282E9A152AD114D5EF2CB866EEE831B8EEA07A7BB5A8D7D61A2BAAEB7FD5F70921FF497D00504B0304140006080800CC70623B0D6EF93BFE000000A00100003B0000006662782F39464131463745442D413632322D343644302D413938332D3331353338454246344243312F7265736F75726365732F63
310
6F72652E786D6C8D50596E833010BD0A9ADFCA60B334011947A8694ED00B586642AC041B79A97AFC9A40A5F6AF3F33A3B7689E1E3F7DCD8FEC139DD7D6F4C0720A191A65476DA61E62B892236427C19DB5E1970C322367EC618541F0C9D9B8EC90B226A009093576C41D94DE63804C3DD2D18357379C652E63480A7FCF17A9
310
EE72C29CE5894E3AC17D702940B63D59270887DE46A7D0F36263058F518FBB468FE9A7BE6A7420864373B8D4873369AA8691FA421B3294352543C5CAF65C0F6FEF43CB8BD52C78D0F34F46E550061C419494B6843142CB0F5677F4B52BEB177AEC28E5C52AFF638ACBF84F53D42654E51E77B379102C05791282176B5F693D
310
CB4C7BED567C03504B010214000A0000080000CC70623B3DEE336E79000000790000001B00000000000000000000000000000000006175746F6465736B2D64657369676E2D7061636B6167652E786D6C504B01021400140006080800CC70623BD486FD9CA0000000F40000001300000000000000000000000000B20000005B
310
436F6E74656E745F54797065735D2E786D6C504B01021400140006080800CC70623B1EC5D7A3EB0000007C010000080000000000000000000000000083010000636F72652E786D6C504B01021400140006080800CC70623B55019EA25F0000007C000000070000000000000000000000000094020000636E782E786D6C504B
310
01021400140006080800CC70623B8C9102E971010000D40300000C00000000000000000000000000180300006662782F636F72652E786D6C504B01021400140006080800CC70623BFFEA85907E0000009D0000000B00000000000000000000000000B30400006662782F636E782E786D6C504B01021400140006080800CC70
310
623B4FEEA4082C0100001202000031000000000000000000000000005A0500006662782F39464131463745442D413632322D343644302D413938332D3331353338454246344243312F636F72652E786D6C504B01021400140006080800CC70623BAD7543B64E010000330300003000000000000000000000000000D5060000
310
6662782F39464131463745442D413632322D343644302D413938332D3331353338454246344243312F636E782E786D6C504B01021400140006080800CC70623B16AB87BA640500003C1000003400000000000000000000000000710800006662782F39464131463745442D413632322D343644302D413938332D3331353338
310
454246344243312F6F626A656374732E786D6C504B01021400140006080000CC70623B0000000000000000000000003500000000000000000000000000270E00006662782F39464131463745442D413632322D343644302D413938332D3331353338454246344243312F76657274696365732E62696E504B01021400140006
310
080800CC70623BF270F133060000000400000036000000000000000000000000007A0E00006662782F39464131463745442D413632322D343644302D413938332D3331353338454246344243312F747269616E676C65732E62696E504B01021400140006080000CC70623B0000000000000000000000003700000000000000
310
000000000000D40E00006662782F39464131463745442D413632322D343644302D413938332D3331353338454246344243312F617474726962757465732E62696E504B01021400140006080800CC70623B08DA0BD190000000410100003600000000000000000000000000290F00006662782F39464131463745442D413632
310
322D343644302D413938332D3331353338454246344243312F6469726563746F72792E786D6C504B01021400140006080800CC70623B0D6EF93BFE000000A00100003B000000000000000000000000000D1000006662782F39464131463745442D413632322D343644302D413938332D3331353338454246344243312F7265
310
736F75726365732F636F72652E786D6C504B0506000000000E000E0080040000641100000000
  0
XRECORD
  5
E
102
{ACAD_REACTORS
330
D
102
}
330
D
100
AcDbXrecord
280
     1
270
     1
271
     1
  0
XRECORD
  5
F
102
{ACAD_REACTORS
330
D
102
}
330
D
100
AcDbXrecord
280
     1
270
     1
271
     1
  0
XRECORD
  5
10
102
{ACAD_REACTORS
330
D
102
}
330
D
100
AcDbXrecord
280
     1
 70
     0
 90
1673772943
  1
ECE7A1D2-D628-4531-984C-D00F80459256
310
504B03040A0000080000CC70623B3DEE336E79000000790000001B0000006175746F6465736B2D64657369676E2D7061636B6167652E786D6C3C3F786D6C2076657273696F6E3D22312E302220656E636F64696E673D227574662D3822203F3E3C666F726D6174733E3C666F726D61743E687474703A2F2F736368656D612E
310
6175746F6465736B2E636F6D2F64657369676E2D7061636B6167652F323030393C2F666F726D61743E3C2F666F726D6174733E504B0304140006080800CC70623BD486FD9CA0000000F4000000130000005B436F6E74656E745F54797065735D2E786D6C7D8EC10E82300C865F65E91D8A1E8C310C0EEA1BF002731658846E
310
D98AC1B77784ABF1D8FE5FBFBF75BBCE937A534CCEB38643598122B6FEE978D0B0485F9C41B54DDD7D022595594E1A469170414C76A4D9A4D207E29CF43ECE46F218070CC6BECC4078ACAA135ACF422C856C0E68EA1BF5669944DDD7BCDE7B1F8E415D77AECB980613C2E4AC91FC167A2B244592486606FC29C8FD7F045B9A
310
EF7053A7E60B504B0304140006080800CC70623BD9DDAED0EC0000007C01000008000000636F72652E786D6C8D90416EC3201045AF82665B61836D9CD8C2444DD39CA01740405C94182C03558F5F9C3852BBEB6A467FFE9B197D7EF89E6EE8CB2CC17A37002D0820E394D7D68D03A478C17B4007C117EFE32F1B20272733C0
310
2A83E0E3E2D3BC49CABB685CCCAAF3DA6CA20CC14440EA969B0182FA34932C648AD911AEC52CD5558EA6A0CF2EC329598D1E47ACCEFBECC59A050463A7EA5833865FEBDD0E37353BE3EE8DBDE3F6786A48D375FBF6CC78B9C282473B3DEFABC5C86834888A900E538A49F5419B9EB47DD5BC907D4F082F57FB1F28CDFA9F50
310
B22ED6D5F6EE030B20687EE43E10BC5CB3C8E51E54AE6B6EE207504B0304140006080800CC70623B55019EA25F0000007C00000007000000636E782E786D6C4DCB3B0E80201045D1AD90E915ED2CF8AC45050C11660C8261F98AB1B07AC9C97D42D718D865D3E909258CFD00CCE24AC6E326A164D74DC0B4128928FF326038
310
472BA13128B1252AC747C6BAB984FC68F0B87FE8960A5C09FE86CFB69FBA01504B0304140006080800CC70623BA24EB22D72010000D40300000C0000006662782F636F72652E786D6CC5535B6E833010BC8AE5DF0A6C5E49888CA3A6694ED00B38E05014B091B1518EDFE511A5A9D228FD2A1F60CDEC7A67C6986DCE4D8D7A
310
69BA4AAB0C073EC548AA5C17952A33ECECD15B61B4E1CC686DBF9561A44423333CC098B3D268D7CE50AE9595CA02AA74216750749DB418E5352C32DCE59FB211BE70162ABA93DF8AFC244AE9073ED050C759670D0840D390E18DF9F1706664C23973AE2A66B62A605A75ACA4C13C4976E1364A12EF355A2EBD384AF65EFA96
310
BC7B8BED2EA6719AAE16FB8491A199335B351775B991C2CA02F390D2D40B028F861F41BCA68B7518BFD0D59A524686F29B26D7164F36B94AD9289CE54E6D1DE6010819891F6E21228B3AD1831EC219194284CF98F06DD01008846CC5A1BEF83801D4CBDC6A1303536877A57A513B0953A94FC707FDBE6064EA84A9E3E6E0FA
310
EE8CF0E9198F7784A316AA0413C2C2F2E0ECA0934D1AE6D05A69BCDE9E91D2A611F573361E38FC1375157F5752AE6B6DFE4B11990F88CCBF0719EE23FF02504B0304140006080800CC70623B408A7D3B7C0000009D0000000B0000006662782F636E782E786D6C4DCCD10A83201886E15B91FFDC552A92A0064DBC8F581632
310
D3703A76F9ABD1C18E3E78F878E5F0D9027ABBFCF2292AE86E2D20171F69F6715550CB827B40839639A5F2770314A7CD293819B45C73AAFB45B35BA61ACAA1C1C7E7855C58C15BC331339661262CC762340413D68D77DA5B42298546CBE6573AF60CEB2F504B0304140006080800CC70623B449FB9BD290100001202000031
310
0000006662782F36394639363044362D344446342D343946362D394244322D3234314243333846323333332F636F72652E786D6C8D515B6EC32010BC0AE22B55850D98B871848994463E412FE002495162B07854397EA176A4F62F3F2C9A9D991D587EB84F37F0AD7D30CEF6905418026DA553C65E7A98E219ED203808EE9D
310
8B7F6810D871D23D2C3014FCE25D9A57483A1BB58D19B54EE9151C43D0110279CB971E06F9A5A7B11A53CC8C70ADE6515EC78BAE4895DB992778883E0700CB907242D17643D7E2538BD869608875438BBAE38922CAC8F1BDD90DB4691A5E2F42C153326A951B95E398B3D1FE599322163C9AE9115F7A3D46ADA0A018778810
310
84E907617BDCEE297BC5BB3DC6BC2EF47FA234AB2745C9D8D8D035EE220B50105E2F0DC1954B9FB747187D9F9D8FA0CCDB042D5FA0C015C65B42DF78BD10F3F3B363CB56C7109DCFDFBBB97E662ED92EB62D13BC2E1BCAE5777DB9966D8A1F504B0304140006080800CC70623BAD7543B64E01000033030000300000006662
310
782F36394639363044362D344446342D343946362D394244322D3234314243333846323333332F636E782E786D6CD593CD6EC32010845F0571AD6CE3D48AD20813A9873E410FBD12D82434182C7EAAE6EDBB2424CD25871E7B41D6EC30B3FA84F9E67BB2E40B4234DE8DB46F1925E094D7C6ED479AD3AE5951B2113C789FEE
310
6C943839C1488B4C05DF079FE72A69D8C96C13AAD6B8631503449F83828872B949AC57D26200B826A308D316B4064D6E46FCDA41C05550DC9E483A00797BFD207EFB092A45DE9514C1BBD22178396BD39D891265658C238DEA00936C654E5E433CB65A26D9F6EDB5EBC14EBF49A45CB856E66048291F6939A9A81BB5C89177
310
38143CA680F4AA299D66A042CEB3354A2684DC9D8D178FE0D9B8B41CAAD720F880EE7EF93C0C18769E099ECC04D5A102C8049A8A05632F4DDF376CF1DE0F6BB65C2F8627B65A33C6BB62177CEBBDAD973006829F89F22E814B54F4BC2BE347F8AA8F681390B50FA73F804400B5F542E796F19FF974E7F78DB802FE05E20750
310
4B0304140006080800CC70623B8D05915C650500003B100000340000006662782F36394639363044362D344446342D343946362D394244322D3234314243333846323333332F6F626A656374732E786D6CAD575B6FA33814FE2B887D06429276DA1565D4266D158D3A339A6846FB502932E050B66023DB74D2FDF5FB190C01
310
9276B2973C046C8ECFF53B17071F77456EBD502133CEAE6CDF9DD81665314F32965ED995DA3A17B6F5310C04E7AA47665B8C14F4CAD6DB7618A48257A5D94AE89654B91AEDDEDDFC61C998326A5B714EA4BCB265FC440BE2924AF184CA6737218AB8E976E7FA6E4338649B0A523E8D98964450A6A029F619B8588D52FE7039
310
B1BD30F0F4F730D0FF866AF6369557DB33949F31A9088B0F848DD8CCFCF9F2767A76E99CCDE733677E3EF59D9BBB9BA5E37F984D16E78BC5E5F5ED25044B25C0C96822E8D60EEFE11B91C581D77CEA34368A1F5329E68CD1B8B61F16D63A1B8E092D294B10C78C4A48EB593D192E7DED9BDEE7995E1B91FDEDD3ACEA9FE831
310
6A756F9F7D4D79F4274C90A7A04248AA51D5F8C718DAE06FB2F75AC4796EBE65D22A88A22223B995679120E2D50E41AA49C260C046A35368846B0BECD0DFF3EBEB8AD4F835768F69B9ADF25C43D30E6B646F807FAA64AD59F61715C7A54127C4AACA98BA3006A9D792DAE165E0D59B61A01FB3A9F9D838D2DAE62445C86166
310
F37564E842E7DE6A69879FEEA2DD5AE7E371E1A5E025154AC307D06A03D73EB5978C58FFA4C8E9033066E0F3BD53BEC1F39F91BE7B55103791EDE6BBB991A2046172CB4581D8B893FA674DDA17A77B3B7C413D1B511FD2743BFF8A38F03A658705E3ADF8015C3A3417FF3D7E439FF591DA0B5F18BC20C1B8981957AE6392A3
310
F43C640C01D1A0B4728E2DD4F26DB4B3C3152A252A3B4E913CEC1C72F012782FF88EFF8637AA552DBEF76408E8A8DE9E50F9E1CB3A2DA0DB1B6039A893B56063DC5B3E3FFB5F72E67AB9FEB4AEC496C4F4C1149625DD662C53E89D7BF0F6151A046260D1337DFDC94502430F83B0EE07A130A224BCAD7DAE1D9FB6CD422FF6
310
920702629C4BB9AE79C12F243C6432A6794E18E5552BA56B431AAB5D91317302B2B071E86C3A42B1A02F999E24061403B5D0EB639195DA655DD3EBEAB4FB862DDF579F014AD0E73C22F99E28DA57FB98E75C6CA2D74D53086D600F4786E0FE3144B771A8A7B900F03594DB8A633CBC49B2EDB69228BB479CF863B5E807AAAB
310
23872F6DFEB4129B949CA33823F58830E86D65621E10047D9DB34D862E8EAC3C2ABC2F7B2C40D67CDFE01F5545B92105AF983AC54D93D69E56FB8E797F88913F898A9FEC705D3F9D1B54EC8426FB500D40A03BD0119B06E1B95DDC7EB8F6975367793EBD70E66733DFB9BC982F9CE564727731999F5D4ECFCE3B8D6A4DC2A0
310
6D50FD148437D110834A64C6CDDF57FBACB5C307A2A477DFE4939736CFEF2B175371E0E10CF0DD1D5C15654E0BCA14D1E87DD02FF93782A162C0A3D95F1524A52770F972BF1EE9809D13CE7DD599467F8ECE9ADD85CE85A34CD45355448C64F9E8A031DC2D596ACC6E5DD93D9B82DE2EF5CAF81363A8E47996A0DE24564A79
310
4115AACE09C55E14540231FDA13C319787134EBF34E3A022514E5B4D9E0826E25C02D5805B15ABE1BEF51B26383D445DD9E875EE33FE4C22DA16427D65A3BCA92CA6D28DD01DF5DC53330704308475351050232CCD31583787BA75774AFB06E5070DD0C8EF484E19968C5D83BA5B90B244D31E54D55A372320FE4786B7EA58
310
44E135AA5467CB7EA333A61683CC6A8C3257034C10CF46F40EF9F5BE59BE5BD30C3C72D235E95D10345C1D45445A5F0BB47E46A5EBE5570F9380B5FA629579952296A773720405982B9DE04011506178964401AA8BDF1FBF0A8EAB6861DD6580C0E38217056766716DAEB2D6FA0917D3E4116581EADB879C4E7CFFB11EFACD
310
3D641311495D92C8676CB409A72D18610D803CE8A626049E8EC1887CB5B44CC39883690DDA8399B4B9855B481E7D71D4A9D22F96E5BB73BF5793020C02137BF837504B0304140006080000CC70623B000000000000000000000000350000006662782F36394639363044362D344446342D343946362D394244322D32343142
310
43333846323333332F76657274696365732E62696E504B0304140006080800CC70623BF270F1330600000004000000360000006662782F36394639363044362D344446342D343946362D394244322D3234314243333846323333332F747269616E676C65732E62696E636660600000504B0304140006080000CC70623B0000
310
00000000000000000000370000006662782F36394639363044362D344446342D343946362D394244322D3234314243333846323333332F617474726962757465732E62696E504B0304140006080800CC70623B08DA0BD19000000041010000360000006662782F36394639363044362D344446342D343946362D394244322D
310
3234314243333846323333332F6469726563746F72792E786D6C858F410AC3201045AF22B36F53E9A60B35CBEEBAE80D244E44489C6234F4F835464A48035D0DF398FF9F8AF63D0E6CC63039F212F8F9020C7D47C6792B21C5FE7403D62A1188E2E60C98D7234A5830286103A55745067B9D86B8A3CF9C7F90C11DE607FB14
310
4396D7B6A82D282E9A152AD114D5EF2CB866EEE831B8EEA07A7BB5A8D7D61A2BAAEB7FD5F70921FF497D00504B0304140006080800CC70623BCA768048FE000000A00100003B0000006662782F36394639363044362D344446342D343946362D394244322D3234314243333846323333332F7265736F75726365732F636F72
310
652E786D6C8D50596E833010BD0A9ADFCA60D600328E9AA639412F609909B1126CE4A5EAF16B0295DABFFECC8CDEA2797AECF8353F924FB44E193D409E5248504B332A3D0D10FC95B4901C39B3C6F85F3248B49871801506CE266BC2B243D2688FDA47549B11775038871E12F988C7004EDE7016A9083E2ADC3D5D84BC8B09
310
D33C8D74D471E6BC8D0192EDC93A815B742658898E651BCB59086ADC356A8C3FD555A1055ED7E7E254D615792D0F075295F585746FF53B694EE78A565DD736979A65AB9933AFE69F8CD2A2F038022F28ED489E135A7CE4554F9BBEA85E68DB53CAB255FEC71496F19FA6A0B42F8B3DEE6673C0F318E4497096AD7DC5F52C33
310
EEB55BFE0D504B010214000A0000080000CC70623B3DEE336E79000000790000001B00000000000000000000000000000000006175746F6465736B2D64657369676E2D7061636B6167652E786D6C504B01021400140006080800CC70623BD486FD9CA0000000F40000001300000000000000000000000000B20000005B436F
310
6E74656E745F54797065735D2E786D6C504B01021400140006080800CC70623BD9DDAED0EC0000007C010000080000000000000000000000000083010000636F72652E786D6C504B01021400140006080800CC70623B55019EA25F0000007C000000070000000000000000000000000095020000636E782E786D6C504B0102
310
1400140006080800CC70623BA24EB22D72010000D40300000C00000000000000000000000000190300006662782F636F72652E786D6C504B01021400140006080800CC70623B408A7D3B7C0000009D0000000B00000000000000000000000000B50400006662782F636E782E786D6C504B01021400140006080800CC70623B
310
449FB9BD290100001202000031000000000000000000000000005A0500006662782F36394639363044362D344446342D343946362D394244322D3234314243333846323333332F636F72652E786D6C504B01021400140006080800CC70623BAD7543B64E010000330300003000000000000000000000000000D20600006662
310
782F36394639363044362D344446342D343946362D394244322D3234314243333846323333332F636E782E786D6C504B01021400140006080800CC70623B8D05915C650500003B10000034000000000000000000000000006E0800006662782F36394639363044362D344446342D343946362D394244322D32343142433338
310
46323333332F6F626A656374732E786D6C504B01021400140006080000CC70623B0000000000000000000000003500000000000000000000000000250E00006662782F36394639363044362D344446342D343946362D394244322D3234314243333846323333332F76657274696365732E62696E504B010214001400060808
310
00CC70623BF270F13306000000040000003600000000000000000000000000780E00006662782F36394639363044362D344446342D343946362D394244322D3234314243333846323333332F747269616E676C65732E62696E504B01021400140006080000CC70623B00000000000000000000000037000000000000000000
310
00000000D20E00006662782F36394639363044362D344446342D343946362D394244322D3234314243333846323333332F617474726962757465732E62696E504B01021400140006080800CC70623B08DA0BD190000000410100003600000000000000000000000000270F00006662782F36394639363044362D344446342D
310
343946362D394244322D3234314243333846323333332F6469726563746F72792E786D6C504B01021400140006080800CC70623BCA768048FE000000A00100003B000000000000000000000000000B1000006662782F36394639363044362D344446342D343946362D394244322D3234314243333846323333332F7265736F
310
75726365732F636F72652E786D6C504B0506000000000E000E0080040000621100000000
  0
XRECORD
  5
11
102
{ACAD_REACTORS
330
D
102
}
330
D
100
AcDbXrecord
280
     1
270
     1
271
     1
  0
XRECORD
  5
12
102
{ACAD_REACTORS
330
D
102
}
330
D
100
AcDbXrecord
280
     1
270
     1
271
     1
  0
XRECORD
  5
366
102
{ACAD_REACTORS
330
365
102
}
330
365
100
AcDbXrecord
280
     1
102
ACAD_ROUNDTRIP_2012_MLEADER_STYLE
298
     1
  0
XRECORD
  5
36C
102
{ACAD_REACTORS
330
36B
102
}
330
36B
100
AcDbXrecord
280
     1
102
DISPLAYNAME
  1
Imperial24
102
FLAGS
 90
        0
  0
XRECORD
  5
368
102
{ACAD_REACTORS
330
367
102
}
330
367
100
AcDbXrecord
280
     1
102
DISPLAYNAME
  1
Metric50
102
FLAGS
 90
        0
  0
CELLSTYLEMAP
  5
333
102
{ACAD_REACTORS
330
42
102
}
330
42
100
AcDbCellStyleMap
 90
        3
300
CELLSTYLE
  1
TABLEFORMAT_BEGIN
 90
        5
170
     1
 91
        0
 92
    32768
 62
   257
 93
        1
300
CONTENTFORMAT
  1
CONTENTFORMAT_BEGIN
 90
        0
 91
        0
 92
      512
 93
        0
300

 40
0.0
140
1.0
 94
        5
 62
     0
340
23
144
6.0
309
CONTENTFORMAT_END
171
     1
301
MARGIN
  1
CELLMARGIN_BEGIN
 40
1.5
 40
1.5
 40
1.5
 40
1.5
 40
4.5
 40
4.5
309
CELLMARGIN_END
 94
        6
 95
        1
302
GRIDFORMAT
  1
GRIDFORMAT_BEGIN
 90
        0
 91
        1
 62
     0
 92
       -2
340
26
 93
        0
 40
1.125
309
GRIDFORMAT_END
 95
        2
302
GRIDFORMAT
  1
GRIDFORMAT_BEGIN
 90
        0
 91
        1
 62
     0
 92
       -2
340
26
 93
        0
 40
1.125
309
GRIDFORMAT_END
 95
        4
302
GRIDFORMAT
  1
GRIDFORMAT_BEGIN
 90
        0
 91
        1
 62
     0
 92
       -2
340
26
 93
        0
 40
1.125
309
GRIDFORMAT_END
 95
        8
302
GRIDFORMAT
  1
GRIDFORMAT_BEGIN
 90
        0
 91
        1
 62
     0
 92
       -2
340
26
 93
        0
 40
1.125
309
GRIDFORMAT_END
 95
       16
302
GRIDFORMAT
  1
GRIDFORMAT_BEGIN
 90
        0
 91
        1
 62
     0
 92
       -2
340
26
 93
        0
 40
1.125
309
GRIDFORMAT_END
 95
       32
302
GRIDFORMAT
  1
GRIDFORMAT_BEGIN
 90
        0
 91
        1
 62
     0
 92
       -2
340
26
 93
        0
 40
1.125
309
GRIDFORMAT_END
309
TABLEFORMAT_END
  1
CELLSTYLE_BEGIN
 90
        1
 91
        1
300
_TITLE
309
CELLSTYLE_END
300
CELLSTYLE
  1
TABLEFORMAT_BEGIN
 90
        5
170
     1
 91
        0
 92
        0
 62
   257
 93
        1
300
CONTENTFORMAT
  1
CONTENTFORMAT_BEGIN
 90
        0
 91
        0
 92
      512
 93
        0
300

 40
0.0
140
1.0
 94
        5
 62
     0
340
23
144
4.5
309
CONTENTFORMAT_END
171
     1
301
MARGIN
  1
CELLMARGIN_BEGIN
 40
1.5
 40
1.5
 40
1.5
 40
1.5
 40
4.5
 40
4.5
309
CELLMARGIN_END
 94
        6
 95
        1
302
GRIDFORMAT
  1
GRIDFORMAT_BEGIN
 90
        0
 91
        1
 62
     0
 92
       -2
340
26
 93
        0
 40
1.125
309
GRIDFORMAT_END
 95
        2
302
GRIDFORMAT
  1
GRIDFORMAT_BEGIN
 90
        0
 91
        1
 62
     0
 92
       -2
340
26
 93
        0
 40
1.125
309
GRIDFORMAT_END
 95
        4
302
GRIDFORMAT
  1
GRIDFORMAT_BEGIN
 90
        0
 91
        1
 62
     0
 92
       -2
340
26
 93
        0
 40
1.125
309
GRIDFORMAT_END
 95
        8
302
GRIDFORMAT
  1
GRIDFORMAT_BEGIN
 90
        0
 91
        1
 62
     0
 92
       -2
340
26
 93
        0
 40
1.125
309
GRIDFORMAT_END
 95
       16
302
GRIDFORMAT
  1
GRIDFORMAT_BEGIN
 90
        0
 91
        1
 62
     0
 92
       -2
340
26
 93
        0
 40
1.125
309
GRIDFORMAT_END
 95
       32
302
GRIDFORMAT
  1
GRIDFORMAT_BEGIN
 90
        0
 91
        1
 62
     0
 92
       -2
340
26
 93
        0
 40
1.125
309
GRIDFORMAT_END
309
TABLEFORMAT_END
  1
CELLSTYLE_BEGIN
 90
        2
 91
        1
300
_HEADER
309
CELLSTYLE_END
300
CELLSTYLE
  1
TABLEFORMAT_BEGIN
 90
        5
170
     1
 91
        0
 92
        0
 62
   257
 93
        1
300
CONTENTFORMAT
  1
CONTENTFORMAT_BEGIN
 90
        0
 91
        0
 92
      512
 93
        0
300

 40
0.0
140
1.0
 94
        2
 62
     0
340
23
144
4.5
309
CONTENTFORMAT_END
171
     1
301
MARGIN
  1
CELLMARGIN_BEGIN
 40
1.5
 40
1.5
 40
1.5
 40
1.5
 40
4.5
 40
4.5
309
CELLMARGIN_END
 94
        6
 95
        1
302
GRIDFORMAT
  1
GRIDFORMAT_BEGIN
 90
        0
 91
        1
 62
     0
 92
       -2
340
26
 93
        0
 40
1.125
309
GRIDFORMAT_END
 95
        2
302
GRIDFORMAT
  1
GRIDFORMAT_BEGIN
 90
        0
 91
        1
 62
     0
 92
       -2
340
26
 93
        0
 40
1.125
309
GRIDFORMAT_END
 95
        4
302
GRIDFORMAT
  1
GRIDFORMAT_BEGIN
 90
        0
 91
        1
 62
     0
 92
       -2
340
26
 93
        0
 40
1.125
309
GRIDFORMAT_END
 95
        8
302
GRIDFORMAT
  1
GRIDFORMAT_BEGIN
 90
        0
 91
        1
 62
     0
 92
       -2
340
26
 93
        0
 40
1.125
309
GRIDFORMAT_END
 95
       16
302
GRIDFORMAT
  1
GRIDFORMAT_BEGIN
 90
        0
 91
        1
 62
     0
 92
       -2
340
26
 93
        0
 40
1.125
309
GRIDFORMAT_END
 95
       32
302
GRIDFORMAT
  1
GRIDFORMAT_BEGIN
 90
        0
 91
        1
 62
     0
 92
       -2
340
26
 93
        0
 40
1.125
309
GRIDFORMAT_END
309
TABLEFORMAT_END
  1
CELLSTYLE_BEGIN
 90
        3
 91
        2
300
_DATA
309
CELLSTYLE_END
  0
XRECORD
  5
336
102
{ACAD_REACTORS
330
335
102
}
330
335
100
AcDbXrecord
280
     1
102
RTVSPost2010Prop28
280
     1
102
RTVSPost2010PropOp28
 70
     1
102
RTVSPost2010Prop29
280
     1
102
RTVSPost2010PropOp29
 70
     1
102
RTVSPost2010Prop30
280
     0
102
RTVSPost2010PropOp30
 70
     1
102
RTVSPost2010Prop31
280
     0
102
RTVSPost2010PropOp31
 70
     1
102
RTVSPost2010Prop32
280
     0
102
RTVSPost2010PropOp32
 70
     1
102
RTVSPost2010Prop33
280
     0
102
RTVSPost2010PropOp33
 70
     1
102
RTVSPost2010Prop34
280
     0
102
RTVSPost2010PropOp34
 70
     1
102
RTVSPost2010Prop35
280
     0
102
RTVSPost2010PropOp35
 70
     1
102
RTVSPost2010Prop36
280
     0
102
RTVSPost2010PropOp36
 70
     1
102
RTVSPost2010Prop37
 90
       50
102
RTVSPost2010PropOp37
 70
     1
102
RTVSPost2010Prop38
140
0.0
102
RTVSPost2010PropOp38
 70
     1
102
RTVSPost2010Prop39
140
1.0
102
RTVSPost2010PropOp39
 70
     1
102
RTVSPost2010Prop40
 90
        0
102
RTVSPost2010PropOp40
 70
     1
102
RTVSPost2010Prop41ColorIndex
 90
       18
102
RTVSPost2010Prop41ColorRGB
 90
        0
102
RTVSPost2010PropOp41
 70
     1
102
RTVSPost2010Prop42
 90
       50
102
RTVSPost2010PropOp42
 70
     1
102
RTVSPost2010Prop43
 90
        3
102
RTVSPost2010PropOp43
 70
     1
102
RTVSPost2010Prop44ColorIndex
 90
        5
102
RTVSPost2010Prop44ColorRGB
 90
      255
102
RTVSPost2010PropOp44
 70
     1
102
RTVSPost2010Prop45
280
     0
102
RTVSPost2010PropOp45
 70
     1
102
RTVSPost2010Prop46
 90
       50
102
RTVSPost2010PropOp46
 70
     1
102
RTVSPost2010Prop47
 90
       50
102
RTVSPost2010PropOp47
 70
     1
102
RTVSPost2010Prop48
 90
       50
102
RTVSPost2010PropOp48
 70
     1
102
RTVSPost2010Prop49
280
     0
102
RTVSPost2010PropOp49
 70
     1
102
RTVSPost2010Prop50
 90
       50
102
RTVSPost2010PropOp50
 70
     1
102
RTVSPost2010Prop51ColorIndex
 90
      256
102
RTVSPost2010Prop51ColorRGB
 90
-16777216
102
RTVSPost2010PropOp51
 70
     0
102
RTVSPost2010Prop52
140
1.0
102
RTVSPost2010PropOp52
 70
     0
102
RTVSPost2010Prop53
 90
        2
102
RTVSPost2010PropOp53
 70
     1
102
RTVSPost2010Prop54
  1
strokes_ogs.tif
102
RTVSPost2010PropOp54
 70
     1
102
RTVSPost2010Prop55
280
     0
102
RTVSPost2010PropOp55
 70
     1
102
RTVSPost2010Prop56
140
1.0
102
RTVSPost2010PropOp56
 70
     1
102
RTVSPost2010Prop57
140
1.0
102
RTVSPost2010PropOp57
 70
     1
  0
XRECORD
  5
344
102
{ACAD_REACTORS
330
343
102
}
330
343
100
AcDbXrecord
280
     1
102
RTVSPost2010Prop28
280
     0
102
RTVSPost2010PropOp28
 70
     1
102
RTVSPost2010Prop29
280
     1
102
RTVSPost2010PropOp29
 70
     1
102
RTVSPost2010Prop30
280
     1
102
RTVSPost2010PropOp30
 70
     1
102
RTVSPost2010Prop31
280
     0
102
RTVSPost2010PropOp31
 70
     1
102
RTVSPost2010Prop32
280
     0
102
RTVSPost2010PropOp32
 70
     1
102
RTVSPost2010Prop33
280
     0
102
RTVSPost2010PropOp33
 70
     1
102
RTVSPost2010Prop34
280
     0
102
RTVSPost2010PropOp34
 70
     1
102
RTVSPost2010Prop35
280
     0
102
RTVSPost2010PropOp35
 70
     1
102
RTVSPost2010Prop36
280
     0
102
RTVSPost2010PropOp36
 70
     1
102
RTVSPost2010Prop37
 90
       50
102
RTVSPost2010PropOp37
 70
     1
102
RTVSPost2010Prop38
140
0.0
102
RTVSPost2010PropOp38
 70
     1
102
RTVSPost2010Prop39
140
1.0
102
RTVSPost2010PropOp39
 70
     1
102
RTVSPost2010Prop40
 90
        0
102
RTVSPost2010PropOp40
 70
     1
102
RTVSPost2010Prop41ColorIndex
 90
       18
102
RTVSPost2010Prop41ColorRGB
 90
        0
102
RTVSPost2010PropOp41
 70
     1
102
RTVSPost2010Prop42
 90
       50
102
RTVSPost2010PropOp42
 70
     1
102
RTVSPost2010Prop43
 90
        3
102
RTVSPost2010PropOp43
 70
     1
102
RTVSPost2010Prop44ColorIndex
 90
        5
102
RTVSPost2010Prop44ColorRGB
 90
      255
102
RTVSPost2010PropOp44
 70
     1
102
RTVSPost2010Prop45
280
     0
102
RTVSPost2010PropOp45
 70
     1
102
RTVSPost2010Prop46
 90
       50
102
RTVSPost2010PropOp46
 70
     1
102
RTVSPost2010Prop47
 90
       50
102
RTVSPost2010PropOp47
 70
     1
102
RTVSPost2010Prop48
 90
       50
102
RTVSPost2010PropOp48
 70
     1
102
RTVSPost2010Prop49
280
     0
102
RTVSPost2010PropOp49
 70
     1
102
RTVSPost2010Prop50
 90
       50
102
RTVSPost2010PropOp50
 70
     1
102
RTVSPost2010Prop51ColorIndex
 90
      256
102
RTVSPost2010Prop51ColorRGB
 90
-16777216
102
RTVSPost2010PropOp51
 70
     0
102
RTVSPost2010Prop52
140
1.0
102
RTVSPost2010PropOp52
 70
     0
102
RTVSPost2010Prop53
 90
        2
102
RTVSPost2010PropOp53
 70
     1
102
RTVSPost2010Prop54
  1
strokes_ogs.tif
102
RTVSPost2010PropOp54
 70
     1
102
RTVSPost2010Prop55
280
     0
102
RTVSPost2010PropOp55
 70
     1
102
RTVSPost2010Prop56
140
1.0
102
RTVSPost2010PropOp56
 70
     1
102
RTVSPost2010Prop57
140
1.0
102
RTVSPost2010PropOp57
 70
     1
  0
XRECORD
  5
34C
102
{ACAD_REACTORS
330
34B
102
}
330
34B
100
AcDbXrecord
280
     1
102
RTVSPost2010Prop28
280
     0
102
RTVSPost2010PropOp28
 70
     1
102
RTVSPost2010Prop29
280
     1
102
RTVSPost2010PropOp29
 70
     1
102
RTVSPost2010Prop30
280
     1
102
RTVSPost2010PropOp30
 70
     1
102
RTVSPost2010Prop31
280
     0
102
RTVSPost2010PropOp31
 70
     1
102
RTVSPost2010Prop32
280
     0
102
RTVSPost2010PropOp32
 70
     1
102
RTVSPost2010Prop33
280
     0
102
RTVSPost2010PropOp33
 70
     1
102
RTVSPost2010Prop34
280
     0
102
RTVSPost2010PropOp34
 70
     1
102
RTVSPost2010Prop35
280
     0
102
RTVSPost2010PropOp35
 70
     1
102
RTVSPost2010Prop36
280
     0
102
RTVSPost2010PropOp36
 70
     1
102
RTVSPost2010Prop37
 90
       50
102
RTVSPost2010PropOp37
 70
     1
102
RTVSPost2010Prop38
140
0.0
102
RTVSPost2010PropOp38
 70
     1
102
RTVSPost2010Prop39
140
1.0
102
RTVSPost2010PropOp39
 70
     1
102
RTVSPost2010Prop40
 90
        0
102
RTVSPost2010PropOp40
 70
     1
102
RTVSPost2010Prop41ColorIndex
 90
       18
102
RTVSPost2010Prop41ColorRGB
 90
        0
102
RTVSPost2010PropOp41
 70
     1
102
RTVSPost2010Prop42
 90
       50
102
RTVSPost2010PropOp42
 70
     1
102
RTVSPost2010Prop43
 90
        3
102
RTVSPost2010PropOp43
 70
     1
102
RTVSPost2010Prop44ColorIndex
 90
        5
102
RTVSPost2010Prop44ColorRGB
 90
      255
102
RTVSPost2010PropOp44
 70
     1
102
RTVSPost2010Prop45
280
     0
102
RTVSPost2010PropOp45
 70
     1
102
RTVSPost2010Prop46
 90
       50
102
RTVSPost2010PropOp46
 70
     1
102
RTVSPost2010Prop47
 90
       50
102
RTVSPost2010PropOp47
 70
     1
102
RTVSPost2010Prop48
 90
       50
102
RTVSPost2010PropOp48
 70
     1
102
RTVSPost2010Prop49
280
     0
102
RTVSPost2010PropOp49
 70
     1
102
RTVSPost2010Prop50
 90
       50
102
RTVSPost2010PropOp50
 70
     1
102
RTVSPost2010Prop51ColorIndex
 90
      256
102
RTVSPost2010Prop51ColorRGB
 90
-16777216
102
RTVSPost2010PropOp51
 70
     0
102
RTVSPost2010Prop52
140
1.0
102
RTVSPost2010PropOp52
 70
     0
102
RTVSPost2010Prop53
 90
        2
102
RTVSPost2010PropOp53
 70
     1
102
RTVSPost2010Prop54
  1
strokes_ogs.tif
102
RTVSPost2010PropOp54
 70
     1
102
RTVSPost2010Prop55
280
     0
102
RTVSPost2010PropOp55
 70
     1
102
RTVSPost2010Prop56
140
1.0
102
RTVSPost2010PropOp56
 70
     1
102
RTVSPost2010Prop57
140
1.0
102
RTVSPost2010PropOp57
 70
     1
  0
XRECORD
  5
354
102
{ACAD_REACTORS
330
353
102
}
330
353
100
AcDbXrecord
280
     1
102
RTVSPost2010Prop28
280
     0
102
RTVSPost2010PropOp28
 70
     1
102
RTVSPost2010Prop29
280
     1
102
RTVSPost2010PropOp29
 70
     1
102
RTVSPost2010Prop30
280
     1
102
RTVSPost2010PropOp30
 70
     1
102
RTVSPost2010Prop31
280
     0
102
RTVSPost2010PropOp31
 70
     1
102
RTVSPost2010Prop32
280
     0
102
RTVSPost2010PropOp32
 70
     1
102
RTVSPost2010Prop33
280
     0
102
RTVSPost2010PropOp33
 70
     1
102
RTVSPost2010Prop34
280
     0
102
RTVSPost2010PropOp34
 70
     1
102
RTVSPost2010Prop35
280
     0
102
RTVSPost2010PropOp35
 70
     1
102
RTVSPost2010Prop36
280
     0
102
RTVSPost2010PropOp36
 70
     1
102
RTVSPost2010Prop37
 90
       50
102
RTVSPost2010PropOp37
 70
     1
102
RTVSPost2010Prop38
140
0.0
102
RTVSPost2010PropOp38
 70
     1
102
RTVSPost2010Prop39
140
1.0
102
RTVSPost2010PropOp39
 70
     1
102
RTVSPost2010Prop40
 90
        0
102
RTVSPost2010PropOp40
 70
     1
102
RTVSPost2010Prop41ColorIndex
 90
       18
102
RTVSPost2010Prop41ColorRGB
 90
        0
102
RTVSPost2010PropOp41
 70
     1
102
RTVSPost2010Prop42
 90
       50
102
RTVSPost2010PropOp42
 70
     1
102
RTVSPost2010Prop43
 90
        3
102
RTVSPost2010PropOp43
 70
     1
102
RTVSPost2010Prop44ColorIndex
 90
        5
102
RTVSPost2010Prop44ColorRGB
 90
      255
102
RTVSPost2010PropOp44
 70
     1
102
RTVSPost2010Prop45
280
     0
102
RTVSPost2010PropOp45
 70
     1
102
RTVSPost2010Prop46
 90
       50
102
RTVSPost2010PropOp46
 70
     1
102
RTVSPost2010Prop47
 90
       50
102
RTVSPost2010PropOp47
 70
     1
102
RTVSPost2010Prop48
 90
       50
102
RTVSPost2010PropOp48
 70
     1
102
RTVSPost2010Prop49
280
     0
102
RTVSPost2010PropOp49
 70
     1
102
RTVSPost2010Prop50
 90
       50
102
RTVSPost2010PropOp50
 70
     1
102
RTVSPost2010Prop51ColorIndex
 90
      256
102
RTVSPost2010Prop51ColorRGB
 90
-16777216
102
RTVSPost2010PropOp51
 70
     0
102
RTVSPost2010Prop52
140
1.0
102
RTVSPost2010PropOp52
 70
     0
102
RTVSPost2010Prop53
 90
        2
102
RTVSPost2010PropOp53
 70
     1
102
RTVSPost2010Prop54
  1
strokes_ogs.tif
102
RTVSPost2010PropOp54
 70
     1
102
RTVSPost2010Prop55
280
     0
102
RTVSPost2010PropOp55
 70
     1
102
RTVSPost2010Prop56
140
1.0
102
RTVSPost2010PropOp56
 70
     1
102
RTVSPost2010Prop57
140
1.0
102
RTVSPost2010PropOp57
 70
     1
  0
XRECORD
  5
348
102
{ACAD_REACTORS
330
347
102
}
330
347
100
AcDbXrecord
280
     1
102
RTVSPost2010Prop28
280
     0
102
RTVSPost2010PropOp28
 70
     1
102
RTVSPost2010Prop29
280
     1
102
RTVSPost2010PropOp29
 70
     1
102
RTVSPost2010Prop30
280
     1
102
RTVSPost2010PropOp30
 70
     1
102
RTVSPost2010Prop31
280
     0
102
RTVSPost2010PropOp31
 70
     1
102
RTVSPost2010Prop32
280
     0
102
RTVSPost2010PropOp32
 70
     1
102
RTVSPost2010Prop33
280
     0
102
RTVSPost2010PropOp33
 70
     1
102
RTVSPost2010Prop34
280
     0
102
RTVSPost2010PropOp34
 70
     1
102
RTVSPost2010Prop35
280
     0
102
RTVSPost2010PropOp35
 70
     1
102
RTVSPost2010Prop36
280
     0
102
RTVSPost2010PropOp36
 70
     1
102
RTVSPost2010Prop37
 90
       50
102
RTVSPost2010PropOp37
 70
     1
102
RTVSPost2010Prop38
140
0.0
102
RTVSPost2010PropOp38
 70
     1
102
RTVSPost2010Prop39
140
1.0
102
RTVSPost2010PropOp39
 70
     1
102
RTVSPost2010Prop40
 90
        0
102
RTVSPost2010PropOp40
 70
     1
102
RTVSPost2010Prop41ColorIndex
 90
       18
102
RTVSPost2010Prop41ColorRGB
 90
        0
102
RTVSPost2010PropOp41
 70
     1
102
RTVSPost2010Prop42
 90
       50
102
RTVSPost2010PropOp42
 70
     1
102
RTVSPost2010Prop43
 90
        3
102
RTVSPost2010PropOp43
 70
     1
102
RTVSPost2010Prop44ColorIndex
 90
        5
102
RTVSPost2010Prop44ColorRGB
 90
      255
102
RTVSPost2010PropOp44
 70
     1
102
RTVSPost2010Prop45
280
     0
102
RTVSPost2010PropOp45
 70
     1
102
RTVSPost2010Prop46
 90
       50
102
RTVSPost2010PropOp46
 70
     1
102
RTVSPost2010Prop47
 90
       50
102
RTVSPost2010PropOp47
 70
     1
102
RTVSPost2010Prop48
 90
       50
102
RTVSPost2010PropOp48
 70
     1
102
RTVSPost2010Prop49
280
     0
102
RTVSPost2010PropOp49
 70
     1
102
RTVSPost2010Prop50
 90
       50
102
RTVSPost2010PropOp50
 70
     1
102
RTVSPost2010Prop51ColorIndex
 90
      256
102
RTVSPost2010Prop51ColorRGB
 90
-16777216
102
RTVSPost2010PropOp51
 70
     0
102
RTVSPost2010Prop52
140
1.0
102
RTVSPost2010PropOp52
 70
     0
102
RTVSPost2010Prop53
 90
        2
102
RTVSPost2010PropOp53
 70
     1
102
RTVSPost2010Prop54
  1
strokes_ogs.tif
102
RTVSPost2010PropOp54
 70
     1
102
RTVSPost2010Prop55
280
     0
102
RTVSPost2010PropOp55
 70
     1
102
RTVSPost2010Prop56
140
1.0
102
RTVSPost2010PropOp56
 70
     1
102
RTVSPost2010Prop57
140
1.0
102
RTVSPost2010PropOp57
 70
     1
  0
XRECORD
  5
34A
102
{ACAD_REACTORS
330
349
102
}
330
349
100
AcDbXrecord
280
     1
102
RTVSPost2010Prop28
280
     0
102
RTVSPost2010PropOp28
 70
     1
102
RTVSPost2010Prop29
280
     1
102
RTVSPost2010PropOp29
 70
     1
102
RTVSPost2010Prop30
280
     1
102
RTVSPost2010PropOp30
 70
     1
102
RTVSPost2010Prop31
280
     0
102
RTVSPost2010PropOp31
 70
     1
102
RTVSPost2010Prop32
280
     0
102
RTVSPost2010PropOp32
 70
     1
102
RTVSPost2010Prop33
280
     0
102
RTVSPost2010PropOp33
 70
     1
102
RTVSPost2010Prop34
280
     0
102
RTVSPost2010PropOp34
 70
     1
102
RTVSPost2010Prop35
280
     0
102
RTVSPost2010PropOp35
 70
     1
102
RTVSPost2010Prop36
280
     0
102
RTVSPost2010PropOp36
 70
     1
102
RTVSPost2010Prop37
 90
       50
102
RTVSPost2010PropOp37
 70
     1
102
RTVSPost2010Prop38
140
0.0
102
RTVSPost2010PropOp38
 70
     1
102
RTVSPost2010Prop39
140
1.0
102
RTVSPost2010PropOp39
 70
     1
102
RTVSPost2010Prop40
 90
        0
102
RTVSPost2010PropOp40
 70
     1
102
RTVSPost2010Prop41ColorIndex
 90
       18
102
RTVSPost2010Prop41ColorRGB
 90
        0
102
RTVSPost2010PropOp41
 70
     1
102
RTVSPost2010Prop42
 90
       50
102
RTVSPost2010PropOp42
 70
     1
102
RTVSPost2010Prop43
 90
        3
102
RTVSPost2010PropOp43
 70
     1
102
RTVSPost2010Prop44ColorIndex
 90
        5
102
RTVSPost2010Prop44ColorRGB
 90
      255
102
RTVSPost2010PropOp44
 70
     1
102
RTVSPost2010Prop45
280
     0
102
RTVSPost2010PropOp45
 70
     1
102
RTVSPost2010Prop46
 90
       50
102
RTVSPost2010PropOp46
 70
     1
102
RTVSPost2010Prop47
 90
       50
102
RTVSPost2010PropOp47
 70
     1
102
RTVSPost2010Prop48
 90
       50
102
RTVSPost2010PropOp48
 70
     1
102
RTVSPost2010Prop49
280
     0
102
RTVSPost2010PropOp49
 70
     1
102
RTVSPost2010Prop50
 90
       50
102
RTVSPost2010PropOp50
 70
     1
102
RTVSPost2010Prop51ColorIndex
 90
      256
102
RTVSPost2010Prop51ColorRGB
 90
-16777216
102
RTVSPost2010PropOp51
 70
     0
102
RTVSPost2010Prop52
140
1.0
102
RTVSPost2010PropOp52
 70
     0
102
RTVSPost2010Prop53
 90
        2
102
RTVSPost2010PropOp53
 70
     1
102
RTVSPost2010Prop54
  1
strokes_ogs.tif
102
RTVSPost2010PropOp54
 70
     1
102
RTVSPost2010Prop55
280
     0
102
RTVSPost2010PropOp55
 70
     1
102
RTVSPost2010Prop56
140
1.0
102
RTVSPost2010PropOp56
 70
     1
102
RTVSPost2010Prop57
140
1.0
102
RTVSPost2010PropOp57
 70
     1
  0
XRECORD
  5
364
102
{ACAD_REACTORS
330
363
102
}
330
363
100
AcDbXrecord
280
     1
102
RTVSPost2010Prop28
280
     0
102
RTVSPost2010PropOp28
 70
     0
102
RTVSPost2010Prop29
280
     1
102
RTVSPost2010PropOp29
 70
     0
102
RTVSPost2010Prop30
280
     1
102
RTVSPost2010PropOp30
 70
     0
102
RTVSPost2010Prop31
280
     0
102
RTVSPost2010PropOp31
 70
     0
102
RTVSPost2010Prop32
280
     0
102
RTVSPost2010PropOp32
 70
     0
102
RTVSPost2010Prop33
280
     0
102
RTVSPost2010PropOp33
 70
     0
102
RTVSPost2010Prop34
280
     0
102
RTVSPost2010PropOp34
 70
     0
102
RTVSPost2010Prop35
280
     0
102
RTVSPost2010PropOp35
 70
     0
102
RTVSPost2010Prop36
280
     0
102
RTVSPost2010PropOp36
 70
     0
102
RTVSPost2010Prop37
 90
       50
102
RTVSPost2010PropOp37
 70
     0
102
RTVSPost2010Prop38
140
0.0
102
RTVSPost2010PropOp38
 70
     0
102
RTVSPost2010Prop39
140
1.0
102
RTVSPost2010PropOp39
 70
     0
102
RTVSPost2010Prop40
 90
        0
102
RTVSPost2010PropOp40
 70
     0
102
RTVSPost2010Prop41ColorIndex
 90
       18
102
RTVSPost2010Prop41ColorRGB
 90
        0
102
RTVSPost2010PropOp41
 70
     0
102
RTVSPost2010Prop42
 90
       50
102
RTVSPost2010PropOp42
 70
     0
102
RTVSPost2010Prop43
 90
        3
102
RTVSPost2010PropOp43
 70
     0
102
RTVSPost2010Prop44ColorIndex
 90
        5
102
RTVSPost2010Prop44ColorRGB
 90
      255
102
RTVSPost2010PropOp44
 70
     0
102
RTVSPost2010Prop45
280
     0
102
RTVSPost2010PropOp45
 70
     0
102
RTVSPost2010Prop46
 90
       50
102
RTVSPost2010PropOp46
 70
     0
102
RTVSPost2010Prop47
 90
       50
102
RTVSPost2010PropOp47
 70
     0
102
RTVSPost2010Prop48
 90
       50
102
RTVSPost2010PropOp48
 70
     0
102
RTVSPost2010Prop49
280
     0
102
RTVSPost2010PropOp49
 70
     0
102
RTVSPost2010Prop50
 90
       50
102
RTVSPost2010PropOp50
 70
     0
102
RTVSPost2010Prop51ColorIndex
 90
      256
102
RTVSPost2010Prop51ColorRGB
 90
-16777216
102
RTVSPost2010PropOp51
 70
     0
102
RTVSPost2010Prop52
140
1.0
102
RTVSPost2010PropOp52
 70
     0
102
RTVSPost2010Prop53
 90
        2
102
RTVSPost2010PropOp53
 70
     0
102
RTVSPost2010Prop54
  1
strokes_ogs.tif
102
RTVSPost2010PropOp54
 70
     0
102
RTVSPost2010Prop55
280
     0
102
RTVSPost2010PropOp55
 70
     0
102
RTVSPost2010Prop56
140
1.0
102
RTVSPost2010PropOp56
 70
     0
102
RTVSPost2010Prop57
140
1.0
102
RTVSPost2010PropOp57
 70
     0
  0
XRECORD
  5
352
102
{ACAD_REACTORS
330
351
102
}
330
351
100
AcDbXrecord
280
     1
102
RTVSPost2010Prop28
280
     0
102
RTVSPost2010PropOp28
 70
     1
102
RTVSPost2010Prop29
280
     1
102
RTVSPost2010PropOp29
 70
     1
102
RTVSPost2010Prop30
280
     1
102
RTVSPost2010PropOp30
 70
     1
102
RTVSPost2010Prop31
280
     0
102
RTVSPost2010PropOp31
 70
     1
102
RTVSPost2010Prop32
280
     0
102
RTVSPost2010PropOp32
 70
     1
102
RTVSPost2010Prop33
280
     0
102
RTVSPost2010PropOp33
 70
     1
102
RTVSPost2010Prop34
280
     0
102
RTVSPost2010PropOp34
 70
     1
102
RTVSPost2010Prop35
280
     0
102
RTVSPost2010PropOp35
 70
     1
102
RTVSPost2010Prop36
280
     0
102
RTVSPost2010PropOp36
 70
     1
102
RTVSPost2010Prop37
 90
       50
102
RTVSPost2010PropOp37
 70
     1
102
RTVSPost2010Prop38
140
0.0
102
RTVSPost2010PropOp38
 70
     1
102
RTVSPost2010Prop39
140
1.0
102
RTVSPost2010PropOp39
 70
     1
102
RTVSPost2010Prop40
 90
        0
102
RTVSPost2010PropOp40
 70
     1
102
RTVSPost2010Prop41ColorIndex
 90
       18
102
RTVSPost2010Prop41ColorRGB
 90
        0
102
RTVSPost2010PropOp41
 70
     1
102
RTVSPost2010Prop42
 90
       50
102
RTVSPost2010PropOp42
 70
     1
102
RTVSPost2010Prop43
 90
        3
102
RTVSPost2010PropOp43
 70
     1
102
RTVSPost2010Prop44ColorIndex
 90
        5
102
RTVSPost2010Prop44ColorRGB
 90
      255
102
RTVSPost2010PropOp44
 70
     1
102
RTVSPost2010Prop45
280
     0
102
RTVSPost2010PropOp45
 70
     1
102
RTVSPost2010Prop46
 90
       50
102
RTVSPost2010PropOp46
 70
     1
102
RTVSPost2010Prop47
 90
       50
102
RTVSPost2010PropOp47
 70
     1
102
RTVSPost2010Prop48
 90
       50
102
RTVSPost2010PropOp48
 70
     1
102
RTVSPost2010Prop49
280
     0
102
RTVSPost2010PropOp49
 70
     1
102
RTVSPost2010Prop50
 90
       50
102
RTVSPost2010PropOp50
 70
     1
102
RTVSPost2010Prop51ColorIndex
 90
      256
102
RTVSPost2010Prop51ColorRGB
 90
-16777216
102
RTVSPost2010PropOp51
 70
     0
102
RTVSPost2010Prop52
140
1.0
102
RTVSPost2010PropOp52
 70
     0
102
RTVSPost2010Prop53
 90
        2
102
RTVSPost2010PropOp53
 70
     1
102
RTVSPost2010Prop54
  1
strokes_ogs.tif
102
RTVSPost2010PropOp54
 70
     1
102
RTVSPost2010Prop55
280
     0
102
RTVSPost2010PropOp55
 70
     1
102
RTVSPost2010Prop56
140
1.0
102
RTVSPost2010PropOp56
 70
     1
102
RTVSPost2010Prop57
140
1.0
102
RTVSPost2010PropOp57
 70
     1
  0
XRECORD
  5
33C
102
{ACAD_REACTORS
330
33B
102
}
330
33B
100
AcDbXrecord
280
     1
102
RTVSPost2010Prop28
280
     0
102
RTVSPost2010PropOp28
 70
     1
102
RTVSPost2010Prop29
280
     1
102
RTVSPost2010PropOp29
 70
     1
102
RTVSPost2010Prop30
280
     1
102
RTVSPost2010PropOp30
 70
     1
102
RTVSPost2010Prop31
280
     0
102
RTVSPost2010PropOp31
 70
     1
102
RTVSPost2010Prop32
280
     0
102
RTVSPost2010PropOp32
 70
     1
102
RTVSPost2010Prop33
280
     0
102
RTVSPost2010PropOp33
 70
     1
102
RTVSPost2010Prop34
280
     0
102
RTVSPost2010PropOp34
 70
     1
102
RTVSPost2010Prop35
280
     0
102
RTVSPost2010PropOp35
 70
     1
102
RTVSPost2010Prop36
280
     0
102
RTVSPost2010PropOp36
 70
     1
102
RTVSPost2010Prop37
 90
       50
102
RTVSPost2010PropOp37
 70
     1
102
RTVSPost2010Prop38
140
0.0
102
RTVSPost2010PropOp38
 70
     1
102
RTVSPost2010Prop39
140
1.0
102
RTVSPost2010PropOp39
 70
     1
102
RTVSPost2010Prop40
 90
        0
102
RTVSPost2010PropOp40
 70
     1
102
RTVSPost2010Prop41ColorIndex
 90
       18
102
RTVSPost2010Prop41ColorRGB
 90
        0
102
RTVSPost2010PropOp41
 70
     1
102
RTVSPost2010Prop42
 90
       50
102
RTVSPost2010PropOp42
 70
     1
102
RTVSPost2010Prop43
 90
        3
102
RTVSPost2010PropOp43
 70
     1
102
RTVSPost2010Prop44ColorIndex
 90
        5
102
RTVSPost2010Prop44ColorRGB
 90
      255
102
RTVSPost2010PropOp44
 70
     1
102
RTVSPost2010Prop45
280
     0
102
RTVSPost2010PropOp45
 70
     1
102
RTVSPost2010Prop46
 90
       50
102
RTVSPost2010PropOp46
 70
     1
102
RTVSPost2010Prop47
 90
       50
102
RTVSPost2010PropOp47
 70
     1
102
RTVSPost2010Prop48
 90
       50
102
RTVSPost2010PropOp48
 70
     1
102
RTVSPost2010Prop49
280
     0
102
RTVSPost2010PropOp49
 70
     1
102
RTVSPost2010Prop50
 90
       50
102
RTVSPost2010PropOp50
 70
     1
102
RTVSPost2010Prop51ColorIndex
 90
      256
102
RTVSPost2010Prop51ColorRGB
 90
-16777216
102
RTVSPost2010PropOp51
 70
     0
102
RTVSPost2010Prop52
140
1.0
102
RTVSPost2010PropOp52
 70
     0
102
RTVSPost2010Prop53
 90
        2
102
RTVSPost2010PropOp53
 70
     1
102
RTVSPost2010Prop54
  1
strokes_ogs.tif
102
RTVSPost2010PropOp54
 70
     1
102
RTVSPost2010Prop55
280
     0
102
RTVSPost2010PropOp55
 70
     1
102
RTVSPost2010Prop56
140
1.0
102
RTVSPost2010PropOp56
 70
     1
102
RTVSPost2010Prop57
140
1.0
102
RTVSPost2010PropOp57
 70
     1
  0
XRECORD
  5
33E
102
{ACAD_REACTORS
330
33D
102
}
330
33D
100
AcDbXrecord
280
     1
102
RTVSPost2010Prop28
280
     0
102
RTVSPost2010PropOp28
 70
     1
102
RTVSPost2010Prop29
280
     1
102
RTVSPost2010PropOp29
 70
     1
102
RTVSPost2010Prop30
280
     1
102
RTVSPost2010PropOp30
 70
     1
102
RTVSPost2010Prop31
280
     0
102
RTVSPost2010PropOp31
 70
     1
102
RTVSPost2010Prop32
280
     0
102
RTVSPost2010PropOp32
 70
     1
102
RTVSPost2010Prop33
280
     0
102
RTVSPost2010PropOp33
 70
     1
102
RTVSPost2010Prop34
280
     0
102
RTVSPost2010PropOp34
 70
     1
102
RTVSPost2010Prop35
280
     0
102
RTVSPost2010PropOp35
 70
     1
102
RTVSPost2010Prop36
280
     0
102
RTVSPost2010PropOp36
 70
     1
102
RTVSPost2010Prop37
 90
       50
102
RTVSPost2010PropOp37
 70
     1
102
RTVSPost2010Prop38
140
0.0
102
RTVSPost2010PropOp38
 70
     1
102
RTVSPost2010Prop39
140
1.0
102
RTVSPost2010PropOp39
 70
     1
102
RTVSPost2010Prop40
 90
        0
102
RTVSPost2010PropOp40
 70
     1
102
RTVSPost2010Prop41ColorIndex
 90
       18
102
RTVSPost2010Prop41ColorRGB
 90
        0
102
RTVSPost2010PropOp41
 70
     1
102
RTVSPost2010Prop42
 90
       50
102
RTVSPost2010PropOp42
 70
     1
102
RTVSPost2010Prop43
 90
        3
102
RTVSPost2010PropOp43
 70
     1
102
RTVSPost2010Prop44ColorIndex
 90
        5
102
RTVSPost2010Prop44ColorRGB
 90
      255
102
RTVSPost2010PropOp44
 70
     1
102
RTVSPost2010Prop45
280
     0
102
RTVSPost2010PropOp45
 70
     1
102
RTVSPost2010Prop46
 90
       50
102
RTVSPost2010PropOp46
 70
     1
102
RTVSPost2010Prop47
 90
       50
102
RTVSPost2010PropOp47
 70
     1
102
RTVSPost2010Prop48
 90
       50
102
RTVSPost2010PropOp48
 70
     1
102
RTVSPost2010Prop49
280
     0
102
RTVSPost2010PropOp49
 70
     1
102
RTVSPost2010Prop50
 90
       50
102
RTVSPost2010PropOp50
 70
     1
102
RTVSPost2010Prop51ColorIndex
 90
      256
102
RTVSPost2010Prop51ColorRGB
 90
-16777216
102
RTVSPost2010PropOp51
 70
     0
102
RTVSPost2010Prop52
140
1.0
102
RTVSPost2010PropOp52
 70
     0
102
RTVSPost2010Prop53
 90
        2
102
RTVSPost2010PropOp53
 70
     1
102
RTVSPost2010Prop54
  1
strokes_ogs.tif
102
RTVSPost2010PropOp54
 70
     1
102
RTVSPost2010Prop55
280
     0
102
RTVSPost2010PropOp55
 70
     1
102
RTVSPost2010Prop56
140
1.0
102
RTVSPost2010PropOp56
 70
     1
102
RTVSPost2010Prop57
140
1.0
102
RTVSPost2010PropOp57
 70
     1
  0
XRECORD
  5
340
102
{ACAD_REACTORS
330
33F
102
}
330
33F
100
AcDbXrecord
280
     1
102
RTVSPost2010Prop28
280
     0
102
RTVSPost2010PropOp28
 70
     1
102
RTVSPost2010Prop29
280
     1
102
RTVSPost2010PropOp29
 70
     1
102
RTVSPost2010Prop30
280
     1
102
RTVSPost2010PropOp30
 70
     1
102
RTVSPost2010Prop31
280
     0
102
RTVSPost2010PropOp31
 70
     1
102
RTVSPost2010Prop32
280
     0
102
RTVSPost2010PropOp32
 70
     1
102
RTVSPost2010Prop33
280
     0
102
RTVSPost2010PropOp33
 70
     1
102
RTVSPost2010Prop34
280
     0
102
RTVSPost2010PropOp34
 70
     1
102
RTVSPost2010Prop35
280
     0
102
RTVSPost2010PropOp35
 70
     1
102
RTVSPost2010Prop36
280
     0
102
RTVSPost2010PropOp36
 70
     1
102
RTVSPost2010Prop37
 90
       50
102
RTVSPost2010PropOp37
 70
     1
102
RTVSPost2010Prop38
140
0.0
102
RTVSPost2010PropOp38
 70
     1
102
RTVSPost2010Prop39
140
1.0
102
RTVSPost2010PropOp39
 70
     1
102
RTVSPost2010Prop40
 90
        0
102
RTVSPost2010PropOp40
 70
     1
102
RTVSPost2010Prop41ColorIndex
 90
       18
102
RTVSPost2010Prop41ColorRGB
 90
        0
102
RTVSPost2010PropOp41
 70
     1
102
RTVSPost2010Prop42
 90
       50
102
RTVSPost2010PropOp42
 70
     1
102
RTVSPost2010Prop43
 90
        3
102
RTVSPost2010PropOp43
 70
     1
102
RTVSPost2010Prop44ColorIndex
 90
        5
102
RTVSPost2010Prop44ColorRGB
 90
      255
102
RTVSPost2010PropOp44
 70
     1
102
RTVSPost2010Prop45
280
     0
102
RTVSPost2010PropOp45
 70
     1
102
RTVSPost2010Prop46
 90
       50
102
RTVSPost2010PropOp46
 70
     1
102
RTVSPost2010Prop47
 90
       50
102
RTVSPost2010PropOp47
 70
     1
102
RTVSPost2010Prop48
 90
       50
102
RTVSPost2010PropOp48
 70
     1
102
RTVSPost2010Prop49
280
     0
102
RTVSPost2010PropOp49
 70
     1
102
RTVSPost2010Prop50
 90
       50
102
RTVSPost2010PropOp50
 70
     1
102
RTVSPost2010Prop51ColorIndex
 90
      256
102
RTVSPost2010Prop51ColorRGB
 90
-16777216
102
RTVSPost2010PropOp51
 70
     0
102
RTVSPost2010Prop52
140
1.0
102
RTVSPost2010PropOp52
 70
     0
102
RTVSPost2010Prop53
 90
        2
102
RTVSPost2010PropOp53
 70
     1
102
RTVSPost2010Prop54
  1
strokes_ogs.tif
102
RTVSPost2010PropOp54
 70
     1
102
RTVSPost2010Prop55
280
     0
102
RTVSPost2010PropOp55
 70
     1
102
RTVSPost2010Prop56
140
1.0
102
RTVSPost2010PropOp56
 70
     1
102
RTVSPost2010Prop57
140
1.0
102
RTVSPost2010PropOp57
 70
     1
  0
XRECORD
  5
342
102
{ACAD_REACTORS
330
341
102
}
330
341
100
AcDbXrecord
280
     1
102
RTVSPost2010Prop28
280
     0
102
RTVSPost2010PropOp28
 70
     1
102
RTVSPost2010Prop29
280
     1
102
RTVSPost2010PropOp29
 70
     1
102
RTVSPost2010Prop30
280
     1
102
RTVSPost2010PropOp30
 70
     1
102
RTVSPost2010Prop31
280
     0
102
RTVSPost2010PropOp31
 70
     1
102
RTVSPost2010Prop32
280
     0
102
RTVSPost2010PropOp32
 70
     1
102
RTVSPost2010Prop33
280
     0
102
RTVSPost2010PropOp33
 70
     1
102
RTVSPost2010Prop34
280
     0
102
RTVSPost2010PropOp34
 70
     1
102
RTVSPost2010Prop35
280
     0
102
RTVSPost2010PropOp35
 70
     1
102
RTVSPost2010Prop36
280
     0
102
RTVSPost2010PropOp36
 70
     1
102
RTVSPost2010Prop37
 90
       50
102
RTVSPost2010PropOp37
 70
     1
102
RTVSPost2010Prop38
140
0.0
102
RTVSPost2010PropOp38
 70
     1
102
RTVSPost2010Prop39
140
1.0
102
RTVSPost2010PropOp39
 70
     1
102
RTVSPost2010Prop40
 90
        0
102
RTVSPost2010PropOp40
 70
     1
102
RTVSPost2010Prop41ColorIndex
 90
       18
102
RTVSPost2010Prop41ColorRGB
 90
        0
102
RTVSPost2010PropOp41
 70
     1
102
RTVSPost2010Prop42
 90
       50
102
RTVSPost2010PropOp42
 70
     1
102
RTVSPost2010Prop43
 90
        3
102
RTVSPost2010PropOp43
 70
     1
102
RTVSPost2010Prop44ColorIndex
 90
        5
102
RTVSPost2010Prop44ColorRGB
 90
      255
102
RTVSPost2010PropOp44
 70
     1
102
RTVSPost2010Prop45
280
     0
102
RTVSPost2010PropOp45
 70
     1
102
RTVSPost2010Prop46
 90
       50
102
RTVSPost2010PropOp46
 70
     1
102
RTVSPost2010Prop47
 90
       50
102
RTVSPost2010PropOp47
 70
     1
102
RTVSPost2010Prop48
 90
       50
102
RTVSPost2010PropOp48
 70
     1
102
RTVSPost2010Prop49
280
     0
102
RTVSPost2010PropOp49
 70
     1
102
RTVSPost2010Prop50
 90
       50
102
RTVSPost2010PropOp50
 70
     1
102
RTVSPost2010Prop51ColorIndex
 90
      256
102
RTVSPost2010Prop51ColorRGB
 90
-16777216
102
RTVSPost2010PropOp51
 70
     0
102
RTVSPost2010Prop52
140
1.0
102
RTVSPost2010PropOp52
 70
     0
102
RTVSPost2010Prop53
 90
        2
102
RTVSPost2010PropOp53
 70
     1
102
RTVSPost2010Prop54
  1
strokes_ogs.tif
102
RTVSPost2010PropOp54
 70
     1
102
RTVSPost2010Prop55
280
     0
102
RTVSPost2010PropOp55
 70
     1
102
RTVSPost2010Prop56
140
1.0
102
RTVSPost2010PropOp56
 70
     1
102
RTVSPost2010Prop57
140
1.0
102
RTVSPost2010PropOp57
 70
     1
  0
XRECORD
  5
346
102
{ACAD_REACTORS
330
345
102
}
330
345
100
AcDbXrecord
280
     1
102
RTVSPost2010Prop28
280
     0
102
RTVSPost2010PropOp28
 70
     1
102
RTVSPost2010Prop29
280
     1
102
RTVSPost2010PropOp29
 70
     1
102
RTVSPost2010Prop30
280
     1
102
RTVSPost2010PropOp30
 70
     1
102
RTVSPost2010Prop31
280
     0
102
RTVSPost2010PropOp31
 70
     1
102
RTVSPost2010Prop32
280
     0
102
RTVSPost2010PropOp32
 70
     1
102
RTVSPost2010Prop33
280
     0
102
RTVSPost2010PropOp33
 70
     1
102
RTVSPost2010Prop34
280
     0
102
RTVSPost2010PropOp34
 70
     1
102
RTVSPost2010Prop35
280
     0
102
RTVSPost2010PropOp35
 70
     1
102
RTVSPost2010Prop36
280
     0
102
RTVSPost2010PropOp36
 70
     1
102
RTVSPost2010Prop37
 90
       50
102
RTVSPost2010PropOp37
 70
     1
102
RTVSPost2010Prop38
140
0.0
102
RTVSPost2010PropOp38
 70
     1
102
RTVSPost2010Prop39
140
1.0
102
RTVSPost2010PropOp39
 70
     1
102
RTVSPost2010Prop40
 90
        0
102
RTVSPost2010PropOp40
 70
     1
102
RTVSPost2010Prop41ColorIndex
 90
       18
102
RTVSPost2010Prop41ColorRGB
 90
        0
102
RTVSPost2010PropOp41
 70
     1
102
RTVSPost2010Prop42
 90
       50
102
RTVSPost2010PropOp42
 70
     1
102
RTVSPost2010Prop43
 90
        3
102
RTVSPost2010PropOp43
 70
     1
102
RTVSPost2010Prop44ColorIndex
 90
        5
102
RTVSPost2010Prop44ColorRGB
 90
      255
102
RTVSPost2010PropOp44
 70
     1
102
RTVSPost2010Prop45
280
     0
102
RTVSPost2010PropOp45
 70
     1
102
RTVSPost2010Prop46
 90
       50
102
RTVSPost2010PropOp46
 70
     1
102
RTVSPost2010Prop47
 90
       50
102
RTVSPost2010PropOp47
 70
     1
102
RTVSPost2010Prop48
 90
       50
102
RTVSPost2010PropOp48
 70
     1
102
RTVSPost2010Prop49
280
     0
102
RTVSPost2010PropOp49
 70
     1
102
RTVSPost2010Prop50
 90
       50
102
RTVSPost2010PropOp50
 70
     1
102
RTVSPost2010Prop51ColorIndex
 90
      256
102
RTVSPost2010Prop51ColorRGB
 90
-16777216
102
RTVSPost2010PropOp51
 70
     0
102
RTVSPost2010Prop52
140
1.0
102
RTVSPost2010PropOp52
 70
     0
102
RTVSPost2010Prop53
 90
        2
102
RTVSPost2010PropOp53
 70
     1
102
RTVSPost2010Prop54
  1
strokes_ogs.tif
102
RTVSPost2010PropOp54
 70
     1
102
RTVSPost2010Prop55
280
     0
102
RTVSPost2010PropOp55
 70
     1
102
RTVSPost2010Prop56
140
1.0
102
RTVSPost2010PropOp56
 70
     1
102
RTVSPost2010Prop57
140
1.0
102
RTVSPost2010PropOp57
 70
     1
  0
XRECORD
  5
360
102
{ACAD_REACTORS
330
35F
102
}
330
35F
100
AcDbXrecord
280
     1
102
RTVSPost2010Prop28
280
     0
102
RTVSPost2010PropOp28
 70
     0
102
RTVSPost2010Prop29
280
     1
102
RTVSPost2010PropOp29
 70
     0
102
RTVSPost2010Prop30
280
     1
102
RTVSPost2010PropOp30
 70
     0
102
RTVSPost2010Prop31
280
     0
102
RTVSPost2010PropOp31
 70
     0
102
RTVSPost2010Prop32
280
     0
102
RTVSPost2010PropOp32
 70
     0
102
RTVSPost2010Prop33
280
     0
102
RTVSPost2010PropOp33
 70
     0
102
RTVSPost2010Prop34
280
     0
102
RTVSPost2010PropOp34
 70
     0
102
RTVSPost2010Prop35
280
     0
102
RTVSPost2010PropOp35
 70
     0
102
RTVSPost2010Prop36
280
     0
102
RTVSPost2010PropOp36
 70
     0
102
RTVSPost2010Prop37
 90
       50
102
RTVSPost2010PropOp37
 70
     0
102
RTVSPost2010Prop38
140
0.0
102
RTVSPost2010PropOp38
 70
     0
102
RTVSPost2010Prop39
140
1.0
102
RTVSPost2010PropOp39
 70
     0
102
RTVSPost2010Prop40
 90
        0
102
RTVSPost2010PropOp40
 70
     0
102
RTVSPost2010Prop41ColorIndex
 90
       18
102
RTVSPost2010Prop41ColorRGB
 90
        0
102
RTVSPost2010PropOp41
 70
     0
102
RTVSPost2010Prop42
 90
       50
102
RTVSPost2010PropOp42
 70
     0
102
RTVSPost2010Prop43
 90
        3
102
RTVSPost2010PropOp43
 70
     0
102
RTVSPost2010Prop44ColorIndex
 90
        5
102
RTVSPost2010Prop44ColorRGB
 90
      255
102
RTVSPost2010PropOp44
 70
     0
102
RTVSPost2010Prop45
280
     0
102
RTVSPost2010PropOp45
 70
     0
102
RTVSPost2010Prop46
 90
       50
102
RTVSPost2010PropOp46
 70
     0
102
RTVSPost2010Prop47
 90
       50
102
RTVSPost2010PropOp47
 70
     0
102
RTVSPost2010Prop48
 90
       50
102
RTVSPost2010PropOp48
 70
     0
102
RTVSPost2010Prop49
280
     0
102
RTVSPost2010PropOp49
 70
     0
102
RTVSPost2010Prop50
 90
       50
102
RTVSPost2010PropOp50
 70
     0
102
RTVSPost2010Prop51ColorIndex
 90
      256
102
RTVSPost2010Prop51ColorRGB
 90
-16777216
102
RTVSPost2010PropOp51
 70
     0
102
RTVSPost2010Prop52
140
1.0
102
RTVSPost2010PropOp52
 70
     0
102
RTVSPost2010Prop53
 90
        2
102
RTVSPost2010PropOp53
 70
     0
102
RTVSPost2010Prop54
  1
strokes_ogs.tif
102
RTVSPost2010PropOp54
 70
     0
102
RTVSPost2010Prop55
280
     0
102
RTVSPost2010PropOp55
 70
     0
102
RTVSPost2010Prop56
140
1.0
102
RTVSPost2010PropOp56
 70
     0
102
RTVSPost2010Prop57
140
1.0
102
RTVSPost2010PropOp57
 70
     0
  0
XRECORD
  5
350
102
{ACAD_REACTORS
330
34F
102
}
330
34F
100
AcDbXrecord
280
     1
102
RTVSPost2010Prop28
280
     0
102
RTVSPost2010PropOp28
 70
     1
102
RTVSPost2010Prop29
280
     1
102
RTVSPost2010PropOp29
 70
     1
102
RTVSPost2010Prop30
280
     1
102
RTVSPost2010PropOp30
 70
     1
102
RTVSPost2010Prop31
280
     0
102
RTVSPost2010PropOp31
 70
     1
102
RTVSPost2010Prop32
280
     0
102
RTVSPost2010PropOp32
 70
     1
102
RTVSPost2010Prop33
280
     0
102
RTVSPost2010PropOp33
 70
     1
102
RTVSPost2010Prop34
280
     0
102
RTVSPost2010PropOp34
 70
     1
102
RTVSPost2010Prop35
280
     0
102
RTVSPost2010PropOp35
 70
     1
102
RTVSPost2010Prop36
280
     0
102
RTVSPost2010PropOp36
 70
     1
102
RTVSPost2010Prop37
 90
       50
102
RTVSPost2010PropOp37
 70
     1
102
RTVSPost2010Prop38
140
0.0
102
RTVSPost2010PropOp38
 70
     1
102
RTVSPost2010Prop39
140
1.0
102
RTVSPost2010PropOp39
 70
     1
102
RTVSPost2010Prop40
 90
        0
102
RTVSPost2010PropOp40
 70
     1
102
RTVSPost2010Prop41ColorIndex
 90
       18
102
RTVSPost2010Prop41ColorRGB
 90
        0
102
RTVSPost2010PropOp41
 70
     1
102
RTVSPost2010Prop42
 90
       50
102
RTVSPost2010PropOp42
 70
     1
102
RTVSPost2010Prop43
 90
        3
102
RTVSPost2010PropOp43
 70
     1
102
RTVSPost2010Prop44ColorIndex
 90
        5
102
RTVSPost2010Prop44ColorRGB
 90
      255
102
RTVSPost2010PropOp44
 70
     1
102
RTVSPost2010Prop45
280
     0
102
RTVSPost2010PropOp45
 70
     1
102
RTVSPost2010Prop46
 90
       50
102
RTVSPost2010PropOp46
 70
     1
102
RTVSPost2010Prop47
 90
       50
102
RTVSPost2010PropOp47
 70
     1
102
RTVSPost2010Prop48
 90
       50
102
RTVSPost2010PropOp48
 70
     1
102
RTVSPost2010Prop49
280
     0
102
RTVSPost2010PropOp49
 70
     1
102
RTVSPost2010Prop50
 90
       50
102
RTVSPost2010PropOp50
 70
     1
102
RTVSPost2010Prop51ColorIndex
 90
      256
102
RTVSPost2010Prop51ColorRGB
 90
-16777216
102
RTVSPost2010PropOp51
 70
     0
102
RTVSPost2010Prop52
140
1.0
102
RTVSPost2010PropOp52
 70
     0
102
RTVSPost2010Prop53
 90
        2
102
RTVSPost2010PropOp53
 70
     1
102
RTVSPost2010Prop54
  1
strokes_ogs.tif
102
RTVSPost2010PropOp54
 70
     1
102
RTVSPost2010Prop55
280
     0
102
RTVSPost2010PropOp55
 70
     1
102
RTVSPost2010Prop56
140
1.0
102
RTVSPost2010PropOp56
 70
     1
102
RTVSPost2010Prop57
140
1.0
102
RTVSPost2010PropOp57
 70
     1
  0
XRECORD
  5
362
102
{ACAD_REACTORS
330
361
102
}
330
361
100
AcDbXrecord
280
     1
102
RTVSPost2010Prop28
280
     0
102
RTVSPost2010PropOp28
 70
     0
102
RTVSPost2010Prop29
280
     1
102
RTVSPost2010PropOp29
 70
     0
102
RTVSPost2010Prop30
280
     1
102
RTVSPost2010PropOp30
 70
     0
102
RTVSPost2010Prop31
280
     0
102
RTVSPost2010PropOp31
 70
     0
102
RTVSPost2010Prop32
280
     0
102
RTVSPost2010PropOp32
 70
     0
102
RTVSPost2010Prop33
280
     0
102
RTVSPost2010PropOp33
 70
     0
102
RTVSPost2010Prop34
280
     0
102
RTVSPost2010PropOp34
 70
     0
102
RTVSPost2010Prop35
280
     0
102
RTVSPost2010PropOp35
 70
     0
102
RTVSPost2010Prop36
280
     0
102
RTVSPost2010PropOp36
 70
     0
102
RTVSPost2010Prop37
 90
       50
102
RTVSPost2010PropOp37
 70
     0
102
RTVSPost2010Prop38
140
0.0
102
RTVSPost2010PropOp38
 70
     0
102
RTVSPost2010Prop39
140
1.0
102
RTVSPost2010PropOp39
 70
     0
102
RTVSPost2010Prop40
 90
        0
102
RTVSPost2010PropOp40
 70
     0
102
RTVSPost2010Prop41ColorIndex
 90
       18
102
RTVSPost2010Prop41ColorRGB
 90
        0
102
RTVSPost2010PropOp41
 70
     0
102
RTVSPost2010Prop42
 90
       50
102
RTVSPost2010PropOp42
 70
     0
102
RTVSPost2010Prop43
 90
        3
102
RTVSPost2010PropOp43
 70
     0
102
RTVSPost2010Prop44ColorIndex
 90
        5
102
RTVSPost2010Prop44ColorRGB
 90
      255
102
RTVSPost2010PropOp44
 70
     0
102
RTVSPost2010Prop45
280
     0
102
RTVSPost2010PropOp45
 70
     0
102
RTVSPost2010Prop46
 90
       50
102
RTVSPost2010PropOp46
 70
     0
102
RTVSPost2010Prop47
 90
       50
102
RTVSPost2010PropOp47
 70
     0
102
RTVSPost2010Prop48
 90
       50
102
RTVSPost2010PropOp48
 70
     0
102
RTVSPost2010Prop49
280
     0
102
RTVSPost2010PropOp49
 70
     0
102
RTVSPost2010Prop50
 90
       50
102
RTVSPost2010PropOp50
 70
     0
102
RTVSPost2010Prop51ColorIndex
 90
      256
102
RTVSPost2010Prop51ColorRGB
 90
-16777216
102
RTVSPost2010PropOp51
 70
     0
102
RTVSPost2010Prop52
140
1.0
102
RTVSPost2010PropOp52
 70
     0
102
RTVSPost2010Prop53
 90
        2
102
RTVSPost2010PropOp53
 70
     0
102
RTVSPost2010Prop54
  1
strokes_ogs.tif
102
RTVSPost2010PropOp54
 70
     0
102
RTVSPost2010Prop55
280
     0
102
RTVSPost2010PropOp55
 70
     0
102
RTVSPost2010Prop56
140
1.0
102
RTVSPost2010PropOp56
 70
     0
102
RTVSPost2010Prop57
140
1.0
102
RTVSPost2010PropOp57
 70
     0
  0
XRECORD
  5
338
102
{ACAD_REACTORS
330
337
102
}
330
337
100
AcDbXrecord
280
     1
102
RTVSPost2010Prop28
280
     0
102
RTVSPost2010PropOp28
 70
     1
102
RTVSPost2010Prop29
280
     1
102
RTVSPost2010PropOp29
 70
     1
102
RTVSPost2010Prop30
280
     1
102
RTVSPost2010PropOp30
 70
     1
102
RTVSPost2010Prop31
280
     0
102
RTVSPost2010PropOp31
 70
     1
102
RTVSPost2010Prop32
280
     0
102
RTVSPost2010PropOp32
 70
     1
102
RTVSPost2010Prop33
280
     0
102
RTVSPost2010PropOp33
 70
     1
102
RTVSPost2010Prop34
280
     0
102
RTVSPost2010PropOp34
 70
     1
102
RTVSPost2010Prop35
280
     0
102
RTVSPost2010PropOp35
 70
     1
102
RTVSPost2010Prop36
280
     0
102
RTVSPost2010PropOp36
 70
     1
102
RTVSPost2010Prop37
 90
       50
102
RTVSPost2010PropOp37
 70
     1
102
RTVSPost2010Prop38
140
0.0
102
RTVSPost2010PropOp38
 70
     1
102
RTVSPost2010Prop39
140
1.0
102
RTVSPost2010PropOp39
 70
     1
102
RTVSPost2010Prop40
 90
        0
102
RTVSPost2010PropOp40
 70
     1
102
RTVSPost2010Prop41ColorIndex
 90
       18
102
RTVSPost2010Prop41ColorRGB
 90
        0
102
RTVSPost2010PropOp41
 70
     1
102
RTVSPost2010Prop42
 90
       50
102
RTVSPost2010PropOp42
 70
     1
102
RTVSPost2010Prop43
 90
        3
102
RTVSPost2010PropOp43
 70
     1
102
RTVSPost2010Prop44ColorIndex
 90
        5
102
RTVSPost2010Prop44ColorRGB
 90
      255
102
RTVSPost2010PropOp44
 70
     1
102
RTVSPost2010Prop45
280
     0
102
RTVSPost2010PropOp45
 70
     1
102
RTVSPost2010Prop46
 90
       50
102
RTVSPost2010PropOp46
 70
     1
102
RTVSPost2010Prop47
 90
       50
102
RTVSPost2010PropOp47
 70
     1
102
RTVSPost2010Prop48
 90
       50
102
RTVSPost2010PropOp48
 70
     1
102
RTVSPost2010Prop49
280
     0
102
RTVSPost2010PropOp49
 70
     1
102
RTVSPost2010Prop50
 90
       50
102
RTVSPost2010PropOp50
 70
     1
102
RTVSPost2010Prop51ColorIndex
 90
      256
102
RTVSPost2010Prop51ColorRGB
 90
-16777216
102
RTVSPost2010PropOp51
 70
     0
102
RTVSPost2010Prop52
140
1.0
102
RTVSPost2010PropOp52
 70
     0
102
RTVSPost2010Prop53
 90
        2
102
RTVSPost2010PropOp53
 70
     1
102
RTVSPost2010Prop54
  1
strokes_ogs.tif
102
RTVSPost2010PropOp54
 70
     1
102
RTVSPost2010Prop55
280
     0
102
RTVSPost2010PropOp55
 70
     1
102
RTVSPost2010Prop56
140
1.0
102
RTVSPost2010PropOp56
 70
     1
102
RTVSPost2010Prop57
140
1.0
102
RTVSPost2010PropOp57
 70
     1
  0
XRECORD
  5
35E
102
{ACAD_REACTORS
330
35D
102
}
330
35D
100
AcDbXrecord
280
     1
102
RTVSPost2010Prop28
280
     0
102
RTVSPost2010PropOp28
 70
     1
102
RTVSPost2010Prop29
280
     1
102
RTVSPost2010PropOp29
 70
     1
102
RTVSPost2010Prop30
280
     1
102
RTVSPost2010PropOp30
 70
     1
102
RTVSPost2010Prop31
280
     0
102
RTVSPost2010PropOp31
 70
     1
102
RTVSPost2010Prop32
280
     0
102
RTVSPost2010PropOp32
 70
     1
102
RTVSPost2010Prop33
280
     0
102
RTVSPost2010PropOp33
 70
     1
102
RTVSPost2010Prop34
280
     0
102
RTVSPost2010PropOp34
 70
     1
102
RTVSPost2010Prop35
280
     0
102
RTVSPost2010PropOp35
 70
     1
102
RTVSPost2010Prop36
280
     0
102
RTVSPost2010PropOp36
 70
     1
102
RTVSPost2010Prop37
 90
       50
102
RTVSPost2010PropOp37
 70
     1
102
RTVSPost2010Prop38
140
0.0
102
RTVSPost2010PropOp38
 70
     1
102
RTVSPost2010Prop39
140
1.0
102
RTVSPost2010PropOp39
 70
     1
102
RTVSPost2010Prop40
 90
        0
102
RTVSPost2010PropOp40
 70
     1
102
RTVSPost2010Prop41ColorIndex
 90
       18
102
RTVSPost2010Prop41ColorRGB
 90
        0
102
RTVSPost2010PropOp41
 70
     1
102
RTVSPost2010Prop42
 90
       50
102
RTVSPost2010PropOp42
 70
     1
102
RTVSPost2010Prop43
 90
        3
102
RTVSPost2010PropOp43
 70
     1
102
RTVSPost2010Prop44ColorIndex
 90
        5
102
RTVSPost2010Prop44ColorRGB
 90
      255
102
RTVSPost2010PropOp44
 70
     1
102
RTVSPost2010Prop45
280
     0
102
RTVSPost2010PropOp45
 70
     1
102
RTVSPost2010Prop46
 90
       50
102
RTVSPost2010PropOp46
 70
     1
102
RTVSPost2010Prop47
 90
       50
102
RTVSPost2010PropOp47
 70
     1
102
RTVSPost2010Prop48
 90
       50
102
RTVSPost2010PropOp48
 70
     1
102
RTVSPost2010Prop49
280
     0
102
RTVSPost2010PropOp49
 70
     1
102
RTVSPost2010Prop50
 90
       50
102
RTVSPost2010PropOp50
 70
     1
102
RTVSPost2010Prop51ColorIndex
 90
      256
102
RTVSPost2010Prop51ColorRGB
 90
-16777216
102
RTVSPost2010PropOp51
 70
     0
102
RTVSPost2010Prop52
140
1.0
102
RTVSPost2010PropOp52
 70
     0
102
RTVSPost2010Prop53
 90
        2
102
RTVSPost2010PropOp53
 70
     1
102
RTVSPost2010Prop54
  1
strokes_ogs.tif
102
RTVSPost2010PropOp54
 70
     1
102
RTVSPost2010Prop55
280
     0
102
RTVSPost2010PropOp55
 70
     1
102
RTVSPost2010Prop56
140
1.0
102
RTVSPost2010PropOp56
 70
     1
102
RTVSPost2010Prop57
140
1.0
102
RTVSPost2010PropOp57
 70
     1
  0
XRECORD
  5
35C
102
{ACAD_REACTORS
330
35B
102
}
330
35B
100
AcDbXrecord
280
     1
102
RTVSPost2010Prop28
280
     0
102
RTVSPost2010PropOp28
 70
     1
102
RTVSPost2010Prop29
280
     1
102
RTVSPost2010PropOp29
 70
     1
102
RTVSPost2010Prop30
280
     1
102
RTVSPost2010PropOp30
 70
     1
102
RTVSPost2010Prop31
280
     0
102
RTVSPost2010PropOp31
 70
     1
102
RTVSPost2010Prop32
280
     0
102
RTVSPost2010PropOp32
 70
     1
102
RTVSPost2010Prop33
280
     0
102
RTVSPost2010PropOp33
 70
     1
102
RTVSPost2010Prop34
280
     0
102
RTVSPost2010PropOp34
 70
     1
102
RTVSPost2010Prop35
280
     0
102
RTVSPost2010PropOp35
 70
     1
102
RTVSPost2010Prop36
280
     0
102
RTVSPost2010PropOp36
 70
     1
102
RTVSPost2010Prop37
 90
       50
102
RTVSPost2010PropOp37
 70
     1
102
RTVSPost2010Prop38
140
0.0
102
RTVSPost2010PropOp38
 70
     1
102
RTVSPost2010Prop39
140
1.0
102
RTVSPost2010PropOp39
 70
     1
102
RTVSPost2010Prop40
 90
        0
102
RTVSPost2010PropOp40
 70
     1
102
RTVSPost2010Prop41ColorIndex
 90
       18
102
RTVSPost2010Prop41ColorRGB
 90
        0
102
RTVSPost2010PropOp41
 70
     1
102
RTVSPost2010Prop42
 90
       50
102
RTVSPost2010PropOp42
 70
     1
102
RTVSPost2010Prop43
 90
        3
102
RTVSPost2010PropOp43
 70
     1
102
RTVSPost2010Prop44ColorIndex
 90
        5
102
RTVSPost2010Prop44ColorRGB
 90
      255
102
RTVSPost2010PropOp44
 70
     1
102
RTVSPost2010Prop45
280
     0
102
RTVSPost2010PropOp45
 70
     1
102
RTVSPost2010Prop46
 90
       50
102
RTVSPost2010PropOp46
 70
     1
102
RTVSPost2010Prop47
 90
       50
102
RTVSPost2010PropOp47
 70
     1
102
RTVSPost2010Prop48
 90
       50
102
RTVSPost2010PropOp48
 70
     1
102
RTVSPost2010Prop49
280
     0
102
RTVSPost2010PropOp49
 70
     1
102
RTVSPost2010Prop50
 90
       50
102
RTVSPost2010PropOp50
 70
     1
102
RTVSPost2010Prop51ColorIndex
 90
      256
102
RTVSPost2010Prop51ColorRGB
 90
-16777216
102
RTVSPost2010PropOp51
 70
     0
102
RTVSPost2010Prop52
140
1.0
102
RTVSPost2010PropOp52
 70
     0
102
RTVSPost2010Prop53
 90
        2
102
RTVSPost2010PropOp53
 70
     1
102
RTVSPost2010Prop54
  1
strokes_ogs.tif
102
RTVSPost2010PropOp54
 70
     1
102
RTVSPost2010Prop55
280
     0
102
RTVSPost2010PropOp55
 70
     1
102
RTVSPost2010Prop56
140
1.0
102
RTVSPost2010PropOp56
 70
     1
102
RTVSPost2010Prop57
140
1.0
102
RTVSPost2010PropOp57
 70
     1
  0
XRECORD
  5
356
102
{ACAD_REACTORS
330
355
102
}
330
355
100
AcDbXrecord
280
     1
102
RTVSPost2010Prop28
280
     0
102
RTVSPost2010PropOp28
 70
     1
102
RTVSPost2010Prop29
280
     1
102
RTVSPost2010PropOp29
 70
     1
102
RTVSPost2010Prop30
280
     1
102
RTVSPost2010PropOp30
 70
     1
102
RTVSPost2010Prop31
280
     0
102
RTVSPost2010PropOp31
 70
     1
102
RTVSPost2010Prop32
280
     0
102
RTVSPost2010PropOp32
 70
     1
102
RTVSPost2010Prop33
280
     0
102
RTVSPost2010PropOp33
 70
     1
102
RTVSPost2010Prop34
280
     0
102
RTVSPost2010PropOp34
 70
     1
102
RTVSPost2010Prop35
280
     0
102
RTVSPost2010PropOp35
 70
     1
102
RTVSPost2010Prop36
280
     0
102
RTVSPost2010PropOp36
 70
     1
102
RTVSPost2010Prop37
 90
       50
102
RTVSPost2010PropOp37
 70
     1
102
RTVSPost2010Prop38
140
0.0
102
RTVSPost2010PropOp38
 70
     1
102
RTVSPost2010Prop39
140
1.0
102
RTVSPost2010PropOp39
 70
     1
102
RTVSPost2010Prop40
 90
        0
102
RTVSPost2010PropOp40
 70
     1
102
RTVSPost2010Prop41ColorIndex
 90
       18
102
RTVSPost2010Prop41ColorRGB
 90
        0
102
RTVSPost2010PropOp41
 70
     1
102
RTVSPost2010Prop42
 90
       50
102
RTVSPost2010PropOp42
 70
     1
102
RTVSPost2010Prop43
 90
        3
102
RTVSPost2010PropOp43
 70
     1
102
RTVSPost2010Prop44ColorIndex
 90
        5
102
RTVSPost2010Prop44ColorRGB
 90
      255
102
RTVSPost2010PropOp44
 70
     1
102
RTVSPost2010Prop45
280
     0
102
RTVSPost2010PropOp45
 70
     1
102
RTVSPost2010Prop46
 90
       50
102
RTVSPost2010PropOp46
 70
     1
102
RTVSPost2010Prop47
 90
       50
102
RTVSPost2010PropOp47
 70
     1
102
RTVSPost2010Prop48
 90
       50
102
RTVSPost2010PropOp48
 70
     1
102
RTVSPost2010Prop49
280
     0
102
RTVSPost2010PropOp49
 70
     1
102
RTVSPost2010Prop50
 90
       50
102
RTVSPost2010PropOp50
 70
     1
102
RTVSPost2010Prop51ColorIndex
 90
      256
102
RTVSPost2010Prop51ColorRGB
 90
-16777216
102
RTVSPost2010PropOp51
 70
     0
102
RTVSPost2010Prop52
140
1.0
102
RTVSPost2010PropOp52
 70
     0
102
RTVSPost2010Prop53
 90
        2
102
RTVSPost2010PropOp53
 70
     1
102
RTVSPost2010Prop54
  1
strokes_ogs.tif
102
RTVSPost2010PropOp54
 70
     1
102
RTVSPost2010Prop55
280
     0
102
RTVSPost2010PropOp55
 70
     1
102
RTVSPost2010Prop56
140
1.0
102
RTVSPost2010PropOp56
 70
     1
102
RTVSPost2010Prop57
140
1.0
102
RTVSPost2010PropOp57
 70
     1
  0
XRECORD
  5
358
102
{ACAD_REACTORS
330
357
102
}
330
357
100
AcDbXrecord
280
     1
102
RTVSPost2010Prop28
280
     0
102
RTVSPost2010PropOp28
 70
     1
102
RTVSPost2010Prop29
280
     1
102
RTVSPost2010PropOp29
 70
     1
102
RTVSPost2010Prop30
280
     1
102
RTVSPost2010PropOp30
 70
     1
102
RTVSPost2010Prop31
280
     0
102
RTVSPost2010PropOp31
 70
     1
102
RTVSPost2010Prop32
280
     0
102
RTVSPost2010PropOp32
 70
     1
102
RTVSPost2010Prop33
280
     0
102
RTVSPost2010PropOp33
 70
     1
102
RTVSPost2010Prop34
280
     0
102
RTVSPost2010PropOp34
 70
     1
102
RTVSPost2010Prop35
280
     0
102
RTVSPost2010PropOp35
 70
     1
102
RTVSPost2010Prop36
280
     0
102
RTVSPost2010PropOp36
 70
     1
102
RTVSPost2010Prop37
 90
       50
102
RTVSPost2010PropOp37
 70
     1
102
RTVSPost2010Prop38
140
0.0
102
RTVSPost2010PropOp38
 70
     1
102
RTVSPost2010Prop39
140
1.0
102
RTVSPost2010PropOp39
 70
     1
102
RTVSPost2010Prop40
 90
        0
102
RTVSPost2010PropOp40
 70
     1
102
RTVSPost2010Prop41ColorIndex
 90
       18
102
RTVSPost2010Prop41ColorRGB
 90
        0
102
RTVSPost2010PropOp41
 70
     1
102
RTVSPost2010Prop42
 90
       50
102
RTVSPost2010PropOp42
 70
     1
102
RTVSPost2010Prop43
 90
        3
102
RTVSPost2010PropOp43
 70
     1
102
RTVSPost2010Prop44ColorIndex
 90
        5
102
RTVSPost2010Prop44ColorRGB
 90
      255
102
RTVSPost2010PropOp44
 70
     1
102
RTVSPost2010Prop45
280
     0
102
RTVSPost2010PropOp45
 70
     1
102
RTVSPost2010Prop46
 90
       50
102
RTVSPost2010PropOp46
 70
     1
102
RTVSPost2010Prop47
 90
       50
102
RTVSPost2010PropOp47
 70
     1
102
RTVSPost2010Prop48
 90
       50
102
RTVSPost2010PropOp48
 70
     1
102
RTVSPost2010Prop49
280
     0
102
RTVSPost2010PropOp49
 70
     1
102
RTVSPost2010Prop50
 90
       50
102
RTVSPost2010PropOp50
 70
     1
102
RTVSPost2010Prop51ColorIndex
 90
      256
102
RTVSPost2010Prop51ColorRGB
 90
-16777216
102
RTVSPost2010PropOp51
 70
     0
102
RTVSPost2010Prop52
140
1.0
102
RTVSPost2010PropOp52
 70
     0
102
RTVSPost2010Prop53
 90
        2
102
RTVSPost2010PropOp53
 70
     1
102
RTVSPost2010Prop54
  1
strokes_ogs.tif
102
RTVSPost2010PropOp54
 70
     1
102
RTVSPost2010Prop55
280
     0
102
RTVSPost2010PropOp55
 70
     1
102
RTVSPost2010Prop56
140
1.0
102
RTVSPost2010PropOp56
 70
     1
102
RTVSPost2010Prop57
140
1.0
102
RTVSPost2010PropOp57
 70
     1
  0
XRECORD
  5
34E
102
{ACAD_REACTORS
330
34D
102
}
330
34D
100
AcDbXrecord
280
     1
102
RTVSPost2010Prop28
280
     0
102
RTVSPost2010PropOp28
 70
     1
102
RTVSPost2010Prop29
280
     1
102
RTVSPost2010PropOp29
 70
     1
102
RTVSPost2010Prop30
280
     1
102
RTVSPost2010PropOp30
 70
     1
102
RTVSPost2010Prop31
280
     0
102
RTVSPost2010PropOp31
 70
     1
102
RTVSPost2010Prop32
280
     0
102
RTVSPost2010PropOp32
 70
     1
102
RTVSPost2010Prop33
280
     0
102
RTVSPost2010PropOp33
 70
     1
102
RTVSPost2010Prop34
280
     0
102
RTVSPost2010PropOp34
 70
     1
102
RTVSPost2010Prop35
280
     0
102
RTVSPost2010PropOp35
 70
     1
102
RTVSPost2010Prop36
280
     0
102
RTVSPost2010PropOp36
 70
     1
102
RTVSPost2010Prop37
 90
       50
102
RTVSPost2010PropOp37
 70
     1
102
RTVSPost2010Prop38
140
0.0
102
RTVSPost2010PropOp38
 70
     1
102
RTVSPost2010Prop39
140
1.0
102
RTVSPost2010PropOp39
 70
     1
102
RTVSPost2010Prop40
 90
        0
102
RTVSPost2010PropOp40
 70
     1
102
RTVSPost2010Prop41ColorIndex
 90
       18
102
RTVSPost2010Prop41ColorRGB
 90
        0
102
RTVSPost2010PropOp41
 70
     1
102
RTVSPost2010Prop42
 90
       50
102
RTVSPost2010PropOp42
 70
     1
102
RTVSPost2010Prop43
 90
        3
102
RTVSPost2010PropOp43
 70
     1
102
RTVSPost2010Prop44ColorIndex
 90
        5
102
RTVSPost2010Prop44ColorRGB
 90
      255
102
RTVSPost2010PropOp44
 70
     1
102
RTVSPost2010Prop45
280
     0
102
RTVSPost2010PropOp45
 70
     1
102
RTVSPost2010Prop46
 90
       50
102
RTVSPost2010PropOp46
 70
     1
102
RTVSPost2010Prop47
 90
       50
102
RTVSPost2010PropOp47
 70
     1
102
RTVSPost2010Prop48
 90
       50
102
RTVSPost2010PropOp48
 70
     1
102
RTVSPost2010Prop49
280
     0
102
RTVSPost2010PropOp49
 70
     1
102
RTVSPost2010Prop50
 90
       50
102
RTVSPost2010PropOp50
 70
     1
102
RTVSPost2010Prop51ColorIndex
 90
      256
102
RTVSPost2010Prop51ColorRGB
 90
-16777216
102
RTVSPost2010PropOp51
 70
     0
102
RTVSPost2010Prop52
140
1.0
102
RTVSPost2010PropOp52
 70
     0
102
RTVSPost2010Prop53
 90
        2
102
RTVSPost2010PropOp53
 70
     1
102
RTVSPost2010Prop54
  1
strokes_ogs.tif
102
RTVSPost2010PropOp54
 70
     1
102
RTVSPost2010Prop55
280
     0
102
RTVSPost2010PropOp55
 70
     1
102
RTVSPost2010Prop56
140
1.0
102
RTVSPost2010PropOp56
 70
     1
102
RTVSPost2010Prop57
140
1.0
102
RTVSPost2010PropOp57
 70
     1
  0
XRECORD
  5
33A
102
{ACAD_REACTORS
330
339
102
}
330
339
100
AcDbXrecord
280
     1
102
RTVSPost2010Prop28
280
     0
102
RTVSPost2010PropOp28
 70
     1
102
RTVSPost2010Prop29
280
     1
102
RTVSPost2010PropOp29
 70
     1
102
RTVSPost2010Prop30
280
     1
102
RTVSPost2010PropOp30
 70
     1
102
RTVSPost2010Prop31
280
     0
102
RTVSPost2010PropOp31
 70
     1
102
RTVSPost2010Prop32
280
     0
102
RTVSPost2010PropOp32
 70
     1
102
RTVSPost2010Prop33
280
     0
102
RTVSPost2010PropOp33
 70
     1
102
RTVSPost2010Prop34
280
     0
102
RTVSPost2010PropOp34
 70
     1
102
RTVSPost2010Prop35
280
     0
102
RTVSPost2010PropOp35
 70
     1
102
RTVSPost2010Prop36
280
     0
102
RTVSPost2010PropOp36
 70
     1
102
RTVSPost2010Prop37
 90
       50
102
RTVSPost2010PropOp37
 70
     1
102
RTVSPost2010Prop38
140
0.0
102
RTVSPost2010PropOp38
 70
     1
102
RTVSPost2010Prop39
140
1.0
102
RTVSPost2010PropOp39
 70
     1
102
RTVSPost2010Prop40
 90
        0
102
RTVSPost2010PropOp40
 70
     1
102
RTVSPost2010Prop41ColorIndex
 90
       18
102
RTVSPost2010Prop41ColorRGB
 90
        0
102
RTVSPost2010PropOp41
 70
     1
102
RTVSPost2010Prop42
 90
       50
102
RTVSPost2010PropOp42
 70
     1
102
RTVSPost2010Prop43
 90
        3
102
RTVSPost2010PropOp43
 70
     1
102
RTVSPost2010Prop44ColorIndex
 90
        5
102
RTVSPost2010Prop44ColorRGB
 90
      255
102
RTVSPost2010PropOp44
 70
     1
102
RTVSPost2010Prop45
280
     0
102
RTVSPost2010PropOp45
 70
     1
102
RTVSPost2010Prop46
 90
       50
102
RTVSPost2010PropOp46
 70
     1
102
RTVSPost2010Prop47
 90
       50
102
RTVSPost2010PropOp47
 70
     1
102
RTVSPost2010Prop48
 90
       50
102
RTVSPost2010PropOp48
 70
     1
102
RTVSPost2010Prop49
280
     0
102
RTVSPost2010PropOp49
 70
     1
102
RTVSPost2010Prop50
 90
       50
102
RTVSPost2010PropOp50
 70
     1
102
RTVSPost2010Prop51ColorIndex
 90
      256
102
RTVSPost2010Prop51ColorRGB
 90
-16777216
102
RTVSPost2010PropOp51
 70
     0
102
RTVSPost2010Prop52
140
1.0
102
RTVSPost2010PropOp52
 70
     0
102
RTVSPost2010Prop53
 90
        2
102
RTVSPost2010PropOp53
 70
     1
102
RTVSPost2010Prop54
  1
strokes_ogs.tif
102
RTVSPost2010PropOp54
 70
     1
102
RTVSPost2010Prop55
280
     0
102
RTVSPost2010PropOp55
 70
     1
102
RTVSPost2010Prop56
140
1.0
102
RTVSPost2010PropOp56
 70
     1
102
RTVSPost2010Prop57
140
1.0
102
RTVSPost2010PropOp57
 70
     1
  0
XRECORD
  5
35A
102
{ACAD_REACTORS
330
359
102
}
330
359
100
AcDbXrecord
280
     1
102
RTVSPost2010Prop28
280
     0
102
RTVSPost2010PropOp28
 70
     1
102
RTVSPost2010Prop29
280
     1
102
RTVSPost2010PropOp29
 70
     1
102
RTVSPost2010Prop30
280
     1
102
RTVSPost2010PropOp30
 70
     1
102
RTVSPost2010Prop31
280
     0
102
RTVSPost2010PropOp31
 70
     1
102
RTVSPost2010Prop32
280
     0
102
RTVSPost2010PropOp32
 70
     1
102
RTVSPost2010Prop33
280
     0
102
RTVSPost2010PropOp33
 70
     1
102
RTVSPost2010Prop34
280
     0
102
RTVSPost2010PropOp34
 70
     1
102
RTVSPost2010Prop35
280
     0
102
RTVSPost2010PropOp35
 70
     1
102
RTVSPost2010Prop36
280
     0
102
RTVSPost2010PropOp36
 70
     1
102
RTVSPost2010Prop37
 90
       50
102
RTVSPost2010PropOp37
 70
     1
102
RTVSPost2010Prop38
140
0.0
102
RTVSPost2010PropOp38
 70
     1
102
RTVSPost2010Prop39
140
1.0
102
RTVSPost2010PropOp39
 70
     1
102
RTVSPost2010Prop40
 90
        0
102
RTVSPost2010PropOp40
 70
     1
102
RTVSPost2010Prop41ColorIndex
 90
       18
102
RTVSPost2010Prop41ColorRGB
 90
        0
102
RTVSPost2010PropOp41
 70
     1
102
RTVSPost2010Prop42
 90
       50
102
RTVSPost2010PropOp42
 70
     1
102
RTVSPost2010Prop43
 90
        3
102
RTVSPost2010PropOp43
 70
     1
102
RTVSPost2010Prop44ColorIndex
 90
        5
102
RTVSPost2010Prop44ColorRGB
 90
      255
102
RTVSPost2010PropOp44
 70
     1
102
RTVSPost2010Prop45
280
     0
102
RTVSPost2010PropOp45
 70
     1
102
RTVSPost2010Prop46
 90
       50
102
RTVSPost2010PropOp46
 70
     1
102
RTVSPost2010Prop47
 90
       50
102
RTVSPost2010PropOp47
 70
     1
102
RTVSPost2010Prop48
 90
       50
102
RTVSPost2010PropOp48
 70
     1
102
RTVSPost2010Prop49
280
     0
102
RTVSPost2010PropOp49
 70
     1
102
RTVSPost2010Prop50
 90
       50
102
RTVSPost2010PropOp50
 70
     1
102
RTVSPost2010Prop51ColorIndex
 90
      256
102
RTVSPost2010Prop51ColorRGB
 90
-16777216
102
RTVSPost2010PropOp51
 70
     0
102
RTVSPost2010Prop52
140
1.0
102
RTVSPost2010PropOp52
 70
     0
102
RTVSPost2010Prop53
 90
        2
102
RTVSPost2010PropOp53
 70
     1
102
RTVSPost2010Prop54
  1
strokes_ogs.tif
102
RTVSPost2010PropOp54
 70
     1
102
RTVSPost2010Prop55
280
     0
102
RTVSPost2010PropOp55
 70
     1
102
RTVSPost2010Prop56
140
1.0
102
RTVSPost2010PropOp56
 70
     1
102
RTVSPost2010Prop57
140
1.0
102
RTVSPost2010PropOp57
 70
     1
  0
ENDSEC
  0
EOF
