  0
SECTION
  2
HEADER
  9
$ACADVER
  1
AC1006
  9
$EXTMIN
 10
-2.129756
 20
-3.901394
  9
$EXTMAX
 10
2.131000
 20
3.907756
  9
$LTSCALE
 40
0.000394
  9
$PDMODE
 70
    35
  9
$PDSIZE
 40
0.000315
  0
ENDSEC
  0
SECTION
  2
TABLES
  0
TABLE
  2
LTYPE
 70
     9
  0
LTYPE
  2
CONTINUOUS
 70
    64
  3
Solid line
 72
    65
 73
     0
 40
0.000000
  0
LTYPE
  2
DASHED
 70
    64
  3
__ __ __ __ __ __ __ __ __ __ __ __ __ __ __
 72
    65
 73
     2
 40
0.000003
 49
0.000002
 49
-0.000001
  0
LTYPE
  2
HIDDEN
 70
    64
  3
 _ _ _ _ _ _ _ _ _ _ _ _ _ _ _ _ _ _ _ _ _ _
 72
    65
 73
     2
 40
0.000001
 49
0.000001
 49
-0.000000
  0
LTYPE
  2
CENTER
 70
    64
  3
____ _ ____ _ ____ _ ____ _ ____ _ ____ _ ____
 72
    65
 73
     4
 40
0.000008
 49
0.000005
 49
-0.000001
 49
0.000001
 49
-0.000001
  0
LTYPE
  2
PHANTOM
 70
    64
  3
_____ _ _ _____ _ _ _____ _ _ _____ _ _ ____
 72
    65
 73
     6
 40
0.000010
 49
0.000005
 49
-0.000001
 49
0.000001
 49
-0.000001
 49
0.000001
 49
-0.000001
  0
LTYPE
  2
DOT
 70
    64
  3
...............................................
 72
    65
 73
     2
 40
0.000001
 49
0.000000
 49
-0.000001
  0
LTYPE
  2
DASHDOT
 70
    64
  3
__ . __ . __ . __ . __ . __ . __ . __ . __ . __
 72
    65
 73
     4
 40
0.000004
 49
0.000002
 49
-0.000001
 49
0.000000
 49
-0.000001
  0
LTYPE
  2
BORDER
 70
    64
  3
__ __ . __ __ . __ __ . __ __ . __ __ . __ __
 72
    65
 73
     6
 40
0.000007
 49
0.000002
 49
-0.000001
 49
0.000002
 49
-0.000001
 49
0.000000
 49
-0.000001
  0
LTYPE
  2
DIVIDE
 70
    64
  3
__ . . __ . . __ . . __ . . __ . . __ . . __
 72
    65
 73
     6
 40
0.000005
 49
0.000002
 49
-0.000001
 49
0.000000
 49
-0.000001
 49
0.000000
 49
-0.000001
  0
LTYPE
  2
DOTDOT
 70
    64
  3
 . .  . .  . .  . .  . .  . . 
 72
    65
 73
     5
 40
0.000002
 49
-0.000001
 49
0.000000
 49
-0.000001
 49
0.000000
 49
-0.000001
  0
ENDTAB
  0
TABLE
  2
STYLE
 70
     0
  0
ENDTAB
  0
TABLE
  2
LAYER
 70
     3
  0
LAYER
  2
FOREGROUND
 70
    64
 62
     7
  6
CONTINUOUS
  0
LAYER
  2
BACKGROUND
 70
    65
 62
    -7
  6
CONTINUOUS
  0
LAYER
  2
PLAN_1
 70
    64
 62
     7
  6
CONTINUOUS
  0
ENDTAB
  0
ENDSEC
  0
SECTION
  2
ENTITIES
  0
POLYLINE
  8
PLAN_1
  6
CONTINUOUS
 66
     1
 40
0.003000
 41
0.003000
  0
VERTEX
  8
PLAN_1
  6
CONTINUOUS
 10
0.143020
 20
-3.866740
  0
VERTEX
  8
PLAN_1
  6
CONTINUOUS
 10
-0.013654
 20
-3.866740
  0
VERTEX
  8
PLAN_1
  6
CONTINUOUS
 10
-0.013654
 20
-3.844287
  0
VERTEX
  8
PLAN_1
  6
CONTINUOUS
 10
0.108366
 20
-3.691028
  0
VERTEX
  8
PLAN_1
  6
CONTINUOUS
 10
-0.004382
 20
-3.691028
  0
VERTEX
  8
PLAN_1
  6
CONTINUOUS
 10
-0.004382
 20
-3.667598
  0
VERTEX
  8
PLAN_1
  6
CONTINUOUS
 10
0.143020
 20
-3.667598
  0
VERTEX
  8
PLAN_1
  6
CONTINUOUS
 10
0.143020
 20
-3.690539
  0
VERTEX
  8
PLAN_1
  6
CONTINUOUS
 10
0.020512
 20
-3.842823
  0
VERTEX
  8
PLAN_1
  6
CONTINUOUS
 10
0.143020
 20
-3.842823
  0
VERTEX
  8
PLAN_1
  6
CONTINUOUS
 10
0.143020
 20
-3.866740
  0
SEQEND
  8
0
  0
POLYLINE
  8
PLAN_1
  6
CONTINUOUS
 66
     1
 40
0.003000
 41
0.003000
  0
VERTEX
  8
PLAN_1
  6
CONTINUOUS
 10
0.310437
 20
-3.727146
  0
VERTEX
  8
PLAN_1
  6
CONTINUOUS
 10
0.308972
 20
-3.721287
  0
VERTEX
  8
PLAN_1
  6
CONTINUOUS
 10
0.306531
 20
-3.715433
  0
VERTEX
  8
PLAN_1
  6
CONTINUOUS
 10
0.304091
 20
-3.710551
  0
VERTEX
  8
PLAN_1
  6
CONTINUOUS
 10
0.301161
 20
-3.706157
  0
VERTEX
  8
PLAN_1
  6
CONTINUOUS
 10
0.298232
 20
-3.702252
  0
VERTEX
  8
PLAN_1
  6
CONTINUOUS
 10
0.294815
 20
-3.698839
  0
VERTEX
  8
PLAN_1
  6
CONTINUOUS
 10
0.290913
 20
-3.695909
  0
VERTEX
  8
PLAN_1
  6
CONTINUOUS
 10
0.287008
 20
-3.693469
  0
VERTEX
  8
PLAN_1
  6
CONTINUOUS
 10
0.283102
 20
-3.691516
  0
VERTEX
  8
PLAN_1
  6
CONTINUOUS
 10
0.278709
 20
-3.690051
  0
VERTEX
  8
PLAN_1
  6
CONTINUOUS
 10
0.274803
 20
-3.688587
  0
VERTEX
  8
PLAN_1
  6
CONTINUOUS
 10
0.270413
 20
-3.687610
  0
VERTEX
  8
PLAN_1
  6
CONTINUOUS
 10
0.262114
 20
-3.686146
  0
VERTEX
  8
PLAN_1
  6
CONTINUOUS
 10
0.254795
 20
-3.686146
  0
VERTEX
  8
PLAN_1
  6
CONTINUOUS
 10
0.247961
 20
-3.686146
  0
VERTEX
  8
PLAN_1
  6
CONTINUOUS
 10
0.241614
 20
-3.687122
  0
VERTEX
  8
PLAN_1
  6
CONTINUOUS
 10
0.235272
 20
-3.688587
  0
VERTEX
  8
PLAN_1
  6
CONTINUOUS
 10
0.229413
 20
-3.691028
  0
VERTEX
  8
PLAN_1
  6
CONTINUOUS
 10
0.223555
 20
-3.693957
  0
VERTEX
  8
PLAN_1
  6
CONTINUOUS
 10
0.218185
 20
-3.697374
  0
VERTEX
  8
PLAN_1
  6
CONTINUOUS
 10
0.213307
 20
-3.701276
  0
VERTEX
  8
PLAN_1
  6
CONTINUOUS
 10
0.208425
 20
-3.705669
  0
VERTEX
  8
PLAN_1
  6
CONTINUOUS
 10
0.204520
 20
-3.711039
  0
VERTEX
  8
PLAN_1
  6
CONTINUOUS
 10
0.200614
 20
-3.716898
  0
VERTEX
  8
PLAN_1
  6
CONTINUOUS
 10
0.197201
 20
-3.723728
  0
VERTEX
  8
PLAN_1
  6
CONTINUOUS
 10
0.194760
 20
-3.730563
  0
VERTEX
  8
PLAN_1
  6
CONTINUOUS
 10
0.192319
 20
-3.738370
  0
VERTEX
  8
PLAN_1
  6
CONTINUOUS
 10
0.190854
 20
-3.746669
  0
VERTEX
  8
PLAN_1
  6
CONTINUOUS
 10
0.189878
 20
-3.755457
  0
VERTEX
  8
PLAN_1
  6
CONTINUOUS
 10
0.189390
 20
-3.765217
  0
VERTEX
  8
PLAN_1
  6
CONTINUOUS
 10
0.189878
 20
-3.774004
  0
VERTEX
  8
PLAN_1
  6
CONTINUOUS
 10
0.190366
 20
-3.782299
  0
VERTEX
  8
PLAN_1
  6
CONTINUOUS
 10
0.191343
 20
-3.790110
  0
VERTEX
  8
PLAN_1
  6
CONTINUOUS
 10
0.192807
 20
-3.797917
  0
VERTEX
  8
PLAN_1
  6
CONTINUOUS
 10
0.194760
 20
-3.805240
  0
VERTEX
  8
PLAN_1
  6
CONTINUOUS
 10
0.197201
 20
-3.812075
  0
VERTEX
  8
PLAN_1
  6
CONTINUOUS
 10
0.200614
 20
-3.818417
  0
VERTEX
  8
PLAN_1
  6
CONTINUOUS
 10
0.204031
 20
-3.824276
  0
VERTEX
  8
PLAN_1
  6
CONTINUOUS
 10
0.207937
 20
-3.829646
  0
VERTEX
  8
PLAN_1
  6
CONTINUOUS
 10
0.212819
 20
-3.834035
  0
VERTEX
  8
PLAN_1
  6
CONTINUOUS
 10
0.218185
 20
-3.838429
  0
VERTEX
  8
PLAN_1
  6
CONTINUOUS
 10
0.224531
 20
-3.841846
  0
VERTEX
  8
PLAN_1
  6
CONTINUOUS
 10
0.230878
 20
-3.844287
  0
VERTEX
  8
PLAN_1
  6
CONTINUOUS
 10
0.238685
 20
-3.846240
  0
VERTEX
  8
PLAN_1
  6
CONTINUOUS
 10
0.246496
 20
-3.847705
  0
VERTEX
  8
PLAN_1
  6
CONTINUOUS
 10
0.255768
 20
-3.848193
  0
VERTEX
  8
PLAN_1
  6
CONTINUOUS
 10
0.259185
 20
-3.848193
  0
VERTEX
  8
PLAN_1
  6
CONTINUOUS
 10
0.262602
 20
-3.847705
  0
VERTEX
  8
PLAN_1
  6
CONTINUOUS
 10
0.266508
 20
-3.847217
  0
VERTEX
  8
PLAN_1
  6
CONTINUOUS
 10
0.270413
 20
-3.846240
  0
VERTEX
  8
PLAN_1
  6
CONTINUOUS
 10
0.274803
 20
-3.844776
  0
VERTEX
  8
PLAN_1
  6
CONTINUOUS
 10
0.278709
 20
-3.842823
  0
VERTEX
  8
PLAN_1
  6
CONTINUOUS
 10
0.283102
 20
-3.840870
  0
VERTEX
  8
PLAN_1
  6
CONTINUOUS
 10
0.287008
 20
-3.837941
  0
VERTEX
  8
PLAN_1
  6
CONTINUOUS
 10
0.290913
 20
-3.835012
  0
VERTEX
  8
PLAN_1
  6
CONTINUOUS
 10
0.294815
 20
-3.831110
  0
VERTEX
  8
PLAN_1
  6
CONTINUOUS
 10
0.298720
 20
-3.826717
  0
VERTEX
  8
PLAN_1
  6
CONTINUOUS
 10
0.302138
 20
-3.821346
  0
VERTEX
  8
PLAN_1
  6
CONTINUOUS
 10
0.305067
 20
-3.815488
  0
VERTEX
  8
PLAN_1
  6
CONTINUOUS
 10
0.307996
 20
-3.809146
  0
VERTEX
  8
PLAN_1
  6
CONTINUOUS
 10
0.310437
 20
-3.801823
  0
VERTEX
  8
PLAN_1
  6
CONTINUOUS
 10
0.312386
 20
-3.793528
  0
VERTEX
  8
PLAN_1
  6
CONTINUOUS
 10
0.338744
 20
-3.793528
  0
VERTEX
  8
PLAN_1
  6
CONTINUOUS
 10
0.337280
 20
-3.800358
  0
VERTEX
  8
PLAN_1
  6
CONTINUOUS
 10
0.335815
 20
-3.806705
  0
VERTEX
  8
PLAN_1
  6
CONTINUOUS
 10
0.334350
 20
-3.812563
  0
VERTEX
  8
PLAN_1
  6
CONTINUOUS
 10
0.332398
 20
-3.818417
  0
VERTEX
  8
PLAN_1
  6
CONTINUOUS
 10
0.329961
 20
-3.823787
  0
VERTEX
  8
PLAN_1
  6
CONTINUOUS
 10
0.327520
 20
-3.828669
  0
VERTEX
  8
PLAN_1
  6
CONTINUOUS
 10
0.325079
 20
-3.833059
  0
VERTEX
  8
PLAN_1
  6
CONTINUOUS
 10
0.322150
 20
-3.837453
  0
VERTEX
  8
PLAN_1
  6
CONTINUOUS
 10
0.319220
 20
-3.841358
  0
VERTEX
  8
PLAN_1
  6
CONTINUOUS
 10
0.316291
 20
-3.844776
  0
VERTEX
  8
PLAN_1
  6
CONTINUOUS
 10
0.313362
 20
-3.848193
  0
VERTEX
  8
PLAN_1
  6
CONTINUOUS
 10
0.309949
 20
-3.851118
  0
VERTEX
  8
PLAN_1
  6
CONTINUOUS
 10
0.303114
 20
-3.856488
  0
VERTEX
  8
PLAN_1
  6
CONTINUOUS
 10
0.296280
 20
-3.860882
  0
VERTEX
  8
PLAN_1
  6
CONTINUOUS
 10
0.289449
 20
-3.864299
  0
VERTEX
  8
PLAN_1
  6
CONTINUOUS
 10
0.282614
 20
-3.866740
  0
VERTEX
  8
PLAN_1
  6
CONTINUOUS
 10
0.275780
 20
-3.868693
  0
VERTEX
  8
PLAN_1
  6
CONTINUOUS
 10
0.269925
 20
-3.870154
  0
VERTEX
  8
PLAN_1
  6
CONTINUOUS
 10
0.259185
 20
-3.871618
  0
VERTEX
  8
PLAN_1
  6
CONTINUOUS
 10
0.251378
 20
-3.872106
  0
VERTEX
  8
PLAN_1
  6
CONTINUOUS
 10
0.243079
 20
-3.871618
  0
VERTEX
  8
PLAN_1
  6
CONTINUOUS
 10
0.234783
 20
-3.870642
  0
VERTEX
  8
PLAN_1
  6
CONTINUOUS
 10
0.226484
 20
-3.868693
  0
VERTEX
  8
PLAN_1
  6
CONTINUOUS
 10
0.218185
 20
-3.866252
  0
VERTEX
  8
PLAN_1
  6
CONTINUOUS
 10
0.210378
 20
-3.862835
  0
VERTEX
  8
PLAN_1
  6
CONTINUOUS
 10
0.203055
 20
-3.858441
  0
VERTEX
  8
PLAN_1
  6
CONTINUOUS
 10
0.199638
 20
-3.856000
  0
VERTEX
  8
PLAN_1
  6
CONTINUOUS
 10
0.196224
 20
-3.853559
  0
VERTEX
  8
PLAN_1
  6
CONTINUOUS
 10
0.192807
 20
-3.850630
  0
VERTEX
  8
PLAN_1
  6
CONTINUOUS
 10
0.189390
 20
-3.847705
  0
VERTEX
  8
PLAN_1
  6
CONTINUOUS
 10
0.186461
 20
-3.844287
  0
VERTEX
  8
PLAN_1
  6
CONTINUOUS
 10
0.183531
 20
-3.840870
  0
VERTEX
  8
PLAN_1
  6
CONTINUOUS
 10
0.180602
 20
-3.836965
  0
VERTEX
  8
PLAN_1
  6
CONTINUOUS
 10
0.178165
 20
-3.833059
  0
VERTEX
  8
PLAN_1
  6
CONTINUOUS
 10
0.175724
 20
-3.829157
  0
VERTEX
  8
PLAN_1
  6
CONTINUOUS
 10
0.173283
 20
-3.824276
  0
VERTEX
  8
PLAN_1
  6
CONTINUOUS
 10
0.171331
 20
-3.819882
  0
VERTEX
  8
PLAN_1
  6
CONTINUOUS
 10
0.169378
 20
-3.815000
  0
VERTEX
  8
PLAN_1
  6
CONTINUOUS
 10
0.167425
 20
-3.809634
  0
VERTEX
  8
PLAN_1
  6
CONTINUOUS
 10
0.165961
 20
-3.804264
  0
VERTEX
  8
PLAN_1
  6
CONTINUOUS
 10
0.164984
 20
-3.798406
  0
VERTEX
  8
PLAN_1
  6
CONTINUOUS
 10
0.163520
 20
-3.792551
  0
VERTEX
  8
PLAN_1
  6
CONTINUOUS
 10
0.163031
 20
-3.786205
  0
VERTEX
  8
PLAN_1
  6
CONTINUOUS
 10
0.162055
 20
-3.779858
  0
VERTEX
  8
PLAN_1
  6
CONTINUOUS
 10
0.162055
 20
-3.773028
  0
VERTEX
  8
PLAN_1
  6
CONTINUOUS
 10
0.161567
 20
-3.765705
  0
VERTEX
  8
PLAN_1
  6
CONTINUOUS
 10
0.162055
 20
-3.754480
  0
VERTEX
  8
PLAN_1
  6
CONTINUOUS
 10
0.163520
 20
-3.743740
  0
VERTEX
  8
PLAN_1
  6
CONTINUOUS
 10
0.165472
 20
-3.733492
  0
VERTEX
  8
PLAN_1
  6
CONTINUOUS
 10
0.167913
 20
-3.723728
  0
VERTEX
  8
PLAN_1
  6
CONTINUOUS
 10
0.171819
 20
-3.714457
  0
VERTEX
  8
PLAN_1
  6
CONTINUOUS
 10
0.175724
 20
-3.706157
  0
VERTEX
  8
PLAN_1
  6
CONTINUOUS
 10
0.180602
 20
-3.698350
  0
VERTEX
  8
PLAN_1
  6
CONTINUOUS
 10
0.186461
 20
-3.691028
  0
VERTEX
  8
PLAN_1
  6
CONTINUOUS
 10
0.189390
 20
-3.687610
  0
VERTEX
  8
PLAN_1
  6
CONTINUOUS
 10
0.192807
 20
-3.684681
  0
VERTEX
  8
PLAN_1
  6
CONTINUOUS
 10
0.196224
 20
-3.681752
  0
VERTEX
  8
PLAN_1
  6
CONTINUOUS
 10
0.199638
 20
-3.678827
  0
VERTEX
  8
PLAN_1
  6
CONTINUOUS
 10
0.203543
 20
-3.676386
  0
VERTEX
  8
PLAN_1
  6
CONTINUOUS
 10
0.207449
 20
-3.673945
  0
VERTEX
  8
PLAN_1
  6
CONTINUOUS
 10
0.211354
 20
-3.671504
  0
VERTEX
  8
PLAN_1
  6
CONTINUOUS
 10
0.215748
 20
-3.669551
  0
VERTEX
  8
PLAN_1
  6
CONTINUOUS
 10
0.220138
 20
-3.668087
  0
VERTEX
  8
PLAN_1
  6
CONTINUOUS
 10
0.224531
 20
-3.666622
  0
VERTEX
  8
PLAN_1
  6
CONTINUOUS
 10
0.229413
 20
-3.665157
  0
VERTEX
  8
PLAN_1
  6
CONTINUOUS
 10
0.234295
 20
-3.664181
  0
VERTEX
  8
PLAN_1
  6
CONTINUOUS
 10
0.239173
 20
-3.663205
  0
VERTEX
  8
PLAN_1
  6
CONTINUOUS
 10
0.244055
 20
-3.662717
  0
VERTEX
  8
PLAN_1
  6
CONTINUOUS
 10
0.249425
 20
-3.662228
  0
VERTEX
  8
PLAN_1
  6
CONTINUOUS
 10
0.254795
 20
-3.662228
  0
VERTEX
  8
PLAN_1
  6
CONTINUOUS
 10
0.264067
 20
-3.662717
  0
VERTEX
  8
PLAN_1
  6
CONTINUOUS
 10
0.272854
 20
-3.663693
  0
VERTEX
  8
PLAN_1
  6
CONTINUOUS
 10
0.281150
 20
-3.665157
  0
VERTEX
  8
PLAN_1
  6
CONTINUOUS
 10
0.288472
 20
-3.667598
  0
VERTEX
  8
PLAN_1
  6
CONTINUOUS
 10
0.295791
 20
-3.670528
  0
VERTEX
  8
PLAN_1
  6
CONTINUOUS
 10
0.302138
 20
-3.673945
  0
VERTEX
  8
PLAN_1
  6
CONTINUOUS
 10
0.307996
 20
-3.677850
  0
VERTEX
  8
PLAN_1
  6
CONTINUOUS
 10
0.313362
 20
-3.682240
  0
VERTEX
  8
PLAN_1
  6
CONTINUOUS
 10
0.318244
 20
-3.687122
  0
VERTEX
  8
PLAN_1
  6
CONTINUOUS
 10
0.322638
 20
-3.692004
  0
VERTEX
  8
PLAN_1
  6
CONTINUOUS
 10
0.326055
 20
-3.697374
  0
VERTEX
  8
PLAN_1
  6
CONTINUOUS
 10
0.329472
 20
-3.703228
  0
VERTEX
  8
PLAN_1
  6
CONTINUOUS
 10
0.331909
 20
-3.709087
  0
VERTEX
  8
PLAN_1
  6
CONTINUOUS
 10
0.333862
 20
-3.714945
  0
VERTEX
  8
PLAN_1
  6
CONTINUOUS
 10
0.335815
 20
-3.721287
  0
VERTEX
  8
PLAN_1
  6
CONTINUOUS
 10
0.336791
 20
-3.727146
  0
VERTEX
  8
PLAN_1
  6
CONTINUOUS
 10
0.310437
 20
-3.727146
  0
SEQEND
  8
0
  0
POLYLINE
  8
PLAN_1
  6
CONTINUOUS
 66
     1
 40
0.003000
 41
0.003000
  0
VERTEX
  8
PLAN_1
  6
CONTINUOUS
 10
0.397803
 20
-3.866740
  0
VERTEX
  8
PLAN_1
  6
CONTINUOUS
 10
0.370957
 20
-3.866740
  0
VERTEX
  8
PLAN_1
  6
CONTINUOUS
 10
0.370957
 20
-3.667598
  0
VERTEX
  8
PLAN_1
  6
CONTINUOUS
 10
0.397803
 20
-3.667598
  0
VERTEX
  8
PLAN_1
  6
CONTINUOUS
 10
0.397803
 20
-3.763752
  0
VERTEX
  8
PLAN_1
  6
CONTINUOUS
 10
0.494445
 20
-3.667598
  0
VERTEX
  8
PLAN_1
  6
CONTINUOUS
 10
0.532028
 20
-3.667598
  0
VERTEX
  8
PLAN_1
  6
CONTINUOUS
 10
0.449051
 20
-3.748134
  0
VERTEX
  8
PLAN_1
  6
CONTINUOUS
 10
0.533980
 20
-3.866740
  0
VERTEX
  8
PLAN_1
  6
CONTINUOUS
 10
0.498839
 20
-3.866740
  0
VERTEX
  8
PLAN_1
  6
CONTINUOUS
 10
0.429528
 20
-3.766681
  0
VERTEX
  8
PLAN_1
  6
CONTINUOUS
 10
0.397803
 20
-3.796941
  0
VERTEX
  8
PLAN_1
  6
CONTINUOUS
 10
0.397803
 20
-3.866740
  0
SEQEND
  8
0
  0
POLYLINE
  8
PLAN_1
  6
CONTINUOUS
 66
     1
 40
0.003000
 41
0.003000
  0
VERTEX
  8
PLAN_1
  6
CONTINUOUS
 10
0.565217
 20
-3.802799
  0
VERTEX
  8
PLAN_1
  6
CONTINUOUS
 10
0.565217
 20
-3.816465
  0
VERTEX
  8
PLAN_1
  6
CONTINUOUS
 10
0.565217
 20
-3.820858
  0
VERTEX
  8
PLAN_1
  6
CONTINUOUS
 10
0.565705
 20
-3.824764
  0
VERTEX
  8
PLAN_1
  6
CONTINUOUS
 10
0.566193
 20
-3.828181
  0
VERTEX
  8
PLAN_1
  6
CONTINUOUS
 10
0.567169
 20
-3.831594
  0
VERTEX
  8
PLAN_1
  6
CONTINUOUS
 10
0.568634
 20
-3.834524
  0
VERTEX
  8
PLAN_1
  6
CONTINUOUS
 10
0.569610
 20
-3.837453
  0
VERTEX
  8
PLAN_1
  6
CONTINUOUS
 10
0.571563
 20
-3.839406
  0
VERTEX
  8
PLAN_1
  6
CONTINUOUS
 10
0.573028
 20
-3.841846
  0
VERTEX
  8
PLAN_1
  6
CONTINUOUS
 10
0.575469
 20
-3.843311
  0
VERTEX
  8
PLAN_1
  6
CONTINUOUS
 10
0.577417
 20
-3.844776
  0
VERTEX
  8
PLAN_1
  6
CONTINUOUS
 10
0.579858
 20
-3.846240
  0
VERTEX
  8
PLAN_1
  6
CONTINUOUS
 10
0.582787
 20
-3.847217
  0
VERTEX
  8
PLAN_1
  6
CONTINUOUS
 10
0.585717
 20
-3.848193
  0
VERTEX
  8
PLAN_1
  6
CONTINUOUS
 10
0.588646
 20
-3.848681
  0
VERTEX
  8
PLAN_1
  6
CONTINUOUS
 10
0.591575
 20
-3.848681
  0
VERTEX
  8
PLAN_1
  6
CONTINUOUS
 10
0.594988
 20
-3.849169
  0
VERTEX
  8
PLAN_1
  6
CONTINUOUS
 10
0.599870
 20
-3.848681
  0
VERTEX
  8
PLAN_1
  6
CONTINUOUS
 10
0.603776
 20
-3.848193
  0
VERTEX
  8
PLAN_1
  6
CONTINUOUS
 10
0.607193
 20
-3.847217
  0
VERTEX
  8
PLAN_1
  6
CONTINUOUS
 10
0.610610
 20
-3.846240
  0
VERTEX
  8
PLAN_1
  6
CONTINUOUS
 10
0.613535
 20
-3.844776
  0
VERTEX
  8
PLAN_1
  6
CONTINUOUS
 10
0.616465
 20
-3.843311
  0
VERTEX
  8
PLAN_1
  6
CONTINUOUS
 10
0.618417
 20
-3.841358
  0
VERTEX
  8
PLAN_1
  6
CONTINUOUS
 10
0.620370
 20
-3.838917
  0
VERTEX
  8
PLAN_1
  6
CONTINUOUS
 10
0.622323
 20
-3.836476
  0
VERTEX
  8
PLAN_1
  6
CONTINUOUS
 10
0.623787
 20
-3.834035
  0
VERTEX
  8
PLAN_1
  6
CONTINUOUS
 10
0.624764
 20
-3.831110
  0
VERTEX
  8
PLAN_1
  6
CONTINUOUS
 10
0.625740
 20
-3.828181
  0
VERTEX
  8
PLAN_1
  6
CONTINUOUS
 10
0.626717
 20
-3.821346
  0
VERTEX
  8
PLAN_1
  6
CONTINUOUS
 10
0.627205
 20
-3.814512
  0
VERTEX
  8
PLAN_1
  6
CONTINUOUS
 10
0.627205
 20
-3.667598
  0
VERTEX
  8
PLAN_1
  6
CONTINUOUS
 10
0.654047
 20
-3.667598
  0
VERTEX
  8
PLAN_1
  6
CONTINUOUS
 10
0.654047
 20
-3.813047
  0
VERTEX
  8
PLAN_1
  6
CONTINUOUS
 10
0.653559
 20
-3.821346
  0
VERTEX
  8
PLAN_1
  6
CONTINUOUS
 10
0.652583
 20
-3.828669
  0
VERTEX
  8
PLAN_1
  6
CONTINUOUS
 10
0.651118
 20
-3.835500
  0
VERTEX
  8
PLAN_1
  6
CONTINUOUS
 10
0.648681
 20
-3.841846
  0
VERTEX
  8
PLAN_1
  6
CONTINUOUS
 10
0.646240
 20
-3.847217
  0
VERTEX
  8
PLAN_1
  6
CONTINUOUS
 10
0.642823
 20
-3.852094
  0
VERTEX
  8
PLAN_1
  6
CONTINUOUS
 10
0.639406
 20
-3.856488
  0
VERTEX
  8
PLAN_1
  6
CONTINUOUS
 10
0.635500
 20
-3.859906
  0
VERTEX
  8
PLAN_1
  6
CONTINUOUS
 10
0.631110
 20
-3.862835
  0
VERTEX
  8
PLAN_1
  6
CONTINUOUS
 10
0.626717
 20
-3.865764
  0
VERTEX
  8
PLAN_1
  6
CONTINUOUS
 10
0.621835
 20
-3.867717
  0
VERTEX
  8
PLAN_1
  6
CONTINUOUS
 10
0.616953
 20
-3.869181
  0
VERTEX
  8
PLAN_1
  6
CONTINUOUS
 10
0.612075
 20
-3.870642
  0
VERTEX
  8
PLAN_1
  6
CONTINUOUS
 10
0.606705
 20
-3.871130
  0
VERTEX
  8
PLAN_1
  6
CONTINUOUS
 10
0.601823
 20
-3.871618
  0
VERTEX
  8
PLAN_1
  6
CONTINUOUS
 10
0.596453
 20
-3.872106
  0
VERTEX
  8
PLAN_1
  6
CONTINUOUS
 10
0.588157
 20
-3.871618
  0
VERTEX
  8
PLAN_1
  6
CONTINUOUS
 10
0.580835
 20
-3.870642
  0
VERTEX
  8
PLAN_1
  6
CONTINUOUS
 10
0.574004
 20
-3.869181
  0
VERTEX
  8
PLAN_1
  6
CONTINUOUS
 10
0.568146
 20
-3.866740
  0
VERTEX
  8
PLAN_1
  6
CONTINUOUS
 10
0.562776
 20
-3.864299
  0
VERTEX
  8
PLAN_1
  6
CONTINUOUS
 10
0.558382
 20
-3.861370
  0
VERTEX
  8
PLAN_1
  6
CONTINUOUS
 10
0.554480
 20
-3.857953
  0
VERTEX
  8
PLAN_1
  6
CONTINUOUS
 10
0.551063
 20
-3.854047
  0
VERTEX
  8
PLAN_1
  6
CONTINUOUS
 10
0.548134
 20
-3.850146
  0
VERTEX
  8
PLAN_1
  6
CONTINUOUS
 10
0.545693
 20
-3.846240
  0
VERTEX
  8
PLAN_1
  6
CONTINUOUS
 10
0.543740
 20
-3.841846
  0
VERTEX
  8
PLAN_1
  6
CONTINUOUS
 10
0.542276
 20
-3.837941
  0
VERTEX
  8
PLAN_1
  6
CONTINUOUS
 10
0.541299
 20
-3.833547
  0
VERTEX
  8
PLAN_1
  6
CONTINUOUS
 10
0.540323
 20
-3.829646
  0
VERTEX
  8
PLAN_1
  6
CONTINUOUS
 10
0.540323
 20
-3.825740
  0
VERTEX
  8
PLAN_1
  6
CONTINUOUS
 10
0.539835
 20
-3.822323
  0
VERTEX
  8
PLAN_1
  6
CONTINUOUS
 10
0.539835
 20
-3.802799
  0
VERTEX
  8
PLAN_1
  6
CONTINUOUS
 10
0.565217
 20
-3.802799
  0
SEQEND
  8
0
  0
POLYLINE
  8
PLAN_1
  6
CONTINUOUS
 66
     1
 40
0.003000
 41
0.003000
  0
VERTEX
  8
PLAN_1
  6
CONTINUOUS
 10
0.858071
 20
-3.712504
  0
VERTEX
  8
PLAN_1
  6
CONTINUOUS
 10
0.876618
 20
-3.712504
  0
VERTEX
  8
PLAN_1
  6
CONTINUOUS
 10
0.872713
 20
-3.727146
  0
VERTEX
  8
PLAN_1
  6
CONTINUOUS
 10
0.868319
 20
-3.741787
  0
VERTEX
  8
PLAN_1
  6
CONTINUOUS
 10
0.863925
 20
-3.755945
  0
VERTEX
  8
PLAN_1
  6
CONTINUOUS
 10
0.860020
 20
-3.769610
  0
VERTEX
  8
PLAN_1
  6
CONTINUOUS
 10
0.857094
 20
-3.781323
  0
VERTEX
  8
PLAN_1
  6
CONTINUOUS
 10
0.854165
 20
-3.791087
  0
VERTEX
  8
PLAN_1
  6
CONTINUOUS
 10
0.852213
 20
-3.798406
  0
VERTEX
  8
PLAN_1
  6
CONTINUOUS
 10
0.851724
 20
-3.802799
  0
VERTEX
  8
PLAN_1
  6
CONTINUOUS
 10
0.851724
 20
-3.804752
  0
VERTEX
  8
PLAN_1
  6
CONTINUOUS
 10
0.852213
 20
-3.806217
  0
VERTEX
  8
PLAN_1
  6
CONTINUOUS
 10
0.852213
 20
-3.807681
  0
VERTEX
  8
PLAN_1
  6
CONTINUOUS
 10
0.853189
 20
-3.808657
  0
VERTEX
  8
PLAN_1
  6
CONTINUOUS
 10
0.853677
 20
-3.809634
  0
VERTEX
  8
PLAN_1
  6
CONTINUOUS
 10
0.854654
 20
-3.810610
  0
VERTEX
  8
PLAN_1
  6
CONTINUOUS
 10
0.856118
 20
-3.810610
  0
VERTEX
  8
PLAN_1
  6
CONTINUOUS
 10
0.857583
 20
-3.811098
  0
VERTEX
  8
PLAN_1
  6
CONTINUOUS
 10
0.860996
 20
-3.810610
  0
VERTEX
  8
PLAN_1
  6
CONTINUOUS
 10
0.864902
 20
-3.809634
  0
VERTEX
  8
PLAN_1
  6
CONTINUOUS
 10
0.868319
 20
-3.807681
  0
VERTEX
  8
PLAN_1
  6
CONTINUOUS
 10
0.871736
 20
-3.805728
  0
VERTEX
  8
PLAN_1
  6
CONTINUOUS
 10
0.875154
 20
-3.802799
  0
VERTEX
  8
PLAN_1
  6
CONTINUOUS
 10
0.878079
 20
-3.799870
  0
VERTEX
  8
PLAN_1
  6
CONTINUOUS
 10
0.881496
 20
-3.795965
  0
VERTEX
  8
PLAN_1
  6
CONTINUOUS
 10
0.884425
 20
-3.792063
  0
VERTEX
  8
PLAN_1
  6
CONTINUOUS
 10
0.886866
 20
-3.787669
  0
VERTEX
  8
PLAN_1
  6
CONTINUOUS
 10
0.889307
 20
-3.782787
  0
VERTEX
  8
PLAN_1
  6
CONTINUOUS
 10
0.891748
 20
-3.777906
  0
VERTEX
  8
PLAN_1
  6
CONTINUOUS
 10
0.893701
 20
-3.773028
  0
VERTEX
  8
PLAN_1
  6
CONTINUOUS
 10
0.895165
 20
-3.767657
  0
VERTEX
  8
PLAN_1
  6
CONTINUOUS
 10
0.896138
 20
-3.762287
  0
VERTEX
  8
PLAN_1
  6
CONTINUOUS
 10
0.896626
 20
-3.756429
  0
VERTEX
  8
PLAN_1
  6
CONTINUOUS
 10
0.897114
 20
-3.751063
  0
VERTEX
  8
PLAN_1
  6
CONTINUOUS
 10
0.896626
 20
-3.742764
  0
VERTEX
  8
PLAN_1
  6
CONTINUOUS
 10
0.895165
 20
-3.734957
  0
VERTEX
  8
PLAN_1
  6
CONTINUOUS
 10
0.893213
 20
-3.727634
  0
VERTEX
  8
PLAN_1
  6
CONTINUOUS
 10
0.890772
 20
-3.720799
  0
VERTEX
  8
PLAN_1
  6
CONTINUOUS
 10
0.887354
 20
-3.714457
  0
VERTEX
  8
PLAN_1
  6
CONTINUOUS
 10
0.883449
 20
-3.708598
  0
VERTEX
  8
PLAN_1
  6
CONTINUOUS
 10
0.879055
 20
-3.703228
  0
VERTEX
  8
PLAN_1
  6
CONTINUOUS
 10
0.874177
 20
-3.698350
  0
VERTEX
  8
PLAN_1
  6
CONTINUOUS
 10
0.868319
 20
-3.693957
  0
VERTEX
  8
PLAN_1
  6
CONTINUOUS
 10
0.862461
 20
-3.690051
  0
VERTEX
  8
PLAN_1
  6
CONTINUOUS
 10
0.856118
 20
-3.687122
  0
VERTEX
  8
PLAN_1
  6
CONTINUOUS
 10
0.849283
 20
-3.684193
  0
VERTEX
  8
PLAN_1
  6
CONTINUOUS
 10
0.842449
 20
-3.682240
  0
VERTEX
  8
PLAN_1
  6
CONTINUOUS
 10
0.835130
 20
-3.680776
  0
VERTEX
  8
PLAN_1
  6
CONTINUOUS
 10
0.827319
 20
-3.679803
  0
VERTEX
  8
PLAN_1
  6
CONTINUOUS
 10
0.819512
 20
-3.679315
  0
VERTEX
  8
PLAN_1
  6
CONTINUOUS
 10
0.810236
 20
-3.679803
  0
VERTEX
  8
PLAN_1
  6
CONTINUOUS
 10
0.801937
 20
-3.681264
  0
VERTEX
  8
PLAN_1
  6
CONTINUOUS
 10
0.793154
 20
-3.683217
  0
VERTEX
  8
PLAN_1
  6
CONTINUOUS
 10
0.785343
 20
-3.686146
  0
VERTEX
  8
PLAN_1
  6
CONTINUOUS
 10
0.778024
 20
-3.690051
  0
VERTEX
  8
PLAN_1
  6
CONTINUOUS
 10
0.771189
 20
-3.694445
  0
VERTEX
  8
PLAN_1
  6
CONTINUOUS
 10
0.764843
 20
-3.699811
  0
VERTEX
  8
PLAN_1
  6
CONTINUOUS
 10
0.758988
 20
-3.705181
  0
VERTEX
  8
PLAN_1
  6
CONTINUOUS
 10
0.753618
 20
-3.711528
  0
VERTEX
  8
PLAN_1
  6
CONTINUOUS
 10
0.748736
 20
-3.718362
  0
VERTEX
  8
PLAN_1
  6
CONTINUOUS
 10
0.744835
 20
-3.725681
  0
VERTEX
  8
PLAN_1
  6
CONTINUOUS
 10
0.741417
 20
-3.733492
  0
VERTEX
  8
PLAN_1
  6
CONTINUOUS
 10
0.738488
 20
-3.741787
  0
VERTEX
  8
PLAN_1
  6
CONTINUOUS
 10
0.736535
 20
-3.750087
  0
VERTEX
  8
PLAN_1
  6
CONTINUOUS
 10
0.735559
 20
-3.758870
  0
VERTEX
  8
PLAN_1
  6
CONTINUOUS
 10
0.735071
 20
-3.768146
  0
VERTEX
  8
PLAN_1
  6
CONTINUOUS
 10
0.735559
 20
-3.777417
  0
VERTEX
  8
PLAN_1
  6
CONTINUOUS
 10
0.737024
 20
-3.786205
  0
VERTEX
  8
PLAN_1
  6
CONTINUOUS
 10
0.738976
 20
-3.794500
  0
VERTEX
  8
PLAN_1
  6
CONTINUOUS
 10
0.741906
 20
-3.802311
  0
VERTEX
  8
PLAN_1
  6
CONTINUOUS
 10
0.745319
 20
-3.810122
  0
VERTEX
  8
PLAN_1
  6
CONTINUOUS
 10
0.749713
 20
-3.816953
  0
VERTEX
  8
PLAN_1
  6
CONTINUOUS
 10
0.754594
 20
-3.823787
  0
VERTEX
  8
PLAN_1
  6
CONTINUOUS
 10
0.759965
 20
-3.829646
  0
VERTEX
  8
PLAN_1
  6
CONTINUOUS
 10
0.766307
 20
-3.835500
  0
VERTEX
  8
PLAN_1
  6
CONTINUOUS
 10
0.772654
 20
-3.840382
  0
VERTEX
  8
PLAN_1
  6
CONTINUOUS
 10
0.779976
 20
-3.844776
  0
VERTEX
  8
PLAN_1
  6
CONTINUOUS
 10
0.787295
 20
-3.848193
  0
VERTEX
  8
PLAN_1
  6
CONTINUOUS
 10
0.795594
 20
-3.851118
  0
VERTEX
  8
PLAN_1
  6
CONTINUOUS
 10
0.803890
 20
-3.853071
  0
VERTEX
  8
PLAN_1
  6
CONTINUOUS
 10
0.812677
 20
-3.854535
  0
VERTEX
  8
PLAN_1
  6
CONTINUOUS
 10
0.821461
 20
-3.854535
  0
VERTEX
  8
PLAN_1
  6
CONTINUOUS
 10
0.826343
 20
-3.854535
  0
VERTEX
  8
PLAN_1
  6
CONTINUOUS
 10
0.831224
 20
-3.854047
  0
VERTEX
  8
PLAN_1
  6
CONTINUOUS
 10
0.836106
 20
-3.853559
  0
VERTEX
  8
PLAN_1
  6
CONTINUOUS
 10
0.840496
 20
-3.852583
  0
VERTEX
  8
PLAN_1
  6
CONTINUOUS
 10
0.845378
 20
-3.851118
  0
VERTEX
  8
PLAN_1
  6
CONTINUOUS
 10
0.849772
 20
-3.849657
  0
VERTEX
  8
PLAN_1
  6
CONTINUOUS
 10
0.854654
 20
-3.848193
  0
VERTEX
  8
PLAN_1
  6
CONTINUOUS
 10
0.859043
 20
-3.846240
  0
VERTEX
  8
PLAN_1
  6
CONTINUOUS
 10
0.863437
 20
-3.844287
  0
VERTEX
  8
PLAN_1
  6
CONTINUOUS
 10
0.867343
 20
-3.841846
  0
VERTEX
  8
PLAN_1
  6
CONTINUOUS
 10
0.871248
 20
-3.838917
  0
VERTEX
  8
PLAN_1
  6
CONTINUOUS
 10
0.875154
 20
-3.836476
  0
VERTEX
  8
PLAN_1
  6
CONTINUOUS
 10
0.879055
 20
-3.833059
  0
VERTEX
  8
PLAN_1
  6
CONTINUOUS
 10
0.882472
 20
-3.830134
  0
VERTEX
  8
PLAN_1
  6
CONTINUOUS
 10
0.885890
 20
-3.826717
  0
VERTEX
  8
PLAN_1
  6
CONTINUOUS
 10
0.888819
 20
-3.823299
  0
VERTEX
  8
PLAN_1
  6
CONTINUOUS
 10
0.907366
 20
-3.823299
  0
VERTEX
  8
PLAN_1
  6
CONTINUOUS
 10
0.903949
 20
-3.828669
  0
VERTEX
  8
PLAN_1
  6
CONTINUOUS
 10
0.900043
 20
-3.834035
  0
VERTEX
  8
PLAN_1
  6
CONTINUOUS
 10
0.895654
 20
-3.838917
  0
VERTEX
  8
PLAN_1
  6
CONTINUOUS
 10
0.891260
 20
-3.843311
  0
VERTEX
  8
PLAN_1
  6
CONTINUOUS
 10
0.886378
 20
-3.847705
  0
VERTEX
  8
PLAN_1
  6
CONTINUOUS
 10
0.881496
 20
-3.852094
  0
VERTEX
  8
PLAN_1
  6
CONTINUOUS
 10
0.876130
 20
-3.855512
  0
VERTEX
  8
PLAN_1
  6
CONTINUOUS
 10
0.870760
 20
-3.858929
  0
VERTEX
  8
PLAN_1
  6
CONTINUOUS
 10
0.864902
 20
-3.861858
  0
VERTEX
  8
PLAN_1
  6
CONTINUOUS
 10
0.859043
 20
-3.864299
  0
VERTEX
  8
PLAN_1
  6
CONTINUOUS
 10
0.853189
 20
-3.866740
  0
VERTEX
  8
PLAN_1
  6
CONTINUOUS
 10
0.846843
 20
-3.868693
  0
VERTEX
  8
PLAN_1
  6
CONTINUOUS
 10
0.840496
 20
-3.870154
  0
VERTEX
  8
PLAN_1
  6
CONTINUOUS
 10
0.834154
 20
-3.871130
  0
VERTEX
  8
PLAN_1
  6
CONTINUOUS
 10
0.827319
 20
-3.871618
  0
VERTEX
  8
PLAN_1
  6
CONTINUOUS
 10
0.820972
 20
-3.872106
  0
VERTEX
  8
PLAN_1
  6
CONTINUOUS
 10
0.815606
 20
-3.871618
  0
VERTEX
  8
PLAN_1
  6
CONTINUOUS
 10
0.809748
 20
-3.871618
  0
VERTEX
  8
PLAN_1
  6
CONTINUOUS
 10
0.804378
 20
-3.870642
  0
VERTEX
  8
PLAN_1
  6
CONTINUOUS
 10
0.799500
 20
-3.869665
  0
VERTEX
  8
PLAN_1
  6
CONTINUOUS
 10
0.794130
 20
-3.868693
  0
VERTEX
  8
PLAN_1
  6
CONTINUOUS
 10
0.789248
 20
-3.867228
  0
VERTEX
  8
PLAN_1
  6
CONTINUOUS
 10
0.784366
 20
-3.865764
  0
VERTEX
  8
PLAN_1
  6
CONTINUOUS
 10
0.779488
 20
-3.863811
  0
VERTEX
  8
PLAN_1
  6
CONTINUOUS
 10
0.774606
 20
-3.861858
  0
VERTEX
  8
PLAN_1
  6
CONTINUOUS
 10
0.770213
 20
-3.859417
  0
VERTEX
  8
PLAN_1
  6
CONTINUOUS
 10
0.765331
 20
-3.856976
  0
VERTEX
  8
PLAN_1
  6
CONTINUOUS
 10
0.761429
 20
-3.854047
  0
VERTEX
  8
PLAN_1
  6
CONTINUOUS
 10
0.757035
 20
-3.851118
  0
VERTEX
  8
PLAN_1
  6
CONTINUOUS
 10
0.753130
 20
-3.848193
  0
VERTEX
  8
PLAN_1
  6
CONTINUOUS
 10
0.749224
 20
-3.844776
  0
VERTEX
  8
PLAN_1
  6
CONTINUOUS
 10
0.745807
 20
-3.841358
  0
VERTEX
  8
PLAN_1
  6
CONTINUOUS
 10
0.741906
 20
-3.837941
  0
VERTEX
  8
PLAN_1
  6
CONTINUOUS
 10
0.738976
 20
-3.834035
  0
VERTEX
  8
PLAN_1
  6
CONTINUOUS
 10
0.735559
 20
-3.830134
  0
VERTEX
  8
PLAN_1
  6
CONTINUOUS
 10
0.732630
 20
-3.825740
  0
VERTEX
  8
PLAN_1
  6
CONTINUOUS
 10
0.730189
 20
-3.821346
  0
VERTEX
  8
PLAN_1
  6
CONTINUOUS
 10
0.727748
 20
-3.816953
  0
VERTEX
  8
PLAN_1
  6
CONTINUOUS
 10
0.725311
 20
-3.812563
  0
VERTEX
  8
PLAN_1
  6
CONTINUOUS
 10
0.722870
 20
-3.807681
  0
VERTEX
  8
PLAN_1
  6
CONTINUOUS
 10
0.721406
 20
-3.803287
  0
VERTEX
  8
PLAN_1
  6
CONTINUOUS
 10
0.719453
 20
-3.798406
  0
VERTEX
  8
PLAN_1
  6
CONTINUOUS
 10
0.717988
 20
-3.793039
  0
VERTEX
  8
PLAN_1
  6
CONTINUOUS
 10
0.717012
 20
-3.788157
  0
VERTEX
  8
PLAN_1
  6
CONTINUOUS
 10
0.716035
 20
-3.782787
  0
VERTEX
  8
PLAN_1
  6
CONTINUOUS
 10
0.715547
 20
-3.777417
  0
VERTEX
  8
PLAN_1
  6
CONTINUOUS
 10
0.715059
 20
-3.772051
  0
VERTEX
  8
PLAN_1
  6
CONTINUOUS
 10
0.715059
 20
-3.766681
  0
VERTEX
  8
PLAN_1
  6
CONTINUOUS
 10
0.715059
 20
-3.761311
  0
VERTEX
  8
PLAN_1
  6
CONTINUOUS
 10
0.715547
 20
-3.755945
  0
VERTEX
  8
PLAN_1
  6
CONTINUOUS
 10
0.716035
 20
-3.750575
  0
VERTEX
  8
PLAN_1
  6
CONTINUOUS
 10
0.717012
 20
-3.745205
  0
VERTEX
  8
PLAN_1
  6
CONTINUOUS
 10
0.717988
 20
-3.740323
  0
VERTEX
  8
PLAN_1
  6
CONTINUOUS
 10
0.719453
 20
-3.735445
  0
VERTEX
  8
PLAN_1
  6
CONTINUOUS
 10
0.721406
 20
-3.730563
  0
VERTEX
  8
PLAN_1
  6
CONTINUOUS
 10
0.723358
 20
-3.725681
  0
VERTEX
  8
PLAN_1
  6
CONTINUOUS
 10
0.725311
 20
-3.721287
  0
VERTEX
  8
PLAN_1
  6
CONTINUOUS
 10
0.727748
 20
-3.716409
  0
VERTEX
  8
PLAN_1
  6
CONTINUOUS
 10
0.730189
 20
-3.712016
  0
VERTEX
  8
PLAN_1
  6
CONTINUOUS
 10
0.733118
 20
-3.708110
  0
VERTEX
  8
PLAN_1
  6
CONTINUOUS
 10
0.738976
 20
-3.699811
  0
VERTEX
  8
PLAN_1
  6
CONTINUOUS
 10
0.745807
 20
-3.692492
  0
VERTEX
  8
PLAN_1
  6
CONTINUOUS
 10
0.753130
 20
-3.685657
  0
VERTEX
  8
PLAN_1
  6
CONTINUOUS
 10
0.761429
 20
-3.679803
  0
VERTEX
  8
PLAN_1
  6
CONTINUOUS
 10
0.769724
 20
-3.674433
  0
VERTEX
  8
PLAN_1
  6
CONTINUOUS
 10
0.779000
 20
-3.670528
  0
VERTEX
  8
PLAN_1
  6
CONTINUOUS
 10
0.783878
 20
-3.668575
  0
VERTEX
  8
PLAN_1
  6
CONTINUOUS
 10
0.788760
 20
-3.666622
  0
VERTEX
  8
PLAN_1
  6
CONTINUOUS
 10
0.793642
 20
-3.665646
  0
VERTEX
  8
PLAN_1
  6
CONTINUOUS
 10
0.798524
 20
-3.664181
  0
VERTEX
  8
PLAN_1
  6
CONTINUOUS
 10
0.803890
 20
-3.663205
  0
VERTEX
  8
PLAN_1
  6
CONTINUOUS
 10
0.808772
 20
-3.662717
  0
VERTEX
  8
PLAN_1
  6
CONTINUOUS
 10
0.814142
 20
-3.662228
  0
VERTEX
  8
PLAN_1
  6
CONTINUOUS
 10
0.819512
 20
-3.662228
  0
VERTEX
  8
PLAN_1
  6
CONTINUOUS
 10
0.829272
 20
-3.662717
  0
VERTEX
  8
PLAN_1
  6
CONTINUOUS
 10
0.838547
 20
-3.663693
  0
VERTEX
  8
PLAN_1
  6
CONTINUOUS
 10
0.847331
 20
-3.665646
  0
VERTEX
  8
PLAN_1
  6
CONTINUOUS
 10
0.856118
 20
-3.668575
  0
VERTEX
  8
PLAN_1
  6
CONTINUOUS
 10
0.864413
 20
-3.671992
  0
VERTEX
  8
PLAN_1
  6
CONTINUOUS
 10
0.872224
 20
-3.676386
  0
VERTEX
  8
PLAN_1
  6
CONTINUOUS
 10
0.879543
 20
-3.681264
  0
VERTEX
  8
PLAN_1
  6
CONTINUOUS
 10
0.886378
 20
-3.686634
  0
VERTEX
  8
PLAN_1
  6
CONTINUOUS
 10
0.892724
 20
-3.692492
  0
VERTEX
  8
PLAN_1
  6
CONTINUOUS
 10
0.898579
 20
-3.699327
  0
VERTEX
  8
PLAN_1
  6
CONTINUOUS
 10
0.902972
 20
-3.706157
  0
VERTEX
  8
PLAN_1
  6
CONTINUOUS
 10
0.907366
 20
-3.713969
  0
VERTEX
  8
PLAN_1
  6
CONTINUOUS
 10
0.910783
 20
-3.721776
  0
VERTEX
  8
PLAN_1
  6
CONTINUOUS
 10
0.913224
 20
-3.730563
  0
VERTEX
  8
PLAN_1
  6
CONTINUOUS
 10
0.913713
 20
-3.734957
  0
VERTEX
  8
PLAN_1
  6
CONTINUOUS
 10
0.914689
 20
-3.739346
  0
VERTEX
  8
PLAN_1
  6
CONTINUOUS
 10
0.914689
 20
-3.744228
  0
VERTEX
  8
PLAN_1
  6
CONTINUOUS
 10
0.915173
 20
-3.748622
  0
VERTEX
  8
PLAN_1
  6
CONTINUOUS
 10
0.914689
 20
-3.757894
  0
VERTEX
  8
PLAN_1
  6
CONTINUOUS
 10
0.913224
 20
-3.766681
  0
VERTEX
  8
PLAN_1
  6
CONTINUOUS
 10
0.910783
 20
-3.774980
  0
VERTEX
  8
PLAN_1
  6
CONTINUOUS
 10
0.908343
 20
-3.782299
  0
VERTEX
  8
PLAN_1
  6
CONTINUOUS
 10
0.904437
 20
-3.789622
  0
VERTEX
  8
PLAN_1
  6
CONTINUOUS
 10
0.900531
 20
-3.795965
  0
VERTEX
  8
PLAN_1
  6
CONTINUOUS
 10
0.896138
 20
-3.802311
  0
VERTEX
  8
PLAN_1
  6
CONTINUOUS
 10
0.891260
 20
-3.807681
  0
VERTEX
  8
PLAN_1
  6
CONTINUOUS
 10
0.885890
 20
-3.812563
  0
VERTEX
  8
PLAN_1
  6
CONTINUOUS
 10
0.880520
 20
-3.816953
  0
VERTEX
  8
PLAN_1
  6
CONTINUOUS
 10
0.875154
 20
-3.820370
  0
VERTEX
  8
PLAN_1
  6
CONTINUOUS
 10
0.869295
 20
-3.823299
  0
VERTEX
  8
PLAN_1
  6
CONTINUOUS
 10
0.863925
 20
-3.825740
  0
VERTEX
  8
PLAN_1
  6
CONTINUOUS
 10
0.858555
 20
-3.827693
  0
VERTEX
  8
PLAN_1
  6
CONTINUOUS
 10
0.853677
 20
-3.828669
  0
VERTEX
  8
PLAN_1
  6
CONTINUOUS
 10
0.848795
 20
-3.829157
  0
VERTEX
  8
PLAN_1
  6
CONTINUOUS
 10
0.845378
 20
-3.828669
  0
VERTEX
  8
PLAN_1
  6
CONTINUOUS
 10
0.841961
 20
-3.827693
  0
VERTEX
  8
PLAN_1
  6
CONTINUOUS
 10
0.839035
 20
-3.826717
  0
VERTEX
  8
PLAN_1
  6
CONTINUOUS
 10
0.836594
 20
-3.824764
  0
VERTEX
  8
PLAN_1
  6
CONTINUOUS
 10
0.834154
 20
-3.822323
  0
VERTEX
  8
PLAN_1
  6
CONTINUOUS
 10
0.832689
 20
-3.819394
  0
VERTEX
  8
PLAN_1
  6
CONTINUOUS
 10
0.831224
 20
-3.815488
  0
VERTEX
  8
PLAN_1
  6
CONTINUOUS
 10
0.830736
 20
-3.811587
  0
VERTEX
  8
PLAN_1
  6
CONTINUOUS
 10
0.830248
 20
-3.811587
  0
VERTEX
  8
PLAN_1
  6
CONTINUOUS
 10
0.827319
 20
-3.815000
  0
VERTEX
  8
PLAN_1
  6
CONTINUOUS
 10
0.823413
 20
-3.817929
  0
VERTEX
  8
PLAN_1
  6
CONTINUOUS
 10
0.819512
 20
-3.820858
  0
VERTEX
  8
PLAN_1
  6
CONTINUOUS
 10
0.815606
 20
-3.823787
  0
VERTEX
  8
PLAN_1
  6
CONTINUOUS
 10
0.811213
 20
-3.825740
  0
VERTEX
  8
PLAN_1
  6
CONTINUOUS
 10
0.806819
 20
-3.827693
  0
VERTEX
  8
PLAN_1
  6
CONTINUOUS
 10
0.801937
 20
-3.828669
  0
VERTEX
  8
PLAN_1
  6
CONTINUOUS
 10
0.797059
 20
-3.829157
  0
VERTEX
  8
PLAN_1
  6
CONTINUOUS
 10
0.792665
 20
-3.828669
  0
VERTEX
  8
PLAN_1
  6
CONTINUOUS
 10
0.788272
 20
-3.828181
  0
VERTEX
  8
PLAN_1
  6
CONTINUOUS
 10
0.784366
 20
-3.826717
  0
VERTEX
  8
PLAN_1
  6
CONTINUOUS
 10
0.780465
 20
-3.825252
  0
VERTEX
  8
PLAN_1
  6
CONTINUOUS
 10
0.777047
 20
-3.823299
  0
VERTEX
  8
PLAN_1
  6
CONTINUOUS
 10
0.773630
 20
-3.821346
  0
VERTEX
  8
PLAN_1
  6
CONTINUOUS
 10
0.770701
 20
-3.818906
  0
VERTEX
  8
PLAN_1
  6
CONTINUOUS
 10
0.767772
 20
-3.815976
  0
VERTEX
  8
PLAN_1
  6
CONTINUOUS
 10
0.765331
 20
-3.812563
  0
VERTEX
  8
PLAN_1
  6
CONTINUOUS
 10
0.762894
 20
-3.809146
  0
VERTEX
  8
PLAN_1
  6
CONTINUOUS
 10
0.760941
 20
-3.805728
  0
VERTEX
  8
PLAN_1
  6
CONTINUOUS
 10
0.759476
 20
-3.801823
  0
VERTEX
  8
PLAN_1
  6
CONTINUOUS
 10
0.758012
 20
-3.797429
  0
VERTEX
  8
PLAN_1
  6
CONTINUOUS
 10
0.757035
 20
-3.793528
  0
VERTEX
  8
PLAN_1
  6
CONTINUOUS
 10
0.756547
 20
-3.789134
  0
VERTEX
  8
PLAN_1
  6
CONTINUOUS
 10
0.756059
 20
-3.784740
  0
VERTEX
  8
PLAN_1
  6
CONTINUOUS
 10
0.756547
 20
-3.777417
  0
VERTEX
  8
PLAN_1
  6
CONTINUOUS
 10
0.757524
 20
-3.770587
  0
VERTEX
  8
PLAN_1
  6
CONTINUOUS
 10
0.758988
 20
-3.763752
  0
VERTEX
  8
PLAN_1
  6
CONTINUOUS
 10
0.760941
 20
-3.756917
  0
VERTEX
  8
PLAN_1
  6
CONTINUOUS
 10
0.763382
 20
-3.750087
  0
VERTEX
  8
PLAN_1
  6
CONTINUOUS
 10
0.766307
 20
-3.743740
  0
VERTEX
  8
PLAN_1
  6
CONTINUOUS
 10
0.769724
 20
-3.737882
  0
VERTEX
  8
PLAN_1
  6
CONTINUOUS
 10
0.773630
 20
-3.732028
  0
VERTEX
  8
PLAN_1
  6
CONTINUOUS
 10
0.778024
 20
-3.727146
  0
VERTEX
  8
PLAN_1
  6
CONTINUOUS
 10
0.782906
 20
-3.722264
  0
VERTEX
  8
PLAN_1
  6
CONTINUOUS
 10
0.788272
 20
-3.718362
  0
VERTEX
  8
PLAN_1
  6
CONTINUOUS
 10
0.794130
 20
-3.714457
  0
VERTEX
  8
PLAN_1
  6
CONTINUOUS
 10
0.799988
 20
-3.712016
  0
VERTEX
  8
PLAN_1
  6
CONTINUOUS
 10
0.806331
 20
-3.709575
  0
VERTEX
  8
PLAN_1
  6
CONTINUOUS
 10
0.813165
 20
-3.708598
  0
VERTEX
  8
PLAN_1
  6
CONTINUOUS
 10
0.820488
 20
-3.708110
  0
VERTEX
  8
PLAN_1
  6
CONTINUOUS
 10
0.825366
 20
-3.708110
  0
VERTEX
  8
PLAN_1
  6
CONTINUOUS
 10
0.829760
 20
-3.709087
  0
VERTEX
  8
PLAN_1
  6
CONTINUOUS
 10
0.834642
 20
-3.710551
  0
VERTEX
  8
PLAN_1
  6
CONTINUOUS
 10
0.838547
 20
-3.712992
  0
VERTEX
  8
PLAN_1
  6
CONTINUOUS
 10
0.842449
 20
-3.715921
  0
VERTEX
  8
PLAN_1
  6
CONTINUOUS
 10
0.846354
 20
-3.719823
  0
VERTEX
  8
PLAN_1
  6
CONTINUOUS
 10
0.849283
 20
-3.724217
  0
VERTEX
  8
PLAN_1
  6
CONTINUOUS
 10
0.852213
 20
-3.729587
  0
VERTEX
  8
PLAN_1
  6
CONTINUOUS
 10
0.858071
 20
-3.712504
  0
SEQEND
  8
0
  0
POLYLINE
  8
PLAN_1
  6
CONTINUOUS
 66
     1
 40
0.003000
 41
0.003000
  0
VERTEX
  8
PLAN_1
  6
CONTINUOUS
 10
0.820972
 20
-3.728122
  0
VERTEX
  8
PLAN_1
  6
CONTINUOUS
 10
0.816583
 20
-3.728122
  0
VERTEX
  8
PLAN_1
  6
CONTINUOUS
 10
0.812189
 20
-3.729098
  0
VERTEX
  8
PLAN_1
  6
CONTINUOUS
 10
0.807795
 20
-3.731051
  0
VERTEX
  8
PLAN_1
  6
CONTINUOUS
 10
0.803890
 20
-3.733004
  0
VERTEX
  8
PLAN_1
  6
CONTINUOUS
 10
0.800476
 20
-3.735933
  0
VERTEX
  8
PLAN_1
  6
CONTINUOUS
 10
0.796571
 20
-3.738858
  0
VERTEX
  8
PLAN_1
  6
CONTINUOUS
 10
0.793642
 20
-3.742276
  0
VERTEX
  8
PLAN_1
  6
CONTINUOUS
 10
0.790713
 20
-3.746181
  0
VERTEX
  8
PLAN_1
  6
CONTINUOUS
 10
0.788272
 20
-3.750575
  0
VERTEX
  8
PLAN_1
  6
CONTINUOUS
 10
0.785831
 20
-3.754969
  0
VERTEX
  8
PLAN_1
  6
CONTINUOUS
 10
0.783878
 20
-3.759358
  0
VERTEX
  8
PLAN_1
  6
CONTINUOUS
 10
0.781929
 20
-3.763752
  0
VERTEX
  8
PLAN_1
  6
CONTINUOUS
 10
0.780953
 20
-3.768634
  0
VERTEX
  8
PLAN_1
  6
CONTINUOUS
 10
0.779976
 20
-3.773028
  0
VERTEX
  8
PLAN_1
  6
CONTINUOUS
 10
0.779000
 20
-3.777417
  0
VERTEX
  8
PLAN_1
  6
CONTINUOUS
 10
0.779000
 20
-3.781811
  0
VERTEX
  8
PLAN_1
  6
CONTINUOUS
 10
0.779488
 20
-3.787669
  0
VERTEX
  8
PLAN_1
  6
CONTINUOUS
 10
0.780465
 20
-3.793039
  0
VERTEX
  8
PLAN_1
  6
CONTINUOUS
 10
0.782906
 20
-3.797429
  0
VERTEX
  8
PLAN_1
  6
CONTINUOUS
 10
0.785343
 20
-3.801335
  0
VERTEX
  8
PLAN_1
  6
CONTINUOUS
 10
0.787295
 20
-3.803287
  0
VERTEX
  8
PLAN_1
  6
CONTINUOUS
 10
0.788760
 20
-3.804752
  0
VERTEX
  8
PLAN_1
  6
CONTINUOUS
 10
0.790713
 20
-3.805728
  0
VERTEX
  8
PLAN_1
  6
CONTINUOUS
 10
0.792665
 20
-3.807193
  0
VERTEX
  8
PLAN_1
  6
CONTINUOUS
 10
0.795106
 20
-3.807681
  0
VERTEX
  8
PLAN_1
  6
CONTINUOUS
 10
0.797547
 20
-3.808657
  0
VERTEX
  8
PLAN_1
  6
CONTINUOUS
 10
0.799988
 20
-3.808657
  0
VERTEX
  8
PLAN_1
  6
CONTINUOUS
 10
0.802425
 20
-3.809146
  0
VERTEX
  8
PLAN_1
  6
CONTINUOUS
 10
0.806819
 20
-3.808657
  0
VERTEX
  8
PLAN_1
  6
CONTINUOUS
 10
0.810724
 20
-3.807681
  0
VERTEX
  8
PLAN_1
  6
CONTINUOUS
 10
0.815118
 20
-3.805728
  0
VERTEX
  8
PLAN_1
  6
CONTINUOUS
 10
0.818535
 20
-3.803287
  0
VERTEX
  8
PLAN_1
  6
CONTINUOUS
 10
0.822437
 20
-3.800358
  0
VERTEX
  8
PLAN_1
  6
CONTINUOUS
 10
0.825854
 20
-3.797429
  0
VERTEX
  8
PLAN_1
  6
CONTINUOUS
 10
0.828783
 20
-3.793528
  0
VERTEX
  8
PLAN_1
  6
CONTINUOUS
 10
0.831713
 20
-3.789622
  0
VERTEX
  8
PLAN_1
  6
CONTINUOUS
 10
0.834642
 20
-3.785228
  0
VERTEX
  8
PLAN_1
  6
CONTINUOUS
 10
0.836594
 20
-3.780835
  0
VERTEX
  8
PLAN_1
  6
CONTINUOUS
 10
0.839035
 20
-3.775953
  0
VERTEX
  8
PLAN_1
  6
CONTINUOUS
 10
0.840496
 20
-3.771563
  0
VERTEX
  8
PLAN_1
  6
CONTINUOUS
 10
0.841961
 20
-3.766681
  0
VERTEX
  8
PLAN_1
  6
CONTINUOUS
 10
0.842937
 20
-3.762287
  0
VERTEX
  8
PLAN_1
  6
CONTINUOUS
 10
0.843425
 20
-3.757894
  0
VERTEX
  8
PLAN_1
  6
CONTINUOUS
 10
0.843913
 20
-3.753504
  0
VERTEX
  8
PLAN_1
  6
CONTINUOUS
 10
0.843425
 20
-3.748622
  0
VERTEX
  8
PLAN_1
  6
CONTINUOUS
 10
0.841961
 20
-3.743740
  0
VERTEX
  8
PLAN_1
  6
CONTINUOUS
 10
0.839520
 20
-3.739346
  0
VERTEX
  8
PLAN_1
  6
CONTINUOUS
 10
0.837083
 20
-3.735445
  0
VERTEX
  8
PLAN_1
  6
CONTINUOUS
 10
0.833665
 20
-3.732516
  0
VERTEX
  8
PLAN_1
  6
CONTINUOUS
 10
0.829760
 20
-3.730075
  0
VERTEX
  8
PLAN_1
  6
CONTINUOUS
 10
0.827319
 20
-3.729098
  0
VERTEX
  8
PLAN_1
  6
CONTINUOUS
 10
0.825366
 20
-3.728610
  0
VERTEX
  8
PLAN_1
  6
CONTINUOUS
 10
0.823413
 20
-3.728122
  0
VERTEX
  8
PLAN_1
  6
CONTINUOUS
 10
0.820972
 20
-3.728122
  0
SEQEND
  8
0
  0
POLYLINE
  8
PLAN_1
  6
CONTINUOUS
 66
     1
 40
0.003000
 41
0.003000
  0
VERTEX
  8
PLAN_1
  6
CONTINUOUS
 10
0.978626
 20
-3.667598
  0
VERTEX
  8
PLAN_1
  6
CONTINUOUS
 10
1.059161
 20
-3.667598
  0
VERTEX
  8
PLAN_1
  6
CONTINUOUS
 10
1.068921
 20
-3.668087
  0
VERTEX
  8
PLAN_1
  6
CONTINUOUS
 10
1.077709
 20
-3.669063
  0
VERTEX
  8
PLAN_1
  6
CONTINUOUS
 10
1.086004
 20
-3.671504
  0
VERTEX
  8
PLAN_1
  6
CONTINUOUS
 10
1.094303
 20
-3.674433
  0
VERTEX
  8
PLAN_1
  6
CONTINUOUS
 10
1.101626
 20
-3.678339
  0
VERTEX
  8
PLAN_1
  6
CONTINUOUS
 10
1.108457
 20
-3.682728
  0
VERTEX
  8
PLAN_1
  6
CONTINUOUS
 10
1.114803
 20
-3.688098
  0
VERTEX
  8
PLAN_1
  6
CONTINUOUS
 10
1.120661
 20
-3.694445
  0
VERTEX
  8
PLAN_1
  6
CONTINUOUS
 10
1.125539
 20
-3.700787
  0
VERTEX
  8
PLAN_1
  6
CONTINUOUS
 10
1.130421
 20
-3.708598
  0
VERTEX
  8
PLAN_1
  6
CONTINUOUS
 10
1.133839
 20
-3.716409
  0
VERTEX
  8
PLAN_1
  6
CONTINUOUS
 10
1.137256
 20
-3.724705
  0
VERTEX
  8
PLAN_1
  6
CONTINUOUS
 10
1.139697
 20
-3.733980
  0
VERTEX
  8
PLAN_1
  6
CONTINUOUS
 10
1.141646
 20
-3.743740
  0
VERTEX
  8
PLAN_1
  6
CONTINUOUS
 10
1.142622
 20
-3.753504
  0
VERTEX
  8
PLAN_1
  6
CONTINUOUS
 10
1.143110
 20
-3.764240
  0
VERTEX
  8
PLAN_1
  6
CONTINUOUS
 10
1.142622
 20
-3.773028
  0
VERTEX
  8
PLAN_1
  6
CONTINUOUS
 10
1.142134
 20
-3.781323
  0
VERTEX
  8
PLAN_1
  6
CONTINUOUS
 10
1.140673
 20
-3.790110
  0
VERTEX
  8
PLAN_1
  6
CONTINUOUS
 10
1.138720
 20
-3.798894
  0
VERTEX
  8
PLAN_1
  6
CONTINUOUS
 10
1.136280
 20
-3.807681
  0
VERTEX
  8
PLAN_1
  6
CONTINUOUS
 10
1.133350
 20
-3.816465
  0
VERTEX
  8
PLAN_1
  6
CONTINUOUS
 10
1.129445
 20
-3.824276
  0
VERTEX
  8
PLAN_1
  6
CONTINUOUS
 10
1.125051
 20
-3.832083
  0
VERTEX
  8
PLAN_1
  6
CONTINUOUS
 10
1.122610
 20
-3.835988
  0
VERTEX
  8
PLAN_1
  6
CONTINUOUS
 10
1.119685
 20
-3.839406
  0
VERTEX
  8
PLAN_1
  6
CONTINUOUS
 10
1.116756
 20
-3.842823
  0
VERTEX
  8
PLAN_1
  6
CONTINUOUS
 10
1.113827
 20
-3.846240
  0
VERTEX
  8
PLAN_1
  6
CONTINUOUS
 10
1.110409
 20
-3.849169
  0
VERTEX
  8
PLAN_1
  6
CONTINUOUS
 10
1.106992
 20
-3.852094
  0
VERTEX
  8
PLAN_1
  6
CONTINUOUS
 10
1.103091
 20
-3.854535
  0
VERTEX
  8
PLAN_1
  6
CONTINUOUS
 10
1.099185
 20
-3.856976
  0
VERTEX
  8
PLAN_1
  6
CONTINUOUS
 10
1.094791
 20
-3.858929
  0
VERTEX
  8
PLAN_1
  6
CONTINUOUS
 10
1.090398
 20
-3.860882
  0
VERTEX
  8
PLAN_1
  6
CONTINUOUS
 10
1.085516
 20
-3.862835
  0
VERTEX
  8
PLAN_1
  6
CONTINUOUS
 10
1.080638
 20
-3.864299
  0
VERTEX
  8
PLAN_1
  6
CONTINUOUS
 10
1.075268
 20
-3.865276
  0
VERTEX
  8
PLAN_1
  6
CONTINUOUS
 10
1.069898
 20
-3.866252
  0
VERTEX
  8
PLAN_1
  6
CONTINUOUS
 10
1.064043
 20
-3.866740
  0
VERTEX
  8
PLAN_1
  6
CONTINUOUS
 10
1.058185
 20
-3.866740
  0
VERTEX
  8
PLAN_1
  6
CONTINUOUS
 10
0.978626
 20
-3.866740
  0
VERTEX
  8
PLAN_1
  6
CONTINUOUS
 10
0.978626
 20
-3.667598
  0
SEQEND
  8
0
  0
POLYLINE
  8
PLAN_1
  6
CONTINUOUS
 66
     1
 40
0.003000
 41
0.003000
  0
VERTEX
  8
PLAN_1
  6
CONTINUOUS
 10
1.005472
 20
-3.843799
  0
VERTEX
  8
PLAN_1
  6
CONTINUOUS
 10
1.057697
 20
-3.843799
  0
VERTEX
  8
PLAN_1
  6
CONTINUOUS
 10
1.064043
 20
-3.843311
  0
VERTEX
  8
PLAN_1
  6
CONTINUOUS
 10
1.069898
 20
-3.842335
  0
VERTEX
  8
PLAN_1
  6
CONTINUOUS
 10
1.075756
 20
-3.840870
  0
VERTEX
  8
PLAN_1
  6
CONTINUOUS
 10
1.081126
 20
-3.838429
  0
VERTEX
  8
PLAN_1
  6
CONTINUOUS
 10
1.086492
 20
-3.835988
  0
VERTEX
  8
PLAN_1
  6
CONTINUOUS
 10
1.091374
 20
-3.832083
  0
VERTEX
  8
PLAN_1
  6
CONTINUOUS
 10
1.095768
 20
-3.828181
  0
VERTEX
  8
PLAN_1
  6
CONTINUOUS
 10
1.099673
 20
-3.823787
  0
VERTEX
  8
PLAN_1
  6
CONTINUOUS
 10
1.103091
 20
-3.818417
  0
VERTEX
  8
PLAN_1
  6
CONTINUOUS
 10
1.106016
 20
-3.812563
  0
VERTEX
  8
PLAN_1
  6
CONTINUOUS
 10
1.108945
 20
-3.806217
  0
VERTEX
  8
PLAN_1
  6
CONTINUOUS
 10
1.111386
 20
-3.799382
  0
VERTEX
  8
PLAN_1
  6
CONTINUOUS
 10
1.112850
 20
-3.791575
  0
VERTEX
  8
PLAN_1
  6
CONTINUOUS
 10
1.114315
 20
-3.783764
  0
VERTEX
  8
PLAN_1
  6
CONTINUOUS
 10
1.114803
 20
-3.774980
  0
VERTEX
  8
PLAN_1
  6
CONTINUOUS
 10
1.115291
 20
-3.765705
  0
VERTEX
  8
PLAN_1
  6
CONTINUOUS
 10
1.114803
 20
-3.756917
  0
VERTEX
  8
PLAN_1
  6
CONTINUOUS
 10
1.114315
 20
-3.748134
  0
VERTEX
  8
PLAN_1
  6
CONTINUOUS
 10
1.112850
 20
-3.740323
  0
VERTEX
  8
PLAN_1
  6
CONTINUOUS
 10
1.110898
 20
-3.733004
  0
VERTEX
  8
PLAN_1
  6
CONTINUOUS
 10
1.108945
 20
-3.726169
  0
VERTEX
  8
PLAN_1
  6
CONTINUOUS
 10
1.106016
 20
-3.719823
  0
VERTEX
  8
PLAN_1
  6
CONTINUOUS
 10
1.102602
 20
-3.714457
  0
VERTEX
  8
PLAN_1
  6
CONTINUOUS
 10
1.099185
 20
-3.709575
  0
VERTEX
  8
PLAN_1
  6
CONTINUOUS
 10
1.095280
 20
-3.704693
  0
VERTEX
  8
PLAN_1
  6
CONTINUOUS
 10
1.090398
 20
-3.701276
  0
VERTEX
  8
PLAN_1
  6
CONTINUOUS
 10
1.085516
 20
-3.697862
  0
VERTEX
  8
PLAN_1
  6
CONTINUOUS
 10
1.080150
 20
-3.695421
  0
VERTEX
  8
PLAN_1
  6
CONTINUOUS
 10
1.074780
 20
-3.692980
  0
VERTEX
  8
PLAN_1
  6
CONTINUOUS
 10
1.068433
 20
-3.691516
  0
VERTEX
  8
PLAN_1
  6
CONTINUOUS
 10
1.062091
 20
-3.690539
  0
VERTEX
  8
PLAN_1
  6
CONTINUOUS
 10
1.055744
 20
-3.690539
  0
VERTEX
  8
PLAN_1
  6
CONTINUOUS
 10
1.005472
 20
-3.690539
  0
VERTEX
  8
PLAN_1
  6
CONTINUOUS
 10
1.005472
 20
-3.843799
  0
SEQEND
  8
0
  0
SOLID
  8
PLAN_1
 10
1.156291
 20
-3.901394
 11
1.156291
 21
-3.887728
 12
1.310528
 22
-3.901394
 13
1.310528
 23
-3.887728
  0
POLYLINE
  8
PLAN_1
  6
CONTINUOUS
 66
     1
 40
0.003000
 41
0.003000
  0
VERTEX
  8
PLAN_1
  6
CONTINUOUS
 10
1.156291
 20
-3.901394
  0
VERTEX
  8
PLAN_1
  6
CONTINUOUS
 10
1.156291
 20
-3.887728
  0
VERTEX
  8
PLAN_1
  6
CONTINUOUS
 10
1.310528
 20
-3.887728
  0
VERTEX
  8
PLAN_1
  6
CONTINUOUS
 10
1.310528
 20
-3.901394
  0
VERTEX
  8
PLAN_1
  6
CONTINUOUS
 10
1.156291
 20
-3.901394
  0
SEQEND
  8
0
  0
POLYLINE
  8
PLAN_1
  6
CONTINUOUS
 66
     1
 40
0.003000
 41
0.003000
  0
VERTEX
  8
PLAN_1
  6
CONTINUOUS
 10
1.362264
 20
-3.866740
  0
VERTEX
  8
PLAN_1
  6
CONTINUOUS
 10
1.335417
 20
-3.866740
  0
VERTEX
  8
PLAN_1
  6
CONTINUOUS
 10
1.335417
 20
-3.667598
  0
VERTEX
  8
PLAN_1
  6
CONTINUOUS
 10
1.427177
 20
-3.667598
  0
VERTEX
  8
PLAN_1
  6
CONTINUOUS
 10
1.433524
 20
-3.667598
  0
VERTEX
  8
PLAN_1
  6
CONTINUOUS
 10
1.439382
 20
-3.668087
  0
VERTEX
  8
PLAN_1
  6
CONTINUOUS
 10
1.445724
 20
-3.668575
  0
VERTEX
  8
PLAN_1
  6
CONTINUOUS
 10
1.451583
 20
-3.670039
  0
VERTEX
  8
PLAN_1
  6
CONTINUOUS
 10
1.456953
 20
-3.671504
  0
VERTEX
  8
PLAN_1
  6
CONTINUOUS
 10
1.462319
 20
-3.673457
  0
VERTEX
  8
PLAN_1
  6
CONTINUOUS
 10
1.467689
 20
-3.675409
  0
VERTEX
  8
PLAN_1
  6
CONTINUOUS
 10
1.472571
 20
-3.678339
  0
VERTEX
  8
PLAN_1
  6
CONTINUOUS
 10
1.476965
 20
-3.681752
  0
VERTEX
  8
PLAN_1
  6
CONTINUOUS
 10
1.480866
 20
-3.685657
  0
VERTEX
  8
PLAN_1
  6
CONTINUOUS
 10
1.484283
 20
-3.690051
  0
VERTEX
  8
PLAN_1
  6
CONTINUOUS
 10
1.487213
 20
-3.694933
  0
VERTEX
  8
PLAN_1
  6
CONTINUOUS
 10
1.489654
 20
-3.700299
  0
VERTEX
  8
PLAN_1
  6
CONTINUOUS
 10
1.491606
 20
-3.706646
  0
VERTEX
  8
PLAN_1
  6
CONTINUOUS
 10
1.492583
 20
-3.713480
  0
VERTEX
  8
PLAN_1
  6
CONTINUOUS
 10
1.493071
 20
-3.720799
  0
VERTEX
  8
PLAN_1
  6
CONTINUOUS
 10
1.492583
 20
-3.726169
  0
VERTEX
  8
PLAN_1
  6
CONTINUOUS
 10
1.492094
 20
-3.731051
  0
VERTEX
  8
PLAN_1
  6
CONTINUOUS
 10
1.491606
 20
-3.735445
  0
VERTEX
  8
PLAN_1
  6
CONTINUOUS
 10
1.490142
 20
-3.739835
  0
VERTEX
  8
PLAN_1
  6
CONTINUOUS
 10
1.489165
 20
-3.743740
  0
VERTEX
  8
PLAN_1
  6
CONTINUOUS
 10
1.487701
 20
-3.747157
  0
VERTEX
  8
PLAN_1
  6
CONTINUOUS
 10
1.485748
 20
-3.750087
  0
VERTEX
  8
PLAN_1
  6
CONTINUOUS
 10
1.483795
 20
-3.753016
  0
VERTEX
  8
PLAN_1
  6
CONTINUOUS
 10
1.479406
 20
-3.757894
  0
VERTEX
  8
PLAN_1
  6
CONTINUOUS
 10
1.475012
 20
-3.762287
  0
VERTEX
  8
PLAN_1
  6
CONTINUOUS
 10
1.470130
 20
-3.765705
  0
VERTEX
  8
PLAN_1
  6
CONTINUOUS
 10
1.465248
 20
-3.768634
  0
VERTEX
  8
PLAN_1
  6
CONTINUOUS
 10
1.469154
 20
-3.770587
  0
VERTEX
  8
PLAN_1
  6
CONTINUOUS
 10
1.473547
 20
-3.772539
  0
VERTEX
  8
PLAN_1
  6
CONTINUOUS
 10
1.477453
 20
-3.775465
  0
VERTEX
  8
PLAN_1
  6
CONTINUOUS
 10
1.480866
 20
-3.778882
  0
VERTEX
  8
PLAN_1
  6
CONTINUOUS
 10
1.482331
 20
-3.780835
  0
VERTEX
  8
PLAN_1
  6
CONTINUOUS
 10
1.483795
 20
-3.783276
  0
VERTEX
  8
PLAN_1
  6
CONTINUOUS
 10
1.485260
 20
-3.786205
  0
VERTEX
  8
PLAN_1
  6
CONTINUOUS
 10
1.486236
 20
-3.789134
  0
VERTEX
  8
PLAN_1
  6
CONTINUOUS
 10
1.487213
 20
-3.793039
  0
VERTEX
  8
PLAN_1
  6
CONTINUOUS
 10
1.488189
 20
-3.796941
  0
VERTEX
  8
PLAN_1
  6
CONTINUOUS
 10
1.488677
 20
-3.801335
  0
VERTEX
  8
PLAN_1
  6
CONTINUOUS
 10
1.489165
 20
-3.806217
  0
VERTEX
  8
PLAN_1
  6
CONTINUOUS
 10
1.490630
 20
-3.842335
  0
VERTEX
  8
PLAN_1
  6
CONTINUOUS
 10
1.490630
 20
-3.846240
  0
VERTEX
  8
PLAN_1
  6
CONTINUOUS
 10
1.491118
 20
-3.849657
  0
VERTEX
  8
PLAN_1
  6
CONTINUOUS
 10
1.491606
 20
-3.852094
  0
VERTEX
  8
PLAN_1
  6
CONTINUOUS
 10
1.492583
 20
-3.854535
  0
VERTEX
  8
PLAN_1
  6
CONTINUOUS
 10
1.494047
 20
-3.856976
  0
VERTEX
  8
PLAN_1
  6
CONTINUOUS
 10
1.495512
 20
-3.858929
  0
VERTEX
  8
PLAN_1
  6
CONTINUOUS
 10
1.497953
 20
-3.860394
  0
VERTEX
  8
PLAN_1
  6
CONTINUOUS
 10
1.500878
 20
-3.862346
  0
VERTEX
  8
PLAN_1
  6
CONTINUOUS
 10
1.500878
 20
-3.866740
  0
VERTEX
  8
PLAN_1
  6
CONTINUOUS
 10
1.467689
 20
-3.866740
  0
VERTEX
  8
PLAN_1
  6
CONTINUOUS
 10
1.466224
 20
-3.861370
  0
VERTEX
  8
PLAN_1
  6
CONTINUOUS
 10
1.465248
 20
-3.855024
  0
VERTEX
  8
PLAN_1
  6
CONTINUOUS
 10
1.464272
 20
-3.847705
  0
VERTEX
  8
PLAN_1
  6
CONTINUOUS
 10
1.463783
 20
-3.839894
  0
VERTEX
  8
PLAN_1
  6
CONTINUOUS
 10
1.463295
 20
-3.832571
  0
VERTEX
  8
PLAN_1
  6
CONTINUOUS
 10
1.463295
 20
-3.826228
  0
VERTEX
  8
PLAN_1
  6
CONTINUOUS
 10
1.462807
 20
-3.820370
  0
VERTEX
  8
PLAN_1
  6
CONTINUOUS
 10
1.462807
 20
-3.816953
  0
VERTEX
  8
PLAN_1
  6
CONTINUOUS
 10
1.462807
 20
-3.810610
  0
VERTEX
  8
PLAN_1
  6
CONTINUOUS
 10
1.461831
 20
-3.804264
  0
VERTEX
  8
PLAN_1
  6
CONTINUOUS
 10
1.461346
 20
-3.801335
  0
VERTEX
  8
PLAN_1
  6
CONTINUOUS
 10
1.460370
 20
-3.798406
  0
VERTEX
  8
PLAN_1
  6
CONTINUOUS
 10
1.458906
 20
-3.795476
  0
VERTEX
  8
PLAN_1
  6
CONTINUOUS
 10
1.457441
 20
-3.793039
  0
VERTEX
  8
PLAN_1
  6
CONTINUOUS
 10
1.455000
 20
-3.790598
  0
VERTEX
  8
PLAN_1
  6
CONTINUOUS
 10
1.452559
 20
-3.788157
  0
VERTEX
  8
PLAN_1
  6
CONTINUOUS
 10
1.450118
 20
-3.786205
  0
VERTEX
  8
PLAN_1
  6
CONTINUOUS
 10
1.446701
 20
-3.784252
  0
VERTEX
  8
PLAN_1
  6
CONTINUOUS
 10
1.442799
 20
-3.783276
  0
VERTEX
  8
PLAN_1
  6
CONTINUOUS
 10
1.437917
 20
-3.782299
  0
VERTEX
  8
PLAN_1
  6
CONTINUOUS
 10
1.433035
 20
-3.781323
  0
VERTEX
  8
PLAN_1
  6
CONTINUOUS
 10
1.427177
 20
-3.781323
  0
VERTEX
  8
PLAN_1
  6
CONTINUOUS
 10
1.362264
 20
-3.781323
  0
VERTEX
  8
PLAN_1
  6
CONTINUOUS
 10
1.362264
 20
-3.866740
  0
SEQEND
  8
0
  0
POLYLINE
  8
PLAN_1
  6
CONTINUOUS
 66
     1
 40
0.003000
 41
0.003000
  0
VERTEX
  8
PLAN_1
  6
CONTINUOUS
 10
1.362264
 20
-3.758382
  0
VERTEX
  8
PLAN_1
  6
CONTINUOUS
 10
1.424736
 20
-3.758382
  0
VERTEX
  8
PLAN_1
  6
CONTINUOUS
 10
1.432059
 20
-3.757894
  0
VERTEX
  8
PLAN_1
  6
CONTINUOUS
 10
1.439382
 20
-3.756917
  0
VERTEX
  8
PLAN_1
  6
CONTINUOUS
 10
1.442799
 20
-3.755945
  0
VERTEX
  8
PLAN_1
  6
CONTINUOUS
 10
1.446213
 20
-3.754969
  0
VERTEX
  8
PLAN_1
  6
CONTINUOUS
 10
1.449142
 20
-3.753504
  0
VERTEX
  8
PLAN_1
  6
CONTINUOUS
 10
1.452071
 20
-3.752039
  0
VERTEX
  8
PLAN_1
  6
CONTINUOUS
 10
1.455000
 20
-3.750087
  0
VERTEX
  8
PLAN_1
  6
CONTINUOUS
 10
1.457441
 20
-3.747646
  0
VERTEX
  8
PLAN_1
  6
CONTINUOUS
 10
1.459882
 20
-3.744717
  0
VERTEX
  8
PLAN_1
  6
CONTINUOUS
 10
1.461346
 20
-3.741299
  0
VERTEX
  8
PLAN_1
  6
CONTINUOUS
 10
1.463295
 20
-3.737882
  0
VERTEX
  8
PLAN_1
  6
CONTINUOUS
 10
1.464272
 20
-3.733492
  0
VERTEX
  8
PLAN_1
  6
CONTINUOUS
 10
1.464760
 20
-3.729098
  0
VERTEX
  8
PLAN_1
  6
CONTINUOUS
 10
1.465248
 20
-3.723728
  0
VERTEX
  8
PLAN_1
  6
CONTINUOUS
 10
1.464760
 20
-3.718362
  0
VERTEX
  8
PLAN_1
  6
CONTINUOUS
 10
1.464272
 20
-3.713480
  0
VERTEX
  8
PLAN_1
  6
CONTINUOUS
 10
1.462807
 20
-3.709087
  0
VERTEX
  8
PLAN_1
  6
CONTINUOUS
 10
1.461346
 20
-3.705669
  0
VERTEX
  8
PLAN_1
  6
CONTINUOUS
 10
1.459394
 20
-3.702252
  0
VERTEX
  8
PLAN_1
  6
CONTINUOUS
 10
1.457441
 20
-3.699811
  0
VERTEX
  8
PLAN_1
  6
CONTINUOUS
 10
1.455000
 20
-3.697374
  0
VERTEX
  8
PLAN_1
  6
CONTINUOUS
 10
1.452071
 20
-3.695421
  0
VERTEX
  8
PLAN_1
  6
CONTINUOUS
 10
1.449630
 20
-3.693957
  0
VERTEX
  8
PLAN_1
  6
CONTINUOUS
 10
1.446701
 20
-3.692980
  0
VERTEX
  8
PLAN_1
  6
CONTINUOUS
 10
1.443283
 20
-3.692004
  0
VERTEX
  8
PLAN_1
  6
CONTINUOUS
 10
1.440358
 20
-3.691516
  0
VERTEX
  8
PLAN_1
  6
CONTINUOUS
 10
1.434500
 20
-3.690539
  0
VERTEX
  8
PLAN_1
  6
CONTINUOUS
 10
1.429130
 20
-3.690539
  0
VERTEX
  8
PLAN_1
  6
CONTINUOUS
 10
1.362264
 20
-3.690539
  0
VERTEX
  8
PLAN_1
  6
CONTINUOUS
 10
1.362264
 20
-3.758382
  0
SEQEND
  8
0
  0
SOLID
  8
PLAN_1
 10
1.564331
 20
-3.866740
 11
1.535535
 21
-3.866740
 12
1.564331
 22
-3.837453
 13
1.535535
 23
-3.837453
  0
POLYLINE
  8
PLAN_1
  6
CONTINUOUS
 66
     1
 40
0.003000
 41
0.003000
  0
VERTEX
  8
PLAN_1
  6
CONTINUOUS
 10
1.564331
 20
-3.866740
  0
VERTEX
  8
PLAN_1
  6
CONTINUOUS
 10
1.535535
 20
-3.866740
  0
VERTEX
  8
PLAN_1
  6
CONTINUOUS
 10
1.535535
 20
-3.837453
  0
VERTEX
  8
PLAN_1
  6
CONTINUOUS
 10
1.564331
 20
-3.837453
  0
VERTEX
  8
PLAN_1
  6
CONTINUOUS
 10
1.564331
 20
-3.866740
  0
SEQEND
  8
0
  0
POLYLINE
  8
PLAN_1
  6
CONTINUOUS
 66
     1
 40
0.003000
 41
0.003000
  0
VERTEX
  8
PLAN_1
  6
CONTINUOUS
 10
1.759567
 20
-3.866740
  0
VERTEX
  8
PLAN_1
  6
CONTINUOUS
 10
1.612165
 20
-3.866740
  0
VERTEX
  8
PLAN_1
  6
CONTINUOUS
 10
1.612165
 20
-3.667598
  0
VERTEX
  8
PLAN_1
  6
CONTINUOUS
 10
1.757614
 20
-3.667598
  0
VERTEX
  8
PLAN_1
  6
CONTINUOUS
 10
1.757614
 20
-3.691028
  0
VERTEX
  8
PLAN_1
  6
CONTINUOUS
 10
1.639008
 20
-3.691028
  0
VERTEX
  8
PLAN_1
  6
CONTINUOUS
 10
1.639008
 20
-3.752528
  0
VERTEX
  8
PLAN_1
  6
CONTINUOUS
 10
1.748339
 20
-3.752528
  0
VERTEX
  8
PLAN_1
  6
CONTINUOUS
 10
1.748339
 20
-3.776441
  0
VERTEX
  8
PLAN_1
  6
CONTINUOUS
 10
1.639008
 20
-3.776441
  0
VERTEX
  8
PLAN_1
  6
CONTINUOUS
 10
1.639008
 20
-3.842823
  0
VERTEX
  8
PLAN_1
  6
CONTINUOUS
 10
1.759567
 20
-3.842823
  0
VERTEX
  8
PLAN_1
  6
CONTINUOUS
 10
1.759567
 20
-3.866740
  0
SEQEND
  8
0
  0
POLYLINE
  8
PLAN_1
  6
CONTINUOUS
 66
     1
 40
0.003000
 41
0.003000
  0
VERTEX
  8
PLAN_1
  6
CONTINUOUS
 10
1.824480
 20
-3.866740
  0
VERTEX
  8
PLAN_1
  6
CONTINUOUS
 10
1.797638
 20
-3.866740
  0
VERTEX
  8
PLAN_1
  6
CONTINUOUS
 10
1.797638
 20
-3.667598
  0
VERTEX
  8
PLAN_1
  6
CONTINUOUS
 10
1.887445
 20
-3.667598
  0
VERTEX
  8
PLAN_1
  6
CONTINUOUS
 10
1.893791
 20
-3.667598
  0
VERTEX
  8
PLAN_1
  6
CONTINUOUS
 10
1.900134
 20
-3.668575
  0
VERTEX
  8
PLAN_1
  6
CONTINUOUS
 10
1.906480
 20
-3.670039
  0
VERTEX
  8
PLAN_1
  6
CONTINUOUS
 10
1.911850
 20
-3.671504
  0
VERTEX
  8
PLAN_1
  6
CONTINUOUS
 10
1.917217
 20
-3.673945
  0
VERTEX
  8
PLAN_1
  6
CONTINUOUS
 10
1.922098
 20
-3.676874
  0
VERTEX
  8
PLAN_1
  6
CONTINUOUS
 10
1.926492
 20
-3.679803
  0
VERTEX
  8
PLAN_1
  6
CONTINUOUS
 10
1.930398
 20
-3.683217
  0
VERTEX
  8
PLAN_1
  6
CONTINUOUS
 10
1.934299
 20
-3.687122
  0
VERTEX
  8
PLAN_1
  6
CONTINUOUS
 10
1.937228
 20
-3.691516
  0
VERTEX
  8
PLAN_1
  6
CONTINUOUS
 10
1.940157
 20
-3.696398
  0
VERTEX
  8
PLAN_1
  6
CONTINUOUS
 10
1.942110
 20
-3.701276
  0
VERTEX
  8
PLAN_1
  6
CONTINUOUS
 10
1.944063
 20
-3.706157
  0
VERTEX
  8
PLAN_1
  6
CONTINUOUS
 10
1.945528
 20
-3.712016
  0
VERTEX
  8
PLAN_1
  6
CONTINUOUS
 10
1.946016
 20
-3.717386
  0
VERTEX
  8
PLAN_1
  6
CONTINUOUS
 10
1.946504
 20
-3.723240
  0
VERTEX
  8
PLAN_1
  6
CONTINUOUS
 10
1.946016
 20
-3.728610
  0
VERTEX
  8
PLAN_1
  6
CONTINUOUS
 10
1.945528
 20
-3.733980
  0
VERTEX
  8
PLAN_1
  6
CONTINUOUS
 10
1.944551
 20
-3.739346
  0
VERTEX
  8
PLAN_1
  6
CONTINUOUS
 10
1.943087
 20
-3.744228
  0
VERTEX
  8
PLAN_1
  6
CONTINUOUS
 10
1.941134
 20
-3.749598
  0
VERTEX
  8
PLAN_1
  6
CONTINUOUS
 10
1.939181
 20
-3.754480
  0
VERTEX
  8
PLAN_1
  6
CONTINUOUS
 10
1.936252
 20
-3.758870
  0
VERTEX
  8
PLAN_1
  6
CONTINUOUS
 10
1.932839
 20
-3.763264
  0
VERTEX
  8
PLAN_1
  6
CONTINUOUS
 10
1.929421
 20
-3.767657
  0
VERTEX
  8
PLAN_1
  6
CONTINUOUS
 10
1.925028
 20
-3.771075
  0
VERTEX
  8
PLAN_1
  6
CONTINUOUS
 10
1.920146
 20
-3.774492
  0
VERTEX
  8
PLAN_1
  6
CONTINUOUS
 10
1.914776
 20
-3.777417
  0
VERTEX
  8
PLAN_1
  6
CONTINUOUS
 10
1.908921
 20
-3.779370
  0
VERTEX
  8
PLAN_1
  6
CONTINUOUS
 10
1.902087
 20
-3.781323
  0
VERTEX
  8
PLAN_1
  6
CONTINUOUS
 10
1.894768
 20
-3.782299
  0
VERTEX
  8
PLAN_1
  6
CONTINUOUS
 10
1.887445
 20
-3.782787
  0
VERTEX
  8
PLAN_1
  6
CONTINUOUS
 10
1.824480
 20
-3.782787
  0
VERTEX
  8
PLAN_1
  6
CONTINUOUS
 10
1.824480
 20
-3.866740
  0
SEQEND
  8
0
  0
POLYLINE
  8
PLAN_1
  6
CONTINUOUS
 66
     1
 40
0.003000
 41
0.003000
  0
VERTEX
  8
PLAN_1
  6
CONTINUOUS
 10
1.824480
 20
-3.759358
  0
VERTEX
  8
PLAN_1
  6
CONTINUOUS
 10
1.878169
 20
-3.759358
  0
VERTEX
  8
PLAN_1
  6
CONTINUOUS
 10
1.882563
 20
-3.759358
  0
VERTEX
  8
PLAN_1
  6
CONTINUOUS
 10
1.886957
 20
-3.759358
  0
VERTEX
  8
PLAN_1
  6
CONTINUOUS
 10
1.890862
 20
-3.758382
  0
VERTEX
  8
PLAN_1
  6
CONTINUOUS
 10
1.894768
 20
-3.757894
  0
VERTEX
  8
PLAN_1
  6
CONTINUOUS
 10
1.898181
 20
-3.756917
  0
VERTEX
  8
PLAN_1
  6
CONTINUOUS
 10
1.901598
 20
-3.755457
  0
VERTEX
  8
PLAN_1
  6
CONTINUOUS
 10
1.904528
 20
-3.753504
  0
VERTEX
  8
PLAN_1
  6
CONTINUOUS
 10
1.907457
 20
-3.751551
  0
VERTEX
  8
PLAN_1
  6
CONTINUOUS
 10
1.909898
 20
-3.749598
  0
VERTEX
  8
PLAN_1
  6
CONTINUOUS
 10
1.912339
 20
-3.747157
  0
VERTEX
  8
PLAN_1
  6
CONTINUOUS
 10
1.913803
 20
-3.744228
  0
VERTEX
  8
PLAN_1
  6
CONTINUOUS
 10
1.915752
 20
-3.740811
  0
VERTEX
  8
PLAN_1
  6
CONTINUOUS
 10
1.916728
 20
-3.736909
  0
VERTEX
  8
PLAN_1
  6
CONTINUOUS
 10
1.917705
 20
-3.733004
  0
VERTEX
  8
PLAN_1
  6
CONTINUOUS
 10
1.918193
 20
-3.728610
  0
VERTEX
  8
PLAN_1
  6
CONTINUOUS
 10
1.918681
 20
-3.723728
  0
VERTEX
  8
PLAN_1
  6
CONTINUOUS
 10
1.918193
 20
-3.719335
  0
VERTEX
  8
PLAN_1
  6
CONTINUOUS
 10
1.917705
 20
-3.714945
  0
VERTEX
  8
PLAN_1
  6
CONTINUOUS
 10
1.916728
 20
-3.711528
  0
VERTEX
  8
PLAN_1
  6
CONTINUOUS
 10
1.915752
 20
-3.708110
  0
VERTEX
  8
PLAN_1
  6
CONTINUOUS
 10
1.913803
 20
-3.704693
  0
VERTEX
  8
PLAN_1
  6
CONTINUOUS
 10
1.911850
 20
-3.702252
  0
VERTEX
  8
PLAN_1
  6
CONTINUOUS
 10
1.909898
 20
-3.699811
  0
VERTEX
  8
PLAN_1
  6
CONTINUOUS
 10
1.906969
 20
-3.697862
  0
VERTEX
  8
PLAN_1
  6
CONTINUOUS
 10
1.904528
 20
-3.695909
  0
VERTEX
  8
PLAN_1
  6
CONTINUOUS
 10
1.901598
 20
-3.694445
  0
VERTEX
  8
PLAN_1
  6
CONTINUOUS
 10
1.898181
 20
-3.692980
  0
VERTEX
  8
PLAN_1
  6
CONTINUOUS
 10
1.894768
 20
-3.692004
  0
VERTEX
  8
PLAN_1
  6
CONTINUOUS
 10
1.887445
 20
-3.691028
  0
VERTEX
  8
PLAN_1
  6
CONTINUOUS
 10
1.879146
 20
-3.690539
  0
VERTEX
  8
PLAN_1
  6
CONTINUOUS
 10
1.824480
 20
-3.690539
  0
VERTEX
  8
PLAN_1
  6
CONTINUOUS
 10
1.824480
 20
-3.759358
  0
SEQEND
  8
0
  0
POLYLINE
  8
PLAN_1
  6
CONTINUOUS
 66
     1
 40
0.003000
 41
0.003000
  0
VERTEX
  8
PLAN_1
  6
CONTINUOUS
 10
2.100252
 20
-3.725681
  0
VERTEX
  8
PLAN_1
  6
CONTINUOUS
 10
2.099764
 20
-3.720311
  0
VERTEX
  8
PLAN_1
  6
CONTINUOUS
 10
2.098787
 20
-3.714945
  0
VERTEX
  8
PLAN_1
  6
CONTINUOUS
 10
2.096835
 20
-3.710551
  0
VERTEX
  8
PLAN_1
  6
CONTINUOUS
 10
2.094882
 20
-3.706157
  0
VERTEX
  8
PLAN_1
  6
CONTINUOUS
 10
2.092441
 20
-3.702740
  0
VERTEX
  8
PLAN_1
  6
CONTINUOUS
 10
2.090000
 20
-3.699327
  0
VERTEX
  8
PLAN_1
  6
CONTINUOUS
 10
2.086583
 20
-3.696398
  0
VERTEX
  8
PLAN_1
  6
CONTINUOUS
 10
2.083169
 20
-3.693957
  0
VERTEX
  8
PLAN_1
  6
CONTINUOUS
 10
2.079752
 20
-3.691516
  0
VERTEX
  8
PLAN_1
  6
CONTINUOUS
 10
2.075846
 20
-3.690051
  0
VERTEX
  8
PLAN_1
  6
CONTINUOUS
 10
2.071941
 20
-3.688587
  0
VERTEX
  8
PLAN_1
  6
CONTINUOUS
 10
2.067547
 20
-3.687122
  0
VERTEX
  8
PLAN_1
  6
CONTINUOUS
 10
2.063646
 20
-3.686146
  0
VERTEX
  8
PLAN_1
  6
CONTINUOUS
 10
2.059252
 20
-3.685657
  0
VERTEX
  8
PLAN_1
  6
CONTINUOUS
 10
2.054858
 20
-3.685169
  0
VERTEX
  8
PLAN_1
  6
CONTINUOUS
 10
2.050953
 20
-3.685169
  0
VERTEX
  8
PLAN_1
  6
CONTINUOUS
 10
2.044122
 20
-3.685657
  0
VERTEX
  8
PLAN_1
  6
CONTINUOUS
 10
2.036311
 20
-3.686146
  0
VERTEX
  8
PLAN_1
  6
CONTINUOUS
 10
2.032894
 20
-3.687122
  0
VERTEX
  8
PLAN_1
  6
CONTINUOUS
 10
2.028988
 20
-3.688098
  0
VERTEX
  8
PLAN_1
  6
CONTINUOUS
 10
2.025087
 20
-3.689563
  0
VERTEX
  8
PLAN_1
  6
CONTINUOUS
 10
2.021669
 20
-3.691516
  0
VERTEX
  8
PLAN_1
  6
CONTINUOUS
 10
2.018252
 20
-3.693469
  0
VERTEX
  8
PLAN_1
  6
CONTINUOUS
 10
2.015323
 20
-3.695909
  0
VERTEX
  8
PLAN_1
  6
CONTINUOUS
 10
2.012394
 20
-3.698839
  0
VERTEX
  8
PLAN_1
  6
CONTINUOUS
 10
2.009953
 20
-3.701764
  0
VERTEX
  8
PLAN_1
  6
CONTINUOUS
 10
2.008004
 20
-3.705669
  0
VERTEX
  8
PLAN_1
  6
CONTINUOUS
 10
2.006539
 20
-3.710063
  0
VERTEX
  8
PLAN_1
  6
CONTINUOUS
 10
2.005563
 20
-3.714945
  0
VERTEX
  8
PLAN_1
  6
CONTINUOUS
 10
2.005075
 20
-3.720311
  0
VERTEX
  8
PLAN_1
  6
CONTINUOUS
 10
2.005563
 20
-3.723240
  0
VERTEX
  8
PLAN_1
  6
CONTINUOUS
 10
2.005563
 20
-3.726169
  0
VERTEX
  8
PLAN_1
  6
CONTINUOUS
 10
2.006539
 20
-3.728610
  0
VERTEX
  8
PLAN_1
  6
CONTINUOUS
 10
2.007516
 20
-3.731051
  0
VERTEX
  8
PLAN_1
  6
CONTINUOUS
 10
2.008488
 20
-3.733004
  0
VERTEX
  8
PLAN_1
  6
CONTINUOUS
 10
2.009465
 20
-3.734957
  0
VERTEX
  8
PLAN_1
  6
CONTINUOUS
 10
2.010929
 20
-3.736421
  0
VERTEX
  8
PLAN_1
  6
CONTINUOUS
 10
2.012882
 20
-3.737882
  0
VERTEX
  8
PLAN_1
  6
CONTINUOUS
 10
2.016299
 20
-3.740811
  0
VERTEX
  8
PLAN_1
  6
CONTINUOUS
 10
2.020205
 20
-3.742764
  0
VERTEX
  8
PLAN_1
  6
CONTINUOUS
 10
2.024598
 20
-3.744228
  0
VERTEX
  8
PLAN_1
  6
CONTINUOUS
 10
2.028988
 20
-3.745205
  0
VERTEX
  8
PLAN_1
  6
CONTINUOUS
 10
2.085606
 20
-3.758382
  0
VERTEX
  8
PLAN_1
  6
CONTINUOUS
 10
2.090488
 20
-3.759846
  0
VERTEX
  8
PLAN_1
  6
CONTINUOUS
 10
2.094882
 20
-3.761311
  0
VERTEX
  8
PLAN_1
  6
CONTINUOUS
 10
2.099276
 20
-3.762776
  0
VERTEX
  8
PLAN_1
  6
CONTINUOUS
 10
2.103665
 20
-3.764728
  0
VERTEX
  8
PLAN_1
  6
CONTINUOUS
 10
2.107571
 20
-3.767169
  0
VERTEX
  8
PLAN_1
  6
CONTINUOUS
 10
2.111476
 20
-3.769610
  0
VERTEX
  8
PLAN_1
  6
CONTINUOUS
 10
2.114894
 20
-3.772539
  0
VERTEX
  8
PLAN_1
  6
CONTINUOUS
 10
2.117823
 20
-3.775465
  0
VERTEX
  8
PLAN_1
  6
CONTINUOUS
 10
2.120752
 20
-3.778882
  0
VERTEX
  8
PLAN_1
  6
CONTINUOUS
 10
2.123677
 20
-3.782787
  0
VERTEX
  8
PLAN_1
  6
CONTINUOUS
 10
2.125630
 20
-3.786693
  0
VERTEX
  8
PLAN_1
  6
CONTINUOUS
 10
2.127583
 20
-3.791087
  0
VERTEX
  8
PLAN_1
  6
CONTINUOUS
 10
2.129047
 20
-3.795476
  0
VERTEX
  8
PLAN_1
  6
CONTINUOUS
 10
2.130024
 20
-3.800846
  0
VERTEX
  8
PLAN_1
  6
CONTINUOUS
 10
2.131000
 20
-3.806217
  0
VERTEX
  8
PLAN_1
  6
CONTINUOUS
 10
2.131000
 20
-3.811587
  0
VERTEX
  8
PLAN_1
  6
CONTINUOUS
 10
2.131000
 20
-3.815976
  0
VERTEX
  8
PLAN_1
  6
CONTINUOUS
 10
2.130512
 20
-3.820370
  0
VERTEX
  8
PLAN_1
  6
CONTINUOUS
 10
2.130024
 20
-3.824276
  0
VERTEX
  8
PLAN_1
  6
CONTINUOUS
 10
2.129047
 20
-3.827693
  0
VERTEX
  8
PLAN_1
  6
CONTINUOUS
 10
2.128071
 20
-3.831594
  0
VERTEX
  8
PLAN_1
  6
CONTINUOUS
 10
2.126606
 20
-3.835012
  0
VERTEX
  8
PLAN_1
  6
CONTINUOUS
 10
2.125142
 20
-3.837941
  0
VERTEX
  8
PLAN_1
  6
CONTINUOUS
 10
2.123677
 20
-3.840870
  0
VERTEX
  8
PLAN_1
  6
CONTINUOUS
 10
2.119776
 20
-3.846728
  0
VERTEX
  8
PLAN_1
  6
CONTINUOUS
 10
2.115382
 20
-3.851606
  0
VERTEX
  8
PLAN_1
  6
CONTINUOUS
 10
2.110500
 20
-3.856000
  0
VERTEX
  8
PLAN_1
  6
CONTINUOUS
 10
2.104642
 20
-3.859417
  0
VERTEX
  8
PLAN_1
  6
CONTINUOUS
 10
2.098787
 20
-3.862835
  0
VERTEX
  8
PLAN_1
  6
CONTINUOUS
 10
2.092441
 20
-3.865276
  0
VERTEX
  8
PLAN_1
  6
CONTINUOUS
 10
2.086094
 20
-3.867717
  0
VERTEX
  8
PLAN_1
  6
CONTINUOUS
 10
2.079752
 20
-3.869181
  0
VERTEX
  8
PLAN_1
  6
CONTINUOUS
 10
2.072917
 20
-3.870642
  0
VERTEX
  8
PLAN_1
  6
CONTINUOUS
 10
2.066083
 20
-3.871130
  0
VERTEX
  8
PLAN_1
  6
CONTINUOUS
 10
2.059740
 20
-3.871618
  0
VERTEX
  8
PLAN_1
  6
CONTINUOUS
 10
2.052906
 20
-3.872106
  0
VERTEX
  8
PLAN_1
  6
CONTINUOUS
 10
2.046559
 20
-3.871618
  0
VERTEX
  8
PLAN_1
  6
CONTINUOUS
 10
2.040217
 20
-3.871618
  0
VERTEX
  8
PLAN_1
  6
CONTINUOUS
 10
2.034358
 20
-3.871130
  0
VERTEX
  8
PLAN_1
  6
CONTINUOUS
 10
2.029476
 20
-3.870154
  0
VERTEX
  8
PLAN_1
  6
CONTINUOUS
 10
2.020205
 20
-3.868205
  0
VERTEX
  8
PLAN_1
  6
CONTINUOUS
 10
2.012394
 20
-3.865276
  0
VERTEX
  8
PLAN_1
  6
CONTINUOUS
 10
2.006051
 20
-3.862346
  0
VERTEX
  8
PLAN_1
  6
CONTINUOUS
 10
2.000681
 20
-3.859417
  0
VERTEX
  8
PLAN_1
  6
CONTINUOUS
 10
1.996287
 20
-3.856000
  0
VERTEX
  8
PLAN_1
  6
CONTINUOUS
 10
1.992870
 20
-3.852583
  0
VERTEX
  8
PLAN_1
  6
CONTINUOUS
 10
1.987016
 20
-3.847217
  0
VERTEX
  8
PLAN_1
  6
CONTINUOUS
 10
1.982622
 20
-3.840870
  0
VERTEX
  8
PLAN_1
  6
CONTINUOUS
 10
1.978717
 20
-3.835012
  0
VERTEX
  8
PLAN_1
  6
CONTINUOUS
 10
1.976276
 20
-3.828669
  0
VERTEX
  8
PLAN_1
  6
CONTINUOUS
 10
1.974323
 20
-3.822323
  0
VERTEX
  8
PLAN_1
  6
CONTINUOUS
 10
1.973346
 20
-3.815976
  0
VERTEX
  8
PLAN_1
  6
CONTINUOUS
 10
1.972858
 20
-3.809146
  0
VERTEX
  8
PLAN_1
  6
CONTINUOUS
 10
1.972370
 20
-3.802311
  0
VERTEX
  8
PLAN_1
  6
CONTINUOUS
 10
1.997752
 20
-3.802311
  0
VERTEX
  8
PLAN_1
  6
CONTINUOUS
 10
1.998240
 20
-3.808657
  0
VERTEX
  8
PLAN_1
  6
CONTINUOUS
 10
1.999217
 20
-3.814512
  0
VERTEX
  8
PLAN_1
  6
CONTINUOUS
 10
2.000681
 20
-3.819882
  0
VERTEX
  8
PLAN_1
  6
CONTINUOUS
 10
2.002634
 20
-3.824764
  0
VERTEX
  8
PLAN_1
  6
CONTINUOUS
 10
2.005563
 20
-3.829157
  0
VERTEX
  8
PLAN_1
  6
CONTINUOUS
 10
2.008488
 20
-3.833059
  0
VERTEX
  8
PLAN_1
  6
CONTINUOUS
 10
2.011906
 20
-3.836476
  0
VERTEX
  8
PLAN_1
  6
CONTINUOUS
 10
2.015811
 20
-3.838917
  0
VERTEX
  8
PLAN_1
  6
CONTINUOUS
 10
2.019717
 20
-3.841846
  0
VERTEX
  8
PLAN_1
  6
CONTINUOUS
 10
2.024110
 20
-3.843799
  0
VERTEX
  8
PLAN_1
  6
CONTINUOUS
 10
2.028500
 20
-3.845264
  0
VERTEX
  8
PLAN_1
  6
CONTINUOUS
 10
2.033382
 20
-3.846728
  0
VERTEX
  8
PLAN_1
  6
CONTINUOUS
 10
2.038264
 20
-3.847705
  0
VERTEX
  8
PLAN_1
  6
CONTINUOUS
 10
2.043146
 20
-3.848193
  0
VERTEX
  8
PLAN_1
  6
CONTINUOUS
 10
2.048024
 20
-3.848681
  0
VERTEX
  8
PLAN_1
  6
CONTINUOUS
 10
2.052906
 20
-3.849169
  0
VERTEX
  8
PLAN_1
  6
CONTINUOUS
 10
2.060717
 20
-3.848681
  0
VERTEX
  8
PLAN_1
  6
CONTINUOUS
 10
2.069012
 20
-3.847705
  0
VERTEX
  8
PLAN_1
  6
CONTINUOUS
 10
2.073406
 20
-3.846728
  0
VERTEX
  8
PLAN_1
  6
CONTINUOUS
 10
2.077799
 20
-3.845752
  0
VERTEX
  8
PLAN_1
  6
CONTINUOUS
 10
2.082193
 20
-3.844287
  0
VERTEX
  8
PLAN_1
  6
CONTINUOUS
 10
2.086094
 20
-3.842823
  0
VERTEX
  8
PLAN_1
  6
CONTINUOUS
 10
2.090000
 20
-3.840870
  0
VERTEX
  8
PLAN_1
  6
CONTINUOUS
 10
2.093417
 20
-3.838429
  0
VERTEX
  8
PLAN_1
  6
CONTINUOUS
 10
2.096835
 20
-3.835988
  0
VERTEX
  8
PLAN_1
  6
CONTINUOUS
 10
2.099276
 20
-3.832571
  0
VERTEX
  8
PLAN_1
  6
CONTINUOUS
 10
2.101717
 20
-3.829157
  0
VERTEX
  8
PLAN_1
  6
CONTINUOUS
 10
2.103665
 20
-3.824764
  0
VERTEX
  8
PLAN_1
  6
CONTINUOUS
 10
2.104642
 20
-3.820370
  0
VERTEX
  8
PLAN_1
  6
CONTINUOUS
 10
2.105130
 20
-3.815488
  0
VERTEX
  8
PLAN_1
  6
CONTINUOUS
 10
2.104642
 20
-3.811587
  0
VERTEX
  8
PLAN_1
  6
CONTINUOUS
 10
2.104642
 20
-3.808169
  0
VERTEX
  8
PLAN_1
  6
CONTINUOUS
 10
2.103665
 20
-3.805240
  0
VERTEX
  8
PLAN_1
  6
CONTINUOUS
 10
2.102693
 20
-3.802311
  0
VERTEX
  8
PLAN_1
  6
CONTINUOUS
 10
2.101717
 20
-3.799382
  0
VERTEX
  8
PLAN_1
  6
CONTINUOUS
 10
2.100252
 20
-3.796941
  0
VERTEX
  8
PLAN_1
  6
CONTINUOUS
 10
2.098299
 20
-3.794988
  0
VERTEX
  8
PLAN_1
  6
CONTINUOUS
 10
2.095858
 20
-3.793039
  0
VERTEX
  8
PLAN_1
  6
CONTINUOUS
 10
2.093417
 20
-3.791087
  0
VERTEX
  8
PLAN_1
  6
CONTINUOUS
 10
2.090488
 20
-3.789134
  0
VERTEX
  8
PLAN_1
  6
CONTINUOUS
 10
2.086583
 20
-3.787669
  0
VERTEX
  8
PLAN_1
  6
CONTINUOUS
 10
2.082681
 20
-3.785717
  0
VERTEX
  8
PLAN_1
  6
CONTINUOUS
 10
2.073894
 20
-3.782787
  0
VERTEX
  8
PLAN_1
  6
CONTINUOUS
 10
2.062669
 20
-3.779858
  0
VERTEX
  8
PLAN_1
  6
CONTINUOUS
 10
2.021669
 20
-3.770587
  0
VERTEX
  8
PLAN_1
  6
CONTINUOUS
 10
2.016299
 20
-3.769122
  0
VERTEX
  8
PLAN_1
  6
CONTINUOUS
 10
2.009465
 20
-3.766681
  0
VERTEX
  8
PLAN_1
  6
CONTINUOUS
 10
2.006051
 20
-3.765217
  0
VERTEX
  8
PLAN_1
  6
CONTINUOUS
 10
2.002634
 20
-3.763752
  0
VERTEX
  8
PLAN_1
  6
CONTINUOUS
 10
1.998728
 20
-3.761311
  0
VERTEX
  8
PLAN_1
  6
CONTINUOUS
 10
1.995311
 20
-3.758870
  0
VERTEX
  8
PLAN_1
  6
CONTINUOUS
 10
1.992382
 20
-3.756429
  0
VERTEX
  8
PLAN_1
  6
CONTINUOUS
 10
1.988969
 20
-3.753016
  0
VERTEX
  8
PLAN_1
  6
CONTINUOUS
 10
1.986528
 20
-3.749598
  0
VERTEX
  8
PLAN_1
  6
CONTINUOUS
 10
1.984087
 20
-3.745205
  0
VERTEX
  8
PLAN_1
  6
CONTINUOUS
 10
1.982134
 20
-3.740811
  0
VERTEX
  8
PLAN_1
  6
CONTINUOUS
 10
1.980669
 20
-3.735445
  0
VERTEX
  8
PLAN_1
  6
CONTINUOUS
 10
1.979693
 20
-3.730075
  0
VERTEX
  8
PLAN_1
  6
CONTINUOUS
 10
1.979205
 20
-3.723728
  0
VERTEX
  8
PLAN_1
  6
CONTINUOUS
 10
1.979205
 20
-3.717874
  0
VERTEX
  8
PLAN_1
  6
CONTINUOUS
 10
1.980181
 20
-3.712016
  0
VERTEX
  8
PLAN_1
  6
CONTINUOUS
 10
1.981157
 20
-3.706646
  0
VERTEX
  8
PLAN_1
  6
CONTINUOUS
 10
1.983110
 20
-3.700787
  0
VERTEX
  8
PLAN_1
  6
CONTINUOUS
 10
1.985551
 20
-3.695909
  0
VERTEX
  8
PLAN_1
  6
CONTINUOUS
 10
1.987992
 20
-3.690539
  0
VERTEX
  8
PLAN_1
  6
CONTINUOUS
 10
1.991406
 20
-3.685657
  0
VERTEX
  8
PLAN_1
  6
CONTINUOUS
 10
1.995311
 20
-3.681264
  0
VERTEX
  8
PLAN_1
  6
CONTINUOUS
 10
1.999705
 20
-3.677362
  0
VERTEX
  8
PLAN_1
  6
CONTINUOUS
 10
2.004587
 20
-3.673457
  0
VERTEX
  8
PLAN_1
  6
CONTINUOUS
 10
2.010441
 20
-3.670039
  0
VERTEX
  8
PLAN_1
  6
CONTINUOUS
 10
2.016787
 20
-3.667598
  0
VERTEX
  8
PLAN_1
  6
CONTINUOUS
 10
2.023622
 20
-3.665157
  0
VERTEX
  8
PLAN_1
  6
CONTINUOUS
 10
2.030941
 20
-3.663693
  0
VERTEX
  8
PLAN_1
  6
CONTINUOUS
 10
2.039240
 20
-3.662717
  0
VERTEX
  8
PLAN_1
  6
CONTINUOUS
 10
2.047535
 20
-3.662228
  0
VERTEX
  8
PLAN_1
  6
CONTINUOUS
 10
2.053882
 20
-3.662228
  0
VERTEX
  8
PLAN_1
  6
CONTINUOUS
 10
2.060228
 20
-3.662717
  0
VERTEX
  8
PLAN_1
  6
CONTINUOUS
 10
2.065594
 20
-3.663205
  0
VERTEX
  8
PLAN_1
  6
CONTINUOUS
 10
2.070965
 20
-3.664181
  0
VERTEX
  8
PLAN_1
  6
CONTINUOUS
 10
2.075846
 20
-3.665157
  0
VERTEX
  8
PLAN_1
  6
CONTINUOUS
 10
2.080728
 20
-3.666134
  0
VERTEX
  8
PLAN_1
  6
CONTINUOUS
 10
2.085118
 20
-3.667598
  0
VERTEX
  8
PLAN_1
  6
CONTINUOUS
 10
2.089024
 20
-3.669063
  0
VERTEX
  8
PLAN_1
  6
CONTINUOUS
 10
2.096346
 20
-3.672480
  0
VERTEX
  8
PLAN_1
  6
CONTINUOUS
 10
2.102693
 20
-3.676386
  0
VERTEX
  8
PLAN_1
  6
CONTINUOUS
 10
2.108059
 20
-3.680776
  0
VERTEX
  8
PLAN_1
  6
CONTINUOUS
 10
2.112453
 20
-3.685657
  0
VERTEX
  8
PLAN_1
  6
CONTINUOUS
 10
2.115870
 20
-3.690539
  0
VERTEX
  8
PLAN_1
  6
CONTINUOUS
 10
2.118799
 20
-3.695909
  0
VERTEX
  8
PLAN_1
  6
CONTINUOUS
 10
2.120752
 20
-3.701276
  0
VERTEX
  8
PLAN_1
  6
CONTINUOUS
 10
2.122701
 20
-3.706646
  0
VERTEX
  8
PLAN_1
  6
CONTINUOUS
 10
2.123677
 20
-3.711528
  0
VERTEX
  8
PLAN_1
  6
CONTINUOUS
 10
2.124654
 20
-3.716898
  0
VERTEX
  8
PLAN_1
  6
CONTINUOUS
 10
2.125142
 20
-3.721287
  0
VERTEX
  8
PLAN_1
  6
CONTINUOUS
 10
2.125630
 20
-3.725681
  0
VERTEX
  8
PLAN_1
  6
CONTINUOUS
 10
2.100252
 20
-3.725681
  0
SEQEND
  8
0
  0
POLYLINE
  8
PLAN_1
  6
CONTINUOUS
 66
     1
 40
0.008295
 41
0.008295
  0
VERTEX
  8
PLAN_1
  6
CONTINUOUS
 10
-0.408516
 20
3.903606
  0
VERTEX
  8
PLAN_1
  6
CONTINUOUS
 10
-0.720894
 20
3.903606
  0
VERTEX
  8
PLAN_1
  6
CONTINUOUS
 10
-0.720894
 20
3.707398
  0
VERTEX
  8
PLAN_1
  6
CONTINUOUS
 10
-1.408118
 20
3.707398
  0
VERTEX
  8
PLAN_1
  6
CONTINUOUS
 10
-1.408118
 20
3.903606
  0
VERTEX
  8
PLAN_1
  6
CONTINUOUS
 10
-1.716102
 20
3.903606
  0
VERTEX
  8
PLAN_1
  6
CONTINUOUS
 10
-1.716102
 20
3.707398
  0
VERTEX
  8
PLAN_1
  6
CONTINUOUS
 10
-2.029453
 20
3.707398
  0
VERTEX
  8
PLAN_1
  6
CONTINUOUS
 10
-2.029453
 20
0.673937
  0
VERTEX
  8
PLAN_1
  6
CONTINUOUS
 10
-0.408516
 20
0.673937
  0
VERTEX
  8
PLAN_1
  6
CONTINUOUS
 10
-0.408516
 20
3.903606
  0
SEQEND
  8
0
  0
POLYLINE
  8
PLAN_1
  6
CONTINUOUS
 66
     1
 40
0.008295
 41
0.008295
  0
VERTEX
  8
PLAN_1
  6
CONTINUOUS
 10
-0.715035
 20
3.707398
  0
VERTEX
  8
PLAN_1
  6
CONTINUOUS
 10
-0.411445
 20
3.707398
  0
SEQEND
  8
0
  0
POLYLINE
  8
PLAN_1
  6
CONTINUOUS
 66
     1
 40
0.008295
 41
0.008295
  0
VERTEX
  8
PLAN_1
  6
CONTINUOUS
 10
-0.384114
 20
3.378913
  0
VERTEX
  8
PLAN_1
  6
CONTINUOUS
 10
-0.384114
 20
3.674693
  0
VERTEX
  8
PLAN_1
  6
CONTINUOUS
 10
-0.408516
 20
3.674693
  0
VERTEX
  8
PLAN_1
  6
CONTINUOUS
 10
-0.408516
 20
3.378913
  0
VERTEX
  8
PLAN_1
  6
CONTINUOUS
 10
-0.384114
 20
3.378913
  0
SEQEND
  8
0
  0
POLYLINE
  8
PLAN_1
  6
CONTINUOUS
 66
     1
 40
0.008295
 41
0.008295
  0
VERTEX
  8
PLAN_1
  6
CONTINUOUS
 10
-0.384114
 20
0.700291
  0
VERTEX
  8
PLAN_1
  6
CONTINUOUS
 10
-0.384114
 20
0.996071
  0
VERTEX
  8
PLAN_1
  6
CONTINUOUS
 10
-0.408516
 20
0.996071
  0
VERTEX
  8
PLAN_1
  6
CONTINUOUS
 10
-0.408516
 20
0.700291
  0
VERTEX
  8
PLAN_1
  6
CONTINUOUS
 10
-0.384114
 20
0.700291
  0
SEQEND
  8
0
  0
POLYLINE
  8
PLAN_1
  6
CONTINUOUS
 66
     1
 40
0.008295
 41
0.008295
  0
VERTEX
  8
PLAN_1
  6
CONTINUOUS
 10
-1.955752
 20
3.707398
  0
VERTEX
  8
PLAN_1
  6
CONTINUOUS
 10
-1.955752
 20
0.673937
  0
SEQEND
  8
0
  0
POLYLINE
  8
PLAN_1
  6
CONTINUOUS
 66
     1
 40
0.008295
 41
0.008295
  0
VERTEX
  8
PLAN_1
  6
CONTINUOUS
 10
-1.874244
 20
3.707398
  0
VERTEX
  8
PLAN_1
  6
CONTINUOUS
 10
-1.874244
 20
0.673937
  0
SEQEND
  8
0
  0
POLYLINE
  8
PLAN_1
  6
CONTINUOUS
 66
     1
 40
0.008295
 41
0.008295
  0
VERTEX
  8
PLAN_1
  6
CONTINUOUS
 10
-1.874244
 20
3.134870
  0
VERTEX
  8
PLAN_1
  6
CONTINUOUS
 10
-1.716102
 20
3.134870
  0
VERTEX
  8
PLAN_1
  6
CONTINUOUS
 10
-1.716102
 20
3.707398
  0
VERTEX
  8
PLAN_1
  6
CONTINUOUS
 10
-1.412512
 20
3.707398
  0
SEQEND
  8
0
  0
POLYLINE
  8
PLAN_1
  6
CONTINUOUS
 66
     1
 40
0.008295
 41
0.008295
  0
VERTEX
  8
PLAN_1
  6
CONTINUOUS
 10
-1.870827
 20
1.210343
  0
VERTEX
  8
PLAN_1
  6
CONTINUOUS
 10
-1.715126
 20
1.210343
  0
VERTEX
  8
PLAN_1
  6
CONTINUOUS
 10
-1.715126
 20
0.673937
  0
SEQEND
  8
0
  0
POLYLINE
  8
PLAN_1
  6
CONTINUOUS
 66
     1
 40
0.008295
 41
0.008295
  0
VERTEX
  8
PLAN_1
  6
CONTINUOUS
 10
-2.029453
 20
0.756909
  0
VERTEX
  8
PLAN_1
  6
CONTINUOUS
 10
-2.029453
 20
1.008276
  0
VERTEX
  8
PLAN_1
  6
CONTINUOUS
 10
-2.125606
 20
1.008276
  0
VERTEX
  8
PLAN_1
  6
CONTINUOUS
 10
-2.125606
 20
0.756909
  0
VERTEX
  8
PLAN_1
  6
CONTINUOUS
 10
-2.029453
 20
0.756909
  0
SEQEND
  8
0
  0
POLYLINE
  8
PLAN_1
  6
CONTINUOUS
 66
     1
 40
0.008295
 41
0.008295
  0
VERTEX
  8
PLAN_1
  6
CONTINUOUS
 10
-2.073870
 20
0.778874
  0
VERTEX
  8
PLAN_1
  6
CONTINUOUS
 10
-2.073870
 20
0.801327
  0
VERTEX
  8
PLAN_1
  6
CONTINUOUS
 10
-2.125606
 20
0.801327
  0
VERTEX
  8
PLAN_1
  6
CONTINUOUS
 10
-2.125606
 20
0.778874
  0
VERTEX
  8
PLAN_1
  6
CONTINUOUS
 10
-2.073870
 20
0.778874
  0
SEQEND
  8
0
  0
POLYLINE
  8
PLAN_1
  6
CONTINUOUS
 66
     1
 40
0.008295
 41
0.008295
  0
VERTEX
  8
PLAN_1
  6
CONTINUOUS
 10
-2.029453
 20
3.624909
  0
VERTEX
  8
PLAN_1
  6
CONTINUOUS
 10
-2.029453
 20
3.373543
  0
VERTEX
  8
PLAN_1
  6
CONTINUOUS
 10
-2.125606
 20
3.373543
  0
VERTEX
  8
PLAN_1
  6
CONTINUOUS
 10
-2.125606
 20
3.624909
  0
VERTEX
  8
PLAN_1
  6
CONTINUOUS
 10
-2.029453
 20
3.624909
  0
SEQEND
  8
0
  0
POLYLINE
  8
PLAN_1
  6
CONTINUOUS
 66
     1
 40
0.008295
 41
0.008295
  0
VERTEX
  8
PLAN_1
  6
CONTINUOUS
 10
-2.073870
 20
3.602945
  0
VERTEX
  8
PLAN_1
  6
CONTINUOUS
 10
-2.073870
 20
3.580492
  0
VERTEX
  8
PLAN_1
  6
CONTINUOUS
 10
-2.125606
 20
3.580492
  0
VERTEX
  8
PLAN_1
  6
CONTINUOUS
 10
-2.125606
 20
3.602945
  0
VERTEX
  8
PLAN_1
  6
CONTINUOUS
 10
-2.073870
 20
3.602945
  0
SEQEND
  8
0
  0
POLYLINE
  8
PLAN_1
  6
CONTINUOUS
 66
     1
 40
0.008295
 41
0.008295
  0
VERTEX
  8
PLAN_1
  6
CONTINUOUS
 10
-0.559335
 20
0.596331
  0
VERTEX
  8
PLAN_1
  6
CONTINUOUS
 10
-0.559335
 20
0.673937
  0
VERTEX
  8
PLAN_1
  6
CONTINUOUS
 10
-1.429106
 20
0.673937
  0
VERTEX
  8
PLAN_1
  6
CONTINUOUS
 10
-1.429106
 20
0.596331
  0
VERTEX
  8
PLAN_1
  6
CONTINUOUS
 10
-0.559335
 20
0.596331
  0
SEQEND
  8
0
  0
POLYLINE
  8
PLAN_1
  6
CONTINUOUS
 66
     1
 40
0.008295
 41
0.008295
  0
VERTEX
  8
PLAN_1
  6
CONTINUOUS
 10
-1.413976
 20
0.673937
  0
VERTEX
  8
PLAN_1
  6
CONTINUOUS
 10
-1.413976
 20
0.596331
  0
SEQEND
  8
0
  0
POLYLINE
  8
PLAN_1
  6
CONTINUOUS
 66
     1
 40
0.008295
 41
0.008295
  0
VERTEX
  8
PLAN_1
  6
CONTINUOUS
 10
-1.152850
 20
0.201469
  0
VERTEX
  8
PLAN_1
  6
CONTINUOUS
 10
-0.835594
 20
0.201469
  0
VERTEX
  8
PLAN_1
  6
CONTINUOUS
 10
-0.797035
 20
0.241000
  0
VERTEX
  8
PLAN_1
  6
CONTINUOUS
 10
-0.797035
 20
0.596819
  0
VERTEX
  8
PLAN_1
  6
CONTINUOUS
 10
-1.192386
 20
0.596819
  0
VERTEX
  8
PLAN_1
  6
CONTINUOUS
 10
-1.192386
 20
0.241000
  0
VERTEX
  8
PLAN_1
  6
CONTINUOUS
 10
-1.152850
 20
0.201469
  0
SEQEND
  8
0
  0
POLYLINE
  8
PLAN_1
  6
CONTINUOUS
 66
     1
 40
0.004390
 41
0.004390
  0
VERTEX
  8
PLAN_1
  6
CONTINUOUS
 10
-1.152850
 20
0.596819
  0
VERTEX
  8
PLAN_1
  6
CONTINUOUS
 10
-1.152850
 20
0.201469
  0
SEQEND
  8
0
  0
POLYLINE
  8
PLAN_1
  6
CONTINUOUS
 66
     1
 40
0.004390
 41
0.004390
  0
VERTEX
  8
PLAN_1
  6
CONTINUOUS
 10
-0.836571
 20
0.596819
  0
VERTEX
  8
PLAN_1
  6
CONTINUOUS
 10
-0.836571
 20
0.201469
  0
SEQEND
  8
0
  0
POLYLINE
  8
PLAN_1
  6
CONTINUOUS
 66
     1
 40
0.008295
 41
0.008295
  0
VERTEX
  8
PLAN_1
  6
CONTINUOUS
 10
-0.797035
 20
0.241000
  0
VERTEX
  8
PLAN_1
  6
CONTINUOUS
 10
-1.192386
 20
0.241000
  0
SEQEND
  8
0
  0
POLYLINE
  8
PLAN_1
  6
CONTINUOUS
 66
     1
 40
0.008295
 41
0.008295
  0
VERTEX
  8
PLAN_1
  6
CONTINUOUS
 10
-0.576417
 20
0.673937
  0
VERTEX
  8
PLAN_1
  6
CONTINUOUS
 10
-0.576417
 20
0.596331
  0
SEQEND
  8
0
  0
POLYLINE
  8
PLAN_1
  6
CONTINUOUS
 66
     1
 40
0.008295
 41
0.008295
  0
VERTEX
  8
PLAN_1
  6
CONTINUOUS
 10
-1.062555
 20
0.673937
  0
VERTEX
  8
PLAN_1
  6
CONTINUOUS
 10
-1.062555
 20
0.596331
  0
SEQEND
  8
0
  0
POLYLINE
  8
PLAN_1
  6
CONTINUOUS
 66
     1
 40
0.008295
 41
0.008295
  0
VERTEX
  8
PLAN_1
  6
CONTINUOUS
 10
-0.926866
 20
0.673937
  0
VERTEX
  8
PLAN_1
  6
CONTINUOUS
 10
-0.926866
 20
0.596331
  0
SEQEND
  8
0
  0
POLYLINE
  8
PLAN_1
 62
     2
  6
CONTINUOUS
 66
     1
 40
0.004390
 41
0.004390
  0
VERTEX
  8
PLAN_1
 62
     2
  6
CONTINUOUS
 10
-0.384114
 20
0.676374
  0
VERTEX
  8
PLAN_1
 62
     2
  6
CONTINUOUS
 10
-0.384114
 20
0.221969
  0
SEQEND
  8
0
  0
POLYLINE
  8
PLAN_1
 62
     2
  6
CONTINUOUS
 66
     1
 40
0.004390
 41
0.004390
  0
VERTEX
  8
PLAN_1
 62
     2
  6
CONTINUOUS
 10
-0.384114
 20
0.152657
  0
VERTEX
  8
PLAN_1
 62
     2
  6
CONTINUOUS
 10
-0.384114
 20
-0.307606
  0
SEQEND
  8
0
  0
POLYLINE
  8
PLAN_1
 62
     2
  6
CONTINUOUS
 66
     1
 40
0.004390
 41
0.004390
  0
VERTEX
  8
PLAN_1
 62
     2
  6
CONTINUOUS
 10
-1.715126
 20
0.647091
  0
VERTEX
  8
PLAN_1
 62
     2
  6
CONTINUOUS
 10
-1.715126
 20
-0.149957
  0
SEQEND
  8
0
  0
POLYLINE
  8
PLAN_1
 62
     2
  6
CONTINUOUS
 66
     1
 40
0.004390
 41
0.004390
  0
VERTEX
  8
PLAN_1
 62
     2
  6
CONTINUOUS
 10
-1.685843
 20
-0.126528
  0
VERTEX
  8
PLAN_1
 62
     2
  6
CONTINUOUS
 10
-0.413398
 20
-0.126528
  0
SEQEND
  8
0
  0
SOLID
  8
PLAN_1
 62
     2
 10
-0.384114
 20
-0.126528
 11
-0.443169
 21
-0.110909
 12
-0.384114
 22
-0.126528
 13
-0.443169
 23
-0.142146
  0
POLYLINE
  8
PLAN_1
 62
     2
  6
CONTINUOUS
 66
     1
 40
0.003000
 41
0.003000
  0
VERTEX
  8
PLAN_1
 62
     2
  6
CONTINUOUS
 10
-0.384114
 20
-0.126528
  0
VERTEX
  8
PLAN_1
 62
     2
  6
CONTINUOUS
 10
-0.443169
 20
-0.110909
  0
VERTEX
  8
PLAN_1
 62
     2
  6
CONTINUOUS
 10
-0.443169
 20
-0.142146
  0
VERTEX
  8
PLAN_1
 62
     2
  6
CONTINUOUS
 10
-0.384114
 20
-0.126528
  0
SEQEND
  8
0
  0
SOLID
  8
PLAN_1
 62
     2
 10
-1.715126
 20
-0.126528
 11
-1.656067
 21
-0.110909
 12
-1.715126
 22
-0.126528
 13
-1.656067
 23
-0.142146
  0
POLYLINE
  8
PLAN_1
 62
     2
  6
CONTINUOUS
 66
     1
 40
0.003000
 41
0.003000
  0
VERTEX
  8
PLAN_1
 62
     2
  6
CONTINUOUS
 10
-1.715126
 20
-0.126528
  0
VERTEX
  8
PLAN_1
 62
     2
  6
CONTINUOUS
 10
-1.656067
 20
-0.110909
  0
VERTEX
  8
PLAN_1
 62
     2
  6
CONTINUOUS
 10
-1.656067
 20
-0.142146
  0
VERTEX
  8
PLAN_1
 62
     2
  6
CONTINUOUS
 10
-1.715126
 20
-0.126528
  0
SEQEND
  8
0
  0
POLYLINE
  8
PLAN_1
 62
     2
  6
CONTINUOUS
 66
     1
 40
0.003000
 41
0.003000
  0
VERTEX
  8
PLAN_1
 62
     2
  6
CONTINUOUS
 10
-1.127469
 20
-0.061122
  0
VERTEX
  8
PLAN_1
 62
     2
  6
CONTINUOUS
 10
-1.126980
 20
-0.061610
  0
VERTEX
  8
PLAN_1
 62
     2
  6
CONTINUOUS
 10
-1.126492
 20
-0.061610
  0
VERTEX
  8
PLAN_1
 62
     2
  6
CONTINUOUS
 10
-1.126004
 20
-0.061610
  0
VERTEX
  8
PLAN_1
 62
     2
  6
CONTINUOUS
 10
-1.125028
 20
-0.061610
  0
VERTEX
  8
PLAN_1
 62
     2
  6
CONTINUOUS
 10
-1.124539
 20
-0.061610
  0
VERTEX
  8
PLAN_1
 62
     2
  6
CONTINUOUS
 10
-1.124051
 20
-0.061610
  0
VERTEX
  8
PLAN_1
 62
     2
  6
CONTINUOUS
 10
-1.123563
 20
-0.061610
  0
VERTEX
  8
PLAN_1
 62
     2
  6
CONTINUOUS
 10
-1.122587
 20
-0.061610
  0
VERTEX
  8
PLAN_1
 62
     2
  6
CONTINUOUS
 10
-1.120150
 20
-0.061610
  0
VERTEX
  8
PLAN_1
 62
     2
  6
CONTINUOUS
 10
-1.117709
 20
-0.061122
  0
VERTEX
  8
PLAN_1
 62
     2
  6
CONTINUOUS
 10
-1.115268
 20
-0.060150
  0
VERTEX
  8
PLAN_1
 62
     2
  6
CONTINUOUS
 10
-1.113315
 20
-0.059173
  0
VERTEX
  8
PLAN_1
 62
     2
  6
CONTINUOUS
 10
-1.111362
 20
-0.057220
  0
VERTEX
  8
PLAN_1
 62
     2
  6
CONTINUOUS
 10
-1.109898
 20
-0.055268
  0
VERTEX
  8
PLAN_1
 62
     2
  6
CONTINUOUS
 10
-1.109409
 20
-0.052827
  0
VERTEX
  8
PLAN_1
 62
     2
  6
CONTINUOUS
 10
-1.108921
 20
-0.049409
  0
VERTEX
  8
PLAN_1
 62
     2
  6
CONTINUOUS
 10
-1.108921
 20
-0.047945
  0
VERTEX
  8
PLAN_1
 62
     2
  6
CONTINUOUS
 10
-1.109409
 20
-0.045992
  0
VERTEX
  8
PLAN_1
 62
     2
  6
CONTINUOUS
 10
-1.110386
 20
-0.044039
  0
VERTEX
  8
PLAN_1
 62
     2
  6
CONTINUOUS
 10
-1.111362
 20
-0.042087
  0
VERTEX
  8
PLAN_1
 62
     2
  6
CONTINUOUS
 10
-1.113315
 20
-0.040626
  0
VERTEX
  8
PLAN_1
 62
     2
  6
CONTINUOUS
 10
-1.115756
 20
-0.039161
  0
VERTEX
  8
PLAN_1
 62
     2
  6
CONTINUOUS
 10
-1.118685
 20
-0.038185
  0
VERTEX
  8
PLAN_1
 62
     2
  6
CONTINUOUS
 10
-1.122587
 20
-0.038185
  0
VERTEX
  8
PLAN_1
 62
     2
  6
CONTINUOUS
 10
-1.124539
 20
-0.038185
  0
VERTEX
  8
PLAN_1
 62
     2
  6
CONTINUOUS
 10
-1.126492
 20
-0.038673
  0
VERTEX
  8
PLAN_1
 62
     2
  6
CONTINUOUS
 10
-1.128445
 20
-0.039161
  0
VERTEX
  8
PLAN_1
 62
     2
  6
CONTINUOUS
 10
-1.129909
 20
-0.039650
  0
VERTEX
  8
PLAN_1
 62
     2
  6
CONTINUOUS
 10
-1.132350
 20
-0.041602
  0
VERTEX
  8
PLAN_1
 62
     2
  6
CONTINUOUS
 10
-1.134303
 20
-0.044039
  0
VERTEX
  8
PLAN_1
 62
     2
  6
CONTINUOUS
 10
-1.135280
 20
-0.046480
  0
VERTEX
  8
PLAN_1
 62
     2
  6
CONTINUOUS
 10
-1.136256
 20
-0.048921
  0
VERTEX
  8
PLAN_1
 62
     2
  6
CONTINUOUS
 10
-1.136256
 20
-0.051850
  0
VERTEX
  8
PLAN_1
 62
     2
  6
CONTINUOUS
 10
-1.136744
 20
-0.053803
  0
VERTEX
  8
PLAN_1
 62
     2
  6
CONTINUOUS
 10
-1.145528
 20
-0.053803
  0
VERTEX
  8
PLAN_1
 62
     2
  6
CONTINUOUS
 10
-1.145528
 20
-0.049409
  0
VERTEX
  8
PLAN_1
 62
     2
  6
CONTINUOUS
 10
-1.144551
 20
-0.045504
  0
VERTEX
  8
PLAN_1
 62
     2
  6
CONTINUOUS
 10
-1.143087
 20
-0.041602
  0
VERTEX
  8
PLAN_1
 62
     2
  6
CONTINUOUS
 10
-1.141134
 20
-0.037697
  0
VERTEX
  8
PLAN_1
 62
     2
  6
CONTINUOUS
 10
-1.139673
 20
-0.036232
  0
VERTEX
  8
PLAN_1
 62
     2
  6
CONTINUOUS
 10
-1.137720
 20
-0.034768
  0
VERTEX
  8
PLAN_1
 62
     2
  6
CONTINUOUS
 10
-1.135768
 20
-0.033303
  0
VERTEX
  8
PLAN_1
 62
     2
  6
CONTINUOUS
 10
-1.133815
 20
-0.031839
  0
VERTEX
  8
PLAN_1
 62
     2
  6
CONTINUOUS
 10
-1.131374
 20
-0.031350
  0
VERTEX
  8
PLAN_1
 62
     2
  6
CONTINUOUS
 10
-1.128445
 20
-0.030374
  0
VERTEX
  8
PLAN_1
 62
     2
  6
CONTINUOUS
 10
-1.125516
 20
-0.029886
  0
VERTEX
  8
PLAN_1
 62
     2
  6
CONTINUOUS
 10
-1.122098
 20
-0.029886
  0
VERTEX
  8
PLAN_1
 62
     2
  6
CONTINUOUS
 10
-1.116732
 20
-0.030374
  0
VERTEX
  8
PLAN_1
 62
     2
  6
CONTINUOUS
 10
-1.112339
 20
-0.031350
  0
VERTEX
  8
PLAN_1
 62
     2
  6
CONTINUOUS
 10
-1.108433
 20
-0.032815
  0
VERTEX
  8
PLAN_1
 62
     2
  6
CONTINUOUS
 10
-1.105504
 20
-0.035256
  0
VERTEX
  8
PLAN_1
 62
     2
  6
CONTINUOUS
 10
-1.102575
 20
-0.038185
  0
VERTEX
  8
PLAN_1
 62
     2
  6
CONTINUOUS
 10
-1.101114
 20
-0.041602
  0
VERTEX
  8
PLAN_1
 62
     2
  6
CONTINUOUS
 10
-1.099650
 20
-0.045016
  0
VERTEX
  8
PLAN_1
 62
     2
  6
CONTINUOUS
 10
-1.099161
 20
-0.048921
  0
VERTEX
  8
PLAN_1
 62
     2
  6
CONTINUOUS
 10
-1.099650
 20
-0.052339
  0
VERTEX
  8
PLAN_1
 62
     2
  6
CONTINUOUS
 10
-1.100138
 20
-0.055268
  0
VERTEX
  8
PLAN_1
 62
     2
  6
CONTINUOUS
 10
-1.101114
 20
-0.057709
  0
VERTEX
  8
PLAN_1
 62
     2
  6
CONTINUOUS
 10
-1.102575
 20
-0.059661
  0
VERTEX
  8
PLAN_1
 62
     2
  6
CONTINUOUS
 10
-1.104039
 20
-0.061122
  0
VERTEX
  8
PLAN_1
 62
     2
  6
CONTINUOUS
 10
-1.105504
 20
-0.062587
  0
VERTEX
  8
PLAN_1
 62
     2
  6
CONTINUOUS
 10
-1.107457
 20
-0.063563
  0
VERTEX
  8
PLAN_1
 62
     2
  6
CONTINUOUS
 10
-1.108921
 20
-0.064051
  0
VERTEX
  8
PLAN_1
 62
     2
  6
CONTINUOUS
 10
-1.108921
 20
-0.064539
  0
VERTEX
  8
PLAN_1
 62
     2
  6
CONTINUOUS
 10
-1.105992
 20
-0.065516
  0
VERTEX
  8
PLAN_1
 62
     2
  6
CONTINUOUS
 10
-1.104039
 20
-0.066492
  0
VERTEX
  8
PLAN_1
 62
     2
  6
CONTINUOUS
 10
-1.101602
 20
-0.067957
  0
VERTEX
  8
PLAN_1
 62
     2
  6
CONTINUOUS
 10
-1.100138
 20
-0.069909
  0
VERTEX
  8
PLAN_1
 62
     2
  6
CONTINUOUS
 10
-1.098673
 20
-0.072350
  0
VERTEX
  8
PLAN_1
 62
     2
  6
CONTINUOUS
 10
-1.097697
 20
-0.074791
  0
VERTEX
  8
PLAN_1
 62
     2
  6
CONTINUOUS
 10
-1.096720
 20
-0.078209
  0
VERTEX
  8
PLAN_1
 62
     2
  6
CONTINUOUS
 10
-1.096720
 20
-0.081622
  0
VERTEX
  8
PLAN_1
 62
     2
  6
CONTINUOUS
 10
-1.096720
 20
-0.086016
  0
VERTEX
  8
PLAN_1
 62
     2
  6
CONTINUOUS
 10
-1.098185
 20
-0.089921
  0
VERTEX
  8
PLAN_1
 62
     2
  6
CONTINUOUS
 10
-1.100138
 20
-0.094315
  0
VERTEX
  8
PLAN_1
 62
     2
  6
CONTINUOUS
 10
-1.102575
 20
-0.097732
  0
VERTEX
  8
PLAN_1
 62
     2
  6
CONTINUOUS
 10
-1.104528
 20
-0.099193
  0
VERTEX
  8
PLAN_1
 62
     2
  6
CONTINUOUS
 10
-1.106480
 20
-0.100657
  0
VERTEX
  8
PLAN_1
 62
     2
  6
CONTINUOUS
 10
-1.108433
 20
-0.102122
  0
VERTEX
  8
PLAN_1
 62
     2
  6
CONTINUOUS
 10
-1.110874
 20
-0.103098
  0
VERTEX
  8
PLAN_1
 62
     2
  6
CONTINUOUS
 10
-1.113803
 20
-0.103587
  0
VERTEX
  8
PLAN_1
 62
     2
  6
CONTINUOUS
 10
-1.116244
 20
-0.104563
  0
VERTEX
  8
PLAN_1
 62
     2
  6
CONTINUOUS
 10
-1.119661
 20
-0.104563
  0
VERTEX
  8
PLAN_1
 62
     2
  6
CONTINUOUS
 10
-1.123075
 20
-0.105051
  0
VERTEX
  8
PLAN_1
 62
     2
  6
CONTINUOUS
 10
-1.125028
 20
-0.105051
  0
VERTEX
  8
PLAN_1
 62
     2
  6
CONTINUOUS
 10
-1.126980
 20
-0.104563
  0
VERTEX
  8
PLAN_1
 62
     2
  6
CONTINUOUS
 10
-1.128445
 20
-0.104563
  0
VERTEX
  8
PLAN_1
 62
     2
  6
CONTINUOUS
 10
-1.130398
 20
-0.104075
  0
VERTEX
  8
PLAN_1
 62
     2
  6
CONTINUOUS
 10
-1.131862
 20
-0.103587
  0
VERTEX
  8
PLAN_1
 62
     2
  6
CONTINUOUS
 10
-1.133815
 20
-0.103098
  0
VERTEX
  8
PLAN_1
 62
     2
  6
CONTINUOUS
 10
-1.135280
 20
-0.102610
  0
VERTEX
  8
PLAN_1
 62
     2
  6
CONTINUOUS
 10
-1.136256
 20
-0.101634
  0
VERTEX
  8
PLAN_1
 62
     2
  6
CONTINUOUS
 10
-1.139185
 20
-0.099681
  0
VERTEX
  8
PLAN_1
 62
     2
  6
CONTINUOUS
 10
-1.141622
 20
-0.097732
  0
VERTEX
  8
PLAN_1
 62
     2
  6
CONTINUOUS
 10
-1.143087
 20
-0.095291
  0
VERTEX
  8
PLAN_1
 62
     2
  6
CONTINUOUS
 10
-1.144551
 20
-0.092850
  0
VERTEX
  8
PLAN_1
 62
     2
  6
CONTINUOUS
 10
-1.146016
 20
-0.089921
  0
VERTEX
  8
PLAN_1
 62
     2
  6
CONTINUOUS
 10
-1.146504
 20
-0.086992
  0
VERTEX
  8
PLAN_1
 62
     2
  6
CONTINUOUS
 10
-1.146992
 20
-0.083575
  0
VERTEX
  8
PLAN_1
 62
     2
  6
CONTINUOUS
 10
-1.147480
 20
-0.080646
  0
VERTEX
  8
PLAN_1
 62
     2
  6
CONTINUOUS
 10
-1.137720
 20
-0.080646
  0
VERTEX
  8
PLAN_1
 62
     2
  6
CONTINUOUS
 10
-1.137720
 20
-0.083087
  0
VERTEX
  8
PLAN_1
 62
     2
  6
CONTINUOUS
 10
-1.137232
 20
-0.086016
  0
VERTEX
  8
PLAN_1
 62
     2
  6
CONTINUOUS
 10
-1.136256
 20
-0.088945
  0
VERTEX
  8
PLAN_1
 62
     2
  6
CONTINUOUS
 10
-1.135280
 20
-0.091386
  0
VERTEX
  8
PLAN_1
 62
     2
  6
CONTINUOUS
 10
-1.133327
 20
-0.093339
  0
VERTEX
  8
PLAN_1
 62
     2
  6
CONTINUOUS
 10
-1.130398
 20
-0.095291
  0
VERTEX
  8
PLAN_1
 62
     2
  6
CONTINUOUS
 10
-1.126980
 20
-0.096268
  0
VERTEX
  8
PLAN_1
 62
     2
  6
CONTINUOUS
 10
-1.122098
 20
-0.096756
  0
VERTEX
  8
PLAN_1
 62
     2
  6
CONTINUOUS
 10
-1.118685
 20
-0.096268
  0
VERTEX
  8
PLAN_1
 62
     2
  6
CONTINUOUS
 10
-1.115756
 20
-0.095780
  0
VERTEX
  8
PLAN_1
 62
     2
  6
CONTINUOUS
 10
-1.113315
 20
-0.094315
  0
VERTEX
  8
PLAN_1
 62
     2
  6
CONTINUOUS
 10
-1.110874
 20
-0.092850
  0
VERTEX
  8
PLAN_1
 62
     2
  6
CONTINUOUS
 10
-1.108921
 20
-0.090898
  0
VERTEX
  8
PLAN_1
 62
     2
  6
CONTINUOUS
 10
-1.107457
 20
-0.088457
  0
VERTEX
  8
PLAN_1
 62
     2
  6
CONTINUOUS
 10
-1.106480
 20
-0.085528
  0
VERTEX
  8
PLAN_1
 62
     2
  6
CONTINUOUS
 10
-1.106480
 20
-0.082598
  0
VERTEX
  8
PLAN_1
 62
     2
  6
CONTINUOUS
 10
-1.106480
 20
-0.080157
  0
VERTEX
  8
PLAN_1
 62
     2
  6
CONTINUOUS
 10
-1.106969
 20
-0.078697
  0
VERTEX
  8
PLAN_1
 62
     2
  6
CONTINUOUS
 10
-1.107457
 20
-0.076744
  0
VERTEX
  8
PLAN_1
 62
     2
  6
CONTINUOUS
 10
-1.107945
 20
-0.075280
  0
VERTEX
  8
PLAN_1
 62
     2
  6
CONTINUOUS
 10
-1.109898
 20
-0.072839
  0
VERTEX
  8
PLAN_1
 62
     2
  6
CONTINUOUS
 10
-1.112339
 20
-0.071374
  0
VERTEX
  8
PLAN_1
 62
     2
  6
CONTINUOUS
 10
-1.115268
 20
-0.069909
  0
VERTEX
  8
PLAN_1
 62
     2
  6
CONTINUOUS
 10
-1.118197
 20
-0.069421
  0
VERTEX
  8
PLAN_1
 62
     2
  6
CONTINUOUS
 10
-1.121126
 20
-0.069421
  0
VERTEX
  8
PLAN_1
 62
     2
  6
CONTINUOUS
 10
-1.123563
 20
-0.068933
  0
VERTEX
  8
PLAN_1
 62
     2
  6
CONTINUOUS
 10
-1.124051
 20
-0.068933
  0
VERTEX
  8
PLAN_1
 62
     2
  6
CONTINUOUS
 10
-1.124539
 20
-0.068933
  0
VERTEX
  8
PLAN_1
 62
     2
  6
CONTINUOUS
 10
-1.125028
 20
-0.069421
  0
VERTEX
  8
PLAN_1
 62
     2
  6
CONTINUOUS
 10
-1.125516
 20
-0.069421
  0
VERTEX
  8
PLAN_1
 62
     2
  6
CONTINUOUS
 10
-1.126004
 20
-0.069421
  0
VERTEX
  8
PLAN_1
 62
     2
  6
CONTINUOUS
 10
-1.126492
 20
-0.069421
  0
VERTEX
  8
PLAN_1
 62
     2
  6
CONTINUOUS
 10
-1.126980
 20
-0.069421
  0
VERTEX
  8
PLAN_1
 62
     2
  6
CONTINUOUS
 10
-1.127469
 20
-0.069421
  0
VERTEX
  8
PLAN_1
 62
     2
  6
CONTINUOUS
 10
-1.127469
 20
-0.061122
  0
SEQEND
  8
0
  0
POLYLINE
  8
PLAN_1
 62
     2
  6
CONTINUOUS
 66
     1
 40
0.003000
 41
0.003000
  0
VERTEX
  8
PLAN_1
 62
     2
  6
CONTINUOUS
 10
-1.069874
 20
-0.061122
  0
VERTEX
  8
PLAN_1
 62
     2
  6
CONTINUOUS
 10
-1.068898
 20
-0.061610
  0
VERTEX
  8
PLAN_1
 62
     2
  6
CONTINUOUS
 10
-1.068409
 20
-0.061610
  0
VERTEX
  8
PLAN_1
 62
     2
  6
CONTINUOUS
 10
-1.067921
 20
-0.061610
  0
VERTEX
  8
PLAN_1
 62
     2
  6
CONTINUOUS
 10
-1.067433
 20
-0.061610
  0
VERTEX
  8
PLAN_1
 62
     2
  6
CONTINUOUS
 10
-1.066945
 20
-0.061610
  0
VERTEX
  8
PLAN_1
 62
     2
  6
CONTINUOUS
 10
-1.065969
 20
-0.061610
  0
VERTEX
  8
PLAN_1
 62
     2
  6
CONTINUOUS
 10
-1.065480
 20
-0.061610
  0
VERTEX
  8
PLAN_1
 62
     2
  6
CONTINUOUS
 10
-1.064992
 20
-0.061610
  0
VERTEX
  8
PLAN_1
 62
     2
  6
CONTINUOUS
 10
-1.062067
 20
-0.061610
  0
VERTEX
  8
PLAN_1
 62
     2
  6
CONTINUOUS
 10
-1.059626
 20
-0.061122
  0
VERTEX
  8
PLAN_1
 62
     2
  6
CONTINUOUS
 10
-1.057185
 20
-0.060150
  0
VERTEX
  8
PLAN_1
 62
     2
  6
CONTINUOUS
 10
-1.055232
 20
-0.059173
  0
VERTEX
  8
PLAN_1
 62
     2
  6
CONTINUOUS
 10
-1.053768
 20
-0.057220
  0
VERTEX
  8
PLAN_1
 62
     2
  6
CONTINUOUS
 10
-1.052303
 20
-0.055268
  0
VERTEX
  8
PLAN_1
 62
     2
  6
CONTINUOUS
 10
-1.051327
 20
-0.052827
  0
VERTEX
  8
PLAN_1
 62
     2
  6
CONTINUOUS
 10
-1.050839
 20
-0.049409
  0
VERTEX
  8
PLAN_1
 62
     2
  6
CONTINUOUS
 10
-1.051327
 20
-0.047945
  0
VERTEX
  8
PLAN_1
 62
     2
  6
CONTINUOUS
 10
-1.051327
 20
-0.045992
  0
VERTEX
  8
PLAN_1
 62
     2
  6
CONTINUOUS
 10
-1.052303
 20
-0.044039
  0
VERTEX
  8
PLAN_1
 62
     2
  6
CONTINUOUS
 10
-1.053768
 20
-0.042087
  0
VERTEX
  8
PLAN_1
 62
     2
  6
CONTINUOUS
 10
-1.055232
 20
-0.040626
  0
VERTEX
  8
PLAN_1
 62
     2
  6
CONTINUOUS
 10
-1.057673
 20
-0.039161
  0
VERTEX
  8
PLAN_1
 62
     2
  6
CONTINUOUS
 10
-1.060602
 20
-0.038185
  0
VERTEX
  8
PLAN_1
 62
     2
  6
CONTINUOUS
 10
-1.064508
 20
-0.038185
  0
VERTEX
  8
PLAN_1
 62
     2
  6
CONTINUOUS
 10
-1.066945
 20
-0.038185
  0
VERTEX
  8
PLAN_1
 62
     2
  6
CONTINUOUS
 10
-1.068898
 20
-0.038673
  0
VERTEX
  8
PLAN_1
 62
     2
  6
CONTINUOUS
 10
-1.070850
 20
-0.039161
  0
VERTEX
  8
PLAN_1
 62
     2
  6
CONTINUOUS
 10
-1.072315
 20
-0.039650
  0
VERTEX
  8
PLAN_1
 62
     2
  6
CONTINUOUS
 10
-1.074756
 20
-0.041602
  0
VERTEX
  8
PLAN_1
 62
     2
  6
CONTINUOUS
 10
-1.076220
 20
-0.044039
  0
VERTEX
  8
PLAN_1
 62
     2
  6
CONTINUOUS
 10
-1.077685
 20
-0.046480
  0
VERTEX
  8
PLAN_1
 62
     2
  6
CONTINUOUS
 10
-1.078173
 20
-0.048921
  0
VERTEX
  8
PLAN_1
 62
     2
  6
CONTINUOUS
 10
-1.078661
 20
-0.051850
  0
VERTEX
  8
PLAN_1
 62
     2
  6
CONTINUOUS
 10
-1.078661
 20
-0.053803
  0
VERTEX
  8
PLAN_1
 62
     2
  6
CONTINUOUS
 10
-1.087933
 20
-0.053803
  0
VERTEX
  8
PLAN_1
 62
     2
  6
CONTINUOUS
 10
-1.087445
 20
-0.049409
  0
VERTEX
  8
PLAN_1
 62
     2
  6
CONTINUOUS
 10
-1.086957
 20
-0.045504
  0
VERTEX
  8
PLAN_1
 62
     2
  6
CONTINUOUS
 10
-1.085492
 20
-0.041602
  0
VERTEX
  8
PLAN_1
 62
     2
  6
CONTINUOUS
 10
-1.083055
 20
-0.037697
  0
VERTEX
  8
PLAN_1
 62
     2
  6
CONTINUOUS
 10
-1.081591
 20
-0.036232
  0
VERTEX
  8
PLAN_1
 62
     2
  6
CONTINUOUS
 10
-1.080126
 20
-0.034768
  0
VERTEX
  8
PLAN_1
 62
     2
  6
CONTINUOUS
 10
-1.078173
 20
-0.033303
  0
VERTEX
  8
PLAN_1
 62
     2
  6
CONTINUOUS
 10
-1.075732
 20
-0.031839
  0
VERTEX
  8
PLAN_1
 62
     2
  6
CONTINUOUS
 10
-1.073291
 20
-0.031350
  0
VERTEX
  8
PLAN_1
 62
     2
  6
CONTINUOUS
 10
-1.070850
 20
-0.030374
  0
VERTEX
  8
PLAN_1
 62
     2
  6
CONTINUOUS
 10
-1.067433
 20
-0.029886
  0
VERTEX
  8
PLAN_1
 62
     2
  6
CONTINUOUS
 10
-1.064020
 20
-0.029886
  0
VERTEX
  8
PLAN_1
 62
     2
  6
CONTINUOUS
 10
-1.059138
 20
-0.030374
  0
VERTEX
  8
PLAN_1
 62
     2
  6
CONTINUOUS
 10
-1.054744
 20
-0.031350
  0
VERTEX
  8
PLAN_1
 62
     2
  6
CONTINUOUS
 10
-1.050839
 20
-0.032815
  0
VERTEX
  8
PLAN_1
 62
     2
  6
CONTINUOUS
 10
-1.047421
 20
-0.035256
  0
VERTEX
  8
PLAN_1
 62
     2
  6
CONTINUOUS
 10
-1.044984
 20
-0.038185
  0
VERTEX
  8
PLAN_1
 62
     2
  6
CONTINUOUS
 10
-1.043031
 20
-0.041602
  0
VERTEX
  8
PLAN_1
 62
     2
  6
CONTINUOUS
 10
-1.042055
 20
-0.045016
  0
VERTEX
  8
PLAN_1
 62
     2
  6
CONTINUOUS
 10
-1.041567
 20
-0.048921
  0
VERTEX
  8
PLAN_1
 62
     2
  6
CONTINUOUS
 10
-1.041567
 20
-0.052339
  0
VERTEX
  8
PLAN_1
 62
     2
  6
CONTINUOUS
 10
-1.042543
 20
-0.055268
  0
VERTEX
  8
PLAN_1
 62
     2
  6
CONTINUOUS
 10
-1.043520
 20
-0.057709
  0
VERTEX
  8
PLAN_1
 62
     2
  6
CONTINUOUS
 10
-1.044496
 20
-0.059661
  0
VERTEX
  8
PLAN_1
 62
     2
  6
CONTINUOUS
 10
-1.045957
 20
-0.061122
  0
VERTEX
  8
PLAN_1
 62
     2
  6
CONTINUOUS
 10
-1.047909
 20
-0.062587
  0
VERTEX
  8
PLAN_1
 62
     2
  6
CONTINUOUS
 10
-1.049374
 20
-0.063563
  0
VERTEX
  8
PLAN_1
 62
     2
  6
CONTINUOUS
 10
-1.050839
 20
-0.064051
  0
VERTEX
  8
PLAN_1
 62
     2
  6
CONTINUOUS
 10
-1.050839
 20
-0.064539
  0
VERTEX
  8
PLAN_1
 62
     2
  6
CONTINUOUS
 10
-1.048398
 20
-0.065516
  0
VERTEX
  8
PLAN_1
 62
     2
  6
CONTINUOUS
 10
-1.045957
 20
-0.066492
  0
VERTEX
  8
PLAN_1
 62
     2
  6
CONTINUOUS
 10
-1.044008
 20
-0.067957
  0
VERTEX
  8
PLAN_1
 62
     2
  6
CONTINUOUS
 10
-1.042055
 20
-0.069909
  0
VERTEX
  8
PLAN_1
 62
     2
  6
CONTINUOUS
 10
-1.040591
 20
-0.072350
  0
VERTEX
  8
PLAN_1
 62
     2
  6
CONTINUOUS
 10
-1.039614
 20
-0.074791
  0
VERTEX
  8
PLAN_1
 62
     2
  6
CONTINUOUS
 10
-1.039126
 20
-0.078209
  0
VERTEX
  8
PLAN_1
 62
     2
  6
CONTINUOUS
 10
-1.038638
 20
-0.081622
  0
VERTEX
  8
PLAN_1
 62
     2
  6
CONTINUOUS
 10
-1.039126
 20
-0.086016
  0
VERTEX
  8
PLAN_1
 62
     2
  6
CONTINUOUS
 10
-1.040102
 20
-0.089921
  0
VERTEX
  8
PLAN_1
 62
     2
  6
CONTINUOUS
 10
-1.042055
 20
-0.094315
  0
VERTEX
  8
PLAN_1
 62
     2
  6
CONTINUOUS
 10
-1.044984
 20
-0.097732
  0
VERTEX
  8
PLAN_1
 62
     2
  6
CONTINUOUS
 10
-1.046445
 20
-0.099193
  0
VERTEX
  8
PLAN_1
 62
     2
  6
CONTINUOUS
 10
-1.048398
 20
-0.100657
  0
VERTEX
  8
PLAN_1
 62
     2
  6
CONTINUOUS
 10
-1.050839
 20
-0.102122
  0
VERTEX
  8
PLAN_1
 62
     2
  6
CONTINUOUS
 10
-1.053280
 20
-0.103098
  0
VERTEX
  8
PLAN_1
 62
     2
  6
CONTINUOUS
 10
-1.055720
 20
-0.103587
  0
VERTEX
  8
PLAN_1
 62
     2
  6
CONTINUOUS
 10
-1.058650
 20
-0.104563
  0
VERTEX
  8
PLAN_1
 62
     2
  6
CONTINUOUS
 10
-1.061579
 20
-0.104563
  0
VERTEX
  8
PLAN_1
 62
     2
  6
CONTINUOUS
 10
-1.064992
 20
-0.105051
  0
VERTEX
  8
PLAN_1
 62
     2
  6
CONTINUOUS
 10
-1.066945
 20
-0.105051
  0
VERTEX
  8
PLAN_1
 62
     2
  6
CONTINUOUS
 10
-1.068898
 20
-0.104563
  0
VERTEX
  8
PLAN_1
 62
     2
  6
CONTINUOUS
 10
-1.070850
 20
-0.104563
  0
VERTEX
  8
PLAN_1
 62
     2
  6
CONTINUOUS
 10
-1.072315
 20
-0.104075
  0
VERTEX
  8
PLAN_1
 62
     2
  6
CONTINUOUS
 10
-1.074268
 20
-0.103587
  0
VERTEX
  8
PLAN_1
 62
     2
  6
CONTINUOUS
 10
-1.075732
 20
-0.103098
  0
VERTEX
  8
PLAN_1
 62
     2
  6
CONTINUOUS
 10
-1.077197
 20
-0.102610
  0
VERTEX
  8
PLAN_1
 62
     2
  6
CONTINUOUS
 10
-1.078661
 20
-0.101634
  0
VERTEX
  8
PLAN_1
 62
     2
  6
CONTINUOUS
 10
-1.081102
 20
-0.099681
  0
VERTEX
  8
PLAN_1
 62
     2
  6
CONTINUOUS
 10
-1.083543
 20
-0.097732
  0
VERTEX
  8
PLAN_1
 62
     2
  6
CONTINUOUS
 10
-1.085492
 20
-0.095291
  0
VERTEX
  8
PLAN_1
 62
     2
  6
CONTINUOUS
 10
-1.086957
 20
-0.092850
  0
VERTEX
  8
PLAN_1
 62
     2
  6
CONTINUOUS
 10
-1.087933
 20
-0.089921
  0
VERTEX
  8
PLAN_1
 62
     2
  6
CONTINUOUS
 10
-1.088421
 20
-0.086992
  0
VERTEX
  8
PLAN_1
 62
     2
  6
CONTINUOUS
 10
-1.089398
 20
-0.083575
  0
VERTEX
  8
PLAN_1
 62
     2
  6
CONTINUOUS
 10
-1.089398
 20
-0.080646
  0
VERTEX
  8
PLAN_1
 62
     2
  6
CONTINUOUS
 10
-1.080126
 20
-0.080646
  0
VERTEX
  8
PLAN_1
 62
     2
  6
CONTINUOUS
 10
-1.079638
 20
-0.083087
  0
VERTEX
  8
PLAN_1
 62
     2
  6
CONTINUOUS
 10
-1.079150
 20
-0.086016
  0
VERTEX
  8
PLAN_1
 62
     2
  6
CONTINUOUS
 10
-1.078661
 20
-0.088945
  0
VERTEX
  8
PLAN_1
 62
     2
  6
CONTINUOUS
 10
-1.077197
 20
-0.091386
  0
VERTEX
  8
PLAN_1
 62
     2
  6
CONTINUOUS
 10
-1.075244
 20
-0.093339
  0
VERTEX
  8
PLAN_1
 62
     2
  6
CONTINUOUS
 10
-1.072315
 20
-0.095291
  0
VERTEX
  8
PLAN_1
 62
     2
  6
CONTINUOUS
 10
-1.068898
 20
-0.096268
  0
VERTEX
  8
PLAN_1
 62
     2
  6
CONTINUOUS
 10
-1.064508
 20
-0.096756
  0
VERTEX
  8
PLAN_1
 62
     2
  6
CONTINUOUS
 10
-1.061091
 20
-0.096268
  0
VERTEX
  8
PLAN_1
 62
     2
  6
CONTINUOUS
 10
-1.058161
 20
-0.095780
  0
VERTEX
  8
PLAN_1
 62
     2
  6
CONTINUOUS
 10
-1.055232
 20
-0.094315
  0
VERTEX
  8
PLAN_1
 62
     2
  6
CONTINUOUS
 10
-1.052791
 20
-0.092850
  0
VERTEX
  8
PLAN_1
 62
     2
  6
CONTINUOUS
 10
-1.050839
 20
-0.090898
  0
VERTEX
  8
PLAN_1
 62
     2
  6
CONTINUOUS
 10
-1.049862
 20
-0.088457
  0
VERTEX
  8
PLAN_1
 62
     2
  6
CONTINUOUS
 10
-1.048886
 20
-0.085528
  0
VERTEX
  8
PLAN_1
 62
     2
  6
CONTINUOUS
 10
-1.048398
 20
-0.082598
  0
VERTEX
  8
PLAN_1
 62
     2
  6
CONTINUOUS
 10
-1.048398
 20
-0.080157
  0
VERTEX
  8
PLAN_1
 62
     2
  6
CONTINUOUS
 10
-1.048886
 20
-0.078697
  0
VERTEX
  8
PLAN_1
 62
     2
  6
CONTINUOUS
 10
-1.049374
 20
-0.076744
  0
VERTEX
  8
PLAN_1
 62
     2
  6
CONTINUOUS
 10
-1.050350
 20
-0.075280
  0
VERTEX
  8
PLAN_1
 62
     2
  6
CONTINUOUS
 10
-1.052303
 20
-0.072839
  0
VERTEX
  8
PLAN_1
 62
     2
  6
CONTINUOUS
 10
-1.054744
 20
-0.071374
  0
VERTEX
  8
PLAN_1
 62
     2
  6
CONTINUOUS
 10
-1.057185
 20
-0.069909
  0
VERTEX
  8
PLAN_1
 62
     2
  6
CONTINUOUS
 10
-1.060114
 20
-0.069421
  0
VERTEX
  8
PLAN_1
 62
     2
  6
CONTINUOUS
 10
-1.063043
 20
-0.069421
  0
VERTEX
  8
PLAN_1
 62
     2
  6
CONTINUOUS
 10
-1.065480
 20
-0.068933
  0
VERTEX
  8
PLAN_1
 62
     2
  6
CONTINUOUS
 10
-1.065969
 20
-0.068933
  0
VERTEX
  8
PLAN_1
 62
     2
  6
CONTINUOUS
 10
-1.066457
 20
-0.068933
  0
VERTEX
  8
PLAN_1
 62
     2
  6
CONTINUOUS
 10
-1.066945
 20
-0.069421
  0
VERTEX
  8
PLAN_1
 62
     2
  6
CONTINUOUS
 10
-1.067433
 20
-0.069421
  0
VERTEX
  8
PLAN_1
 62
     2
  6
CONTINUOUS
 10
-1.067921
 20
-0.069421
  0
VERTEX
  8
PLAN_1
 62
     2
  6
CONTINUOUS
 10
-1.068898
 20
-0.069421
  0
VERTEX
  8
PLAN_1
 62
     2
  6
CONTINUOUS
 10
-1.069386
 20
-0.069421
  0
VERTEX
  8
PLAN_1
 62
     2
  6
CONTINUOUS
 10
-1.069874
 20
-0.069421
  0
VERTEX
  8
PLAN_1
 62
     2
  6
CONTINUOUS
 10
-1.069874
 20
-0.061122
  0
SEQEND
  8
0
  0
POLYLINE
  8
PLAN_1
 62
     2
  6
CONTINUOUS
 66
     1
 40
0.003000
 41
0.003000
  0
VERTEX
  8
PLAN_1
 62
     2
  6
CONTINUOUS
 10
-1.025949
 20
-0.091874
  0
VERTEX
  8
PLAN_1
 62
     2
  6
CONTINUOUS
 10
-1.015209
 20
-0.091874
  0
VERTEX
  8
PLAN_1
 62
     2
  6
CONTINUOUS
 10
-1.015209
 20
-0.102122
  0
VERTEX
  8
PLAN_1
 62
     2
  6
CONTINUOUS
 10
-1.015697
 20
-0.107004
  0
VERTEX
  8
PLAN_1
 62
     2
  6
CONTINUOUS
 10
-1.016673
 20
-0.110421
  0
VERTEX
  8
PLAN_1
 62
     2
  6
CONTINUOUS
 10
-1.018138
 20
-0.113350
  0
VERTEX
  8
PLAN_1
 62
     2
  6
CONTINUOUS
 10
-1.020091
 20
-0.115303
  0
VERTEX
  8
PLAN_1
 62
     2
  6
CONTINUOUS
 10
-1.021555
 20
-0.116768
  0
VERTEX
  8
PLAN_1
 62
     2
  6
CONTINUOUS
 10
-1.023508
 20
-0.117740
  0
VERTEX
  8
PLAN_1
 62
     2
  6
CONTINUOUS
 10
-1.024972
 20
-0.118228
  0
VERTEX
  8
PLAN_1
 62
     2
  6
CONTINUOUS
 10
-1.025949
 20
-0.118228
  0
VERTEX
  8
PLAN_1
 62
     2
  6
CONTINUOUS
 10
-1.025949
 20
-0.113350
  0
VERTEX
  8
PLAN_1
 62
     2
  6
CONTINUOUS
 10
-1.024484
 20
-0.112862
  0
VERTEX
  8
PLAN_1
 62
     2
  6
CONTINUOUS
 10
-1.023508
 20
-0.112374
  0
VERTEX
  8
PLAN_1
 62
     2
  6
CONTINUOUS
 10
-1.022531
 20
-0.111398
  0
VERTEX
  8
PLAN_1
 62
     2
  6
CONTINUOUS
 10
-1.021555
 20
-0.109933
  0
VERTEX
  8
PLAN_1
 62
     2
  6
CONTINUOUS
 10
-1.021067
 20
-0.108469
  0
VERTEX
  8
PLAN_1
 62
     2
  6
CONTINUOUS
 10
-1.020579
 20
-0.106516
  0
VERTEX
  8
PLAN_1
 62
     2
  6
CONTINUOUS
 10
-1.020579
 20
-0.104563
  0
VERTEX
  8
PLAN_1
 62
     2
  6
CONTINUOUS
 10
-1.020579
 20
-0.103098
  0
VERTEX
  8
PLAN_1
 62
     2
  6
CONTINUOUS
 10
-1.025949
 20
-0.103098
  0
VERTEX
  8
PLAN_1
 62
     2
  6
CONTINUOUS
 10
-1.025949
 20
-0.091874
  0
SEQEND
  8
0
  0
POLYLINE
  8
PLAN_1
 62
     2
  6
CONTINUOUS
 66
     1
 40
0.003000
 41
0.003000
  0
VERTEX
  8
PLAN_1
 62
     2
  6
CONTINUOUS
 10
-0.990803
 20
-0.060638
  0
VERTEX
  8
PLAN_1
 62
     2
  6
CONTINUOUS
 10
-0.989827
 20
-0.059661
  0
VERTEX
  8
PLAN_1
 62
     2
  6
CONTINUOUS
 10
-0.988366
 20
-0.058685
  0
VERTEX
  8
PLAN_1
 62
     2
  6
CONTINUOUS
 10
-0.986902
 20
-0.057709
  0
VERTEX
  8
PLAN_1
 62
     2
  6
CONTINUOUS
 10
-0.984949
 20
-0.057220
  0
VERTEX
  8
PLAN_1
 62
     2
  6
CONTINUOUS
 10
-0.983484
 20
-0.056732
  0
VERTEX
  8
PLAN_1
 62
     2
  6
CONTINUOUS
 10
-0.981043
 20
-0.056244
  0
VERTEX
  8
PLAN_1
 62
     2
  6
CONTINUOUS
 10
-0.979091
 20
-0.055756
  0
VERTEX
  8
PLAN_1
 62
     2
  6
CONTINUOUS
 10
-0.976650
 20
-0.055756
  0
VERTEX
  8
PLAN_1
 62
     2
  6
CONTINUOUS
 10
-0.972256
 20
-0.056244
  0
VERTEX
  8
PLAN_1
 62
     2
  6
CONTINUOUS
 10
-0.967866
 20
-0.057220
  0
VERTEX
  8
PLAN_1
 62
     2
  6
CONTINUOUS
 10
-0.963961
 20
-0.059173
  0
VERTEX
  8
PLAN_1
 62
     2
  6
CONTINUOUS
 10
-0.960055
 20
-0.062098
  0
VERTEX
  8
PLAN_1
 62
     2
  6
CONTINUOUS
 10
-0.957126
 20
-0.065028
  0
VERTEX
  8
PLAN_1
 62
     2
  6
CONTINUOUS
 10
-0.954685
 20
-0.069421
  0
VERTEX
  8
PLAN_1
 62
     2
  6
CONTINUOUS
 10
-0.953709
 20
-0.071374
  0
VERTEX
  8
PLAN_1
 62
     2
  6
CONTINUOUS
 10
-0.953220
 20
-0.073815
  0
VERTEX
  8
PLAN_1
 62
     2
  6
CONTINUOUS
 10
-0.952732
 20
-0.076256
  0
VERTEX
  8
PLAN_1
 62
     2
  6
CONTINUOUS
 10
-0.952732
 20
-0.079185
  0
VERTEX
  8
PLAN_1
 62
     2
  6
CONTINUOUS
 10
-0.952732
 20
-0.082598
  0
VERTEX
  8
PLAN_1
 62
     2
  6
CONTINUOUS
 10
-0.953709
 20
-0.086504
  0
VERTEX
  8
PLAN_1
 62
     2
  6
CONTINUOUS
 10
-0.955173
 20
-0.090898
  0
VERTEX
  8
PLAN_1
 62
     2
  6
CONTINUOUS
 10
-0.957614
 20
-0.095291
  0
VERTEX
  8
PLAN_1
 62
     2
  6
CONTINUOUS
 10
-0.959079
 20
-0.097244
  0
VERTEX
  8
PLAN_1
 62
     2
  6
CONTINUOUS
 10
-0.960543
 20
-0.098705
  0
VERTEX
  8
PLAN_1
 62
     2
  6
CONTINUOUS
 10
-0.962984
 20
-0.100657
  0
VERTEX
  8
PLAN_1
 62
     2
  6
CONTINUOUS
 10
-0.965425
 20
-0.102122
  0
VERTEX
  8
PLAN_1
 62
     2
  6
CONTINUOUS
 10
-0.968354
 20
-0.103098
  0
VERTEX
  8
PLAN_1
 62
     2
  6
CONTINUOUS
 10
-0.971280
 20
-0.104075
  0
VERTEX
  8
PLAN_1
 62
     2
  6
CONTINUOUS
 10
-0.975185
 20
-0.104563
  0
VERTEX
  8
PLAN_1
 62
     2
  6
CONTINUOUS
 10
-0.979091
 20
-0.105051
  0
VERTEX
  8
PLAN_1
 62
     2
  6
CONTINUOUS
 10
-0.982996
 20
-0.104563
  0
VERTEX
  8
PLAN_1
 62
     2
  6
CONTINUOUS
 10
-0.986902
 20
-0.104075
  0
VERTEX
  8
PLAN_1
 62
     2
  6
CONTINUOUS
 10
-0.990315
 20
-0.103098
  0
VERTEX
  8
PLAN_1
 62
     2
  6
CONTINUOUS
 10
-0.993732
 20
-0.101146
  0
VERTEX
  8
PLAN_1
 62
     2
  6
CONTINUOUS
 10
-0.995685
 20
-0.099681
  0
VERTEX
  8
PLAN_1
 62
     2
  6
CONTINUOUS
 10
-0.997150
 20
-0.098220
  0
VERTEX
  8
PLAN_1
 62
     2
  6
CONTINUOUS
 10
-0.998614
 20
-0.096756
  0
VERTEX
  8
PLAN_1
 62
     2
  6
CONTINUOUS
 10
-0.999591
 20
-0.094803
  0
VERTEX
  8
PLAN_1
 62
     2
  6
CONTINUOUS
 10
-1.001055
 20
-0.092850
  0
VERTEX
  8
PLAN_1
 62
     2
  6
CONTINUOUS
 10
-1.001543
 20
-0.090409
  0
VERTEX
  8
PLAN_1
 62
     2
  6
CONTINUOUS
 10
-1.002520
 20
-0.087480
  0
VERTEX
  8
PLAN_1
 62
     2
  6
CONTINUOUS
 10
-1.003008
 20
-0.084551
  0
VERTEX
  8
PLAN_1
 62
     2
  6
CONTINUOUS
 10
-0.993244
 20
-0.084551
  0
VERTEX
  8
PLAN_1
 62
     2
  6
CONTINUOUS
 10
-0.992756
 20
-0.087969
  0
VERTEX
  8
PLAN_1
 62
     2
  6
CONTINUOUS
 10
-0.991780
 20
-0.090409
  0
VERTEX
  8
PLAN_1
 62
     2
  6
CONTINUOUS
 10
-0.990315
 20
-0.092362
  0
VERTEX
  8
PLAN_1
 62
     2
  6
CONTINUOUS
 10
-0.988366
 20
-0.094315
  0
VERTEX
  8
PLAN_1
 62
     2
  6
CONTINUOUS
 10
-0.985925
 20
-0.095291
  0
VERTEX
  8
PLAN_1
 62
     2
  6
CONTINUOUS
 10
-0.983484
 20
-0.096268
  0
VERTEX
  8
PLAN_1
 62
     2
  6
CONTINUOUS
 10
-0.981043
 20
-0.096756
  0
VERTEX
  8
PLAN_1
 62
     2
  6
CONTINUOUS
 10
-0.978114
 20
-0.097244
  0
VERTEX
  8
PLAN_1
 62
     2
  6
CONTINUOUS
 10
-0.974697
 20
-0.096756
  0
VERTEX
  8
PLAN_1
 62
     2
  6
CONTINUOUS
 10
-0.971280
 20
-0.095780
  0
VERTEX
  8
PLAN_1
 62
     2
  6
CONTINUOUS
 10
-0.968843
 20
-0.094315
  0
VERTEX
  8
PLAN_1
 62
     2
  6
CONTINUOUS
 10
-0.966402
 20
-0.091874
  0
VERTEX
  8
PLAN_1
 62
     2
  6
CONTINUOUS
 10
-0.964937
 20
-0.089433
  0
VERTEX
  8
PLAN_1
 62
     2
  6
CONTINUOUS
 10
-0.963472
 20
-0.086992
  0
VERTEX
  8
PLAN_1
 62
     2
  6
CONTINUOUS
 10
-0.962984
 20
-0.083575
  0
VERTEX
  8
PLAN_1
 62
     2
  6
CONTINUOUS
 10
-0.962496
 20
-0.080157
  0
VERTEX
  8
PLAN_1
 62
     2
  6
CONTINUOUS
 10
-0.962984
 20
-0.076744
  0
VERTEX
  8
PLAN_1
 62
     2
  6
CONTINUOUS
 10
-0.963961
 20
-0.073327
  0
VERTEX
  8
PLAN_1
 62
     2
  6
CONTINUOUS
 10
-0.965425
 20
-0.070398
  0
VERTEX
  8
PLAN_1
 62
     2
  6
CONTINUOUS
 10
-0.967378
 20
-0.068445
  0
VERTEX
  8
PLAN_1
 62
     2
  6
CONTINUOUS
 10
-0.969819
 20
-0.066492
  0
VERTEX
  8
PLAN_1
 62
     2
  6
CONTINUOUS
 10
-0.972256
 20
-0.065028
  0
VERTEX
  8
PLAN_1
 62
     2
  6
CONTINUOUS
 10
-0.975185
 20
-0.064539
  0
VERTEX
  8
PLAN_1
 62
     2
  6
CONTINUOUS
 10
-0.978602
 20
-0.064051
  0
VERTEX
  8
PLAN_1
 62
     2
  6
CONTINUOUS
 10
-0.980555
 20
-0.064051
  0
VERTEX
  8
PLAN_1
 62
     2
  6
CONTINUOUS
 10
-0.982508
 20
-0.064539
  0
VERTEX
  8
PLAN_1
 62
     2
  6
CONTINUOUS
 10
-0.984461
 20
-0.065028
  0
VERTEX
  8
PLAN_1
 62
     2
  6
CONTINUOUS
 10
-0.986413
 20
-0.066004
  0
VERTEX
  8
PLAN_1
 62
     2
  6
CONTINUOUS
 10
-0.987878
 20
-0.066980
  0
VERTEX
  8
PLAN_1
 62
     2
  6
CONTINUOUS
 10
-0.989339
 20
-0.067957
  0
VERTEX
  8
PLAN_1
 62
     2
  6
CONTINUOUS
 10
-0.990803
 20
-0.069421
  0
VERTEX
  8
PLAN_1
 62
     2
  6
CONTINUOUS
 10
-0.992268
 20
-0.070886
  0
VERTEX
  8
PLAN_1
 62
     2
  6
CONTINUOUS
 10
-1.000079
 20
-0.070398
  0
VERTEX
  8
PLAN_1
 62
     2
  6
CONTINUOUS
 10
-0.994709
 20
-0.031350
  0
VERTEX
  8
PLAN_1
 62
     2
  6
CONTINUOUS
 10
-0.956638
 20
-0.031350
  0
VERTEX
  8
PLAN_1
 62
     2
  6
CONTINUOUS
 10
-0.956638
 20
-0.040138
  0
VERTEX
  8
PLAN_1
 62
     2
  6
CONTINUOUS
 10
-0.987878
 20
-0.040138
  0
VERTEX
  8
PLAN_1
 62
     2
  6
CONTINUOUS
 10
-0.990803
 20
-0.060638
  0
SEQEND
  8
0
  0
POLYLINE
  8
PLAN_1
 62
     2
  6
CONTINUOUS
 66
     1
 40
0.004390
 41
0.004390
  0
VERTEX
  8
PLAN_1
 62
     2
  6
CONTINUOUS
 10
-2.125606
 20
0.729579
  0
VERTEX
  8
PLAN_1
 62
     2
  6
CONTINUOUS
 10
-2.125606
 20
-0.316394
  0
SEQEND
  8
0
  0
POLYLINE
  8
PLAN_1
 62
     2
  6
CONTINUOUS
 66
     1
 40
0.004390
 41
0.004390
  0
VERTEX
  8
PLAN_1
 62
     2
  6
CONTINUOUS
 10
-2.096323
 20
-0.284181
  0
VERTEX
  8
PLAN_1
 62
     2
  6
CONTINUOUS
 10
-0.413398
 20
-0.284181
  0
SEQEND
  8
0
  0
SOLID
  8
PLAN_1
 62
     2
 10
-0.384114
 20
-0.284181
 11
-0.443169
 21
-0.268075
 12
-0.384114
 22
-0.284181
 13
-0.443169
 23
-0.299799
  0
POLYLINE
  8
PLAN_1
 62
     2
  6
CONTINUOUS
 66
     1
 40
0.003000
 41
0.003000
  0
VERTEX
  8
PLAN_1
 62
     2
  6
CONTINUOUS
 10
-0.384114
 20
-0.284181
  0
VERTEX
  8
PLAN_1
 62
     2
  6
CONTINUOUS
 10
-0.443169
 20
-0.268075
  0
VERTEX
  8
PLAN_1
 62
     2
  6
CONTINUOUS
 10
-0.443169
 20
-0.299799
  0
VERTEX
  8
PLAN_1
 62
     2
  6
CONTINUOUS
 10
-0.384114
 20
-0.284181
  0
SEQEND
  8
0
  0
SOLID
  8
PLAN_1
 62
     2
 10
-2.125606
 20
-0.284181
 11
-2.066547
 21
-0.268075
 12
-2.125606
 22
-0.284181
 13
-2.066547
 23
-0.299799
  0
POLYLINE
  8
PLAN_1
 62
     2
  6
CONTINUOUS
 66
     1
 40
0.003000
 41
0.003000
  0
VERTEX
  8
PLAN_1
 62
     2
  6
CONTINUOUS
 10
-2.125606
 20
-0.284181
  0
VERTEX
  8
PLAN_1
 62
     2
  6
CONTINUOUS
 10
-2.066547
 20
-0.268075
  0
VERTEX
  8
PLAN_1
 62
     2
  6
CONTINUOUS
 10
-2.066547
 20
-0.299799
  0
VERTEX
  8
PLAN_1
 62
     2
  6
CONTINUOUS
 10
-2.125606
 20
-0.284181
  0
SEQEND
  8
0
  0
POLYLINE
  8
PLAN_1
 62
     2
  6
CONTINUOUS
 66
     1
 40
0.003000
 41
0.003000
  0
VERTEX
  8
PLAN_1
 62
     2
  6
CONTINUOUS
 10
-1.269016
 20
-0.242693
  0
VERTEX
  8
PLAN_1
 62
     2
  6
CONTINUOUS
 10
-1.269016
 20
-0.260264
  0
VERTEX
  8
PLAN_1
 62
     2
  6
CONTINUOUS
 10
-1.278287
 20
-0.260264
  0
VERTEX
  8
PLAN_1
 62
     2
  6
CONTINUOUS
 10
-1.278287
 20
-0.242693
  0
VERTEX
  8
PLAN_1
 62
     2
  6
CONTINUOUS
 10
-1.310012
 20
-0.242693
  0
VERTEX
  8
PLAN_1
 62
     2
  6
CONTINUOUS
 10
-1.310012
 20
-0.233417
  0
VERTEX
  8
PLAN_1
 62
     2
  6
CONTINUOUS
 10
-1.276823
 20
-0.187051
  0
VERTEX
  8
PLAN_1
 62
     2
  6
CONTINUOUS
 10
-1.269016
 20
-0.187051
  0
VERTEX
  8
PLAN_1
 62
     2
  6
CONTINUOUS
 10
-1.269016
 20
-0.234882
  0
VERTEX
  8
PLAN_1
 62
     2
  6
CONTINUOUS
 10
-1.258276
 20
-0.234882
  0
VERTEX
  8
PLAN_1
 62
     2
  6
CONTINUOUS
 10
-1.258276
 20
-0.242693
  0
VERTEX
  8
PLAN_1
 62
     2
  6
CONTINUOUS
 10
-1.269016
 20
-0.242693
  0
SEQEND
  8
0
  0
SOLID
  8
PLAN_1
 62
     2
 10
-1.301717
 20
-0.234882
 11
-1.278287
 21
-0.234882
 12
-1.301717
 22
-0.234882
 13
-1.278287
 23
-0.201693
  0
POLYLINE
  8
PLAN_1
 62
     2
  6
CONTINUOUS
 66
     1
 40
0.003000
 41
0.003000
  0
VERTEX
  8
PLAN_1
 62
     2
  6
CONTINUOUS
 10
-1.301717
 20
-0.234882
  0
VERTEX
  8
PLAN_1
 62
     2
  6
CONTINUOUS
 10
-1.278287
 20
-0.234882
  0
VERTEX
  8
PLAN_1
 62
     2
  6
CONTINUOUS
 10
-1.278287
 20
-0.201693
  0
VERTEX
  8
PLAN_1
 62
     2
  6
CONTINUOUS
 10
-1.301717
 20
-0.234882
  0
SEQEND
  8
0
  0
POLYLINE
  8
PLAN_1
 62
     2
  6
CONTINUOUS
 66
     1
 40
0.003000
 41
0.003000
  0
VERTEX
  8
PLAN_1
 62
     2
  6
CONTINUOUS
 10
-1.210933
 20
-0.242693
  0
VERTEX
  8
PLAN_1
 62
     2
  6
CONTINUOUS
 10
-1.210933
 20
-0.260264
  0
VERTEX
  8
PLAN_1
 62
     2
  6
CONTINUOUS
 10
-1.220205
 20
-0.260264
  0
VERTEX
  8
PLAN_1
 62
     2
  6
CONTINUOUS
 10
-1.220205
 20
-0.242693
  0
VERTEX
  8
PLAN_1
 62
     2
  6
CONTINUOUS
 10
-1.252421
 20
-0.242693
  0
VERTEX
  8
PLAN_1
 62
     2
  6
CONTINUOUS
 10
-1.252421
 20
-0.233417
  0
VERTEX
  8
PLAN_1
 62
     2
  6
CONTINUOUS
 10
-1.218740
 20
-0.187051
  0
VERTEX
  8
PLAN_1
 62
     2
  6
CONTINUOUS
 10
-1.210933
 20
-0.187051
  0
VERTEX
  8
PLAN_1
 62
     2
  6
CONTINUOUS
 10
-1.210933
 20
-0.234882
  0
VERTEX
  8
PLAN_1
 62
     2
  6
CONTINUOUS
 10
-1.200681
 20
-0.234882
  0
VERTEX
  8
PLAN_1
 62
     2
  6
CONTINUOUS
 10
-1.200681
 20
-0.242693
  0
VERTEX
  8
PLAN_1
 62
     2
  6
CONTINUOUS
 10
-1.210933
 20
-0.242693
  0
SEQEND
  8
0
  0
SOLID
  8
PLAN_1
 62
     2
 10
-1.243634
 20
-0.234882
 11
-1.220205
 21
-0.234882
 12
-1.220693
 22
-0.201693
 13
-1.220205
 23
-0.201693
  0
POLYLINE
  8
PLAN_1
 62
     2
  6
CONTINUOUS
 66
     1
 40
0.003000
 41
0.003000
  0
VERTEX
  8
PLAN_1
 62
     2
  6
CONTINUOUS
 10
-1.243634
 20
-0.234882
  0
VERTEX
  8
PLAN_1
 62
     2
  6
CONTINUOUS
 10
-1.220205
 20
-0.234882
  0
VERTEX
  8
PLAN_1
 62
     2
  6
CONTINUOUS
 10
-1.220205
 20
-0.201693
  0
VERTEX
  8
PLAN_1
 62
     2
  6
CONTINUOUS
 10
-1.220693
 20
-0.201693
  0
VERTEX
  8
PLAN_1
 62
     2
  6
CONTINUOUS
 10
-1.243634
 20
-0.234882
  0
SEQEND
  8
0
  0
POLYLINE
  8
PLAN_1
 62
     2
  6
CONTINUOUS
 66
     1
 40
0.004390
 41
0.004390
  0
VERTEX
  8
PLAN_1
 62
     2
  6
CONTINUOUS
 10
-0.228413
 20
0.230752
  0
VERTEX
  8
PLAN_1
 62
     2
  6
CONTINUOUS
 10
-0.228413
 20
0.642209
  0
SEQEND
  8
0
  0
SOLID
  8
PLAN_1
 62
     2
 10
-0.228413
 20
0.671496
 11
-0.244520
 21
0.612437
 12
-0.228413
 22
0.671496
 13
-0.212795
 23
0.612437
  0
POLYLINE
  8
PLAN_1
 62
     2
  6
CONTINUOUS
 66
     1
 40
0.003000
 41
0.003000
  0
VERTEX
  8
PLAN_1
 62
     2
  6
CONTINUOUS
 10
-0.228413
 20
0.671496
  0
VERTEX
  8
PLAN_1
 62
     2
  6
CONTINUOUS
 10
-0.244520
 20
0.612437
  0
VERTEX
  8
PLAN_1
 62
     2
  6
CONTINUOUS
 10
-0.212795
 20
0.612437
  0
VERTEX
  8
PLAN_1
 62
     2
  6
CONTINUOUS
 10
-0.228413
 20
0.671496
  0
SEQEND
  8
0
  0
SOLID
  8
PLAN_1
 62
     2
 10
-0.228413
 20
0.201469
 11
-0.244520
 21
0.260524
 12
-0.228413
 22
0.201469
 13
-0.212795
 23
0.260524
  0
POLYLINE
  8
PLAN_1
 62
     2
  6
CONTINUOUS
 66
     1
 40
0.003000
 41
0.003000
  0
VERTEX
  8
PLAN_1
 62
     2
  6
CONTINUOUS
 10
-0.228413
 20
0.201469
  0
VERTEX
  8
PLAN_1
 62
     2
  6
CONTINUOUS
 10
-0.244520
 20
0.260524
  0
VERTEX
  8
PLAN_1
 62
     2
  6
CONTINUOUS
 10
-0.212795
 20
0.260524
  0
VERTEX
  8
PLAN_1
 62
     2
  6
CONTINUOUS
 10
-0.228413
 20
0.201469
  0
SEQEND
  8
0
  0
POLYLINE
  8
PLAN_1
 62
     2
  6
CONTINUOUS
 66
     1
 40
0.003000
 41
0.003000
  0
VERTEX
  8
PLAN_1
 62
     2
  6
CONTINUOUS
 10
-0.252331
 20
0.415736
  0
VERTEX
  8
PLAN_1
 62
     2
  6
CONTINUOUS
 10
-0.252331
 20
0.405976
  0
VERTEX
  8
PLAN_1
 62
     2
  6
CONTINUOUS
 10
-0.304067
 20
0.405976
  0
VERTEX
  8
PLAN_1
 62
     2
  6
CONTINUOUS
 10
-0.304067
 20
0.388894
  0
VERTEX
  8
PLAN_1
 62
     2
  6
CONTINUOUS
 10
-0.311386
 20
0.388894
  0
VERTEX
  8
PLAN_1
 62
     2
  6
CONTINUOUS
 10
-0.311874
 20
0.393283
  0
VERTEX
  8
PLAN_1
 62
     2
  6
CONTINUOUS
 10
-0.312362
 20
0.396701
  0
VERTEX
  8
PLAN_1
 62
     2
  6
CONTINUOUS
 10
-0.312850
 20
0.399630
  0
VERTEX
  8
PLAN_1
 62
     2
  6
CONTINUOUS
 10
-0.314315
 20
0.402071
  0
VERTEX
  8
PLAN_1
 62
     2
  6
CONTINUOUS
 10
-0.315780
 20
0.404512
  0
VERTEX
  8
PLAN_1
 62
     2
  6
CONTINUOUS
 10
-0.318220
 20
0.405976
  0
VERTEX
  8
PLAN_1
 62
     2
  6
CONTINUOUS
 10
-0.321150
 20
0.407441
  0
VERTEX
  8
PLAN_1
 62
     2
  6
CONTINUOUS
 10
-0.325543
 20
0.408906
  0
VERTEX
  8
PLAN_1
 62
     2
  6
CONTINUOUS
 10
-0.325543
 20
0.415736
  0
VERTEX
  8
PLAN_1
 62
     2
  6
CONTINUOUS
 10
-0.252331
 20
0.415736
  0
SEQEND
  8
0
  0
POLYLINE
  8
PLAN_1
 62
     2
  6
CONTINUOUS
 66
     1
 40
0.003000
 41
0.003000
  0
VERTEX
  8
PLAN_1
 62
     2
  6
CONTINUOUS
 10
-0.299185
 20
0.441118
  0
VERTEX
  8
PLAN_1
 62
     2
  6
CONTINUOUS
 10
-0.303091
 20
0.441118
  0
VERTEX
  8
PLAN_1
 62
     2
  6
CONTINUOUS
 10
-0.306996
 20
0.441606
  0
VERTEX
  8
PLAN_1
 62
     2
  6
CONTINUOUS
 10
-0.310413
 20
0.442583
  0
VERTEX
  8
PLAN_1
 62
     2
  6
CONTINUOUS
 10
-0.313339
 20
0.444047
  0
VERTEX
  8
PLAN_1
 62
     2
  6
CONTINUOUS
 10
-0.315780
 20
0.445512
  0
VERTEX
  8
PLAN_1
 62
     2
  6
CONTINUOUS
 10
-0.317732
 20
0.446976
  0
VERTEX
  8
PLAN_1
 62
     2
  6
CONTINUOUS
 10
-0.319685
 20
0.448925
  0
VERTEX
  8
PLAN_1
 62
     2
  6
CONTINUOUS
 10
-0.321150
 20
0.450878
  0
VERTEX
  8
PLAN_1
 62
     2
  6
CONTINUOUS
 10
-0.323102
 20
0.454783
  0
VERTEX
  8
PLAN_1
 62
     2
  6
CONTINUOUS
 10
-0.324567
 20
0.459177
  0
VERTEX
  8
PLAN_1
 62
     2
  6
CONTINUOUS
 10
-0.325055
 20
0.463083
  0
VERTEX
  8
PLAN_1
 62
     2
  6
CONTINUOUS
 10
-0.325543
 20
0.466500
  0
VERTEX
  8
PLAN_1
 62
     2
  6
CONTINUOUS
 10
-0.325055
 20
0.470890
  0
VERTEX
  8
PLAN_1
 62
     2
  6
CONTINUOUS
 10
-0.323591
 20
0.475283
  0
VERTEX
  8
PLAN_1
 62
     2
  6
CONTINUOUS
 10
-0.322126
 20
0.479189
  0
VERTEX
  8
PLAN_1
 62
     2
  6
CONTINUOUS
 10
-0.319685
 20
0.482606
  0
VERTEX
  8
PLAN_1
 62
     2
  6
CONTINUOUS
 10
-0.316268
 20
0.485535
  0
VERTEX
  8
PLAN_1
 62
     2
  6
CONTINUOUS
 10
-0.312850
 20
0.487484
  0
VERTEX
  8
PLAN_1
 62
     2
  6
CONTINUOUS
 10
-0.308461
 20
0.488949
  0
VERTEX
  8
PLAN_1
 62
     2
  6
CONTINUOUS
 10
-0.303579
 20
0.489437
  0
VERTEX
  8
PLAN_1
 62
     2
  6
CONTINUOUS
 10
-0.298697
 20
0.488949
  0
VERTEX
  8
PLAN_1
 62
     2
  6
CONTINUOUS
 10
-0.294791
 20
0.487484
  0
VERTEX
  8
PLAN_1
 62
     2
  6
CONTINUOUS
 10
-0.291378
 20
0.486020
  0
VERTEX
  8
PLAN_1
 62
     2
  6
CONTINUOUS
 10
-0.288449
 20
0.483583
  0
VERTEX
  8
PLAN_1
 62
     2
  6
CONTINUOUS
 10
-0.286008
 20
0.480654
  0
VERTEX
  8
PLAN_1
 62
     2
  6
CONTINUOUS
 10
-0.283567
 20
0.477236
  0
VERTEX
  8
PLAN_1
 62
     2
  6
CONTINUOUS
 10
-0.281126
 20
0.473819
  0
VERTEX
  8
PLAN_1
 62
     2
  6
CONTINUOUS
 10
-0.279173
 20
0.469913
  0
VERTEX
  8
PLAN_1
 62
     2
  6
CONTINUOUS
 10
-0.274780
 20
0.462106
  0
VERTEX
  8
PLAN_1
 62
     2
  6
CONTINUOUS
 10
-0.272831
 20
0.458689
  0
VERTEX
  8
PLAN_1
 62
     2
  6
CONTINUOUS
 10
-0.270878
 20
0.455760
  0
VERTEX
  8
PLAN_1
 62
     2
  6
CONTINUOUS
 10
-0.268925
 20
0.453807
  0
VERTEX
  8
PLAN_1
 62
     2
  6
CONTINUOUS
 10
-0.266972
 20
0.452343
  0
VERTEX
  8
PLAN_1
 62
     2
  6
CONTINUOUS
 10
-0.265020
 20
0.450878
  0
VERTEX
  8
PLAN_1
 62
     2
  6
CONTINUOUS
 10
-0.263555
 20
0.450390
  0
VERTEX
  8
PLAN_1
 62
     2
  6
CONTINUOUS
 10
-0.262091
 20
0.449902
  0
VERTEX
  8
PLAN_1
 62
     2
  6
CONTINUOUS
 10
-0.260626
 20
0.449413
  0
VERTEX
  8
PLAN_1
 62
     2
  6
CONTINUOUS
 10
-0.260626
 20
0.489437
  0
VERTEX
  8
PLAN_1
 62
     2
  6
CONTINUOUS
 10
-0.252331
 20
0.489437
  0
VERTEX
  8
PLAN_1
 62
     2
  6
CONTINUOUS
 10
-0.252331
 20
0.439165
  0
VERTEX
  8
PLAN_1
 62
     2
  6
CONTINUOUS
 10
-0.257697
 20
0.439654
  0
VERTEX
  8
PLAN_1
 62
     2
  6
CONTINUOUS
 10
-0.262091
 20
0.440630
  0
VERTEX
  8
PLAN_1
 62
     2
  6
CONTINUOUS
 10
-0.266484
 20
0.442094
  0
VERTEX
  8
PLAN_1
 62
     2
  6
CONTINUOUS
 10
-0.270390
 20
0.444535
  0
VERTEX
  8
PLAN_1
 62
     2
  6
CONTINUOUS
 10
-0.273315
 20
0.446976
  0
VERTEX
  8
PLAN_1
 62
     2
  6
CONTINUOUS
 10
-0.276244
 20
0.449413
  0
VERTEX
  8
PLAN_1
 62
     2
  6
CONTINUOUS
 10
-0.279173
 20
0.452831
  0
VERTEX
  8
PLAN_1
 62
     2
  6
CONTINUOUS
 10
-0.281126
 20
0.456248
  0
VERTEX
  8
PLAN_1
 62
     2
  6
CONTINUOUS
 10
-0.286984
 20
0.466012
  0
VERTEX
  8
PLAN_1
 62
     2
  6
CONTINUOUS
 10
-0.288449
 20
0.468937
  0
VERTEX
  8
PLAN_1
 62
     2
  6
CONTINUOUS
 10
-0.289913
 20
0.471378
  0
VERTEX
  8
PLAN_1
 62
     2
  6
CONTINUOUS
 10
-0.291862
 20
0.473819
  0
VERTEX
  8
PLAN_1
 62
     2
  6
CONTINUOUS
 10
-0.293327
 20
0.475772
  0
VERTEX
  8
PLAN_1
 62
     2
  6
CONTINUOUS
 10
-0.295280
 20
0.477236
  0
VERTEX
  8
PLAN_1
 62
     2
  6
CONTINUOUS
 10
-0.297720
 20
0.478701
  0
VERTEX
  8
PLAN_1
 62
     2
  6
CONTINUOUS
 10
-0.300650
 20
0.479189
  0
VERTEX
  8
PLAN_1
 62
     2
  6
CONTINUOUS
 10
-0.304067
 20
0.479677
  0
VERTEX
  8
PLAN_1
 62
     2
  6
CONTINUOUS
 10
-0.306020
 20
0.479189
  0
VERTEX
  8
PLAN_1
 62
     2
  6
CONTINUOUS
 10
-0.308461
 20
0.478701
  0
VERTEX
  8
PLAN_1
 62
     2
  6
CONTINUOUS
 10
-0.310413
 20
0.477724
  0
VERTEX
  8
PLAN_1
 62
     2
  6
CONTINUOUS
 10
-0.312850
 20
0.476260
  0
VERTEX
  8
PLAN_1
 62
     2
  6
CONTINUOUS
 10
-0.314315
 20
0.474307
  0
VERTEX
  8
PLAN_1
 62
     2
  6
CONTINUOUS
 10
-0.315780
 20
0.471866
  0
VERTEX
  8
PLAN_1
 62
     2
  6
CONTINUOUS
 10
-0.316756
 20
0.468449
  0
VERTEX
  8
PLAN_1
 62
     2
  6
CONTINUOUS
 10
-0.317244
 20
0.465035
  0
VERTEX
  8
PLAN_1
 62
     2
  6
CONTINUOUS
 10
-0.316756
 20
0.462594
  0
VERTEX
  8
PLAN_1
 62
     2
  6
CONTINUOUS
 10
-0.316756
 20
0.460642
  0
VERTEX
  8
PLAN_1
 62
     2
  6
CONTINUOUS
 10
-0.315780
 20
0.458689
  0
VERTEX
  8
PLAN_1
 62
     2
  6
CONTINUOUS
 10
-0.314803
 20
0.456736
  0
VERTEX
  8
PLAN_1
 62
     2
  6
CONTINUOUS
 10
-0.312850
 20
0.454295
  0
VERTEX
  8
PLAN_1
 62
     2
  6
CONTINUOUS
 10
-0.309925
 20
0.452343
  0
VERTEX
  8
PLAN_1
 62
     2
  6
CONTINUOUS
 10
-0.306996
 20
0.451366
  0
VERTEX
  8
PLAN_1
 62
     2
  6
CONTINUOUS
 10
-0.304067
 20
0.450878
  0
VERTEX
  8
PLAN_1
 62
     2
  6
CONTINUOUS
 10
-0.301138
 20
0.450390
  0
VERTEX
  8
PLAN_1
 62
     2
  6
CONTINUOUS
 10
-0.299185
 20
0.450390
  0
VERTEX
  8
PLAN_1
 62
     2
  6
CONTINUOUS
 10
-0.299185
 20
0.441118
  0
SEQEND
  8
0
  0
POLYLINE
  8
PLAN_1
 62
     2
  6
CONTINUOUS
 66
     1
 40
0.004390
 41
0.004390
  0
VERTEX
  8
PLAN_1
 62
     2
  6
CONTINUOUS
 10
-0.228413
 20
0.701268
  0
VERTEX
  8
PLAN_1
 62
     2
  6
CONTINUOUS
 10
-0.228413
 20
3.678110
  0
SEQEND
  8
0
  0
SOLID
  8
PLAN_1
 62
     2
 10
-0.228413
 20
3.707398
 11
-0.244520
 21
3.648339
 12
-0.228413
 22
3.707398
 13
-0.212795
 23
3.648339
  0
POLYLINE
  8
PLAN_1
 62
     2
  6
CONTINUOUS
 66
     1
 40
0.003000
 41
0.003000
  0
VERTEX
  8
PLAN_1
 62
     2
  6
CONTINUOUS
 10
-0.228413
 20
3.707398
  0
VERTEX
  8
PLAN_1
 62
     2
  6
CONTINUOUS
 10
-0.244520
 20
3.648339
  0
VERTEX
  8
PLAN_1
 62
     2
  6
CONTINUOUS
 10
-0.212795
 20
3.648339
  0
VERTEX
  8
PLAN_1
 62
     2
  6
CONTINUOUS
 10
-0.228413
 20
3.707398
  0
SEQEND
  8
0
  0
SOLID
  8
PLAN_1
 62
     2
 10
-0.228413
 20
0.671496
 11
-0.244520
 21
0.730555
 12
-0.228413
 22
0.671496
 13
-0.212795
 23
0.730555
  0
POLYLINE
  8
PLAN_1
 62
     2
  6
CONTINUOUS
 66
     1
 40
0.003000
 41
0.003000
  0
VERTEX
  8
PLAN_1
 62
     2
  6
CONTINUOUS
 10
-0.228413
 20
0.671496
  0
VERTEX
  8
PLAN_1
 62
     2
  6
CONTINUOUS
 10
-0.244520
 20
0.730555
  0
VERTEX
  8
PLAN_1
 62
     2
  6
CONTINUOUS
 10
-0.212795
 20
0.730555
  0
VERTEX
  8
PLAN_1
 62
     2
  6
CONTINUOUS
 10
-0.228413
 20
0.671496
  0
SEQEND
  8
0
  0
POLYLINE
  8
PLAN_1
 62
     2
  6
CONTINUOUS
 66
     1
 40
0.003000
 41
0.003000
  0
VERTEX
  8
PLAN_1
 62
     2
  6
CONTINUOUS
 10
-0.323591
 20
2.007390
  0
VERTEX
  8
PLAN_1
 62
     2
  6
CONTINUOUS
 10
-0.323591
 20
2.058150
  0
VERTEX
  8
PLAN_1
 62
     2
  6
CONTINUOUS
 10
-0.315780
 20
2.058150
  0
VERTEX
  8
PLAN_1
 62
     2
  6
CONTINUOUS
 10
-0.312362
 20
2.054732
  0
VERTEX
  8
PLAN_1
 62
     2
  6
CONTINUOUS
 10
-0.306996
 20
2.050831
  0
VERTEX
  8
PLAN_1
 62
     2
  6
CONTINUOUS
 10
-0.301138
 20
2.046437
  0
VERTEX
  8
PLAN_1
 62
     2
  6
CONTINUOUS
 10
-0.293327
 20
2.042043
  0
VERTEX
  8
PLAN_1
 62
     2
  6
CONTINUOUS
 10
-0.284543
 20
2.037650
  0
VERTEX
  8
PLAN_1
 62
     2
  6
CONTINUOUS
 10
-0.274780
 20
2.033744
  0
VERTEX
  8
PLAN_1
 62
     2
  6
CONTINUOUS
 10
-0.269413
 20
2.031795
  0
VERTEX
  8
PLAN_1
 62
     2
  6
CONTINUOUS
 10
-0.264043
 20
2.030331
  0
VERTEX
  8
PLAN_1
 62
     2
  6
CONTINUOUS
 10
-0.258185
 20
2.028866
  0
VERTEX
  8
PLAN_1
 62
     2
  6
CONTINUOUS
 10
-0.252331
 20
2.027890
  0
VERTEX
  8
PLAN_1
 62
     2
  6
CONTINUOUS
 10
-0.252331
 20
2.017638
  0
VERTEX
  8
PLAN_1
 62
     2
  6
CONTINUOUS
 10
-0.260138
 20
2.019102
  0
VERTEX
  8
PLAN_1
 62
     2
  6
CONTINUOUS
 10
-0.267949
 20
2.021543
  0
VERTEX
  8
PLAN_1
 62
     2
  6
CONTINUOUS
 10
-0.276732
 20
2.024472
  0
VERTEX
  8
PLAN_1
 62
     2
  6
CONTINUOUS
 10
-0.285031
 20
2.028378
  0
VERTEX
  8
PLAN_1
 62
     2
  6
CONTINUOUS
 10
-0.293327
 20
2.032768
  0
VERTEX
  8
PLAN_1
 62
     2
  6
CONTINUOUS
 10
-0.301138
 20
2.037161
  0
VERTEX
  8
PLAN_1
 62
     2
  6
CONTINUOUS
 10
-0.308461
 20
2.042531
  0
VERTEX
  8
PLAN_1
 62
     2
  6
CONTINUOUS
 10
-0.314803
 20
2.047413
  0
VERTEX
  8
PLAN_1
 62
     2
  6
CONTINUOUS
 10
-0.314803
 20
2.007390
  0
VERTEX
  8
PLAN_1
 62
     2
  6
CONTINUOUS
 10
-0.323591
 20
2.007390
  0
SEQEND
  8
0
  0
POLYLINE
  8
PLAN_1
 62
     2
  6
CONTINUOUS
 66
     1
 40
0.003000
 41
0.003000
  0
VERTEX
  8
PLAN_1
 62
     2
  6
CONTINUOUS
 10
-0.306020
 20
2.105008
  0
VERTEX
  8
PLAN_1
 62
     2
  6
CONTINUOUS
 10
-0.307972
 20
2.104031
  0
VERTEX
  8
PLAN_1
 62
     2
  6
CONTINUOUS
 10
-0.310413
 20
2.103543
  0
VERTEX
  8
PLAN_1
 62
     2
  6
CONTINUOUS
 10
-0.312362
 20
2.102567
  0
VERTEX
  8
PLAN_1
 62
     2
  6
CONTINUOUS
 10
-0.313827
 20
2.101102
  0
VERTEX
  8
PLAN_1
 62
     2
  6
CONTINUOUS
 10
-0.315291
 20
2.099150
  0
VERTEX
  8
PLAN_1
 62
     2
  6
CONTINUOUS
 10
-0.316268
 20
2.097197
  0
VERTEX
  8
PLAN_1
 62
     2
  6
CONTINUOUS
 10
-0.316756
 20
2.094756
  0
VERTEX
  8
PLAN_1
 62
     2
  6
CONTINUOUS
 10
-0.317244
 20
2.092315
  0
VERTEX
  8
PLAN_1
 62
     2
  6
CONTINUOUS
 10
-0.316756
 20
2.089874
  0
VERTEX
  8
PLAN_1
 62
     2
  6
CONTINUOUS
 10
-0.316268
 20
2.087437
  0
VERTEX
  8
PLAN_1
 62
     2
  6
CONTINUOUS
 10
-0.315291
 20
2.085484
  0
VERTEX
  8
PLAN_1
 62
     2
  6
CONTINUOUS
 10
-0.313827
 20
2.083531
  0
VERTEX
  8
PLAN_1
 62
     2
  6
CONTINUOUS
 10
-0.312362
 20
2.082067
  0
VERTEX
  8
PLAN_1
 62
     2
  6
CONTINUOUS
 10
-0.310413
 20
2.080602
  0
VERTEX
  8
PLAN_1
 62
     2
  6
CONTINUOUS
 10
-0.308461
 20
2.079138
  0
VERTEX
  8
PLAN_1
 62
     2
  6
CONTINUOUS
 10
-0.306508
 20
2.078161
  0
VERTEX
  8
PLAN_1
 62
     2
  6
CONTINUOUS
 10
-0.302114
 20
2.076697
  0
VERTEX
  8
PLAN_1
 62
     2
  6
CONTINUOUS
 10
-0.297720
 20
2.075720
  0
VERTEX
  8
PLAN_1
 62
     2
  6
CONTINUOUS
 10
-0.293327
 20
2.075232
  0
VERTEX
  8
PLAN_1
 62
     2
  6
CONTINUOUS
 10
-0.289913
 20
2.074744
  0
VERTEX
  8
PLAN_1
 62
     2
  6
CONTINUOUS
 10
-0.289913
 20
2.075232
  0
VERTEX
  8
PLAN_1
 62
     2
  6
CONTINUOUS
 10
-0.291378
 20
2.076209
  0
VERTEX
  8
PLAN_1
 62
     2
  6
CONTINUOUS
 10
-0.292839
 20
2.077185
  0
VERTEX
  8
PLAN_1
 62
     2
  6
CONTINUOUS
 10
-0.294303
 20
2.079138
  0
VERTEX
  8
PLAN_1
 62
     2
  6
CONTINUOUS
 10
-0.295768
 20
2.081091
  0
VERTEX
  8
PLAN_1
 62
     2
  6
CONTINUOUS
 10
-0.297232
 20
2.083043
  0
VERTEX
  8
PLAN_1
 62
     2
  6
CONTINUOUS
 10
-0.297720
 20
2.085972
  0
VERTEX
  8
PLAN_1
 62
     2
  6
CONTINUOUS
 10
-0.298697
 20
2.088898
  0
VERTEX
  8
PLAN_1
 62
     2
  6
CONTINUOUS
 10
-0.298697
 20
2.092315
  0
VERTEX
  8
PLAN_1
 62
     2
  6
CONTINUOUS
 10
-0.298697
 20
2.096220
  0
VERTEX
  8
PLAN_1
 62
     2
  6
CONTINUOUS
 10
-0.297720
 20
2.099638
  0
VERTEX
  8
PLAN_1
 62
     2
  6
CONTINUOUS
 10
-0.296256
 20
2.103543
  0
VERTEX
  8
PLAN_1
 62
     2
  6
CONTINUOUS
 10
-0.293815
 20
2.107445
  0
VERTEX
  8
PLAN_1
 62
     2
  6
CONTINUOUS
 10
-0.292350
 20
2.108909
  0
VERTEX
  8
PLAN_1
 62
     2
  6
CONTINUOUS
 10
-0.290402
 20
2.110374
  0
VERTEX
  8
PLAN_1
 62
     2
  6
CONTINUOUS
 10
-0.288937
 20
2.111839
  0
VERTEX
  8
PLAN_1
 62
     2
  6
CONTINUOUS
 10
-0.286496
 20
2.112815
  0
VERTEX
  8
PLAN_1
 62
     2
  6
CONTINUOUS
 10
-0.284055
 20
2.113791
  0
VERTEX
  8
PLAN_1
 62
     2
  6
CONTINUOUS
 10
-0.281614
 20
2.114768
  0
VERTEX
  8
PLAN_1
 62
     2
  6
CONTINUOUS
 10
-0.278685
 20
2.115256
  0
VERTEX
  8
PLAN_1
 62
     2
  6
CONTINUOUS
 10
-0.275756
 20
2.115256
  0
VERTEX
  8
PLAN_1
 62
     2
  6
CONTINUOUS
 10
-0.272831
 20
2.115256
  0
VERTEX
  8
PLAN_1
 62
     2
  6
CONTINUOUS
 10
-0.270390
 20
2.114768
  0
VERTEX
  8
PLAN_1
 62
     2
  6
CONTINUOUS
 10
-0.267949
 20
2.114280
  0
VERTEX
  8
PLAN_1
 62
     2
  6
CONTINUOUS
 10
-0.265508
 20
2.113791
  0
VERTEX
  8
PLAN_1
 62
     2
  6
CONTINUOUS
 10
-0.263555
 20
2.112815
  0
VERTEX
  8
PLAN_1
 62
     2
  6
CONTINUOUS
 10
-0.261602
 20
2.111350
  0
VERTEX
  8
PLAN_1
 62
     2
  6
CONTINUOUS
 10
-0.259161
 20
2.109886
  0
VERTEX
  8
PLAN_1
 62
     2
  6
CONTINUOUS
 10
-0.257209
 20
2.108421
  0
VERTEX
  8
PLAN_1
 62
     2
  6
CONTINUOUS
 10
-0.255744
 20
2.106961
  0
VERTEX
  8
PLAN_1
 62
     2
  6
CONTINUOUS
 10
-0.254280
 20
2.105496
  0
VERTEX
  8
PLAN_1
 62
     2
  6
CONTINUOUS
 10
-0.253307
 20
2.103543
  0
VERTEX
  8
PLAN_1
 62
     2
  6
CONTINUOUS
 10
-0.252331
 20
2.101591
  0
VERTEX
  8
PLAN_1
 62
     2
  6
CONTINUOUS
 10
-0.251354
 20
2.099150
  0
VERTEX
  8
PLAN_1
 62
     2
  6
CONTINUOUS
 10
-0.250866
 20
2.096709
  0
VERTEX
  8
PLAN_1
 62
     2
  6
CONTINUOUS
 10
-0.250378
 20
2.093291
  0
VERTEX
  8
PLAN_1
 62
     2
  6
CONTINUOUS
 10
-0.250378
 20
2.089874
  0
VERTEX
  8
PLAN_1
 62
     2
  6
CONTINUOUS
 10
-0.250378
 20
2.087437
  0
VERTEX
  8
PLAN_1
 62
     2
  6
CONTINUOUS
 10
-0.250866
 20
2.085484
  0
VERTEX
  8
PLAN_1
 62
     2
  6
CONTINUOUS
 10
-0.251354
 20
2.082555
  0
VERTEX
  8
PLAN_1
 62
     2
  6
CONTINUOUS
 10
-0.252331
 20
2.080114
  0
VERTEX
  8
PLAN_1
 62
     2
  6
CONTINUOUS
 10
-0.253795
 20
2.077673
  0
VERTEX
  8
PLAN_1
 62
     2
  6
CONTINUOUS
 10
-0.255744
 20
2.075232
  0
VERTEX
  8
PLAN_1
 62
     2
  6
CONTINUOUS
 10
-0.258185
 20
2.073280
  0
VERTEX
  8
PLAN_1
 62
     2
  6
CONTINUOUS
 10
-0.260626
 20
2.070839
  0
VERTEX
  8
PLAN_1
 62
     2
  6
CONTINUOUS
 10
-0.263555
 20
2.069378
  0
VERTEX
  8
PLAN_1
 62
     2
  6
CONTINUOUS
 10
-0.266484
 20
2.068402
  0
VERTEX
  8
PLAN_1
 62
     2
  6
CONTINUOUS
 10
-0.269413
 20
2.067425
  0
VERTEX
  8
PLAN_1
 62
     2
  6
CONTINUOUS
 10
-0.272343
 20
2.066449
  0
VERTEX
  8
PLAN_1
 62
     2
  6
CONTINUOUS
 10
-0.275756
 20
2.065961
  0
VERTEX
  8
PLAN_1
 62
     2
  6
CONTINUOUS
 10
-0.279173
 20
2.065472
  0
VERTEX
  8
PLAN_1
 62
     2
  6
CONTINUOUS
 10
-0.282591
 20
2.065472
  0
VERTEX
  8
PLAN_1
 62
     2
  6
CONTINUOUS
 10
-0.286008
 20
2.065472
  0
VERTEX
  8
PLAN_1
 62
     2
  6
CONTINUOUS
 10
-0.292350
 20
2.065472
  0
VERTEX
  8
PLAN_1
 62
     2
  6
CONTINUOUS
 10
-0.299185
 20
2.066449
  0
VERTEX
  8
PLAN_1
 62
     2
  6
CONTINUOUS
 10
-0.302602
 20
2.067425
  0
VERTEX
  8
PLAN_1
 62
     2
  6
CONTINUOUS
 10
-0.305531
 20
2.068402
  0
VERTEX
  8
PLAN_1
 62
     2
  6
CONTINUOUS
 10
-0.308949
 20
2.069378
  0
VERTEX
  8
PLAN_1
 62
     2
  6
CONTINUOUS
 10
-0.311874
 20
2.070839
  0
VERTEX
  8
PLAN_1
 62
     2
  6
CONTINUOUS
 10
-0.314803
 20
2.072303
  0
VERTEX
  8
PLAN_1
 62
     2
  6
CONTINUOUS
 10
-0.317244
 20
2.074256
  0
VERTEX
  8
PLAN_1
 62
     2
  6
CONTINUOUS
 10
-0.319685
 20
2.076697
  0
VERTEX
  8
PLAN_1
 62
     2
  6
CONTINUOUS
 10
-0.321638
 20
2.079138
  0
VERTEX
  8
PLAN_1
 62
     2
  6
CONTINUOUS
 10
-0.323102
 20
2.081579
  0
VERTEX
  8
PLAN_1
 62
     2
  6
CONTINUOUS
 10
-0.324079
 20
2.084996
  0
VERTEX
  8
PLAN_1
 62
     2
  6
CONTINUOUS
 10
-0.325055
 20
2.088413
  0
VERTEX
  8
PLAN_1
 62
     2
  6
CONTINUOUS
 10
-0.325543
 20
2.092315
  0
VERTEX
  8
PLAN_1
 62
     2
  6
CONTINUOUS
 10
-0.325055
 20
2.095732
  0
VERTEX
  8
PLAN_1
 62
     2
  6
CONTINUOUS
 10
-0.324567
 20
2.099150
  0
VERTEX
  8
PLAN_1
 62
     2
  6
CONTINUOUS
 10
-0.323102
 20
2.102567
  0
VERTEX
  8
PLAN_1
 62
     2
  6
CONTINUOUS
 10
-0.321150
 20
2.105984
  0
VERTEX
  8
PLAN_1
 62
     2
  6
CONTINUOUS
 10
-0.318709
 20
2.108909
  0
VERTEX
  8
PLAN_1
 62
     2
  6
CONTINUOUS
 10
-0.315291
 20
2.111350
  0
VERTEX
  8
PLAN_1
 62
     2
  6
CONTINUOUS
 10
-0.313339
 20
2.112327
  0
VERTEX
  8
PLAN_1
 62
     2
  6
CONTINUOUS
 10
-0.310898
 20
2.112815
  0
VERTEX
  8
PLAN_1
 62
     2
  6
CONTINUOUS
 10
-0.308461
 20
2.113303
  0
VERTEX
  8
PLAN_1
 62
     2
  6
CONTINUOUS
 10
-0.306020
 20
2.113791
  0
VERTEX
  8
PLAN_1
 62
     2
  6
CONTINUOUS
 10
-0.306020
 20
2.105008
  0
SEQEND
  8
0
  0
POLYLINE
  8
PLAN_1
 62
     2
  6
CONTINUOUS
 66
     1
 40
0.003000
 41
0.003000
  0
VERTEX
  8
PLAN_1
 62
     2
  6
CONTINUOUS
 10
-0.258185
 20
2.091339
  0
VERTEX
  8
PLAN_1
 62
     2
  6
CONTINUOUS
 10
-0.258673
 20
2.094756
  0
VERTEX
  8
PLAN_1
 62
     2
  6
CONTINUOUS
 10
-0.259650
 20
2.097197
  0
VERTEX
  8
PLAN_1
 62
     2
  6
CONTINUOUS
 10
-0.261114
 20
2.099638
  0
VERTEX
  8
PLAN_1
 62
     2
  6
CONTINUOUS
 10
-0.263067
 20
2.102079
  0
VERTEX
  8
PLAN_1
 62
     2
  6
CONTINUOUS
 10
-0.265508
 20
2.103543
  0
VERTEX
  8
PLAN_1
 62
     2
  6
CONTINUOUS
 10
-0.268437
 20
2.105008
  0
VERTEX
  8
PLAN_1
 62
     2
  6
CONTINUOUS
 10
-0.271854
 20
2.105496
  0
VERTEX
  8
PLAN_1
 62
     2
  6
CONTINUOUS
 10
-0.275268
 20
2.105984
  0
VERTEX
  8
PLAN_1
 62
     2
  6
CONTINUOUS
 10
-0.277709
 20
2.105496
  0
VERTEX
  8
PLAN_1
 62
     2
  6
CONTINUOUS
 10
-0.280150
 20
2.105008
  0
VERTEX
  8
PLAN_1
 62
     2
  6
CONTINUOUS
 10
-0.283079
 20
2.104031
  0
VERTEX
  8
PLAN_1
 62
     2
  6
CONTINUOUS
 10
-0.285520
 20
2.102567
  0
VERTEX
  8
PLAN_1
 62
     2
  6
CONTINUOUS
 10
-0.287472
 20
2.100614
  0
VERTEX
  8
PLAN_1
 62
     2
  6
CONTINUOUS
 10
-0.288937
 20
2.098173
  0
VERTEX
  8
PLAN_1
 62
     2
  6
CONTINUOUS
 10
-0.290402
 20
2.094756
  0
VERTEX
  8
PLAN_1
 62
     2
  6
CONTINUOUS
 10
-0.290402
 20
2.090850
  0
VERTEX
  8
PLAN_1
 62
     2
  6
CONTINUOUS
 10
-0.290402
 20
2.087437
  0
VERTEX
  8
PLAN_1
 62
     2
  6
CONTINUOUS
 10
-0.289425
 20
2.084508
  0
VERTEX
  8
PLAN_1
 62
     2
  6
CONTINUOUS
 10
-0.287961
 20
2.082067
  0
VERTEX
  8
PLAN_1
 62
     2
  6
CONTINUOUS
 10
-0.286008
 20
2.079626
  0
VERTEX
  8
PLAN_1
 62
     2
  6
CONTINUOUS
 10
-0.283567
 20
2.078161
  0
VERTEX
  8
PLAN_1
 62
     2
  6
CONTINUOUS
 10
-0.280638
 20
2.077185
  0
VERTEX
  8
PLAN_1
 62
     2
  6
CONTINUOUS
 10
-0.277709
 20
2.076209
  0
VERTEX
  8
PLAN_1
 62
     2
  6
CONTINUOUS
 10
-0.274780
 20
2.076209
  0
VERTEX
  8
PLAN_1
 62
     2
  6
CONTINUOUS
 10
-0.271854
 20
2.076209
  0
VERTEX
  8
PLAN_1
 62
     2
  6
CONTINUOUS
 10
-0.268925
 20
2.077185
  0
VERTEX
  8
PLAN_1
 62
     2
  6
CONTINUOUS
 10
-0.265996
 20
2.078161
  0
VERTEX
  8
PLAN_1
 62
     2
  6
CONTINUOUS
 10
-0.263555
 20
2.079626
  0
VERTEX
  8
PLAN_1
 62
     2
  6
CONTINUOUS
 10
-0.261602
 20
2.082067
  0
VERTEX
  8
PLAN_1
 62
     2
  6
CONTINUOUS
 10
-0.259650
 20
2.084508
  0
VERTEX
  8
PLAN_1
 62
     2
  6
CONTINUOUS
 10
-0.258673
 20
2.087925
  0
VERTEX
  8
PLAN_1
 62
     2
  6
CONTINUOUS
 10
-0.258185
 20
2.091339
  0
SEQEND
  8
0
  0
POLYLINE
  8
PLAN_1
 62
     2
  6
CONTINUOUS
 66
     1
 40
0.003000
 41
0.003000
  0
VERTEX
  8
PLAN_1
 62
     2
  6
CONTINUOUS
 10
-0.252331
 20
2.128433
  0
VERTEX
  8
PLAN_1
 62
     2
  6
CONTINUOUS
 10
-0.252331
 20
2.133803
  0
VERTEX
  8
PLAN_1
 62
     2
  6
CONTINUOUS
 10
-0.250378
 20
2.133803
  0
VERTEX
  8
PLAN_1
 62
     2
  6
CONTINUOUS
 10
-0.248425
 20
2.133803
  0
VERTEX
  8
PLAN_1
 62
     2
  6
CONTINUOUS
 10
-0.246961
 20
2.133315
  0
VERTEX
  8
PLAN_1
 62
     2
  6
CONTINUOUS
 10
-0.245008
 20
2.132827
  0
VERTEX
  8
PLAN_1
 62
     2
  6
CONTINUOUS
 10
-0.244031
 20
2.131850
  0
VERTEX
  8
PLAN_1
 62
     2
  6
CONTINUOUS
 10
-0.242567
 20
2.130874
  0
VERTEX
  8
PLAN_1
 62
     2
  6
CONTINUOUS
 10
-0.242079
 20
2.129898
  0
VERTEX
  8
PLAN_1
 62
     2
  6
CONTINUOUS
 10
-0.241591
 20
2.128433
  0
VERTEX
  8
PLAN_1
 62
     2
  6
CONTINUOUS
 10
-0.236709
 20
2.128433
  0
VERTEX
  8
PLAN_1
 62
     2
  6
CONTINUOUS
 10
-0.237197
 20
2.129409
  0
VERTEX
  8
PLAN_1
 62
     2
  6
CONTINUOUS
 10
-0.237685
 20
2.130874
  0
VERTEX
  8
PLAN_1
 62
     2
  6
CONTINUOUS
 10
-0.238173
 20
2.132827
  0
VERTEX
  8
PLAN_1
 62
     2
  6
CONTINUOUS
 10
-0.239638
 20
2.134780
  0
VERTEX
  8
PLAN_1
 62
     2
  6
CONTINUOUS
 10
-0.241591
 20
2.136244
  0
VERTEX
  8
PLAN_1
 62
     2
  6
CONTINUOUS
 10
-0.244520
 20
2.137709
  0
VERTEX
  8
PLAN_1
 62
     2
  6
CONTINUOUS
 10
-0.248425
 20
2.138685
  0
VERTEX
  8
PLAN_1
 62
     2
  6
CONTINUOUS
 10
-0.252819
 20
2.139173
  0
VERTEX
  8
PLAN_1
 62
     2
  6
CONTINUOUS
 10
-0.263067
 20
2.139173
  0
VERTEX
  8
PLAN_1
 62
     2
  6
CONTINUOUS
 10
-0.263067
 20
2.128433
  0
VERTEX
  8
PLAN_1
 62
     2
  6
CONTINUOUS
 10
-0.252331
 20
2.128433
  0
SEQEND
  8
0
  0
POLYLINE
  8
PLAN_1
 62
     2
  6
CONTINUOUS
 66
     1
 40
0.003000
 41
0.003000
  0
VERTEX
  8
PLAN_1
 62
     2
  6
CONTINUOUS
 10
-0.294791
 20
2.163579
  0
VERTEX
  8
PLAN_1
 62
     2
  6
CONTINUOUS
 10
-0.295768
 20
2.164551
  0
VERTEX
  8
PLAN_1
 62
     2
  6
CONTINUOUS
 10
-0.296256
 20
2.166016
  0
VERTEX
  8
PLAN_1
 62
     2
  6
CONTINUOUS
 10
-0.297232
 20
2.167480
  0
VERTEX
  8
PLAN_1
 62
     2
  6
CONTINUOUS
 10
-0.297720
 20
2.169433
  0
VERTEX
  8
PLAN_1
 62
     2
  6
CONTINUOUS
 10
-0.298697
 20
2.171386
  0
VERTEX
  8
PLAN_1
 62
     2
  6
CONTINUOUS
 10
-0.298697
 20
2.173339
  0
VERTEX
  8
PLAN_1
 62
     2
  6
CONTINUOUS
 10
-0.299185
 20
2.175291
  0
VERTEX
  8
PLAN_1
 62
     2
  6
CONTINUOUS
 10
-0.299185
 20
2.177732
  0
VERTEX
  8
PLAN_1
 62
     2
  6
CONTINUOUS
 10
-0.298697
 20
2.182126
  0
VERTEX
  8
PLAN_1
 62
     2
  6
CONTINUOUS
 10
-0.297720
 20
2.186516
  0
VERTEX
  8
PLAN_1
 62
     2
  6
CONTINUOUS
 10
-0.295768
 20
2.190421
  0
VERTEX
  8
PLAN_1
 62
     2
  6
CONTINUOUS
 10
-0.293327
 20
2.194327
  0
VERTEX
  8
PLAN_1
 62
     2
  6
CONTINUOUS
 10
-0.289913
 20
2.197256
  0
VERTEX
  8
PLAN_1
 62
     2
  6
CONTINUOUS
 10
-0.286008
 20
2.199697
  0
VERTEX
  8
PLAN_1
 62
     2
  6
CONTINUOUS
 10
-0.283567
 20
2.200673
  0
VERTEX
  8
PLAN_1
 62
     2
  6
CONTINUOUS
 10
-0.281126
 20
2.201161
  0
VERTEX
  8
PLAN_1
 62
     2
  6
CONTINUOUS
 10
-0.278685
 20
2.201650
  0
VERTEX
  8
PLAN_1
 62
     2
  6
CONTINUOUS
 10
-0.275756
 20
2.201650
  0
VERTEX
  8
PLAN_1
 62
     2
  6
CONTINUOUS
 10
-0.272343
 20
2.201650
  0
VERTEX
  8
PLAN_1
 62
     2
  6
CONTINUOUS
 10
-0.268437
 20
2.200673
  0
VERTEX
  8
PLAN_1
 62
     2
  6
CONTINUOUS
 10
-0.264043
 20
2.199209
  0
VERTEX
  8
PLAN_1
 62
     2
  6
CONTINUOUS
 10
-0.260138
 20
2.197256
  0
VERTEX
  8
PLAN_1
 62
     2
  6
CONTINUOUS
 10
-0.258185
 20
2.195303
  0
VERTEX
  8
PLAN_1
 62
     2
  6
CONTINUOUS
 10
-0.256232
 20
2.193839
  0
VERTEX
  8
PLAN_1
 62
     2
  6
CONTINUOUS
 10
-0.254768
 20
2.191398
  0
VERTEX
  8
PLAN_1
 62
     2
  6
CONTINUOUS
 10
-0.253307
 20
2.188957
  0
VERTEX
  8
PLAN_1
 62
     2
  6
CONTINUOUS
 10
-0.251843
 20
2.186028
  0
VERTEX
  8
PLAN_1
 62
     2
  6
CONTINUOUS
 10
-0.250866
 20
2.183098
  0
VERTEX
  8
PLAN_1
 62
     2
  6
CONTINUOUS
 10
-0.250378
 20
2.179197
  0
VERTEX
  8
PLAN_1
 62
     2
  6
CONTINUOUS
 10
-0.250378
 20
2.175291
  0
VERTEX
  8
PLAN_1
 62
     2
  6
CONTINUOUS
 10
-0.250378
 20
2.171386
  0
VERTEX
  8
PLAN_1
 62
     2
  6
CONTINUOUS
 10
-0.250866
 20
2.167480
  0
VERTEX
  8
PLAN_1
 62
     2
  6
CONTINUOUS
 10
-0.252331
 20
2.164063
  0
VERTEX
  8
PLAN_1
 62
     2
  6
CONTINUOUS
 10
-0.254280
 20
2.160650
  0
VERTEX
  8
PLAN_1
 62
     2
  6
CONTINUOUS
 10
-0.256720
 20
2.157232
  0
VERTEX
  8
PLAN_1
 62
     2
  6
CONTINUOUS
 10
-0.260138
 20
2.154791
  0
VERTEX
  8
PLAN_1
 62
     2
  6
CONTINUOUS
 10
-0.262579
 20
2.153815
  0
VERTEX
  8
PLAN_1
 62
     2
  6
CONTINUOUS
 10
-0.265020
 20
2.152839
  0
VERTEX
  8
PLAN_1
 62
     2
  6
CONTINUOUS
 10
-0.267461
 20
2.151862
  0
VERTEX
  8
PLAN_1
 62
     2
  6
CONTINUOUS
 10
-0.270390
 20
2.151374
  0
VERTEX
  8
PLAN_1
 62
     2
  6
CONTINUOUS
 10
-0.270390
 20
2.161138
  0
VERTEX
  8
PLAN_1
 62
     2
  6
CONTINUOUS
 10
-0.267461
 20
2.161626
  0
VERTEX
  8
PLAN_1
 62
     2
  6
CONTINUOUS
 10
-0.265020
 20
2.162602
  0
VERTEX
  8
PLAN_1
 62
     2
  6
CONTINUOUS
 10
-0.262579
 20
2.164063
  0
VERTEX
  8
PLAN_1
 62
     2
  6
CONTINUOUS
 10
-0.261114
 20
2.166016
  0
VERTEX
  8
PLAN_1
 62
     2
  6
CONTINUOUS
 10
-0.259650
 20
2.168457
  0
VERTEX
  8
PLAN_1
 62
     2
  6
CONTINUOUS
 10
-0.258673
 20
2.170898
  0
VERTEX
  8
PLAN_1
 62
     2
  6
CONTINUOUS
 10
-0.258185
 20
2.173339
  0
VERTEX
  8
PLAN_1
 62
     2
  6
CONTINUOUS
 10
-0.258185
 20
2.176756
  0
VERTEX
  8
PLAN_1
 62
     2
  6
CONTINUOUS
 10
-0.258673
 20
2.180173
  0
VERTEX
  8
PLAN_1
 62
     2
  6
CONTINUOUS
 10
-0.259650
 20
2.183098
  0
VERTEX
  8
PLAN_1
 62
     2
  6
CONTINUOUS
 10
-0.261114
 20
2.185539
  0
VERTEX
  8
PLAN_1
 62
     2
  6
CONTINUOUS
 10
-0.263067
 20
2.187980
  0
VERTEX
  8
PLAN_1
 62
     2
  6
CONTINUOUS
 10
-0.265508
 20
2.189445
  0
VERTEX
  8
PLAN_1
 62
     2
  6
CONTINUOUS
 10
-0.268437
 20
2.190909
  0
VERTEX
  8
PLAN_1
 62
     2
  6
CONTINUOUS
 10
-0.271366
 20
2.191886
  0
VERTEX
  8
PLAN_1
 62
     2
  6
CONTINUOUS
 10
-0.274780
 20
2.191886
  0
VERTEX
  8
PLAN_1
 62
     2
  6
CONTINUOUS
 10
-0.278685
 20
2.191398
  0
VERTEX
  8
PLAN_1
 62
     2
  6
CONTINUOUS
 10
-0.281614
 20
2.190909
  0
VERTEX
  8
PLAN_1
 62
     2
  6
CONTINUOUS
 10
-0.284543
 20
2.189445
  0
VERTEX
  8
PLAN_1
 62
     2
  6
CONTINUOUS
 10
-0.286984
 20
2.187004
  0
VERTEX
  8
PLAN_1
 62
     2
  6
CONTINUOUS
 10
-0.288937
 20
2.185051
  0
VERTEX
  8
PLAN_1
 62
     2
  6
CONTINUOUS
 10
-0.289913
 20
2.182126
  0
VERTEX
  8
PLAN_1
 62
     2
  6
CONTINUOUS
 10
-0.290890
 20
2.179197
  0
VERTEX
  8
PLAN_1
 62
     2
  6
CONTINUOUS
 10
-0.290890
 20
2.175780
  0
VERTEX
  8
PLAN_1
 62
     2
  6
CONTINUOUS
 10
-0.290890
 20
2.173827
  0
VERTEX
  8
PLAN_1
 62
     2
  6
CONTINUOUS
 10
-0.290402
 20
2.171874
  0
VERTEX
  8
PLAN_1
 62
     2
  6
CONTINUOUS
 10
-0.289913
 20
2.169921
  0
VERTEX
  8
PLAN_1
 62
     2
  6
CONTINUOUS
 10
-0.289425
 20
2.168457
  0
VERTEX
  8
PLAN_1
 62
     2
  6
CONTINUOUS
 10
-0.288449
 20
2.166504
  0
VERTEX
  8
PLAN_1
 62
     2
  6
CONTINUOUS
 10
-0.286984
 20
2.165039
  0
VERTEX
  8
PLAN_1
 62
     2
  6
CONTINUOUS
 10
-0.285520
 20
2.163579
  0
VERTEX
  8
PLAN_1
 62
     2
  6
CONTINUOUS
 10
-0.284055
 20
2.162114
  0
VERTEX
  8
PLAN_1
 62
     2
  6
CONTINUOUS
 10
-0.284543
 20
2.154303
  0
VERTEX
  8
PLAN_1
 62
     2
  6
CONTINUOUS
 10
-0.323591
 20
2.159673
  0
VERTEX
  8
PLAN_1
 62
     2
  6
CONTINUOUS
 10
-0.323591
 20
2.197744
  0
VERTEX
  8
PLAN_1
 62
     2
  6
CONTINUOUS
 10
-0.314803
 20
2.197744
  0
VERTEX
  8
PLAN_1
 62
     2
  6
CONTINUOUS
 10
-0.314803
 20
2.166504
  0
VERTEX
  8
PLAN_1
 62
     2
  6
CONTINUOUS
 10
-0.294791
 20
2.163579
  0
SEQEND
  8
0
  0
POLYLINE
  8
PLAN_1
 62
     2
  6
CONTINUOUS
 66
     1
 40
0.004390
 41
0.004390
  0
VERTEX
  8
PLAN_1
 62
     2
  6
CONTINUOUS
 10
-0.228413
 20
3.737169
  0
VERTEX
  8
PLAN_1
 62
     2
  6
CONTINUOUS
 10
-0.228413
 20
3.868953
  0
SEQEND
  8
0
  0
SOLID
  8
PLAN_1
 62
     2
 10
-0.228413
 20
3.898240
 11
-0.244520
 21
3.839181
 12
-0.228413
 22
3.898240
 13
-0.212795
 23
3.839181
  0
POLYLINE
  8
PLAN_1
 62
     2
  6
CONTINUOUS
 66
     1
 40
0.003000
 41
0.003000
  0
VERTEX
  8
PLAN_1
 62
     2
  6
CONTINUOUS
 10
-0.228413
 20
3.898240
  0
VERTEX
  8
PLAN_1
 62
     2
  6
CONTINUOUS
 10
-0.244520
 20
3.839181
  0
VERTEX
  8
PLAN_1
 62
     2
  6
CONTINUOUS
 10
-0.212795
 20
3.839181
  0
VERTEX
  8
PLAN_1
 62
     2
  6
CONTINUOUS
 10
-0.228413
 20
3.898240
  0
SEQEND
  8
0
  0
SOLID
  8
PLAN_1
 62
     2
 10
-0.228413
 20
3.707398
 11
-0.244520
 21
3.766457
 12
-0.228413
 22
3.707398
 13
-0.212795
 23
3.766457
  0
POLYLINE
  8
PLAN_1
 62
     2
  6
CONTINUOUS
 66
     1
 40
0.003000
 41
0.003000
  0
VERTEX
  8
PLAN_1
 62
     2
  6
CONTINUOUS
 10
-0.228413
 20
3.707398
  0
VERTEX
  8
PLAN_1
 62
     2
  6
CONTINUOUS
 10
-0.244520
 20
3.766457
  0
VERTEX
  8
PLAN_1
 62
     2
  6
CONTINUOUS
 10
-0.212795
 20
3.766457
  0
VERTEX
  8
PLAN_1
 62
     2
  6
CONTINUOUS
 10
-0.228413
 20
3.707398
  0
SEQEND
  8
0
  0
POLYLINE
  8
PLAN_1
 62
     2
  6
CONTINUOUS
 66
     1
 40
0.003000
 41
0.003000
  0
VERTEX
  8
PLAN_1
 62
     2
  6
CONTINUOUS
 10
-0.294791
 20
3.789394
  0
VERTEX
  8
PLAN_1
 62
     2
  6
CONTINUOUS
 10
-0.295768
 20
3.790370
  0
VERTEX
  8
PLAN_1
 62
     2
  6
CONTINUOUS
 10
-0.296256
 20
3.791835
  0
VERTEX
  8
PLAN_1
 62
     2
  6
CONTINUOUS
 10
-0.297232
 20
3.793299
  0
VERTEX
  8
PLAN_1
 62
     2
  6
CONTINUOUS
 10
-0.297720
 20
3.795252
  0
VERTEX
  8
PLAN_1
 62
     2
  6
CONTINUOUS
 10
-0.298697
 20
3.797205
  0
VERTEX
  8
PLAN_1
 62
     2
  6
CONTINUOUS
 10
-0.298697
 20
3.799157
  0
VERTEX
  8
PLAN_1
 62
     2
  6
CONTINUOUS
 10
-0.299185
 20
3.801110
  0
VERTEX
  8
PLAN_1
 62
     2
  6
CONTINUOUS
 10
-0.299185
 20
3.803551
  0
VERTEX
  8
PLAN_1
 62
     2
  6
CONTINUOUS
 10
-0.298697
 20
3.807941
  0
VERTEX
  8
PLAN_1
 62
     2
  6
CONTINUOUS
 10
-0.297720
 20
3.812335
  0
VERTEX
  8
PLAN_1
 62
     2
  6
CONTINUOUS
 10
-0.295768
 20
3.816240
  0
VERTEX
  8
PLAN_1
 62
     2
  6
CONTINUOUS
 10
-0.293327
 20
3.820146
  0
VERTEX
  8
PLAN_1
 62
     2
  6
CONTINUOUS
 10
-0.289913
 20
3.823075
  0
VERTEX
  8
PLAN_1
 62
     2
  6
CONTINUOUS
 10
-0.286008
 20
3.825512
  0
VERTEX
  8
PLAN_1
 62
     2
  6
CONTINUOUS
 10
-0.283567
 20
3.826488
  0
VERTEX
  8
PLAN_1
 62
     2
  6
CONTINUOUS
 10
-0.281126
 20
3.826976
  0
VERTEX
  8
PLAN_1
 62
     2
  6
CONTINUOUS
 10
-0.278685
 20
3.827465
  0
VERTEX
  8
PLAN_1
 62
     2
  6
CONTINUOUS
 10
-0.275756
 20
3.827465
  0
VERTEX
  8
PLAN_1
 62
     2
  6
CONTINUOUS
 10
-0.272343
 20
3.827465
  0
VERTEX
  8
PLAN_1
 62
     2
  6
CONTINUOUS
 10
-0.268437
 20
3.826488
  0
VERTEX
  8
PLAN_1
 62
     2
  6
CONTINUOUS
 10
-0.264043
 20
3.825024
  0
VERTEX
  8
PLAN_1
 62
     2
  6
CONTINUOUS
 10
-0.260138
 20
3.823075
  0
VERTEX
  8
PLAN_1
 62
     2
  6
CONTINUOUS
 10
-0.258185
 20
3.821122
  0
VERTEX
  8
PLAN_1
 62
     2
  6
CONTINUOUS
 10
-0.256232
 20
3.819657
  0
VERTEX
  8
PLAN_1
 62
     2
  6
CONTINUOUS
 10
-0.254768
 20
3.817217
  0
VERTEX
  8
PLAN_1
 62
     2
  6
CONTINUOUS
 10
-0.253307
 20
3.814776
  0
VERTEX
  8
PLAN_1
 62
     2
  6
CONTINUOUS
 10
-0.251843
 20
3.811846
  0
VERTEX
  8
PLAN_1
 62
     2
  6
CONTINUOUS
 10
-0.250866
 20
3.808917
  0
VERTEX
  8
PLAN_1
 62
     2
  6
CONTINUOUS
 10
-0.250378
 20
3.805012
  0
VERTEX
  8
PLAN_1
 62
     2
  6
CONTINUOUS
 10
-0.250378
 20
3.801110
  0
VERTEX
  8
PLAN_1
 62
     2
  6
CONTINUOUS
 10
-0.250378
 20
3.797205
  0
VERTEX
  8
PLAN_1
 62
     2
  6
CONTINUOUS
 10
-0.250866
 20
3.793299
  0
VERTEX
  8
PLAN_1
 62
     2
  6
CONTINUOUS
 10
-0.252331
 20
3.789882
  0
VERTEX
  8
PLAN_1
 62
     2
  6
CONTINUOUS
 10
-0.254280
 20
3.786465
  0
VERTEX
  8
PLAN_1
 62
     2
  6
CONTINUOUS
 10
-0.256720
 20
3.783051
  0
VERTEX
  8
PLAN_1
 62
     2
  6
CONTINUOUS
 10
-0.260138
 20
3.780610
  0
VERTEX
  8
PLAN_1
 62
     2
  6
CONTINUOUS
 10
-0.262579
 20
3.779634
  0
VERTEX
  8
PLAN_1
 62
     2
  6
CONTINUOUS
 10
-0.265020
 20
3.778657
  0
VERTEX
  8
PLAN_1
 62
     2
  6
CONTINUOUS
 10
-0.267461
 20
3.777681
  0
VERTEX
  8
PLAN_1
 62
     2
  6
CONTINUOUS
 10
-0.270390
 20
3.777193
  0
VERTEX
  8
PLAN_1
 62
     2
  6
CONTINUOUS
 10
-0.270390
 20
3.786953
  0
VERTEX
  8
PLAN_1
 62
     2
  6
CONTINUOUS
 10
-0.267461
 20
3.787441
  0
VERTEX
  8
PLAN_1
 62
     2
  6
CONTINUOUS
 10
-0.265020
 20
3.788417
  0
VERTEX
  8
PLAN_1
 62
     2
  6
CONTINUOUS
 10
-0.262579
 20
3.789882
  0
VERTEX
  8
PLAN_1
 62
     2
  6
CONTINUOUS
 10
-0.261114
 20
3.791835
  0
VERTEX
  8
PLAN_1
 62
     2
  6
CONTINUOUS
 10
-0.259650
 20
3.794276
  0
VERTEX
  8
PLAN_1
 62
     2
  6
CONTINUOUS
 10
-0.258673
 20
3.796717
  0
VERTEX
  8
PLAN_1
 62
     2
  6
CONTINUOUS
 10
-0.258185
 20
3.799157
  0
VERTEX
  8
PLAN_1
 62
     2
  6
CONTINUOUS
 10
-0.258185
 20
3.802575
  0
VERTEX
  8
PLAN_1
 62
     2
  6
CONTINUOUS
 10
-0.258673
 20
3.805500
  0
VERTEX
  8
PLAN_1
 62
     2
  6
CONTINUOUS
 10
-0.259650
 20
3.808917
  0
VERTEX
  8
PLAN_1
 62
     2
  6
CONTINUOUS
 10
-0.261114
 20
3.811358
  0
VERTEX
  8
PLAN_1
 62
     2
  6
CONTINUOUS
 10
-0.263067
 20
3.813799
  0
VERTEX
  8
PLAN_1
 62
     2
  6
CONTINUOUS
 10
-0.265508
 20
3.815264
  0
VERTEX
  8
PLAN_1
 62
     2
  6
CONTINUOUS
 10
-0.268437
 20
3.816728
  0
VERTEX
  8
PLAN_1
 62
     2
  6
CONTINUOUS
 10
-0.271366
 20
3.817705
  0
VERTEX
  8
PLAN_1
 62
     2
  6
CONTINUOUS
 10
-0.274780
 20
3.817705
  0
VERTEX
  8
PLAN_1
 62
     2
  6
CONTINUOUS
 10
-0.278685
 20
3.817217
  0
VERTEX
  8
PLAN_1
 62
     2
  6
CONTINUOUS
 10
-0.281614
 20
3.816728
  0
VERTEX
  8
PLAN_1
 62
     2
  6
CONTINUOUS
 10
-0.284543
 20
3.814776
  0
VERTEX
  8
PLAN_1
 62
     2
  6
CONTINUOUS
 10
-0.286984
 20
3.812823
  0
VERTEX
  8
PLAN_1
 62
     2
  6
CONTINUOUS
 10
-0.288937
 20
3.810870
  0
VERTEX
  8
PLAN_1
 62
     2
  6
CONTINUOUS
 10
-0.289913
 20
3.807941
  0
VERTEX
  8
PLAN_1
 62
     2
  6
CONTINUOUS
 10
-0.290890
 20
3.805012
  0
VERTEX
  8
PLAN_1
 62
     2
  6
CONTINUOUS
 10
-0.290890
 20
3.801598
  0
VERTEX
  8
PLAN_1
 62
     2
  6
CONTINUOUS
 10
-0.290890
 20
3.799646
  0
VERTEX
  8
PLAN_1
 62
     2
  6
CONTINUOUS
 10
-0.290402
 20
3.797693
  0
VERTEX
  8
PLAN_1
 62
     2
  6
CONTINUOUS
 10
-0.289913
 20
3.795740
  0
VERTEX
  8
PLAN_1
 62
     2
  6
CONTINUOUS
 10
-0.289425
 20
3.794276
  0
VERTEX
  8
PLAN_1
 62
     2
  6
CONTINUOUS
 10
-0.288449
 20
3.792323
  0
VERTEX
  8
PLAN_1
 62
     2
  6
CONTINUOUS
 10
-0.286984
 20
3.790858
  0
VERTEX
  8
PLAN_1
 62
     2
  6
CONTINUOUS
 10
-0.285520
 20
3.789394
  0
VERTEX
  8
PLAN_1
 62
     2
  6
CONTINUOUS
 10
-0.284055
 20
3.787929
  0
VERTEX
  8
PLAN_1
 62
     2
  6
CONTINUOUS
 10
-0.284543
 20
3.780122
  0
VERTEX
  8
PLAN_1
 62
     2
  6
CONTINUOUS
 10
-0.323591
 20
3.785488
  0
VERTEX
  8
PLAN_1
 62
     2
  6
CONTINUOUS
 10
-0.323591
 20
3.823559
  0
VERTEX
  8
PLAN_1
 62
     2
  6
CONTINUOUS
 10
-0.314803
 20
3.823559
  0
VERTEX
  8
PLAN_1
 62
     2
  6
CONTINUOUS
 10
-0.314803
 20
3.792323
  0
VERTEX
  8
PLAN_1
 62
     2
  6
CONTINUOUS
 10
-0.294791
 20
3.789394
  0
SEQEND
  8
0
  0
POLYLINE
  8
PLAN_1
 62
     2
  6
CONTINUOUS
 66
     1
 40
0.004390
 41
0.004390
  0
VERTEX
  8
PLAN_1
 62
     2
  6
CONTINUOUS
 10
-0.388016
 20
3.707398
  0
VERTEX
  8
PLAN_1
 62
     2
  6
CONTINUOUS
 10
-0.204984
 20
3.707398
  0
SEQEND
  8
0
  0
POLYLINE
  8
PLAN_1
 62
     2
  6
CONTINUOUS
 66
     1
 40
0.004390
 41
0.004390
  0
VERTEX
  8
PLAN_1
 62
     2
  6
CONTINUOUS
 10
-0.337744
 20
0.671496
  0
VERTEX
  8
PLAN_1
 62
     2
  6
CONTINUOUS
 10
-0.204984
 20
0.671496
  0
SEQEND
  8
0
  0
POLYLINE
  8
PLAN_1
 62
     2
  6
CONTINUOUS
 66
     1
 40
0.004390
 41
0.004390
  0
VERTEX
  8
PLAN_1
 62
     2
  6
CONTINUOUS
 10
-0.388016
 20
3.898240
  0
VERTEX
  8
PLAN_1
 62
     2
  6
CONTINUOUS
 10
-0.204984
 20
3.898240
  0
SEQEND
  8
0
  0
POLYLINE
  8
PLAN_1
 62
     2
  6
CONTINUOUS
 66
     1
 40
0.004390
 41
0.004390
  0
VERTEX
  8
PLAN_1
 62
     2
  6
CONTINUOUS
 10
-0.812654
 20
0.201469
  0
VERTEX
  8
PLAN_1
 62
     2
  6
CONTINUOUS
 10
-0.204984
 20
0.201469
  0
SEQEND
  8
0
  0
ENDSEC
  0
EOF
