999
DXF file: C:\Vinayak\New 2D genarating\updateCreo8 with 3dPdf\CAD\NSYCRN54200P_3D-CAD\drw0001_5.dxf
999
Pro/ENGINEER 2021284 by Parametric Technology Corporation
  0
SECTION
  2
HEADER
  9
$ACADVER
  1
AC1024
  9
$DWGCODEPAGE
  3
ANSI_1252
  9
$EXTMAX
 10
423.8509568631
 20
599.4463532778
 30
0.0
  9
$EXTMIN
 10
0.0
 20
0.0
 30
0.0
  9
$LIMMIN
 10
0.0
 20
0.0
  9
$LIMMAX
 10
423.8509568631
 20
599.4463532778
  9
$VIEWCTR
 10
211.9254784315
 20
299.7231766389
  9
$VIEWSIZE
 40
599.4463532778
  9
$CLAYER
  8
0
  9
$LTSCALE
 40
39.075021547
  9
$CELTYPE
  6
BYLAYER
  9
$DIMSCALE
 40
1.0
  9
$DIMASZ
 40
5.0458447246
  9
$DIMEXO
 40
1.0
  9
$DIMDLI
 40
26.9972876143
  9
$DIMEXE
 40
1.0
  9
$DIMCEN
 40
6.394094435
  9
$DIMLFAC
 40
1.0
  9
$DIMBLK
  1
_FILLED
  9
$DIMALT
 70
0
  9
$DIMALTF
 40
0.0393700787
  9
$DIMTXT
 40
7.0641826144
  9
$DIMTOL
 70
1
  9
$DIMLIM
 70
0
  9
$DIMTFAC
 40
1.0
  9
$DIMTP
 40
0.01
  9
$DIMTM
 40
0.01
  9
$DIMGAP
 40
0.625
  9
$DIMDSEP
 70
46
  9
$AUNITS
 70
0
  9
$PDMODE
 70
3
  9
$PDSIZE
 40
0.3125
  9
$HANDSEED
  5
36E
  9
$TILEMODE
 70
1
  9
$MEASUREMENT
 70
1
  9
$INSUNITS
 70
4
  0
ENDSEC
  0
SECTION
  2
CLASSES
  0
CLASS
  1
ACDBDICTIONARYWDFLT
  2
AcDbDictionaryWithDefault
  3
AutoCAD 2000
 90
0
 91
1
280
0
281
0
  0
CLASS
  1
ACDBPLACEHOLDER
  2
AcDbPlaceHolder
  3
AutoCAD 2000
 90
0
 91
1
280
0
281
0
  0
CLASS
  1
LAYOUT
  2
AcDbLayout
  3
AutoCAD 2000
 90
0
 91
0
280
0
281
0
  0
ENDSEC
  0
SECTION
  2
TABLES
  0
TABLE
  2
VPORT
  5
8
100
AcDbSymbolTable
 70
2
  0
VPORT
  5
1F4
100
AcDbSymbolTableRecord
100
AcDbViewportTableRecord
  2
*ACTIVE
 70
0
 10
0.0
 20
0.0
 11
1.0
 21
1.0
 12
211.9254784315
 22
299.7231766389
 13
0.0
 23
0.0
 14
1.0
 24
1.0
 15
0.0
 25
0.0
 16
0.0
 26
0.0
 36
1.0
 17
0.0
 27
0.0
 37
0.0
 40
599.4463532778
 41
0.7070707071
 42
50.0
 43
0.0
 44
0.0
 50
0.0
 51
0.0
 71
0
 72
100
 73
1
 74
1
 75
0
 76
0
 77
0
 78
0
  0
ENDTAB
  0
TABLE
  2
LTYPE
  5
5
100
AcDbSymbolTable
 70
6
  0
LTYPE
  5
14
100
AcDbSymbolTableRecord
100
AcDbLinetypeTableRecord
  2
BYBLOCK
 70
0
  3

 72
65
 73
0
 40
0.0
  0
LTYPE
  5
15
100
AcDbSymbolTableRecord
100
AcDbLinetypeTableRecord
  2
BYLAYER
 70
0
  3

 72
65
 73
0
 40
0.0
  0
LTYPE
  5
16
100
AcDbSymbolTableRecord
100
AcDbLinetypeTableRecord
  2
CONTINUOUS
 70
64
  3
Solid line
 72
65
 73
0
 40
0.0
  0
LTYPE
  5
1F5
100
AcDbSymbolTableRecord
100
AcDbLinetypeTableRecord
  2
CENTER
 70
64
  3
____ _ ____ _ ____ _ ____ _ ____ _ ____ _ ____
 72
65
 73
4
 40
0.6
 49
0.375
 74
0
 49
-0.075
 74
0
 49
0.075
 74
0
 49
-0.075
 74
0
  0
LTYPE
  5
1F6
100
AcDbSymbolTableRecord
100
AcDbLinetypeTableRecord
  2
HIDDEN
 70
64
  3
- - - - - - - - - - - - - - - - - - - -
 72
65
 73
2
 40
0.2
 49
0.1
 74
0
 49
-0.1
 74
0
  0
LTYPE
  5
1F7
100
AcDbSymbolTableRecord
100
AcDbLinetypeTableRecord
  2
PHANTOM
 70
64
  3
_____ _ _ _____ _ _ _____ _ _ _____
 72
65
 73
6
 40
0.8
 49
0.45
 74
0
 49
-0.05
 74
0
 49
0.1
 74
0
 49
-0.05
 74
0
 49
0.1
 74
0
 49
-0.05
 74
0
  0
LTYPE
  5
1F8
100
AcDbSymbolTableRecord
100
AcDbLinetypeTableRecord
  2
DOT
 70
64
  3
. . . . . . . . . . . . . . . . . . . .
 72
65
 73
2
 40
0.2
 49
0.1
 74
0
 49
-0.1
 74
0
  0
LTYPE
  5
1F9
100
AcDbSymbolTableRecord
100
AcDbLinetypeTableRecord
  2
DASHED
 70
64
  3
- - - - - - - - - - - - - - - - - - - -
 72
65
 73
2
 40
0.2
 49
0.1
 74
0
 49
-0.1
 74
0
  0
ENDTAB
  0
TABLE
  2
LAYER
  5
2
100
AcDbSymbolTable
 70
36
  0
LAYER
  5
10
100
AcDbSymbolTableRecord
100
AcDbLayerTableRecord
  2
0
 70
0
 62
7
  6
CONTINUOUS
370
-3
390
F
  0
LAYER
  5
1FA
100
AcDbSymbolTableRecord
100
AcDbLayerTableRecord
  2
DEFAULT_1
 70
0
 62
7
  6
CENTER
370
-3
390
F
  0
LAYER
  5
1FB
100
AcDbSymbolTableRecord
100
AcDbLayerTableRecord
  2
DEFAULT_2
 70
0
 62
8
  6
HIDDEN
370
-3
390
F
  0
LAYER
  5
1FC
100
AcDbSymbolTableRecord
100
AcDbLayerTableRecord
  2
DEFAULT_3
 70
0
 62
7
  6
PHANTOM
370
-3
390
F
  0
LAYER
  5
1FD
100
AcDbSymbolTableRecord
100
AcDbLayerTableRecord
  2
00_COMPONENTS
 70
0
 62
7
  6
CONTINUOUS
370
-3
390
F
  0
LAYER
  5
1FE
100
AcDbSymbolTableRecord
100
AcDbLayerTableRecord
  2
00_COMPONENTS_6
 70
0
 62
7
  6
CONTINUOUS
370
-3
390
F
  0
LAYER
  5
1FF
100
AcDbSymbolTableRecord
100
AcDbLayerTableRecord
  2
01_1_DEFAULT_DATUMS
 70
0
 62
7
  6
CONTINUOUS
370
-3
390
F
  0
LAYER
  5
200
100
AcDbSymbolTableRecord
100
AcDbLayerTableRecord
  2
01_PLANES
 70
0
 62
7
  6
CONTINUOUS
370
-3
390
F
  0
LAYER
  5
201
100
AcDbSymbolTableRecord
100
AcDbLayerTableRecord
  2
02_COORD_SYS
 70
0
 62
7
  6
CONTINUOUS
370
-3
390
F
  0
LAYER
  5
202
100
AcDbSymbolTableRecord
100
AcDbLayerTableRecord
  2
03_AXES
 70
0
 62
7
  6
CONTINUOUS
370
-3
390
F
  0
LAYER
  5
203
100
AcDbSymbolTableRecord
100
AcDbLayerTableRecord
  2
04_POINTS
 70
0
 62
7
  6
CONTINUOUS
370
-3
390
F
  0
LAYER
  5
204
100
AcDbSymbolTableRecord
100
AcDbLayerTableRecord
  2
05_CURVES
 70
0
 62
7
  6
CONTINUOUS
370
-3
390
F
  0
LAYER
  5
205
100
AcDbSymbolTableRecord
100
AcDbLayerTableRecord
  2
06_SURFS
 70
0
 62
7
  6
CONTINUOUS
370
-3
390
F
  0
LAYER
  5
206
100
AcDbSymbolTableRecord
100
AcDbLayerTableRecord
  2
07_COSMETICS
 70
0
 62
7
  6
CONTINUOUS
370
-3
390
F
  0
LAYER
  5
207
100
AcDbSymbolTableRecord
100
AcDbLayerTableRecord
  2
10_NOTES
 70
0
 62
7
  6
CONTINUOUS
370
-3
390
F
  0
LAYER
  5
208
100
AcDbSymbolTableRecord
100
AcDbLayerTableRecord
  2
11_NOTES_PUB
 70
0
 62
7
  6
CONTINUOUS
370
-3
390
F
  0
LAYER
  5
209
100
AcDbSymbolTableRecord
100
AcDbLayerTableRecord
  2
13_REF_GTOL
 70
0
 62
7
  6
CONTINUOUS
370
-3
390
F
  0
LAYER
  5
20A
100
AcDbSymbolTableRecord
100
AcDbLayerTableRecord
  2
16_MISC
 70
0
 62
7
  6
CONTINUOUS
370
-3
390
F
  0
LAYER
  5
20B
100
AcDbSymbolTableRecord
100
AcDbLayerTableRecord
  2
17_NO_PRINT
 70
0
 62
7
  6
CONTINUOUS
370
-3
390
F
  0
LAYER
  5
20C
100
AcDbSymbolTableRecord
100
AcDbLayerTableRecord
  2
18_DATUM_CAMS_JOINTS
 70
0
 62
7
  6
CONTINUOUS
370
-3
390
F
  0
LAYER
  5
20D
100
AcDbSymbolTableRecord
100
AcDbLayerTableRecord
  2
19_DATUM_FUNCTIONAL
 70
0
 62
7
  6
CONTINUOUS
370
-3
390
F
  0
LAYER
  5
20E
100
AcDbSymbolTableRecord
100
AcDbLayerTableRecord
  2
20_DATUM_KINEMATIC_SCHEME
 70
0
 62
7
  6
CONTINUOUS
370
-3
390
F
  0
LAYER
  5
20F
100
AcDbSymbolTableRecord
100
AcDbLayerTableRecord
  2
PART
 70
0
 62
7
  6
CONTINUOUS
370
-3
390
F
  0
LAYER
  5
210
100
AcDbSymbolTableRecord
100
AcDbLayerTableRecord
  2
PART_1
 70
0
 62
7
  6
CONTINUOUS
370
-3
390
F
  0
ENDTAB
  0
TABLE
  2
STYLE
  5
3
100
AcDbSymbolTable
 70
1
  0
STYLE
  5
11
100
AcDbSymbolTableRecord
100
AcDbTextStyleTableRecord
  2
STANDARD
 70
0
 40
0.0
 41
0.8
 50
0.0
 71
0
 42
0.2
  3
txt
  4

  0
STYLE
  5
211
100
AcDbSymbolTableRecord
100
AcDbTextStyleTableRecord
  2
TEXTSTYLE_1
 70
0
 40
0.0
 41
0.8
 50
0.0
 71
0
 42
0.2
  3
gdt
  4

  0
ENDTAB
  0
TABLE
  2
VIEW
  5
6
100
AcDbSymbolTable
 70
0
  0
ENDTAB
  0
TABLE
  2
UCS
  5
7
100
AcDbSymbolTable
 70
0
  0
ENDTAB
  0
TABLE
  2
APPID
  5
9
100
AcDbSymbolTable
 70
1
  0
APPID
  5
212
100
AcDbSymbolTableRecord
100
AcDbRegAppTableRecord
  2
ACAD
 70
0
  0
ENDTAB
  0
TABLE
  2
BLOCK_RECORD
  5
1
100
AcDbSymbolTable
 70
0
  0
BLOCK_RECORD
  5
213
100
AcDbSymbolTableRecord
100
AcDbBlockTableRecord
  2
*Model_Space
  0
BLOCK_RECORD
  5
214
100
AcDbSymbolTableRecord
100
AcDbBlockTableRecord
  2
*Paper_Space
  0
BLOCK_RECORD
  5
215
100
AcDbSymbolTableRecord
100
AcDbBlockTableRecord
  2
_FILLED
  0
ENDTAB
  0
TABLE
  2
DIMSTYLE
  5
A
100
AcDbSymbolTable
 70
1
100
AcDbDimStyleTable
 71
0
  0
DIMSTYLE
105
216
100
AcDbSymbolTableRecord
100
AcDbDimStyleTableRecord
  2
STANDARD
 70
0
  3

  4

 40
1.0
 41
5.0458447246
 42
1.0
 43
0.38
 44
1.0
 45
0.0
 46
0.0
 47
0.01
 48
0.01
140
7.0641826144
141
0.09
142
0.0
143
25.4
144
1.0
145
0.0
146
1.0
147
0.625
 71
1
 72
0
 73
0
 74
0
 75
0
 76
0
 77
1
 78
8
 79
2
170
0
171
1
172
0
173
0
174
0
175
0
176
0
177
0
178
0
270
2
179
2
271
2
272
2
273
2
274
2
275
0
280
0
281
0
282
0
283
1
284
8
285
0
286
0
287
3
288
0
340
11
278
46
341
215
342
215
343
215
344
215
  0
ENDTAB
  0
ENDSEC
  0
SECTION
  2
BLOCKS
  0
BLOCK
  5
20
100
AcDbEntity
  8
0
100
AcDbBlockBegin
  2
*Model_Space
 70
0
 10
0.0
 20
0.0
 30
0.0
  3
*Model_Space
  1

  0
ENDBLK
  5
21
100
AcDbEntity
  8
0
100
AcDbBlockEnd
  0
BLOCK
  5
1C
100
AcDbEntity
  8
0
100
AcDbBlockBegin
  2
*Paper_Space
 70
0
 10
0.0
 20
0.0
 30
0.0
  3
*Paper_Space
  1

  0
ENDBLK
  5
1D
100
AcDbEntity
  8
0
100
AcDbBlockEnd
  0
BLOCK
  5
217
100
AcDbEntity
  8
0
100
AcDbBlockBegin
  2
_FILLED
 70
64
 10
0.0
 20
0.0
  3
_FILLED
  1

  0
SOLID
  5
218
100
AcDbEntity
  8
0
  6
BYBLOCK
 62
0
100
AcDbTrace
 10
0.0
 20
0.0
 11
-1.0
 21
0.25
 12
-1.0
 22
-0.25
 13
-1.0
 23
-0.25
  0
ENDBLK
  5
219
100
AcDbEntity
  8
0
  6
BYBLOCK
 62
0
100
AcDbBlockEnd
  0
ENDSEC
  0
SECTION
  2
ENTITIES
  0
LINE
  5
21A
100
AcDbEntity
  8
PART
100
AcDbLine
 62
7
  6
CONTINUOUS
 10
115.7264153814
 20
550.6771667576
 11
114.7881325856
 21
549.9216411769
  0
LINE
  5
21B
100
AcDbEntity
  8
00_COMPONENTS_6
100
AcDbLine
 62
7
  6
CONTINUOUS
 10
269.3101618532
 20
48.8232761066
 11
269.3050917763
 21
48.8222327511
  0
LINE
  5
21C
100
AcDbEntity
  8
00_COMPONENTS_6
100
AcDbLine
 62
7
  6
CONTINUOUS
 10
269.3061114269
 20
48.8175567105
 11
269.3104483101
 21
48.8184324115
  0
LINE
  5
21D
100
AcDbEntity
  8
00_COMPONENTS_6
100
AcDbLine
 62
7
  6
CONTINUOUS
 10
269.3063214909
 20
48.8182695002
 11
269.3106511956
 21
48.8191225644
  0
LINE
  5
21E
100
AcDbEntity
  8
00_COMPONENTS_6
100
AcDbLine
 62
7
  6
CONTINUOUS
 10
269.3104903354
 20
48.8244064079
 11
269.3054351131
 21
48.8234106938
  0
LWPOLYLINE
  5
21F
100
AcDbEntity
  8
00_COMPONENTS_6
100
AcDbPolyline
 62
7
  6
CONTINUOUS
 90
3
 70
0
 10
271.034572325
 20
49.1556009859
 10
271.0644493961
 20
49.1586871386
 10
271.0954136928
 20
49.1668660584
  0
LINE
  5
220
100
AcDbEntity
  8
00_COMPONENTS_6
100
AcDbLine
 62
7
  6
CONTINUOUS
 10
269.1504393115
 20
48.7928757038
 11
269.1991913497
 21
48.7971620817
  0
LINE
  5
221
100
AcDbEntity
  8
00_COMPONENTS_6
100
AcDbLine
 62
7
  6
CONTINUOUS
 10
269.1504388219
 20
48.7928814734
 11
269.1608196393
 21
48.7937626458
  0
LINE
  5
222
100
AcDbEntity
  8
00_COMPONENTS_6
100
AcDbLine
 62
7
  6
CONTINUOUS
 10
271.0015857389
 20
49.1546565755
 11
271.034572325
 21
49.1556009859
  0
LINE
  5
223
100
AcDbEntity
  8
00_COMPONENTS_6
100
AcDbLine
 62
7
  6
CONTINUOUS
 10
271.0954096795
 20
49.1668640467
 11
271.0393671458
 21
49.1652609745
  0
LINE
  5
224
100
AcDbEntity
  8
00_COMPONENTS_6
100
AcDbLine
 62
7
  6
CONTINUOUS
 10
267.9741709858
 20
49.1538728063
 11
268.1037474598
 21
49.1546040171
  0
LINE
  5
225
100
AcDbEntity
  8
00_COMPONENTS_6
100
AcDbLine
 62
7
  6
CONTINUOUS
 10
138.6640302363
 20
49.1553354529
 11
139.0041709858
 21
49.1538728025
  0
LINE
  5
226
100
AcDbEntity
  8
00_COMPONENTS_6
100
AcDbLine
 62
7
  6
CONTINUOUS
 10
135.9437829342
 20
49.1556003124
 11
135.9734211256
 21
49.1547523541
  0
LINE
  5
227
100
AcDbEntity
  8
00_COMPONENTS_6
100
AcDbLine
 62
7
  6
CONTINUOUS
 10
135.9389763697
 20
49.165260443
 11
135.8829254739
 21
49.1668670414
  0
LINE
  5
228
100
AcDbEntity
  8
00_COMPONENTS_6
100
AcDbLine
 62
7
  6
CONTINUOUS
 10
200.9437829342
 20
49.1556003124
 11
200.9734211256
 21
49.1547523541
  0
LINE
  5
229
100
AcDbEntity
  8
00_COMPONENTS_6
100
AcDbLine
 62
7
  6
CONTINUOUS
 10
200.9389763697
 20
49.165260443
 11
200.8829254739
 21
49.1668670414
  0
LINE
  5
22A
100
AcDbEntity
  8
00_COMPONENTS_6
100
AcDbLine
 62
7
  6
CONTINUOUS
 10
137.8279022538
 20
48.7928757386
 11
137.8365789104
 21
48.7921450342
  0
LINE
  5
22B
100
AcDbEntity
  8
00_COMPONENTS_6
100
AcDbLine
 62
7
  6
CONTINUOUS
 10
202.8279022538
 20
48.7928757386
 11
202.8365789104
 21
48.7921450342
  0
LINE
  5
22C
100
AcDbEntity
  8
00_COMPONENTS_6
100
AcDbLine
 62
7
  6
CONTINUOUS
 10
135.9139026482
 20
49.1586857725
 11
135.9437829342
 21
49.1556003124
  0
LINE
  5
22D
100
AcDbEntity
  8
00_COMPONENTS_6
100
AcDbLine
 62
7
  6
CONTINUOUS
 10
200.9139026482
 20
49.1586857725
 11
200.9437829342
 21
49.1556003124
  0
LINE
  5
22E
100
AcDbEntity
  8
00_COMPONENTS_6
100
AcDbLine
 62
7
  6
CONTINUOUS
 10
137.6712168918
 20
48.8184942894
 11
137.6677081715
 21
48.8191877589
  0
LINE
  5
22F
100
AcDbEntity
  8
00_COMPONENTS_6
100
AcDbLine
 62
7
  6
CONTINUOUS
 10
137.6714469167
 20
48.8177134487
 11
137.6679329448
 21
48.8184231988
  0
LINE
  5
230
100
AcDbEntity
  8
00_COMPONENTS_6
100
AcDbLine
 62
7
  6
CONTINUOUS
 10
135.8829336679
 20
49.1668654934
 11
135.9139026482
 21
49.1586857725
  0
LINE
  5
231
100
AcDbEntity
  8
00_COMPONENTS_6
100
AcDbLine
 62
7
  6
CONTINUOUS
 10
204.3101618532
 20
48.8232761066
 11
204.3050917763
 21
48.8222327511
  0
LINE
  5
232
100
AcDbEntity
  8
00_COMPONENTS_6
100
AcDbLine
 62
7
  6
CONTINUOUS
 10
204.3061114269
 20
48.8175567105
 11
204.3104483101
 21
48.8184324115
  0
LINE
  5
233
100
AcDbEntity
  8
00_COMPONENTS_6
100
AcDbLine
 62
7
  6
CONTINUOUS
 10
204.3063214909
 20
48.8182695002
 11
204.3106511956
 21
48.8191225644
  0
LINE
  5
234
100
AcDbEntity
  8
00_COMPONENTS_6
100
AcDbLine
 62
7
  6
CONTINUOUS
 10
204.3104903354
 20
48.8244064079
 11
204.3054351131
 21
48.8234106938
  0
LWPOLYLINE
  5
235
100
AcDbEntity
  8
00_COMPONENTS_6
100
AcDbPolyline
 62
7
  6
CONTINUOUS
 90
3
 70
0
 10
206.034572325
 20
49.1556009859
 10
206.0644493961
 20
49.1586871386
 10
206.0954136928
 20
49.1668660584
  0
LWPOLYLINE
  5
236
100
AcDbEntity
  8
00_COMPONENTS_6
100
AcDbPolyline
 62
7
  6
CONTINUOUS
 90
3
 70
0
 10
141.034572325
 20
49.1556009859
 10
141.0644493961
 20
49.1586871386
 10
141.0954136928
 20
49.1668660584
  0
LINE
  5
237
100
AcDbEntity
  8
00_COMPONENTS_6
100
AcDbLine
 62
7
  6
CONTINUOUS
 10
204.1504393115
 20
48.7928757038
 11
204.1991913497
 21
48.7971620817
  0
LINE
  5
238
100
AcDbEntity
  8
00_COMPONENTS_6
100
AcDbLine
 62
7
  6
CONTINUOUS
 10
139.1504393115
 20
48.7928757038
 11
139.1991913497
 21
48.7971620817
  0
LINE
  5
239
100
AcDbEntity
  8
00_COMPONENTS_6
100
AcDbLine
 62
7
  6
CONTINUOUS
 10
204.1504388219
 20
48.7928814734
 11
204.1608196393
 21
48.7937626458
  0
LINE
  5
23A
100
AcDbEntity
  8
00_COMPONENTS_6
100
AcDbLine
 62
7
  6
CONTINUOUS
 10
139.1504388219
 20
48.7928814734
 11
139.1608196393
 21
48.7937626458
  0
LINE
  5
23B
100
AcDbEntity
  8
00_COMPONENTS_6
100
AcDbLine
 62
7
  6
CONTINUOUS
 10
206.0015859869
 20
49.1546566451
 11
206.034572325
 21
49.1556009859
  0
LINE
  5
23C
100
AcDbEntity
  8
00_COMPONENTS_6
100
AcDbLine
 62
7
  6
CONTINUOUS
 10
206.0954068039
 20
49.1668636299
 11
206.0393671458
 21
49.1652609745
  0
LINE
  5
23D
100
AcDbEntity
  8
00_COMPONENTS_6
100
AcDbLine
 62
7
  6
CONTINUOUS
 10
141.0015859869
 20
49.1546566451
 11
141.0263381046
 21
49.155364842
  0
LINE
  5
23E
100
AcDbEntity
  8
00_COMPONENTS_6
100
AcDbLine
 62
7
  6
CONTINUOUS
 10
141.0198154559
 20
49.1551782023
 11
141.034572325
 21
49.1556009859
  0
LINE
  5
23F
100
AcDbEntity
  8
00_COMPONENTS_6
100
AcDbLine
 62
7
  6
CONTINUOUS
 10
141.0263381046
 20
49.155364842
 11
141.034572325
 21
49.1556009859
  0
LINE
  5
240
100
AcDbEntity
  8
00_COMPONENTS_6
100
AcDbLine
 62
7
  6
CONTINUOUS
 10
141.0954068039
 20
49.1668636299
 11
141.0393671458
 21
49.1652609745
  0
LINE
  5
241
100
AcDbEntity
  8
00_COMPONENTS_6
100
AcDbLine
 62
7
  6
CONTINUOUS
 10
202.9741709858
 20
49.1538728063
 11
203.3114833642
 21
49.1553293267
  0
LINE
  5
242
100
AcDbEntity
  8
00_COMPONENTS_6
100
AcDbLine
 62
7
  6
CONTINUOUS
 10
137.9741709858
 20
49.1538728063
 11
138.3114833642
 21
49.1553293267
  0
LINE
  5
243
100
AcDbEntity
  8
00_COMPONENTS_6
100
AcDbLine
 62
7
  6
CONTINUOUS
 10
268.1037474598
 20
49.1546040171
 11
268.4891709822
 21
49.1555239902
  0
LINE
  5
244
100
AcDbEntity
  8
00_COMPONENTS_6
100
AcDbLine
 62
7
  6
CONTINUOUS
 10
208.1581130906
 20
50.2608658948
 11
198.820228882
 21
50.2608658948
  0
LINE
  5
245
100
AcDbEntity
  8
00_COMPONENTS_6
100
AcDbLine
 62
7
  6
CONTINUOUS
 10
143.1581130906
 20
50.2608658948
 11
133.820228882
 21
50.2608658948
  0
LINE
  5
246
100
AcDbEntity
  8
00_COMPONENTS_6
100
AcDbLine
 62
7
  6
CONTINUOUS
 10
263.820228882
 20
50.2608658948
 11
273.1581130906
 21
50.2608658948
  0
LINE
  5
247
100
AcDbEntity
  8
00_COMPONENTS_6
100
AcDbLine
 62
7
  6
CONTINUOUS
 10
133.7391709858
 20
50.4216538782
 11
143.2391709858
 21
50.4216538782
  0
LINE
  5
248
100
AcDbEntity
  8
00_COMPONENTS_6
100
AcDbLine
 62
7
  6
CONTINUOUS
 10
198.7391709858
 20
50.4216538782
 11
208.2391709858
 21
50.4216538782
  0
LINE
  5
249
100
AcDbEntity
  8
00_COMPONENTS_6
100
AcDbLine
 62
7
  6
CONTINUOUS
 10
263.7391709858
 20
50.4216538782
 11
273.2391709858
 21
50.4216538782
  0
LINE
  5
24A
100
AcDbEntity
  8
00_COMPONENTS_6
100
AcDbLine
 62
7
  6
CONTINUOUS
 10
273.2391709858
 20
50.7216411769
 11
273.0588701401
 21
50.7216411769
  0
LINE
  5
24B
100
AcDbEntity
  8
00_COMPONENTS_6
100
AcDbLine
 62
7
  6
CONTINUOUS
 10
272.6370467518
 20
50.7216411769
 11
270.8038257398
 21
50.7216411769
  0
LINE
  5
24C
100
AcDbEntity
  8
00_COMPONENTS_6
100
AcDbLine
 62
7
  6
CONTINUOUS
 10
269.7854539948
 20
50.7216411769
 11
267.1928879768
 21
50.7216411769
  0
LINE
  5
24D
100
AcDbEntity
  8
00_COMPONENTS_6
100
AcDbLine
 62
7
  6
CONTINUOUS
 10
266.1745162319
 20
50.7216411769
 11
264.3412952199
 21
50.7216411769
  0
LINE
  5
24E
100
AcDbEntity
  8
00_COMPONENTS_6
100
AcDbLine
 62
7
  6
CONTINUOUS
 10
263.9194718316
 20
50.7216411769
 11
263.7391709858
 21
50.7216411769
  0
LINE
  5
24F
100
AcDbEntity
  8
00_COMPONENTS_6
100
AcDbLine
 62
7
  6
CONTINUOUS
 10
208.2391709858
 20
50.7216411769
 11
208.0588701401
 21
50.7216411769
  0
LINE
  5
250
100
AcDbEntity
  8
00_COMPONENTS_6
100
AcDbLine
 62
7
  6
CONTINUOUS
 10
207.6370467518
 20
50.7216411769
 11
205.8038257398
 21
50.7216411769
  0
LINE
  5
251
100
AcDbEntity
  8
00_COMPONENTS_6
100
AcDbLine
 62
7
  6
CONTINUOUS
 10
204.7854539948
 20
50.7216411769
 11
202.1928879768
 21
50.7216411769
  0
LINE
  5
252
100
AcDbEntity
  8
00_COMPONENTS_6
100
AcDbLine
 62
7
  6
CONTINUOUS
 10
201.1745162319
 20
50.7216411769
 11
199.3412952199
 21
50.7216411769
  0
LINE
  5
253
100
AcDbEntity
  8
00_COMPONENTS_6
100
AcDbLine
 62
7
  6
CONTINUOUS
 10
198.9194718316
 20
50.7216411769
 11
198.7391709858
 21
50.7216411769
  0
LINE
  5
254
100
AcDbEntity
  8
00_COMPONENTS_6
100
AcDbLine
 62
7
  6
CONTINUOUS
 10
143.2391709858
 20
50.7216411769
 11
143.0588701401
 21
50.7216411769
  0
LINE
  5
255
100
AcDbEntity
  8
00_COMPONENTS_6
100
AcDbLine
 62
7
  6
CONTINUOUS
 10
142.6370467518
 20
50.7216411769
 11
140.8038257398
 21
50.7216411769
  0
LINE
  5
256
100
AcDbEntity
  8
00_COMPONENTS_6
100
AcDbLine
 62
7
  6
CONTINUOUS
 10
139.7854539948
 20
50.7216411769
 11
137.1928879768
 21
50.7216411769
  0
LINE
  5
257
100
AcDbEntity
  8
00_COMPONENTS_6
100
AcDbLine
 62
7
  6
CONTINUOUS
 10
136.1745162319
 20
50.7216411769
 11
134.3412952199
 21
50.7216411769
  0
LINE
  5
258
100
AcDbEntity
  8
00_COMPONENTS_6
100
AcDbLine
 62
7
  6
CONTINUOUS
 10
133.9194718316
 20
50.7216411769
 11
133.7391709858
 21
50.7216411769
  0
LINE
  5
259
100
AcDbEntity
  8
00_COMPONENTS_6
100
AcDbLine
 62
7
  6
CONTINUOUS
 10
134.2916532549
 20
50.8042763591
 11
136.2658117206
 21
50.8042763591
  0
LINE
  5
25A
100
AcDbEntity
  8
00_COMPONENTS_6
100
AcDbLine
 62
7
  6
CONTINUOUS
 10
137.0932317649
 20
50.8042763591
 11
139.8851102068
 21
50.8042763591
  0
LINE
  5
25B
100
AcDbEntity
  8
00_COMPONENTS_6
100
AcDbLine
 62
7
  6
CONTINUOUS
 10
140.7125302687
 20
50.8042763591
 11
142.6866887168
 21
50.8042763591
  0
LINE
  5
25C
100
AcDbEntity
  8
00_COMPONENTS_6
100
AcDbLine
 62
7
  6
CONTINUOUS
 10
199.2916532549
 20
50.8042763591
 11
201.2658117206
 21
50.8042763591
  0
LINE
  5
25D
100
AcDbEntity
  8
00_COMPONENTS_6
100
AcDbLine
 62
7
  6
CONTINUOUS
 10
202.0932317649
 20
50.8042763591
 11
204.8851102068
 21
50.8042763591
  0
LINE
  5
25E
100
AcDbEntity
  8
00_COMPONENTS_6
100
AcDbLine
 62
7
  6
CONTINUOUS
 10
205.7125302687
 20
50.8042763591
 11
207.6866887168
 21
50.8042763591
  0
LINE
  5
25F
100
AcDbEntity
  8
00_COMPONENTS_6
100
AcDbLine
 62
7
  6
CONTINUOUS
 10
264.2916532549
 20
50.8042763591
 11
266.2658117206
 21
50.8042763591
  0
LINE
  5
260
100
AcDbEntity
  8
00_COMPONENTS_6
100
AcDbLine
 62
7
  6
CONTINUOUS
 10
267.0932317649
 20
50.8042763591
 11
269.8851102068
 21
50.8042763591
  0
LINE
  5
261
100
AcDbEntity
  8
00_COMPONENTS_6
100
AcDbLine
 62
7
  6
CONTINUOUS
 10
270.7125302687
 20
50.8042763591
 11
272.6866887168
 21
50.8042763591
  0
LINE
  5
262
100
AcDbEntity
  8
00_COMPONENTS_6
100
AcDbLine
 62
7
  6
CONTINUOUS
 10
133.3688101443
 20
51.1216411769
 11
273.6095318274
 21
51.1216411769
  0
LINE
  5
263
100
AcDbEntity
  8
PART
100
AcDbLine
 62
7
  6
CONTINUOUS
 10
292.299210165
 20
52.1216411769
 11
115.841210165
 21
52.1216411769
  0
LINE
  5
264
100
AcDbEntity
  8
PART
100
AcDbLine
 62
7
  6
CONTINUOUS
 10
114.4995693785
 20
53.3216411769
 11
292.299210165
 21
53.3216411769
  0
LINE
  5
265
100
AcDbEntity
  8
PART_1
100
AcDbLine
 62
7
  6
CONTINUOUS
 10
314.199210165
 20
54.6216411769
 11
300.499210165
 21
54.6216411769
  0
LINE
  5
266
100
AcDbEntity
  8
PART_1
100
AcDbLine
 62
7
  6
CONTINUOUS
 10
300.499210165
 20
60.6216411768
 11
316.699210165
 21
60.6216411786
  0
LINE
  5
267
100
AcDbEntity
  8
00_COMPONENTS_6
100
AcDbLine
 62
7
  6
CONTINUOUS
 10
138.3114833642
 20
49.1553293267
 11
138.6640302363
 21
49.1553354529
  0
LINE
  5
268
100
AcDbEntity
  8
00_COMPONENTS_6
100
AcDbLine
 62
7
  6
CONTINUOUS
 10
203.3114833642
 20
49.1553293267
 11
203.6640302363
 21
49.1553354529
  0
LWPOLYLINE
  5
269
100
AcDbEntity
  8
00_COMPONENTS_6
100
AcDbPolyline
 62
7
  6
CONTINUOUS
 90
3
 70
0
 10
268.4891709844
 20
49.1555239766
 10
268.8717964305
 20
49.1546174059
 10
269.0041709858
 20
49.1538728025
  0
LINE
  5
26A
100
AcDbEntity
  8
00_COMPONENTS_6
100
AcDbLine
 62
7
  6
CONTINUOUS
 10
203.6640302363
 20
49.1553354529
 11
204.0041709858
 21
49.1538728025
  0
LINE
  5
26B
100
AcDbEntity
  8
00_COMPONENTS_6
100
AcDbLine
 62
7
  6
CONTINUOUS
 10
265.9437829342
 20
49.1556003124
 11
265.9734210764
 21
49.1547523691
  0
LINE
  5
26C
100
AcDbEntity
  8
00_COMPONENTS_6
100
AcDbLine
 62
7
  6
CONTINUOUS
 10
265.9389763697
 20
49.165260443
 11
265.8829240226
 21
49.166866504
  0
LINE
  5
26D
100
AcDbEntity
  8
00_COMPONENTS_6
100
AcDbLine
 62
7
  6
CONTINUOUS
 10
267.8279022538
 20
48.7928757386
 11
267.8365789104
 21
48.7921450342
  0
LINE
  5
26E
100
AcDbEntity
  8
00_COMPONENTS_6
100
AcDbLine
 62
7
  6
CONTINUOUS
 10
265.9139026482
 20
49.1586857725
 11
265.9437829342
 21
49.1556003124
  0
LINE
  5
26F
100
AcDbEntity
  8
00_COMPONENTS_6
100
AcDbLine
 62
7
  6
CONTINUOUS
 10
202.6712168918
 20
48.8184942894
 11
202.6677081715
 21
48.8191877589
  0
LINE
  5
270
100
AcDbEntity
  8
00_COMPONENTS_6
100
AcDbLine
 62
7
  6
CONTINUOUS
 10
267.6712168918
 20
48.8184942894
 11
267.6677081715
 21
48.8191877589
  0
LINE
  5
271
100
AcDbEntity
  8
00_COMPONENTS_6
100
AcDbLine
 62
7
  6
CONTINUOUS
 10
202.6714469167
 20
48.8177134487
 11
202.6679329448
 21
48.8184231988
  0
LINE
  5
272
100
AcDbEntity
  8
00_COMPONENTS_6
100
AcDbLine
 62
7
  6
CONTINUOUS
 10
267.6714469167
 20
48.8177134487
 11
267.6679329448
 21
48.8184231988
  0
LINE
  5
273
100
AcDbEntity
  8
00_COMPONENTS_6
100
AcDbLine
 62
7
  6
CONTINUOUS
 10
200.8829336679
 20
49.1668654934
 11
200.9139026482
 21
49.1586857725
  0
LINE
  5
274
100
AcDbEntity
  8
00_COMPONENTS_6
100
AcDbLine
 62
7
  6
CONTINUOUS
 10
139.3101618532
 20
48.8232761066
 11
139.3050917763
 21
48.8222327511
  0
LINE
  5
275
100
AcDbEntity
  8
00_COMPONENTS_6
100
AcDbLine
 62
7
  6
CONTINUOUS
 10
139.3061114269
 20
48.8175567105
 11
139.3104483101
 21
48.8184324115
  0
LINE
  5
276
100
AcDbEntity
  8
00_COMPONENTS_6
100
AcDbLine
 62
7
  6
CONTINUOUS
 10
139.3104903354
 20
48.8244064079
 11
139.3054351131
 21
48.8234106938
  0
LINE
  5
277
100
AcDbEntity
  8
00_COMPONENTS_6
100
AcDbLine
 62
7
  6
CONTINUOUS
 10
139.3063214909
 20
48.8182695002
 11
139.3106511956
 21
48.8191225644
  0
LINE
  5
278
100
AcDbEntity
  8
PART
100
AcDbLine
 62
7
  6
CONTINUOUS
 10
300.499210165
 20
72.4216411769
 11
295.499210165
 21
72.4216411769
  0
LINE
  5
279
100
AcDbEntity
  8
PART
100
AcDbLine
 62
7
  6
CONTINUOUS
 10
300.499210165
 20
73.6216411769
 11
295.499210165
 21
73.6216411769
  0
LINE
  5
27A
100
AcDbEntity
  8
00_COMPONENTS_6
100
AcDbLine
 62
7
  6
CONTINUOUS
 10
265.8829336679
 20
49.1668654934
 11
265.9139026482
 21
49.1586857725
  0
LINE
  5
27B
100
AcDbEntity
  8
0
100
AcDbLine
 62
7
  6
CONTINUOUS
 10
317.569210165
 20
148.6219823379
 11
316.699210165
 21
148.6219823379
  0
LINE
  5
27C
100
AcDbEntity
  8
PART
100
AcDbLine
 62
7
  6
CONTINUOUS
 10
114.4995693785
 20
53.3216411769
 11
114.4912102529
 21
53.4724448351
  0
LINE
  5
27D
100
AcDbEntity
  8
0
100
AcDbLine
 62
7
  6
CONTINUOUS
 10
316.699210165
 20
188.621982323
 11
317.569210165
 21
188.621982323
  0
LINE
  5
27E
100
AcDbEntity
  8
PART
100
AcDbLine
 62
7
  6
CONTINUOUS
 10
114.391210165
 20
533.0442908374
 11
114.391210165
 21
521.1989915163
  0
LINE
  5
27F
100
AcDbEntity
  8
PART
100
AcDbLine
 62
7
  6
CONTINUOUS
 10
114.391210165
 20
83.0442908374
 11
114.391210165
 21
71.1989915163
  0
LINE
  5
280
100
AcDbEntity
  8
PART
100
AcDbLine
 62
7
  6
CONTINUOUS
 10
114.491210165
 20
53.4719576403
 11
114.491210165
 21
549.9216411769
  0
LINE
  5
281
100
AcDbEntity
  8
PART
100
AcDbLine
 62
7
  6
CONTINUOUS
 10
115.841210165
 20
552.1216411769
 11
115.841210165
 21
53.3216411769
  0
LINE
  5
282
100
AcDbEntity
  8
00_COMPONENTS_6
100
AcDbLine
 62
7
  6
CONTINUOUS
 10
139.3104903354
 20
48.8244064079
 11
139.3114503844
 21
48.7928712722
  0
LINE
  5
283
100
AcDbEntity
  8
00_COMPONENTS_6
100
AcDbLine
 62
7
  6
CONTINUOUS
 10
133.7391709858
 20
50.7216411769
 11
133.7391709858
 21
50.4216538785
  0
LINE
  5
284
100
AcDbEntity
  8
00_COMPONENTS_6
100
AcDbLine
 62
7
  6
CONTINUOUS
 10
137.9741709858
 20
49.1652621789
 11
137.9741709858
 21
48.7975402874
  0
LINE
  5
285
100
AcDbEntity
  8
00_COMPONENTS_6
100
AcDbLine
 62
7
  6
CONTINUOUS
 10
138.4891709844
 20
49.1555239766
 11
138.489170985
 21
49.1668666787
  0
LINE
  5
286
100
AcDbEntity
  8
00_COMPONENTS_6
100
AcDbLine
 62
7
  6
CONTINUOUS
 10
139.0041709858
 20
48.7975402874
 11
139.0041709858
 21
49.1652621912
  0
LINE
  5
287
100
AcDbEntity
  8
00_COMPONENTS_6
100
AcDbLine
 62
7
  6
CONTINUOUS
 10
143.2391709858
 20
50.7216411769
 11
143.2391709858
 21
50.4216538785
  0
LINE
  5
288
100
AcDbEntity
  8
00_COMPONENTS_6
100
AcDbLine
 62
7
  6
CONTINUOUS
 10
137.6668732829
 20
48.7921450342
 11
137.6670007577
 21
48.7971620817
  0
LINE
  5
289
100
AcDbEntity
  8
00_COMPONENTS_6
100
AcDbLine
 62
7
  6
CONTINUOUS
 10
137.6676715232
 20
48.8191950021
 11
137.6670007577
 21
48.7971620817
  0
LINE
  5
28A
100
AcDbEntity
  8
00_COMPONENTS_6
100
AcDbLine
 62
7
  6
CONTINUOUS
 10
173.4891709858
 20
52.1216411769
 11
173.4891709858
 21
51.1216411769
  0
LINE
  5
28B
100
AcDbEntity
  8
00_COMPONENTS_6
100
AcDbLine
 62
7
  6
CONTINUOUS
 10
204.3104903354
 20
48.8244064079
 11
204.3114503844
 21
48.7928712722
  0
LINE
  5
28C
100
AcDbEntity
  8
00_COMPONENTS_6
100
AcDbLine
 62
7
  6
CONTINUOUS
 10
198.7391709858
 20
50.7216411769
 11
198.7391709858
 21
50.4216538785
  0
LINE
  5
28D
100
AcDbEntity
  8
00_COMPONENTS_6
100
AcDbLine
 62
7
  6
CONTINUOUS
 10
202.9741709858
 20
49.1652621789
 11
202.9741709858
 21
48.7975402874
  0
LINE
  5
28E
100
AcDbEntity
  8
00_COMPONENTS_6
100
AcDbLine
 62
7
  6
CONTINUOUS
 10
203.4891709844
 20
49.1555239766
 11
203.489170985
 21
49.1668666787
  0
LINE
  5
28F
100
AcDbEntity
  8
00_COMPONENTS_6
100
AcDbLine
 62
7
  6
CONTINUOUS
 10
204.0041709858
 20
48.7975402874
 11
204.0041709858
 21
49.1652621912
  0
LINE
  5
290
100
AcDbEntity
  8
00_COMPONENTS_6
100
AcDbLine
 62
7
  6
CONTINUOUS
 10
208.2391709858
 20
50.7216411769
 11
208.2391709858
 21
50.4216538785
  0
LINE
  5
291
100
AcDbEntity
  8
00_COMPONENTS_6
100
AcDbLine
 62
7
  6
CONTINUOUS
 10
202.6668732829
 20
48.7921450342
 11
202.6670007577
 21
48.7971620817
  0
LINE
  5
292
100
AcDbEntity
  8
00_COMPONENTS_6
100
AcDbLine
 62
7
  6
CONTINUOUS
 10
202.6676715232
 20
48.8191950021
 11
202.6670007577
 21
48.7971620817
  0
LINE
  5
293
100
AcDbEntity
  8
00_COMPONENTS_6
100
AcDbLine
 62
7
  6
CONTINUOUS
 10
233.4891709858
 20
51.1216411769
 11
233.4891709858
 21
52.1216411769
  0
LINE
  5
294
100
AcDbEntity
  8
00_COMPONENTS_6
100
AcDbLine
 62
7
  6
CONTINUOUS
 10
269.3104903354
 20
48.8244064079
 11
269.3114503844
 21
48.7928712722
  0
LINE
  5
295
100
AcDbEntity
  8
00_COMPONENTS_6
100
AcDbLine
 62
7
  6
CONTINUOUS
 10
263.7391709858
 20
50.7216411769
 11
263.7391709858
 21
50.4216538785
  0
LINE
  5
296
100
AcDbEntity
  8
00_COMPONENTS_6
100
AcDbLine
 62
7
  6
CONTINUOUS
 10
267.9741709858
 20
49.1652621789
 11
267.9741709858
 21
48.7975402874
  0
LINE
  5
297
100
AcDbEntity
  8
00_COMPONENTS_6
100
AcDbLine
 62
7
  6
CONTINUOUS
 10
268.4891709844
 20
49.1555239766
 11
268.489170985
 21
49.1668666787
  0
LINE
  5
298
100
AcDbEntity
  8
00_COMPONENTS_6
100
AcDbLine
 62
7
  6
CONTINUOUS
 10
269.0041709858
 20
48.7975402874
 11
269.0041709858
 21
49.1652621912
  0
LINE
  5
299
100
AcDbEntity
  8
00_COMPONENTS_6
100
AcDbLine
 62
7
  6
CONTINUOUS
 10
273.2391709858
 20
50.7216411769
 11
273.2391709858
 21
50.4216538785
  0
LINE
  5
29A
100
AcDbEntity
  8
00_COMPONENTS_6
100
AcDbLine
 62
7
  6
CONTINUOUS
 10
267.6668732829
 20
48.7921450342
 11
267.6670007577
 21
48.7971620817
  0
LINE
  5
29B
100
AcDbEntity
  8
PART
100
AcDbLine
 62
7
  6
CONTINUOUS
 10
292.299210165
 20
52.1216411769
 11
292.299210165
 21
552.1216411769
  0
LINE
  5
29C
100
AcDbEntity
  8
00_COMPONENTS_6
100
AcDbLine
 62
7
  6
CONTINUOUS
 10
267.6676715232
 20
48.8191950021
 11
267.6670007577
 21
48.7971620817
  0
LINE
  5
29D
100
AcDbEntity
  8
0
100
AcDbLine
 62
7
  6
CONTINUOUS
 10
318.9996802156
 20
416.6706113652
 11
321.1296802156
 21
423.4206062768
  0
LINE
  5
29E
100
AcDbEntity
  8
0
100
AcDbLine
 62
7
  6
CONTINUOUS
 10
321.1296802156
 20
180.8233918108
 11
318.9996802156
 21
187.5733968942
  0
LINE
  5
29F
100
AcDbEntity
  8
PART
100
AcDbLine
 62
7
  6
CONTINUOUS
 10
294.499210165
 20
549.9216411769
 11
294.499210165
 21
54.3216411769
  0
LINE
  5
2A0
100
AcDbEntity
  8
PART
100
AcDbLine
 62
7
  6
CONTINUOUS
 10
295.499210165
 20
531.8216411769
 11
295.499210165
 21
72.4216411769
  0
LINE
  5
2A1
100
AcDbEntity
  8
PART_1
100
AcDbLine
 62
7
  6
CONTINUOUS
 10
300.499210165
 20
54.6216411769
 11
300.499210165
 21
549.6216411769
  0
LINE
  5
2A2
100
AcDbEntity
  8
PART_1
100
AcDbLine
 62
7
  6
CONTINUOUS
 10
314.199210165
 20
54.6216411769
 11
314.199210165
 21
549.6216411769
  0
LINE
  5
2A3
100
AcDbEntity
  8
PART_1
100
AcDbLine
 62
7
  6
CONTINUOUS
 10
316.699210165
 20
57.1216411769
 11
316.699210165
 21
547.1216411768
  0
LINE
  5
2A4
100
AcDbEntity
  8
0
100
AcDbLine
 62
7
  6
CONTINUOUS
 10
321.199210165
 20
156.8719988753
 11
321.199210165
 21
180.3719988734
  0
LINE
  5
2A5
100
AcDbEntity
  8
0
100
AcDbLine
 62
7
  6
CONTINUOUS
 10
321.199210165
 20
423.8719988753
 11
321.199210165
 21
447.3719988734
  0
LINE
  5
2A6
100
AcDbEntity
  8
00_COMPONENTS_6
100
AcDbLine
 62
7
  6
CONTINUOUS
 10
139.2047830029
 20
48.8035855068
 11
139.1991913497
 21
48.7971620817
  0
LINE
  5
2A7
100
AcDbEntity
  8
0
100
AcDbLine
 62
7
  6
CONTINUOUS
 10
317.569210165
 20
415.6219823379
 11
316.699210165
 21
415.6219823379
  0
LINE
  5
2A8
100
AcDbEntity
  8
0
100
AcDbLine
 62
7
  6
CONTINUOUS
 10
318.9996802156
 20
149.6706113652
 11
321.1296802156
 21
156.4206062768
  0
LINE
  5
2A9
100
AcDbEntity
  8
0
100
AcDbLine
 62
7
  6
CONTINUOUS
 10
321.1296802156
 20
447.8233918108
 11
318.9996802156
 21
454.5733968942
  0
LINE
  5
2AA
100
AcDbEntity
  8
00_COMPONENTS_6
100
AcDbLine
 62
7
  6
CONTINUOUS
 10
204.2047830029
 20
48.8035855068
 11
204.1991913497
 21
48.7971620817
  0
LINE
  5
2AB
100
AcDbEntity
  8
0
100
AcDbLine
 62
7
  6
CONTINUOUS
 10
316.699210165
 20
455.621982323
 11
317.569210165
 21
455.621982323
  0
LINE
  5
2AC
100
AcDbEntity
  8
00_COMPONENTS_6
100
AcDbLine
 62
7
  6
CONTINUOUS
 10
269.2047830029
 20
48.8035855068
 11
269.1991913497
 21
48.7971620817
  0
LINE
  5
2AD
100
AcDbEntity
  8
PART
100
AcDbLine
 62
7
  6
CONTINUOUS
 10
300.499210165
 20
530.6216411769
 11
295.499210165
 21
530.6216411769
  0
LINE
  5
2AE
100
AcDbEntity
  8
PART
100
AcDbLine
 62
7
  6
CONTINUOUS
 10
300.499210165
 20
531.8216411769
 11
295.499210165
 21
531.8216411769
  0
LINE
  5
2AF
100
AcDbEntity
  8
PART_1
100
AcDbLine
 62
7
  6
CONTINUOUS
 10
316.699210165
 20
543.6216411769
 11
300.499210165
 21
543.6216411769
  0
LINE
  5
2B0
100
AcDbEntity
  8
PART_1
100
AcDbLine
 62
7
  6
CONTINUOUS
 10
300.499210165
 20
549.6216411769
 11
314.199210165
 21
549.6216411769
  0
LINE
  5
2B1
100
AcDbEntity
  8
PART
100
AcDbLine
 62
7
  6
CONTINUOUS
 10
294.499210165
 20
549.9216411769
 11
114.4912101655
 21
549.9216411769
  0
LINE
  5
2B2
100
AcDbEntity
  8
PART
100
AcDbLine
 62
7
  6
CONTINUOUS
 10
115.841210165
 20
552.1216411769
 11
292.299210165
 21
552.1216411769
  0
ARC
  5
2B3
100
AcDbEntity
  8
00_COMPONENTS_6
100
AcDbCircle
 62
7
  6
CONTINUOUS
 10
83.0842846705
 20
61.5802019372
 40
125.0675019953
100
AcDbArc
 50
355.0572202911
 51
355.203132992
  0
ARC
  5
2B4
100
AcDbEntity
  8
00_COMPONENTS_6
100
AcDbCircle
 62
7
  6
CONTINUOUS
 10
18.0842846942
 20
61.5802019352
 40
125.0675019716
100
AcDbArc
 50
355.0572202911
 51
355.203132992
  0
ARC
  5
2B5
100
AcDbEntity
  8
00_COMPONENTS_6
100
AcDbCircle
 62
7
  6
CONTINUOUS
 10
138.4901695301
 20
-33.8287907907
 40
82.9956568567
100
AcDbArc
 50
90.0006893418
 51
90.3562201976
  0
ARC
  5
2B6
100
AcDbEntity
  8
00_COMPONENTS_6
100
AcDbCircle
 62
7
  6
CONTINUOUS
 10
138.4912974683
 20
-32.826239634
 40
81.9931057215
100
AcDbArc
 50
89.6416079212
 51
90.00148596
  0
ARC
  5
2B7
100
AcDbEntity
  8
PART
100
AcDbCircle
 62
7
  6
CONTINUOUS
 10
115.841210165
 20
53.473680356
 40
1.3520391791
100
AcDbArc
 50
179.6885188175
 51
270.0
  0
ARC
  5
2B8
100
AcDbEntity
  8
00_COMPONENTS_6
100
AcDbCircle
 62
7
  6
CONTINUOUS
 10
138.7836004521
 20
54.3210757217
 40
5.6146147485
100
AcDbArc
 50
254.0861344428
 51
258.5385976064
  0
ARC
  5
2B9
100
AcDbEntity
  8
00_COMPONENTS_6
100
AcDbCircle
 62
7
  6
CONTINUOUS
 10
138.2476205021
 20
53.9717689056
 40
5.2569923057
100
AcDbArc
 50
279.8882347386
 51
281.6045193928
  0
ARC
  5
2BA
100
AcDbEntity
  8
00_COMPONENTS_6
100
AcDbCircle
 62
7
  6
CONTINUOUS
 10
138.7064020458
 20
53.9491131727
 40
5.2347297205
100
AcDbArc
 50
258.5969587537
 51
259.7971010485
  0
ARC
  5
2BB
100
AcDbEntity
  8
00_COMPONENTS_6
100
AcDbCircle
 62
7
  6
CONTINUOUS
 10
138.2726517406
 20
53.9450669292
 40
5.2306213747
100
AcDbArc
 50
280.2030760859
 51
281.3954071109
  0
ARC
  5
2BC
100
AcDbEntity
  8
00_COMPONENTS_6
100
AcDbCircle
 62
7
  6
CONTINUOUS
 10
133.3688101443
 20
55.6216411769
 40
4.5
100
AcDbArc
 50
232.7886697406
 51
270.0
  0
ARC
  5
2BD
100
AcDbEntity
  8
00_COMPONENTS_6
100
AcDbCircle
 62
7
  6
CONTINUOUS
 10
137.7509672981
 20
52.7308154422
 40
3.9396031945
100
AcDbArc
 50
272.5861162529
 51
273.2479111092
  0
ARC
  5
2BE
100
AcDbEntity
  8
00_COMPONENTS_6
100
AcDbCircle
 62
7
  6
CONTINUOUS
 10
139.2273722172
 20
52.7307534014
 40
3.9395411142
100
AcDbArc
 50
266.7520734361
 51
267.4190714765
  0
ARC
  5
2BF
100
AcDbEntity
  8
00_COMPONENTS_6
100
AcDbCircle
 62
7
  6
CONTINUOUS
 10
137.7512054828
 20
52.7256260833
 40
3.9344083737
100
AcDbArc
 50
272.2516087373
 51
272.5860610097
  0
ARC
  5
2C0
100
AcDbEntity
  8
00_COMPONENTS_6
100
AcDbCircle
 62
7
  6
CONTINUOUS
 10
139.2270436421
 20
52.7234594259
 40
3.9322397416
100
AcDbArc
 50
267.4190684262
 51
268.087884246
  0
ARC
  5
2C1
100
AcDbEntity
  8
00_COMPONENTS_6
100
AcDbCircle
 62
7
  6
CONTINUOUS
 10
137.7513734739
 20
52.7213568143
 40
3.9301358008
100
AcDbArc
 50
271.9173540632
 51
272.2516068286
  0
ARC
  5
2C2
100
AcDbEntity
  8
00_COMPONENTS_6
100
AcDbCircle
 62
7
  6
CONTINUOUS
 10
139.226820164
 20
52.7168291318
 40
3.9256056828
100
AcDbArc
 50
268.0879152444
 51
268.7584605291
  0
ARC
  5
2C3
100
AcDbEntity
  8
00_COMPONENTS_6
100
AcDbCircle
 62
7
  6
CONTINUOUS
 10
137.7515227176
 20
52.7168193172
 40
3.9255958508
100
AcDbArc
 50
271.2415292977
 51
271.9173928147
  0
ARC
  5
2C4
100
AcDbEntity
  8
00_COMPONENTS_6
100
AcDbCircle
 62
7
  6
CONTINUOUS
 10
137.7516059419
 20
52.6969418791
 40
3.9057160705
100
AcDbArc
 50
268.0900379461
 51
268.7568976937
  0
ARC
  5
2C5
100
AcDbEntity
  8
00_COMPONENTS_6
100
AcDbCircle
 62
7
  6
CONTINUOUS
 10
139.2267391592
 20
52.6968643428
 40
3.9056384845
100
AcDbArc
 50
271.2430810841
 51
271.9159098014
  0
ARC
  5
2C6
100
AcDbEntity
  8
00_COMPONENTS_6
100
AcDbCircle
 62
7
  6
CONTINUOUS
 10
137.7515621542
 20
52.6956051995
 40
3.904378674
100
AcDbArc
 50
267.7539199679
 51
268.0900264015
  0
ARC
  5
2C7
100
AcDbEntity
  8
00_COMPONENTS_6
100
AcDbCircle
 62
7
  6
CONTINUOUS
 10
139.2267991435
 20
52.6950062269
 40
3.9037794019
100
AcDbArc
 50
271.9159416664
 51
272.5880041571
  0
ARC
  5
2C8
100
AcDbEntity
  8
00_COMPONENTS_6
100
AcDbCircle
 62
7
  6
CONTINUOUS
 10
139.2268524079
 20
52.6938311316
 40
3.9026031001
100
AcDbArc
 50
272.5880019541
 51
273.2592020835
  0
ARC
  5
2C9
100
AcDbEntity
  8
00_COMPONENTS_6
100
AcDbCircle
 62
7
  6
CONTINUOUS
 10
137.7514887313
 20
52.6937907417
 40
3.9025627282
100
AcDbArc
 50
266.7407764047
 51
267.7539180658
  0
ARC
  5
2CA
100
AcDbEntity
  8
00_COMPONENTS_6
100
AcDbCircle
 62
7
  6
CONTINUOUS
 10
138.6925299041
 20
51.7910390708
 40
3.0613841167
100
AcDbArc
 50
281.6638921523
 51
284.1908434786
  0
ARC
  5
2CB
100
AcDbEntity
  8
00_COMPONENTS_6
100
AcDbCircle
 62
7
  6
CONTINUOUS
 10
143.0391709858
 20
50.4216538785
 40
0.2
100
AcDbArc
 50
306.4919987416
 51
360.0
  0
ARC
  5
2CC
100
AcDbEntity
  8
00_COMPONENTS_6
100
AcDbCircle
 62
7
  6
CONTINUOUS
 10
133.9391709858
 20
50.4216538785
 40
0.2
100
AcDbArc
 50
180.0
 51
233.5080012584
  0
ARC
  5
2CD
100
AcDbEntity
  8
00_COMPONENTS_6
100
AcDbCircle
 62
7
  6
CONTINUOUS
 10
140.803899971
 20
50.8083993522
 40
0.0867582071
100
AcDbArc
 50
257.2508912724
 51
269.9509771393
  0
ARC
  5
2CE
100
AcDbEntity
  8
00_COMPONENTS_6
100
AcDbCircle
 62
7
  6
CONTINUOUS
 10
136.1744402498
 20
50.8083734183
 40
0.0867322747
100
AcDbArc
 50
270.050194176
 51
282.7297754112
  0
ARC
  5
2CF
100
AcDbEntity
  8
00_COMPONENTS_6
100
AcDbCircle
 62
7
  6
CONTINUOUS
 10
148.0842846705
 20
61.5802019373
 40
125.0675019953
100
AcDbArc
 50
355.0572202911
 51
355.203132992
  0
ARC
  5
2D0
100
AcDbEntity
  8
00_COMPONENTS_6
100
AcDbCircle
 62
7
  6
CONTINUOUS
 10
138.4891709858
 20
56.5724224269
 40
7.85078125
100
AcDbArc
 50
233.5080024173
 51
250.6115024233
  0
ARC
  5
2D1
100
AcDbEntity
  8
00_COMPONENTS_6
100
AcDbCircle
 62
7
  6
CONTINUOUS
 10
138.4891709858
 20
56.5724224269
 40
7.85078125
100
AcDbArc
 50
289.3885360562
 51
306.4919975871
  0
ARC
  5
2D2
100
AcDbEntity
  8
00_COMPONENTS_6
100
AcDbCircle
 62
7
  6
CONTINUOUS
 10
138.4891709858
 20
56.5724224269
 40
7.8338714079
100
AcDbArc
 50
277.035724314
 51
288.9980033473
  0
ARC
  5
2D3
100
AcDbEntity
  8
00_COMPONENTS_6
100
AcDbCircle
 62
7
  6
CONTINUOUS
 10
138.4891709858
 20
56.5724224269
 40
7.8338714079
100
AcDbArc
 50
251.0020106811
 51
262.964275686
  0
ARC
  5
2D4
100
AcDbEntity
  8
00_COMPONENTS_6
100
AcDbCircle
 62
7
  6
CONTINUOUS
 10
138.4895607414
 20
56.5977753007
 40
7.8328953222
100
AcDbArc
 50
264.7963671122
 51
265.1543500503
  0
ARC
  5
2D5
100
AcDbEntity
  8
PART
100
AcDbCircle
 62
7
  6
CONTINUOUS
 10
116.391210165
 20
83.0442909077
 40
2.0
100
AcDbArc
 50
163.4182812616
 51
180.0
  0
ARC
  5
2D6
100
AcDbEntity
  8
PART
100
AcDbCircle
 62
7
  6
CONTINUOUS
 10
116.391210165
 20
71.198991446
 40
2.0
100
AcDbArc
 50
180.0
 51
196.5817187384
  0
ARC
  5
2D7
100
AcDbEntity
  8
00_COMPONENTS_6
100
AcDbCircle
 62
7
  6
CONTINUOUS
 10
202.7509672981
 20
52.7308154426
 40
3.9396031949
100
AcDbArc
 50
272.5861162529
 51
273.2479111092
  0
ARC
  5
2D8
100
AcDbEntity
  8
00_COMPONENTS_6
100
AcDbCircle
 62
7
  6
CONTINUOUS
 10
202.7512054828
 20
52.7256260847
 40
3.9344083751
100
AcDbArc
 50
272.2516087374
 51
272.5860610096
  0
ARC
  5
2D9
100
AcDbEntity
  8
00_COMPONENTS_6
100
AcDbCircle
 62
7
  6
CONTINUOUS
 10
202.7513734739
 20
52.7213568157
 40
3.9301358022
100
AcDbArc
 50
271.9173540632
 51
272.2516068286
  0
ARC
  5
2DA
100
AcDbEntity
  8
00_COMPONENTS_6
100
AcDbCircle
 62
7
  6
CONTINUOUS
 10
202.7515227176
 20
52.7168193169
 40
3.9255958504
100
AcDbArc
 50
271.2415292977
 51
271.9173928147
  0
ARC
  5
2DB
100
AcDbEntity
  8
00_COMPONENTS_6
100
AcDbCircle
 62
7
  6
CONTINUOUS
 10
202.7516059419
 20
52.6969418791
 40
3.9057160705
100
AcDbArc
 50
268.0900379461
 51
268.7568976937
  0
ARC
  5
2DC
100
AcDbEntity
  8
00_COMPONENTS_6
100
AcDbCircle
 62
7
  6
CONTINUOUS
 10
202.7515621542
 20
52.6956051996
 40
3.9043786742
100
AcDbArc
 50
267.7539199679
 51
268.0900264015
  0
ARC
  5
2DD
100
AcDbEntity
  8
00_COMPONENTS_6
100
AcDbCircle
 62
7
  6
CONTINUOUS
 10
202.7514887313
 20
52.6937907417
 40
3.9025627282
100
AcDbArc
 50
266.7407764047
 51
267.7539180658
  0
ARC
  5
2DE
100
AcDbEntity
  8
00_COMPONENTS_6
100
AcDbCircle
 62
7
  6
CONTINUOUS
 10
198.9391709858
 20
50.4216538785
 40
0.2
100
AcDbArc
 50
180.0
 51
233.5080012584
  0
ARC
  5
2DF
100
AcDbEntity
  8
00_COMPONENTS_6
100
AcDbCircle
 62
7
  6
CONTINUOUS
 10
201.1744402498
 20
50.8083734183
 40
0.0867322747
100
AcDbArc
 50
270.0501941761
 51
282.729775411
  0
ARC
  5
2E0
100
AcDbEntity
  8
PART
100
AcDbCircle
 62
7
  6
CONTINUOUS
 10
116.391210165
 20
533.0442909077
 40
2.0
100
AcDbArc
 50
163.4182812616
 51
180.0
  0
ARC
  5
2E1
100
AcDbEntity
  8
PART
100
AcDbCircle
 62
7
  6
CONTINUOUS
 10
116.391210165
 20
521.198991446
 40
2.0
100
AcDbArc
 50
180.0
 51
196.5817187384
  0
ARC
  5
2E2
100
AcDbEntity
  8
PART
100
AcDbCircle
 62
7
  6
CONTINUOUS
 10
115.841210165
 20
550.7696019978
 40
1.3520391791
100
AcDbArc
 50
90.0
 51
218.8417685855
  0
ARC
  5
2E3
100
AcDbEntity
  8
PART
100
AcDbCircle
 62
7
  6
CONTINUOUS
 10
115.841210165
 20
550.7696019978
 40
0.1520391791
100
AcDbArc
 50
90.0
 51
218.8417685981
  0
ARC
  5
2E4
100
AcDbEntity
  8
00_COMPONENTS_6
100
AcDbCircle
 62
7
  6
CONTINUOUS
 10
203.4901695301
 20
-33.8287907907
 40
82.9956568566
100
AcDbArc
 50
90.0006893418
 51
90.3562201976
  0
ARC
  5
2E5
100
AcDbEntity
  8
00_COMPONENTS_6
100
AcDbCircle
 62
7
  6
CONTINUOUS
 10
203.4912974683
 20
-32.826239634
 40
81.9931057215
100
AcDbArc
 50
89.6416079212
 51
90.00148596
  0
ARC
  5
2E6
100
AcDbEntity
  8
00_COMPONENTS_6
100
AcDbCircle
 62
7
  6
CONTINUOUS
 10
203.4891709858
 20
56.5724224269
 40
7.85078125
100
AcDbArc
 50
233.5080024173
 51
250.6115024233
  0
ARC
  5
2E7
100
AcDbEntity
  8
00_COMPONENTS_6
100
AcDbCircle
 62
7
  6
CONTINUOUS
 10
203.4891709858
 20
56.5724224269
 40
7.85078125
100
AcDbArc
 50
289.3885360562
 51
306.4919975871
  0
ARC
  5
2E8
100
AcDbEntity
  8
00_COMPONENTS_6
100
AcDbCircle
 62
7
  6
CONTINUOUS
 10
203.4891709858
 20
56.5724224269
 40
7.8338714079
100
AcDbArc
 50
277.035724314
 51
288.9980033473
  0
ARC
  5
2E9
100
AcDbEntity
  8
00_COMPONENTS_6
100
AcDbCircle
 62
7
  6
CONTINUOUS
 10
203.4891709858
 20
56.5724224269
 40
7.8338714079
100
AcDbArc
 50
251.0020106811
 51
262.964275686
  0
ARC
  5
2EA
100
AcDbEntity
  8
00_COMPONENTS_6
100
AcDbCircle
 62
7
  6
CONTINUOUS
 10
203.4895607416
 20
56.5977753027
 40
7.8328953243
100
AcDbArc
 50
264.7963671122
 51
265.1543500503
  0
ARC
  5
2EB
100
AcDbEntity
  8
00_COMPONENTS_6
100
AcDbCircle
 62
7
  6
CONTINUOUS
 10
203.7836004521
 20
54.3210757217
 40
5.6146147485
100
AcDbArc
 50
254.0861344428
 51
258.5385976064
  0
ARC
  5
2EC
100
AcDbEntity
  8
00_COMPONENTS_6
100
AcDbCircle
 62
7
  6
CONTINUOUS
 10
203.2476205021
 20
53.9717689056
 40
5.2569923057
100
AcDbArc
 50
279.8882347386
 51
281.6045193927
  0
ARC
  5
2ED
100
AcDbEntity
  8
00_COMPONENTS_6
100
AcDbCircle
 62
7
  6
CONTINUOUS
 10
203.7064020458
 20
53.9491131728
 40
5.2347297206
100
AcDbArc
 50
258.5969587537
 51
259.7971010485
  0
ARC
  5
2EE
100
AcDbEntity
  8
00_COMPONENTS_6
100
AcDbCircle
 62
7
  6
CONTINUOUS
 10
203.2726517406
 20
53.9450669294
 40
5.2306213749
100
AcDbArc
 50
280.203076086
 51
281.3954071109
  0
ARC
  5
2EF
100
AcDbEntity
  8
00_COMPONENTS_6
100
AcDbCircle
 62
7
  6
CONTINUOUS
 10
204.2273722172
 20
52.7307534014
 40
3.9395411141
100
AcDbArc
 50
266.7520734361
 51
267.4190714765
  0
ARC
  5
2F0
100
AcDbEntity
  8
00_COMPONENTS_6
100
AcDbCircle
 62
7
  6
CONTINUOUS
 10
204.2270436421
 20
52.723459426
 40
3.9322397418
100
AcDbArc
 50
267.4190684262
 51
268.087884246
  0
ARC
  5
2F1
100
AcDbEntity
  8
00_COMPONENTS_6
100
AcDbCircle
 62
7
  6
CONTINUOUS
 10
204.226820164
 20
52.7168291319
 40
3.9256056829
100
AcDbArc
 50
268.0879152444
 51
268.7584605291
  0
ARC
  5
2F2
100
AcDbEntity
  8
00_COMPONENTS_6
100
AcDbCircle
 62
7
  6
CONTINUOUS
 10
204.2267391592
 20
52.6968643429
 40
3.9056384846
100
AcDbArc
 50
271.2430810841
 51
271.9159098014
  0
ARC
  5
2F3
100
AcDbEntity
  8
00_COMPONENTS_6
100
AcDbCircle
 62
7
  6
CONTINUOUS
 10
204.2267991435
 20
52.6950062269
 40
3.9037794019
100
AcDbArc
 50
271.9159416664
 51
272.5880041571
  0
ARC
  5
2F4
100
AcDbEntity
  8
00_COMPONENTS_6
100
AcDbCircle
 62
7
  6
CONTINUOUS
 10
204.2268524079
 20
52.6938311317
 40
3.9026031002
100
AcDbArc
 50
272.5880019542
 51
273.2592020835
  0
ARC
  5
2F5
100
AcDbEntity
  8
00_COMPONENTS_6
100
AcDbCircle
 62
7
  6
CONTINUOUS
 10
203.6925299041
 20
51.7910390708
 40
3.0613841167
100
AcDbArc
 50
281.6638921523
 51
284.1908434786
  0
ARC
  5
2F6
100
AcDbEntity
  8
00_COMPONENTS_6
100
AcDbCircle
 62
7
  6
CONTINUOUS
 10
208.0391709858
 20
50.4216538785
 40
0.2
100
AcDbArc
 50
306.4919987416
 51
360.0
  0
ARC
  5
2F7
100
AcDbEntity
  8
00_COMPONENTS_6
100
AcDbCircle
 62
7
  6
CONTINUOUS
 10
205.803899971
 20
50.8083993522
 40
0.0867582071
100
AcDbArc
 50
257.2508912724
 51
269.9509771393
  0
ARC
  5
2F8
100
AcDbEntity
  8
00_COMPONENTS_6
100
AcDbCircle
 62
7
  6
CONTINUOUS
 10
268.4901695301
 20
-33.8287907907
 40
82.9956568566
100
AcDbArc
 50
90.0006893418
 51
90.3562201976
  0
ARC
  5
2F9
100
AcDbEntity
  8
00_COMPONENTS_6
100
AcDbCircle
 62
7
  6
CONTINUOUS
 10
268.4912974683
 20
-32.8262396339
 40
81.9931057214
100
AcDbArc
 50
89.6416079212
 51
90.00148596
  0
ARC
  5
2FA
100
AcDbEntity
  8
00_COMPONENTS_6
100
AcDbCircle
 62
7
  6
CONTINUOUS
 10
267.7509672981
 20
52.7308154425
 40
3.9396031947
100
AcDbArc
 50
272.5861162529
 51
273.2479111092
  0
ARC
  5
2FB
100
AcDbEntity
  8
00_COMPONENTS_6
100
AcDbCircle
 62
7
  6
CONTINUOUS
 10
267.7512054828
 20
52.7256260829
 40
3.9344083732
100
AcDbArc
 50
272.2516087373
 51
272.5860610098
  0
ARC
  5
2FC
100
AcDbEntity
  8
00_COMPONENTS_6
100
AcDbCircle
 62
7
  6
CONTINUOUS
 10
267.7513734739
 20
52.7213568145
 40
3.930135801
100
AcDbArc
 50
271.9173540631
 51
272.2516068286
  0
ARC
  5
2FD
100
AcDbEntity
  8
00_COMPONENTS_6
100
AcDbCircle
 62
7
  6
CONTINUOUS
 10
267.7515227176
 20
52.7168193169
 40
3.9255958504
100
AcDbArc
 50
271.2415292977
 51
271.9173928147
  0
ARC
  5
2FE
100
AcDbEntity
  8
00_COMPONENTS_6
100
AcDbCircle
 62
7
  6
CONTINUOUS
 10
267.7516059419
 20
52.696941879
 40
3.9057160704
100
AcDbArc
 50
268.0900379461
 51
268.7568976937
  0
ARC
  5
2FF
100
AcDbEntity
  8
00_COMPONENTS_6
100
AcDbCircle
 62
7
  6
CONTINUOUS
 10
267.7515621542
 20
52.6956051995
 40
3.904378674
100
AcDbArc
 50
267.7539199679
 51
268.0900264015
  0
ARC
  5
300
100
AcDbEntity
  8
00_COMPONENTS_6
100
AcDbCircle
 62
7
  6
CONTINUOUS
 10
267.7514887313
 20
52.6937907417
 40
3.9025627282
100
AcDbArc
 50
266.7407764047
 51
267.7539180658
  0
ARC
  5
301
100
AcDbEntity
  8
00_COMPONENTS_6
100
AcDbCircle
 62
7
  6
CONTINUOUS
 10
268.6925299041
 20
51.7910390708
 40
3.0613841167
100
AcDbArc
 50
281.6638921523
 51
284.1908434786
  0
ARC
  5
302
100
AcDbEntity
  8
00_COMPONENTS_6
100
AcDbCircle
 62
7
  6
CONTINUOUS
 10
263.9391709858
 20
50.4216538785
 40
0.2
100
AcDbArc
 50
180.0
 51
233.5080012584
  0
ARC
  5
303
100
AcDbEntity
  8
00_COMPONENTS_6
100
AcDbCircle
 62
7
  6
CONTINUOUS
 10
266.1744402498
 20
50.8083734183
 40
0.0867322747
100
AcDbArc
 50
270.0501941762
 51
282.7297754111
  0
ARC
  5
304
100
AcDbEntity
  8
00_COMPONENTS_6
100
AcDbCircle
 62
7
  6
CONTINUOUS
 10
268.4891709858
 20
56.5724224269
 40
7.85078125
100
AcDbArc
 50
233.5080024173
 51
250.6115024233
  0
ARC
  5
305
100
AcDbEntity
  8
00_COMPONENTS_6
100
AcDbCircle
 62
7
  6
CONTINUOUS
 10
268.4891709858
 20
56.5724224269
 40
7.85078125
100
AcDbArc
 50
289.3885360562
 51
306.4919975871
  0
ARC
  5
306
100
AcDbEntity
  8
00_COMPONENTS_6
100
AcDbCircle
 62
7
  6
CONTINUOUS
 10
268.4891709858
 20
56.5724224269
 40
7.8338714079
100
AcDbArc
 50
277.035724314
 51
288.9980033473
  0
ARC
  5
307
100
AcDbEntity
  8
00_COMPONENTS_6
100
AcDbCircle
 62
7
  6
CONTINUOUS
 10
268.4891709858
 20
56.5724224269
 40
7.8338714079
100
AcDbArc
 50
251.0020106811
 51
262.964275686
  0
ARC
  5
308
100
AcDbEntity
  8
00_COMPONENTS_6
100
AcDbCircle
 62
7
  6
CONTINUOUS
 10
268.4895607417
 20
56.5977753031
 40
7.8328953246
100
AcDbArc
 50
264.7963671122
 51
265.1543500503
  0
ARC
  5
309
100
AcDbEntity
  8
00_COMPONENTS_6
100
AcDbCircle
 62
7
  6
CONTINUOUS
 10
268.247620502
 20
53.9717689058
 40
5.2569923059
100
AcDbArc
 50
279.8882347387
 51
281.6045193927
  0
ARC
  5
30A
100
AcDbEntity
  8
00_COMPONENTS_6
100
AcDbCircle
 62
7
  6
CONTINUOUS
 10
268.7064020458
 20
53.9491131727
 40
5.2347297205
100
AcDbArc
 50
258.5969587537
 51
259.7971010485
  0
ARC
  5
30B
100
AcDbEntity
  8
00_COMPONENTS_6
100
AcDbCircle
 62
7
  6
CONTINUOUS
 10
268.2726517406
 20
53.9450669295
 40
5.230621375
100
AcDbArc
 50
280.203076086
 51
281.3954071108
  0
ARC
  5
30C
100
AcDbEntity
  8
00_COMPONENTS_6
100
AcDbCircle
 62
7
  6
CONTINUOUS
 10
269.2273722172
 20
52.7307534014
 40
3.9395411142
100
AcDbArc
 50
266.7520734361
 51
267.4190714765
  0
ARC
  5
30D
100
AcDbEntity
  8
00_COMPONENTS_6
100
AcDbCircle
 62
7
  6
CONTINUOUS
 10
269.2270436421
 20
52.723459426
 40
3.9322397418
100
AcDbArc
 50
267.4190684262
 51
268.087884246
  0
ARC
  5
30E
100
AcDbEntity
  8
00_COMPONENTS_6
100
AcDbCircle
 62
7
  6
CONTINUOUS
 10
269.226820164
 20
52.7168291319
 40
3.9256056828
100
AcDbArc
 50
268.0879152444
 51
268.7584605291
  0
ARC
  5
30F
100
AcDbEntity
  8
00_COMPONENTS_6
100
AcDbCircle
 62
7
  6
CONTINUOUS
 10
269.2267391592
 20
52.696864343
 40
3.9056384847
100
AcDbArc
 50
271.2430810842
 51
271.9159098014
  0
ARC
  5
310
100
AcDbEntity
  8
00_COMPONENTS_6
100
AcDbCircle
 62
7
  6
CONTINUOUS
 10
269.2267991435
 20
52.6950062269
 40
3.9037794019
100
AcDbArc
 50
271.9159416664
 51
272.5880041571
  0
ARC
  5
311
100
AcDbEntity
  8
00_COMPONENTS_6
100
AcDbCircle
 62
7
  6
CONTINUOUS
 10
269.2268524079
 20
52.6938311317
 40
3.9026031002
100
AcDbArc
 50
272.5880019542
 51
273.2592020835
  0
ARC
  5
312
100
AcDbEntity
  8
00_COMPONENTS_6
100
AcDbCircle
 62
7
  6
CONTINUOUS
 10
273.0391709858
 20
50.4216538785
 40
0.2
100
AcDbArc
 50
306.4919987416
 51
360.0
  0
ARC
  5
313
100
AcDbEntity
  8
00_COMPONENTS_6
100
AcDbCircle
 62
7
  6
CONTINUOUS
 10
270.803899971
 20
50.8083993522
 40
0.0867582071
100
AcDbArc
 50
257.2508912724
 51
269.9509771393
  0
ARC
  5
314
100
AcDbEntity
  8
00_COMPONENTS_6
100
AcDbCircle
 62
7
  6
CONTINUOUS
 10
268.7836004521
 20
54.3210757217
 40
5.6146147486
100
AcDbArc
 50
254.0861344428
 51
258.5385976064
  0
ARC
  5
315
100
AcDbEntity
  8
00_COMPONENTS_6
100
AcDbCircle
 62
7
  6
CONTINUOUS
 10
273.6095318274
 20
55.6216411769
 40
4.5
100
AcDbArc
 50
270.0
 51
307.2113302594
  0
ARC
  5
316
100
AcDbEntity
  8
00_COMPONENTS_6
100
AcDbCircle
 62
7
  6
CONTINUOUS
 10
258.3781007405
 20
61.5364521487
 40
124.5496946378
100
AcDbArc
 50
184.796659813
 51
184.9431791265
  0
ARC
  5
317
100
AcDbEntity
  8
PART
100
AcDbCircle
 62
7
  6
CONTINUOUS
 10
292.299210165
 20
54.3216411769
 40
2.2
100
AcDbArc
 50
270.0
 51
360.0
  0
ARC
  5
318
100
AcDbEntity
  8
PART
100
AcDbCircle
 62
7
  6
CONTINUOUS
 10
295.499210165
 20
71.4216411769
 40
1.0
100
AcDbArc
 50
90.0
 51
180.0
  0
ARC
  5
319
100
AcDbEntity
  8
00_COMPONENTS_6
100
AcDbCircle
 62
7
  6
CONTINUOUS
 10
323.3781007155
 20
61.5364521466
 40
124.5496946126
100
AcDbArc
 50
184.7966598129
 51
184.9431791265
  0
ARC
  5
31A
100
AcDbEntity
  8
00_COMPONENTS_6
100
AcDbCircle
 62
7
  6
CONTINUOUS
 10
388.3781006654
 20
61.5364521423
 40
124.5496945624
100
AcDbArc
 50
184.7966598129
 51
184.9431791265
  0
ARC
  5
31B
100
AcDbEntity
  8
PART_1
100
AcDbCircle
 62
7
  6
CONTINUOUS
 10
314.199210165
 20
57.1216411769
 40
2.5
100
AcDbArc
 50
270.0
 51
360.0
  0
ARC
  5
31C
100
AcDbEntity
  8
0
100
AcDbCircle
 62
7
  6
CONTINUOUS
 10
319.699210165
 20
180.3719989379
 40
1.5
100
AcDbArc
 50
0.0000038751
 51
17.5133840651
  0
ARC
  5
31D
100
AcDbEntity
  8
0
100
AcDbCircle
 62
7
  6
CONTINUOUS
 10
319.699210165
 20
156.8719989467
 40
1.5
100
AcDbArc
 50
342.4866233258
 51
359.9999967533
  0
ARC
  5
31E
100
AcDbEntity
  8
0
100
AcDbCircle
 62
7
  6
CONTINUOUS
 10
317.569210165
 20
150.1220045343
 40
1.5
100
AcDbArc
 50
270.0
 51
342.4866369615
  0
ARC
  5
31F
100
AcDbEntity
  8
0
100
AcDbCircle
 62
7
  6
CONTINUOUS
 10
317.569210165
 20
187.1219946481
 40
1.5
100
AcDbArc
 50
17.5133977008
 51
90.0
  0
ARC
  5
320
100
AcDbEntity
  8
PART_1
100
AcDbCircle
 62
7
  6
CONTINUOUS
 10
314.199210165
 20
547.1216411769
 40
2.5
100
AcDbArc
 50
0.0
 51
90.0
  0
ARC
  5
321
100
AcDbEntity
  8
PART
100
AcDbCircle
 62
7
  6
CONTINUOUS
 10
292.299210165
 20
549.9216411769
 40
2.2
100
AcDbArc
 50
0.0
 51
90.0
  0
ARC
  5
322
100
AcDbEntity
  8
0
100
AcDbCircle
 62
7
  6
CONTINUOUS
 10
319.699210165
 20
447.3719989379
 40
1.5
100
AcDbArc
 50
0.0000038751
 51
17.5133840651
  0
ARC
  5
323
100
AcDbEntity
  8
0
100
AcDbCircle
 62
7
  6
CONTINUOUS
 10
319.699210165
 20
423.8719989467
 40
1.5
100
AcDbArc
 50
342.4866233258
 51
359.9999967533
  0
ARC
  5
324
100
AcDbEntity
  8
0
100
AcDbCircle
 62
7
  6
CONTINUOUS
 10
317.569210165
 20
417.1220045343
 40
1.5
100
AcDbArc
 50
270.0
 51
342.4866369615
  0
ARC
  5
325
100
AcDbEntity
  8
0
100
AcDbCircle
 62
7
  6
CONTINUOUS
 10
317.569210165
 20
454.1219946481
 40
1.5
100
AcDbArc
 50
17.5133977008
 51
90.0
  0
ARC
  5
326
100
AcDbEntity
  8
PART
100
AcDbCircle
 62
7
  6
CONTINUOUS
 10
292.299210165
 20
549.9216411769
 40
1.0
100
AcDbArc
 50
0.0
 51
90.0
  0
ARC
  5
327
100
AcDbEntity
  8
PART
100
AcDbCircle
 62
7
  6
CONTINUOUS
 10
295.499210165
 20
532.8216411769
 40
1.0
100
AcDbArc
 50
180.0
 51
270.0
  0
SPLINE
  5
328
100
AcDbEntity
  8
00_COMPONENTS_6
100
AcDbSpline
 62
7
  6
CONTINUOUS
 70
0
 71
3
 72
9
 73
5
 74
0
 42
0.0000001
 43
0.0000001
 44
0.0000000001
 40
0.0
 40
0.0
 40
0.0
 40
0.0
 40
0.2550960217
 40
1.0
 40
1.0
 40
1.0
 40
1.0
 10
269.8789354668
 20
48.9716411769
 30
0.0
 10
269.8312371345
 20
48.9566654083
 30
0.0
 10
269.6435696223
 20
48.9001782734
 30
0.0
 10
269.4531385973
 20
48.8527705749
 30
0.0
 10
269.3101618532
 20
48.8232761066
 30
0.0
  0
LINE
  5
329
100
AcDbEntity
  8
00_COMPONENTS_6
100
AcDbLine
 62
7
  6
CONTINUOUS
 10
269.1503870304
 20
48.7928712722
 11
269.1460213088
 21
48.7925076087
  0
LINE
  5
32A
100
AcDbEntity
  8
00_COMPONENTS_6
100
AcDbLine
 62
7
  6
CONTINUOUS
 10
269.1460213088
 20
48.7925076087
 11
269.1417630613
 21
48.7921450342
  0
SPLINE
  5
32B
100
AcDbEntity
  8
00_COMPONENTS_6
100
AcDbSpline
 62
7
  6
CONTINUOUS
 70
0
 71
3
 72
12
 73
8
 74
0
 42
0.0000001
 43
0.0000001
 44
0.0000000001
 40
0.0
 40
0.0
 40
0.0
 40
0.0
 40
0.1237637414
 40
0.2165706651
 40
0.3331384703
 40
0.6331611196
 40
1.0
 40
1.0
 40
1.0
 40
1.0
 10
263.9194718316
 20
50.7216411769
 30
0.0
 10
263.9232524804
 20
50.7216411769
 30
0.0
 10
263.9292686708
 20
50.7264424598
 30
0.0
 10
263.9344173475
 20
50.7349936446
 30
0.0
 10
263.940610275
 20
50.7494173102
 30
0.0
 10
263.9461148806
 20
50.7727896329
 30
0.0
 10
263.9483160647
 20
50.7930943031
 30
0.0
 10
263.9489237646
 20
50.8042837526
 30
0.0
  0
LINE
  5
32C
100
AcDbEntity
  8
00_COMPONENTS_6
100
AcDbLine
 62
7
  6
CONTINUOUS
 10
263.9489237646
 20
50.8042837526
 11
263.966443152
 21
51.1216379496
  0
SPLINE
  5
32D
100
AcDbEntity
  8
00_COMPONENTS_6
100
AcDbSpline
 62
7
  6
CONTINUOUS
 70
0
 71
3
 72
9
 73
5
 74
0
 42
0.0000001
 43
0.0000001
 44
0.0000000001
 40
0.0
 40
0.0
 40
0.0
 40
0.0
 40
0.4822216116
 40
1.0
 40
1.0
 40
1.0
 40
1.0
 10
266.1935519788
 20
50.7237730088
 30
0.0
 10
266.2112865046
 20
50.7277757176
 30
0.0
 10
266.2459638243
 20
50.7485254697
 30
0.0
 10
266.2626654469
 20
50.7850177871
 30
0.0
 10
266.2658117206
 20
50.8042837511
 30
0.0
  0
LINE
  5
32E
100
AcDbEntity
  8
00_COMPONENTS_6
100
AcDbLine
 62
7
  6
CONTINUOUS
 10
266.2658117206
 20
50.8042837511
 11
266.3176263628
 21
51.1216379496
  0
LINE
  5
32F
100
AcDbEntity
  8
00_COMPONENTS_6
100
AcDbLine
 62
7
  6
CONTINUOUS
 10
270.7125302687
 20
50.804283642
 11
270.6607146166
 21
51.1216377725
  0
SPLINE
  5
330
100
AcDbEntity
  8
00_COMPONENTS_6
100
AcDbSpline
 62
7
  6
CONTINUOUS
 70
0
 71
3
 72
9
 73
5
 74
0
 42
0.0000001
 43
0.0000001
 44
0.0000000001
 40
0.0
 40
0.0
 40
0.0
 40
0.0
 40
0.5178173237
 40
1.0
 40
1.0
 40
1.0
 40
1.0
 10
270.7125302687
 20
50.804283642
 30
0.0
 10
270.7156758051
 20
50.7850221931
 30
0.0
 10
270.7323708675
 20
50.7485428579
 30
0.0
 10
270.7670278149
 20
50.727787653
 30
0.0
 10
270.7847539735
 20
50.7237801033
 30
0.0
  0
SPLINE
  5
331
100
AcDbEntity
  8
00_COMPONENTS_6
100
AcDbSpline
 62
7
  6
CONTINUOUS
 70
0
 71
3
 72
12
 73
8
 74
0
 42
0.0000001
 43
0.0000001
 44
0.0000000001
 40
0.0
 40
0.0
 40
0.0
 40
0.0
 40
0.3668787521
 40
0.6669026771
 40
0.7834605754
 40
0.8762559009
 40
1.0
 40
1.0
 40
1.0
 40
1.0
 10
273.0294182129
 20
50.8042836435
 30
0.0
 10
273.0300259814
 20
50.7930929327
 30
0.0
 10
273.0322280083
 20
50.77278704
 30
0.0
 10
273.0377329411
 20
50.7494135913
 30
0.0
 10
273.0439259968
 20
50.7349907705
 30
0.0
 10
273.0490737151
 20
50.7264400382
 30
0.0
 10
273.055090076
 20
50.7216411769
 30
0.0
 10
273.0588701401
 20
50.7216411769
 30
0.0
  0
LINE
  5
332
100
AcDbEntity
  8
00_COMPONENTS_6
100
AcDbLine
 62
7
  6
CONTINUOUS
 10
273.0294182129
 20
50.8042836435
 11
273.0118984865
 21
51.1216377725
  0
SPLINE
  5
333
100
AcDbEntity
  8
00_COMPONENTS_6
100
AcDbSpline
 62
7
  6
CONTINUOUS
 70
0
 71
3
 72
9
 73
5
 74
0
 42
0.0000001
 43
0.0000001
 44
0.0000000001
 40
0.0
 40
0.0
 40
0.0
 40
0.0
 40
0.5052624746
 40
1.0
 40
1.0
 40
1.0
 40
1.0
 10
267.0932286104
 20
50.804283642
 30
0.0
 10
267.0972666898
 20
50.7814233198
 30
0.0
 10
267.1226385327
 20
50.7376321308
 30
0.0
 10
267.1701573157
 20
50.7216411769
 30
0.0
 10
267.1928879768
 20
50.7216411769
 30
0.0
  0
SPLINE
  5
334
100
AcDbEntity
  8
00_COMPONENTS_6
100
AcDbSpline
 62
7
  6
CONTINUOUS
 70
0
 71
3
 72
9
 73
5
 74
0
 42
0.0000001
 43
0.0000001
 44
0.0000000001
 40
0.0
 40
0.0
 40
0.0
 40
0.0
 40
0.2461012378
 40
1.0
 40
1.0
 40
1.0
 40
1.0
 10
267.2441182761
 20
48.9216411769
 30
0.0
 10
267.2779253505
 20
48.9087475368
 30
0.0
 10
267.4163349515
 20
48.8591061755
 30
0.0
 10
267.5586309756
 20
48.8204318801
 30
0.0
 10
267.6670007577
 20
48.7971620817
 30
0.0
  0
LINE
  5
335
100
AcDbEntity
  8
00_COMPONENTS_6
100
AcDbLine
 62
7
  6
CONTINUOUS
 10
267.0932286104
 20
50.804283642
 11
267.0374699391
 21
51.1216377725
  0
SPLINE
  5
336
100
AcDbEntity
  8
00_COMPONENTS_6
100
AcDbSpline
 62
7
  6
CONTINUOUS
 70
0
 71
3
 72
12
 73
8
 74
0
 42
0.0000001
 43
0.0000001
 44
0.0000000001
 40
0.0
 40
0.0
 40
0.0
 40
0.0
 40
0.3270039792
 40
0.54176599
 40
0.7225688652
 40
0.8713760224
 40
1.0
 40
1.0
 40
1.0
 40
1.0
 10
264.2916510631
 20
50.8042836435
 30
0.0
 10
264.2926264575
 20
50.7930075776
 30
0.0
 10
264.2958082928
 20
50.7743771051
 30
0.0
 10
264.3046283538
 20
50.750840339
 30
0.0
 10
264.3148409097
 20
50.734790884
 30
0.0
 10
264.3271477611
 20
50.7242471262
 30
0.0
 10
264.3368433214
 20
50.7216411769
 30
0.0
 10
264.3412952199
 20
50.7216411769
 30
0.0
  0
SPLINE
  5
337
100
AcDbEntity
  8
00_COMPONENTS_6
100
AcDbSpline
 62
7
  6
CONTINUOUS
 70
0
 71
3
 72
9
 73
5
 74
0
 42
0.0000001
 43
0.0000001
 44
0.0000000001
 40
0.0
 40
0.0
 40
0.0
 40
0.0
 40
0.4947805499
 40
1.0
 40
1.0
 40
1.0
 40
1.0
 10
269.7854539948
 20
50.7216411769
 30
0.0
 10
269.8081866683
 20
50.7216411769
 30
0.0
 10
269.8557059873
 20
50.7376338618
 30
0.0
 10
269.8810756386
 20
50.7814253397
 30
0.0
 10
269.8851133803
 20
50.8042837511
 30
0.0
  0
LINE
  5
338
100
AcDbEntity
  8
00_COMPONENTS_6
100
AcDbLine
 62
7
  6
CONTINUOUS
 10
269.8851133803
 20
50.8042837511
 11
269.9408709625
 21
51.1216379496
  0
SPLINE
  5
339
100
AcDbEntity
  8
00_COMPONENTS_6
100
AcDbSpline
 62
7
  6
CONTINUOUS
 70
0
 71
3
 72
11
 73
7
 74
0
 42
0.0000001
 43
0.0000001
 44
0.0000000001
 40
0.0
 40
0.0
 40
0.0
 40
0.0
 40
0.1744012102
 40
0.3334981697
 40
0.526315733
 40
1.0
 40
1.0
 40
1.0
 40
1.0
 10
272.6370467518
 20
50.7216411769
 30
0.0
 10
272.6430684811
 20
50.7216411769
 30
0.0
 10
272.6546537159
 20
50.7260263889
 30
0.0
 10
272.6671205072
 20
50.7395754336
 30
0.0
 10
272.6806636586
 20
50.7648967827
 30
0.0
 10
272.6852814195
 20
50.7879892186
 30
0.0
 10
272.6866909179
 20
50.8042837526
 30
0.0
  0
SPLINE
  5
33A
100
AcDbEntity
  8
00_COMPONENTS_6
100
AcDbSpline
 62
7
  6
CONTINUOUS
 70
0
 71
3
 72
9
 73
5
 74
0
 42
0.0000001
 43
0.0000001
 44
0.0000000001
 40
0.0
 40
0.0
 40
0.0
 40
0.0
 40
0.2542252921
 40
1.0
 40
1.0
 40
1.0
 40
1.0
 10
269.4430357338
 20
48.8230744973
 30
0.0
 10
269.4808921875
 20
48.8326555599
 30
0.0
 10
269.6290472129
 20
48.8732382809
 30
0.0
 10
269.7739979357
 20
48.9256981701
 30
0.0
 10
269.8789354668
 20
48.9716411769
 30
0.0
  0
SPLINE
  5
33B
100
AcDbEntity
  8
00_COMPONENTS_6
100
AcDbSpline
 62
7
  6
CONTINUOUS
 70
0
 71
3
 72
9
 73
5
 74
0
 42
0.0000001
 43
0.0000001
 44
0.0000000001
 40
0.0
 40
0.0
 40
0.0
 40
0.0
 40
0.2550960217
 40
1.0
 40
1.0
 40
1.0
 40
1.0
 10
139.8789354668
 20
48.9716411769
 30
0.0
 10
139.8312371345
 20
48.9566654083
 30
0.0
 10
139.6435696223
 20
48.9001782734
 30
0.0
 10
139.4531385973
 20
48.8527705749
 30
0.0
 10
139.3101618532
 20
48.8232761066
 30
0.0
  0
LINE
  5
33C
100
AcDbEntity
  8
00_COMPONENTS_6
100
AcDbLine
 62
7
  6
CONTINUOUS
 10
139.1503870304
 20
48.7928712722
 11
139.1460213088
 21
48.7925076087
  0
LINE
  5
33D
100
AcDbEntity
  8
00_COMPONENTS_6
100
AcDbLine
 62
7
  6
CONTINUOUS
 10
139.1460213088
 20
48.7925076087
 11
139.1417630613
 21
48.7921450342
  0
SPLINE
  5
33E
100
AcDbEntity
  8
00_COMPONENTS_6
100
AcDbSpline
 62
7
  6
CONTINUOUS
 70
0
 71
3
 72
12
 73
8
 74
0
 42
0.0000001
 43
0.0000001
 44
0.0000000001
 40
0.0
 40
0.0
 40
0.0
 40
0.0
 40
0.1237637414
 40
0.2165706651
 40
0.3331384703
 40
0.6331611196
 40
1.0
 40
1.0
 40
1.0
 40
1.0
 10
133.9194718316
 20
50.7216411769
 30
0.0
 10
133.9232524804
 20
50.7216411769
 30
0.0
 10
133.9292686708
 20
50.7264424598
 30
0.0
 10
133.9344173475
 20
50.7349936446
 30
0.0
 10
133.940610275
 20
50.7494173102
 30
0.0
 10
133.9461148806
 20
50.7727896329
 30
0.0
 10
133.9483160647
 20
50.7930943031
 30
0.0
 10
133.9489237646
 20
50.8042837526
 30
0.0
  0
LINE
  5
33F
100
AcDbEntity
  8
00_COMPONENTS_6
100
AcDbLine
 62
7
  6
CONTINUOUS
 10
133.9489237646
 20
50.8042837526
 11
133.966443152
 21
51.1216379496
  0
SPLINE
  5
340
100
AcDbEntity
  8
00_COMPONENTS_6
100
AcDbSpline
 62
7
  6
CONTINUOUS
 70
0
 71
3
 72
9
 73
5
 74
0
 42
0.0000001
 43
0.0000001
 44
0.0000000001
 40
0.0
 40
0.0
 40
0.0
 40
0.0
 40
0.4822216116
 40
1.0
 40
1.0
 40
1.0
 40
1.0
 10
136.1935519788
 20
50.7237730088
 30
0.0
 10
136.2112865046
 20
50.7277757176
 30
0.0
 10
136.2459638243
 20
50.7485254697
 30
0.0
 10
136.2626654469
 20
50.7850177871
 30
0.0
 10
136.2658117206
 20
50.8042837511
 30
0.0
  0
LINE
  5
341
100
AcDbEntity
  8
00_COMPONENTS_6
100
AcDbLine
 62
7
  6
CONTINUOUS
 10
136.2658117206
 20
50.8042837511
 11
136.3176263628
 21
51.1216379496
  0
LINE
  5
342
100
AcDbEntity
  8
00_COMPONENTS_6
100
AcDbLine
 62
7
  6
CONTINUOUS
 10
140.7125302687
 20
50.804283642
 11
140.6607146166
 21
51.1216377725
  0
SPLINE
  5
343
100
AcDbEntity
  8
00_COMPONENTS_6
100
AcDbSpline
 62
7
  6
CONTINUOUS
 70
0
 71
3
 72
9
 73
5
 74
0
 42
0.0000001
 43
0.0000001
 44
0.0000000001
 40
0.0
 40
0.0
 40
0.0
 40
0.0
 40
0.5178173237
 40
1.0
 40
1.0
 40
1.0
 40
1.0
 10
140.7125302687
 20
50.804283642
 30
0.0
 10
140.7156758051
 20
50.7850221931
 30
0.0
 10
140.7323708675
 20
50.7485428579
 30
0.0
 10
140.7670278149
 20
50.727787653
 30
0.0
 10
140.7847539735
 20
50.7237801033
 30
0.0
  0
SPLINE
  5
344
100
AcDbEntity
  8
00_COMPONENTS_6
100
AcDbSpline
 62
7
  6
CONTINUOUS
 70
0
 71
3
 72
12
 73
8
 74
0
 42
0.0000001
 43
0.0000001
 44
0.0000000001
 40
0.0
 40
0.0
 40
0.0
 40
0.0
 40
0.3668787521
 40
0.6669026771
 40
0.7834605754
 40
0.8762559009
 40
1.0
 40
1.0
 40
1.0
 40
1.0
 10
143.0294182129
 20
50.8042836435
 30
0.0
 10
143.0300259814
 20
50.7930929327
 30
0.0
 10
143.0322280083
 20
50.77278704
 30
0.0
 10
143.0377329411
 20
50.7494135913
 30
0.0
 10
143.0439259968
 20
50.7349907705
 30
0.0
 10
143.0490737151
 20
50.7264400382
 30
0.0
 10
143.055090076
 20
50.7216411769
 30
0.0
 10
143.0588701401
 20
50.7216411769
 30
0.0
  0
LINE
  5
345
100
AcDbEntity
  8
00_COMPONENTS_6
100
AcDbLine
 62
7
  6
CONTINUOUS
 10
143.0294182129
 20
50.8042836435
 11
143.0118984865
 21
51.1216377725
  0
SPLINE
  5
346
100
AcDbEntity
  8
00_COMPONENTS_6
100
AcDbSpline
 62
7
  6
CONTINUOUS
 70
0
 71
3
 72
9
 73
5
 74
0
 42
0.0000001
 43
0.0000001
 44
0.0000000001
 40
0.0
 40
0.0
 40
0.0
 40
0.0
 40
0.5052624746
 40
1.0
 40
1.0
 40
1.0
 40
1.0
 10
137.0932286104
 20
50.804283642
 30
0.0
 10
137.0972666898
 20
50.7814233198
 30
0.0
 10
137.1226385327
 20
50.7376321308
 30
0.0
 10
137.1701573157
 20
50.7216411769
 30
0.0
 10
137.1928879768
 20
50.7216411769
 30
0.0
  0
SPLINE
  5
347
100
AcDbEntity
  8
00_COMPONENTS_6
100
AcDbSpline
 62
7
  6
CONTINUOUS
 70
0
 71
3
 72
9
 73
5
 74
0
 42
0.0000001
 43
0.0000001
 44
0.0000000001
 40
0.0
 40
0.0
 40
0.0
 40
0.0
 40
0.2461012378
 40
1.0
 40
1.0
 40
1.0
 40
1.0
 10
137.2441182761
 20
48.9216411769
 30
0.0
 10
137.2779253505
 20
48.9087475368
 30
0.0
 10
137.4163349514
 20
48.8591061755
 30
0.0
 10
137.5586309756
 20
48.8204318801
 30
0.0
 10
137.6670007577
 20
48.7971620817
 30
0.0
  0
LINE
  5
348
100
AcDbEntity
  8
00_COMPONENTS_6
100
AcDbLine
 62
7
  6
CONTINUOUS
 10
137.0932286104
 20
50.804283642
 11
137.0374699391
 21
51.1216377725
  0
SPLINE
  5
349
100
AcDbEntity
  8
00_COMPONENTS_6
100
AcDbSpline
 62
7
  6
CONTINUOUS
 70
0
 71
3
 72
12
 73
8
 74
0
 42
0.0000001
 43
0.0000001
 44
0.0000000001
 40
0.0
 40
0.0
 40
0.0
 40
0.0
 40
0.3270039792
 40
0.54176599
 40
0.7225688652
 40
0.8713760224
 40
1.0
 40
1.0
 40
1.0
 40
1.0
 10
134.2916510631
 20
50.8042836435
 30
0.0
 10
134.2926264575
 20
50.7930075776
 30
0.0
 10
134.2958082928
 20
50.7743771051
 30
0.0
 10
134.3046283538
 20
50.750840339
 30
0.0
 10
134.3148409097
 20
50.734790884
 30
0.0
 10
134.3271477611
 20
50.7242471262
 30
0.0
 10
134.3368433214
 20
50.7216411769
 30
0.0
 10
134.3412952199
 20
50.7216411769
 30
0.0
  0
SPLINE
  5
34A
100
AcDbEntity
  8
00_COMPONENTS_6
100
AcDbSpline
 62
7
  6
CONTINUOUS
 70
0
 71
3
 72
9
 73
5
 74
0
 42
0.0000001
 43
0.0000001
 44
0.0000000001
 40
0.0
 40
0.0
 40
0.0
 40
0.0
 40
0.4947805499
 40
1.0
 40
1.0
 40
1.0
 40
1.0
 10
139.7854539948
 20
50.7216411769
 30
0.0
 10
139.8081866683
 20
50.7216411769
 30
0.0
 10
139.8557059873
 20
50.7376338618
 30
0.0
 10
139.8810756386
 20
50.7814253397
 30
0.0
 10
139.8851133803
 20
50.8042837511
 30
0.0
  0
LINE
  5
34B
100
AcDbEntity
  8
00_COMPONENTS_6
100
AcDbLine
 62
7
  6
CONTINUOUS
 10
139.8851133803
 20
50.8042837511
 11
139.9408709625
 21
51.1216379496
  0
SPLINE
  5
34C
100
AcDbEntity
  8
00_COMPONENTS_6
100
AcDbSpline
 62
7
  6
CONTINUOUS
 70
0
 71
3
 72
11
 73
7
 74
0
 42
0.0000001
 43
0.0000001
 44
0.0000000001
 40
0.0
 40
0.0
 40
0.0
 40
0.0
 40
0.1744012102
 40
0.3334981697
 40
0.526315733
 40
1.0
 40
1.0
 40
1.0
 40
1.0
 10
142.6370467518
 20
50.7216411769
 30
0.0
 10
142.6430684811
 20
50.7216411769
 30
0.0
 10
142.6546537159
 20
50.7260263889
 30
0.0
 10
142.6671205072
 20
50.7395754336
 30
0.0
 10
142.6806636586
 20
50.7648967827
 30
0.0
 10
142.6852814195
 20
50.7879892186
 30
0.0
 10
142.6866909179
 20
50.8042837526
 30
0.0
  0
SPLINE
  5
34D
100
AcDbEntity
  8
00_COMPONENTS_6
100
AcDbSpline
 62
7
  6
CONTINUOUS
 70
0
 71
3
 72
9
 73
5
 74
0
 42
0.0000001
 43
0.0000001
 44
0.0000000001
 40
0.0
 40
0.0
 40
0.0
 40
0.0
 40
0.2542252921
 40
1.0
 40
1.0
 40
1.0
 40
1.0
 10
139.4430357338
 20
48.8230744973
 30
0.0
 10
139.4808921875
 20
48.8326555599
 30
0.0
 10
139.6290472129
 20
48.8732382809
 30
0.0
 10
139.7739979357
 20
48.9256981701
 30
0.0
 10
139.8789354668
 20
48.9716411769
 30
0.0
  0
SPLINE
  5
34E
100
AcDbEntity
  8
00_COMPONENTS_6
100
AcDbSpline
 62
7
  6
CONTINUOUS
 70
0
 71
3
 72
9
 73
5
 74
0
 42
0.0000001
 43
0.0000001
 44
0.0000000001
 40
0.0
 40
0.0
 40
0.0
 40
0.0
 40
0.2550960217
 40
1.0
 40
1.0
 40
1.0
 40
1.0
 10
204.8789354668
 20
48.9716411769
 30
0.0
 10
204.8312371345
 20
48.9566654083
 30
0.0
 10
204.6435696223
 20
48.9001782734
 30
0.0
 10
204.4531385973
 20
48.8527705749
 30
0.0
 10
204.3101618532
 20
48.8232761066
 30
0.0
  0
LINE
  5
34F
100
AcDbEntity
  8
00_COMPONENTS_6
100
AcDbLine
 62
7
  6
CONTINUOUS
 10
204.1503870304
 20
48.7928712722
 11
204.1460213088
 21
48.7925076087
  0
LINE
  5
350
100
AcDbEntity
  8
00_COMPONENTS_6
100
AcDbLine
 62
7
  6
CONTINUOUS
 10
204.1460213088
 20
48.7925076087
 11
204.1417630613
 21
48.7921450342
  0
SPLINE
  5
351
100
AcDbEntity
  8
00_COMPONENTS_6
100
AcDbSpline
 62
7
  6
CONTINUOUS
 70
0
 71
3
 72
12
 73
8
 74
0
 42
0.0000001
 43
0.0000001
 44
0.0000000001
 40
0.0
 40
0.0
 40
0.0
 40
0.0
 40
0.1237637414
 40
0.2165706651
 40
0.3331384703
 40
0.6331611196
 40
1.0
 40
1.0
 40
1.0
 40
1.0
 10
198.9194718316
 20
50.7216411769
 30
0.0
 10
198.9232524804
 20
50.7216411769
 30
0.0
 10
198.9292686708
 20
50.7264424598
 30
0.0
 10
198.9344173475
 20
50.7349936446
 30
0.0
 10
198.940610275
 20
50.7494173102
 30
0.0
 10
198.9461148806
 20
50.7727896329
 30
0.0
 10
198.9483160647
 20
50.7930943031
 30
0.0
 10
198.9489237646
 20
50.8042837526
 30
0.0
  0
LINE
  5
352
100
AcDbEntity
  8
00_COMPONENTS_6
100
AcDbLine
 62
7
  6
CONTINUOUS
 10
198.9489237646
 20
50.8042837526
 11
198.966443152
 21
51.1216379496
  0
SPLINE
  5
353
100
AcDbEntity
  8
00_COMPONENTS_6
100
AcDbSpline
 62
7
  6
CONTINUOUS
 70
0
 71
3
 72
9
 73
5
 74
0
 42
0.0000001
 43
0.0000001
 44
0.0000000001
 40
0.0
 40
0.0
 40
0.0
 40
0.0
 40
0.4822216116
 40
1.0
 40
1.0
 40
1.0
 40
1.0
 10
201.1935519788
 20
50.7237730088
 30
0.0
 10
201.2112865046
 20
50.7277757176
 30
0.0
 10
201.2459638243
 20
50.7485254697
 30
0.0
 10
201.2626654469
 20
50.7850177871
 30
0.0
 10
201.2658117206
 20
50.8042837511
 30
0.0
  0
LINE
  5
354
100
AcDbEntity
  8
00_COMPONENTS_6
100
AcDbLine
 62
7
  6
CONTINUOUS
 10
201.2658117206
 20
50.8042837511
 11
201.3176263628
 21
51.1216379496
  0
LINE
  5
355
100
AcDbEntity
  8
00_COMPONENTS_6
100
AcDbLine
 62
7
  6
CONTINUOUS
 10
205.7125302687
 20
50.804283642
 11
205.6607146166
 21
51.1216377725
  0
SPLINE
  5
356
100
AcDbEntity
  8
00_COMPONENTS_6
100
AcDbSpline
 62
7
  6
CONTINUOUS
 70
0
 71
3
 72
9
 73
5
 74
0
 42
0.0000001
 43
0.0000001
 44
0.0000000001
 40
0.0
 40
0.0
 40
0.0
 40
0.0
 40
0.5178173237
 40
1.0
 40
1.0
 40
1.0
 40
1.0
 10
205.7125302687
 20
50.804283642
 30
0.0
 10
205.7156758051
 20
50.7850221931
 30
0.0
 10
205.7323708675
 20
50.7485428579
 30
0.0
 10
205.7670278149
 20
50.727787653
 30
0.0
 10
205.7847539735
 20
50.7237801033
 30
0.0
  0
SPLINE
  5
357
100
AcDbEntity
  8
00_COMPONENTS_6
100
AcDbSpline
 62
7
  6
CONTINUOUS
 70
0
 71
3
 72
12
 73
8
 74
0
 42
0.0000001
 43
0.0000001
 44
0.0000000001
 40
0.0
 40
0.0
 40
0.0
 40
0.0
 40
0.3668787521
 40
0.6669026771
 40
0.7834605754
 40
0.8762559009
 40
1.0
 40
1.0
 40
1.0
 40
1.0
 10
208.0294182129
 20
50.8042836435
 30
0.0
 10
208.0300259814
 20
50.7930929327
 30
0.0
 10
208.0322280083
 20
50.77278704
 30
0.0
 10
208.0377329411
 20
50.7494135913
 30
0.0
 10
208.0439259968
 20
50.7349907705
 30
0.0
 10
208.0490737151
 20
50.7264400382
 30
0.0
 10
208.055090076
 20
50.7216411769
 30
0.0
 10
208.0588701401
 20
50.7216411769
 30
0.0
  0
LINE
  5
358
100
AcDbEntity
  8
00_COMPONENTS_6
100
AcDbLine
 62
7
  6
CONTINUOUS
 10
208.0294182129
 20
50.8042836435
 11
208.0118984865
 21
51.1216377725
  0
SPLINE
  5
359
100
AcDbEntity
  8
00_COMPONENTS_6
100
AcDbSpline
 62
7
  6
CONTINUOUS
 70
0
 71
3
 72
9
 73
5
 74
0
 42
0.0000001
 43
0.0000001
 44
0.0000000001
 40
0.0
 40
0.0
 40
0.0
 40
0.0
 40
0.5052624746
 40
1.0
 40
1.0
 40
1.0
 40
1.0
 10
202.0932286104
 20
50.804283642
 30
0.0
 10
202.0972666898
 20
50.7814233198
 30
0.0
 10
202.1226385327
 20
50.7376321308
 30
0.0
 10
202.1701573157
 20
50.7216411769
 30
0.0
 10
202.1928879768
 20
50.7216411769
 30
0.0
  0
SPLINE
  5
35A
100
AcDbEntity
  8
00_COMPONENTS_6
100
AcDbSpline
 62
7
  6
CONTINUOUS
 70
0
 71
3
 72
9
 73
5
 74
0
 42
0.0000001
 43
0.0000001
 44
0.0000000001
 40
0.0
 40
0.0
 40
0.0
 40
0.0
 40
0.2461012378
 40
1.0
 40
1.0
 40
1.0
 40
1.0
 10
202.2441182761
 20
48.9216411769
 30
0.0
 10
202.2779253505
 20
48.9087475368
 30
0.0
 10
202.4163349515
 20
48.8591061755
 30
0.0
 10
202.5586309756
 20
48.8204318801
 30
0.0
 10
202.6670007577
 20
48.7971620817
 30
0.0
  0
LINE
  5
35B
100
AcDbEntity
  8
00_COMPONENTS_6
100
AcDbLine
 62
7
  6
CONTINUOUS
 10
202.0932286104
 20
50.804283642
 11
202.0374699391
 21
51.1216377725
  0
SPLINE
  5
35C
100
AcDbEntity
  8
00_COMPONENTS_6
100
AcDbSpline
 62
7
  6
CONTINUOUS
 70
0
 71
3
 72
12
 73
8
 74
0
 42
0.0000001
 43
0.0000001
 44
0.0000000001
 40
0.0
 40
0.0
 40
0.0
 40
0.0
 40
0.3270039792
 40
0.54176599
 40
0.7225688652
 40
0.8713760224
 40
1.0
 40
1.0
 40
1.0
 40
1.0
 10
199.2916510631
 20
50.8042836435
 30
0.0
 10
199.2926264575
 20
50.7930075776
 30
0.0
 10
199.2958082928
 20
50.7743771051
 30
0.0
 10
199.3046283538
 20
50.750840339
 30
0.0
 10
199.3148409097
 20
50.734790884
 30
0.0
 10
199.3271477611
 20
50.7242471262
 30
0.0
 10
199.3368433214
 20
50.7216411769
 30
0.0
 10
199.3412952199
 20
50.7216411769
 30
0.0
  0
SPLINE
  5
35D
100
AcDbEntity
  8
00_COMPONENTS_6
100
AcDbSpline
 62
7
  6
CONTINUOUS
 70
0
 71
3
 72
9
 73
5
 74
0
 42
0.0000001
 43
0.0000001
 44
0.0000000001
 40
0.0
 40
0.0
 40
0.0
 40
0.0
 40
0.4947805499
 40
1.0
 40
1.0
 40
1.0
 40
1.0
 10
204.7854539948
 20
50.7216411769
 30
0.0
 10
204.8081866683
 20
50.7216411769
 30
0.0
 10
204.8557059873
 20
50.7376338618
 30
0.0
 10
204.8810756386
 20
50.7814253397
 30
0.0
 10
204.8851133803
 20
50.8042837511
 30
0.0
  0
LINE
  5
35E
100
AcDbEntity
  8
00_COMPONENTS_6
100
AcDbLine
 62
7
  6
CONTINUOUS
 10
204.8851133803
 20
50.8042837511
 11
204.9408709625
 21
51.1216379496
  0
SPLINE
  5
35F
100
AcDbEntity
  8
00_COMPONENTS_6
100
AcDbSpline
 62
7
  6
CONTINUOUS
 70
0
 71
3
 72
11
 73
7
 74
0
 42
0.0000001
 43
0.0000001
 44
0.0000000001
 40
0.0
 40
0.0
 40
0.0
 40
0.0
 40
0.1744012102
 40
0.3334981697
 40
0.526315733
 40
1.0
 40
1.0
 40
1.0
 40
1.0
 10
207.6370467518
 20
50.7216411769
 30
0.0
 10
207.6430684811
 20
50.7216411769
 30
0.0
 10
207.6546537159
 20
50.7260263889
 30
0.0
 10
207.6671205072
 20
50.7395754336
 30
0.0
 10
207.6806636586
 20
50.7648967827
 30
0.0
 10
207.6852814195
 20
50.7879892186
 30
0.0
 10
207.6866909179
 20
50.8042837526
 30
0.0
  0
SPLINE
  5
360
100
AcDbEntity
  8
00_COMPONENTS_6
100
AcDbSpline
 62
7
  6
CONTINUOUS
 70
0
 71
3
 72
9
 73
5
 74
0
 42
0.0000001
 43
0.0000001
 44
0.0000000001
 40
0.0
 40
0.0
 40
0.0
 40
0.0
 40
0.2542252921
 40
1.0
 40
1.0
 40
1.0
 40
1.0
 10
204.4430357338
 20
48.8230744973
 30
0.0
 10
204.4808921875
 20
48.8326555599
 30
0.0
 10
204.6290472129
 20
48.8732382809
 30
0.0
 10
204.7739979357
 20
48.9256981701
 30
0.0
 10
204.8789354668
 20
48.9716411769
 30
0.0
  0
SPLINE
  5
361
100
AcDbEntity
  8
PART
100
AcDbSpline
 62
7
  6
CONTINUOUS
 70
0
 71
3
 72
9
 73
5
 74
0
 42
0.0000001
 43
0.0000001
 44
0.0000000001
 40
0.0
 40
0.0
 40
0.0
 40
0.0
 40
0.3432772932
 40
1.0
 40
1.0
 40
1.0
 40
1.0
 10
294.499210165
 20
54.3216411769
 30
0.0
 10
294.499210165
 20
54.1904989474
 30
0.0
 10
294.1317105705
 20
53.9076311338
 30
0.0
 10
293.7995545057
 20
53.7948634699
 30
0.0
 10
293.5630110011
 20
53.7112461788
 30
0.0
  0
SPLINE
  5
362
100
AcDbEntity
  8
PART
100
AcDbSpline
 62
7
  6
CONTINUOUS
 70
0
 71
3
 72
9
 73
5
 74
0
 42
0.0000001
 43
0.0000001
 44
0.0000000001
 40
0.0
 40
0.0
 40
0.0
 40
0.0
 40
0.2351084764
 40
1.0
 40
1.0
 40
1.0
 40
1.0
 10
293.5630110011
 20
53.7112461788
 30
0.0
 10
293.5099474059
 20
53.6924883859
 30
0.0
 10
293.2834746797
 20
53.6148909431
 30
0.0
 10
293.0547228532
 20
53.5441354884
 30
0.0
 10
292.8793400088
 20
53.4915259688
 30
0.0
  0
SPLINE
  5
363
100
AcDbEntity
  8
PART
100
AcDbSpline
 62
7
  6
CONTINUOUS
 70
0
 71
3
 72
8
 73
4
 74
0
 42
0.0000001
 43
0.0000001
 44
0.0000000001
 40
0.0
 40
0.0
 40
0.0
 40
0.0
 40
1.0
 40
1.0
 40
1.0
 40
1.0
 10
292.8793400088
 20
53.4915259688
 30
0.0
 10
292.6863387134
 20
53.4336314496
 30
0.0
 10
292.4927667649
 20
53.377651158
 30
0.0
 10
292.299210165
 20
53.3216411769
 30
0.0
  0
SPLINE
  5
364
100
AcDbEntity
  8
PART
100
AcDbSpline
 62
7
  6
CONTINUOUS
 70
0
 71
3
 72
9
 73
5
 74
0
 42
0.0000001
 43
0.0000001
 44
0.0000000001
 40
0.0
 40
0.0
 40
0.0
 40
0.0
 40
0.2353833766
 40
1.0
 40
1.0
 40
1.0
 40
1.0
 10
294.499210165
 20
532.8216411769
 30
0.0
 10
294.499210165
 20
532.6990254359
 30
0.0
 10
294.5497538034
 20
532.1769268981
 30
0.0
 10
294.7897571861
 20
531.6937594167
 30
0.0
 10
294.9992100511
 20
531.3549745102
 30
0.0
  0
SPLINE
  5
365
100
AcDbEntity
  8
PART
100
AcDbSpline
 62
7
  6
CONTINUOUS
 70
0
 71
3
 72
8
 73
4
 74
0
 42
0.0000001
 43
0.0000001
 44
0.0000000001
 40
0.0
 40
0.0
 40
0.0
 40
0.0
 40
1.0
 40
1.0
 40
1.0
 40
1.0
 10
294.9992100511
 20
531.3549745102
 30
0.0
 10
295.1547896942
 20
531.1033282277
 30
0.0
 10
295.3272930781
 20
530.8624219736
 30
0.0
 10
295.499210165
 20
530.6216411769
 30
0.0
  0
SPLINE
  5
366
100
AcDbEntity
  8
PART
100
AcDbSpline
 62
7
  6
CONTINUOUS
 70
0
 71
3
 72
9
 73
5
 74
0
 42
0.0000001
 43
0.0000001
 44
0.0000000001
 40
0.0
 40
0.0
 40
0.0
 40
0.0
 40
0.2548138331
 40
1.0
 40
1.0
 40
1.0
 40
1.0
 10
295.499210165
 20
73.6216411769
 30
0.0
 10
295.4454906663
 20
73.5464036078
 30
0.0
 10
295.2348471822
 20
73.2511509671
 30
0.0
 10
295.0302815459
 20
72.9504935087
 30
0.0
 10
294.896509668
 20
72.7155526183
 30
0.0
  0
SPLINE
  5
367
100
AcDbEntity
  8
PART
100
AcDbSpline
 62
7
  6
CONTINUOUS
 70
0
 71
3
 72
8
 73
4
 74
0
 42
0.0000001
 43
0.0000001
 44
0.0000000001
 40
0.0
 40
0.0
 40
0.0
 40
0.0
 40
1.0
 40
1.0
 40
1.0
 40
1.0
 10
294.896509668
 20
72.7155526183
 30
0.0
 10
294.7943591381
 20
72.5361476728
 30
0.0
 10
294.7024945325
 20
72.3494405226
 30
0.0
 10
294.6331848269
 20
72.1549745102
 30
0.0
  0
ELLIPSE
  5
368
100
AcDbEntity
  8
0
100
AcDbEllipse
 62
7
  6
CONTINUOUS
 10
328.1292624677
 20
416.6219823375
 30
0.0
 11
11.4300523028
 21
-0.0000275028
 31
0.0
 40
0.0874886635
 41
-3.141592486
 42
-2.55123267
  0
ELLIPSE
  5
369
100
AcDbEntity
  8
0
100
AcDbEllipse
 62
7
  6
CONTINUOUS
 10
328.1292624677
 20
454.6219823233
 30
0.0
 11
11.4300523028
 21
-0.0000275028
 31
0.0
 40
0.0874886635
 41
2.551233091
 42
3.1415920963
  0
ELLIPSE
  5
36A
100
AcDbEntity
  8
0
100
AcDbEllipse
 62
7
  6
CONTINUOUS
 10
328.1292624677
 20
149.6219823375
 30
0.0
 11
11.4300523028
 21
-0.0000275028
 31
0.0
 40
0.0874886635
 41
-3.141592486
 42
-2.55123267
  0
ELLIPSE
  5
36B
100
AcDbEntity
  8
0
100
AcDbEllipse
 62
7
  6
CONTINUOUS
 10
328.1292624677
 20
187.6219823233
 30
0.0
 11
11.4300523028
 21
-0.0000275028
 31
0.0
 40
0.0874886635
 41
2.551233091
 42
3.1415920963
  0
ENDSEC
  0
SECTION
  2
OBJECTS
  0
DICTIONARY
  5
C
100
AcDbDictionary
280
0
281
1
  3
ACAD_GROUP
350
D
  3
ACAD_MLINESTYLE
350
17
  3
ACAD_LAYOUT
350
1A
  3
ACAD_PLOTSETTINGS
350
19
  3
ACAD_PLOTSTYLENAME
350
E
  0
DICTIONARY
  5
D
102
{ACAD_REACTORS
330
C
102
}
100
AcDbDictionary
280
0
281
1
  0
ACDBDICTIONARYWDFLT
  5
E
102
{ACAD_REACTORS
330
C
102
}
100
AcDbDictionary
281
1
  3
Normal
350
F
100
AcDbDictionaryWithDefault
340
F
  0
DICTIONARY
  5
17
102
{ACAD_REACTORS
330
C
102
}
100
AcDbDictionary
280
0
281
1
  3
Standard
350
18
  0
DICTIONARY
  5
19
102
{ACAD_REACTORS
330
C
102
}
100
AcDbDictionary
281
1
  0
DICTIONARY
  5
1A
102
{ACAD_REACTORS
330
C
102
}
100
AcDbDictionary
281
1
  3
Model
350
36C
  3
Layout1
350
36D
  0
ACDBPLACEHOLDER
  5
F
102
{ACAD_REACTORS
330
E
102
}
  0
MLINESTYLE
  5
18
102
{ACAD_REACTORS
330
17
102
}
100
AcDbMlineStyle
  2
STANDARD
 70
0
  3

 62
256
 51
90.0
 52
90.0
 71
2
 49
0.5
 62
256
  6
BYLAYER
 49
-0.5
 62
256
  6
BYLAYER
  0
LAYOUT
  5
36C
102
{ACAD_REACTORS
330
1A
102
}
100
AcDbPlotSettings
  1

  2
none_device
  4

  6

 40
0.0
 41
0.0
 42
0.0
 43
0.0
 44
210.0
 45
297.0
 46
0.0
 47
0.0
 48
0.0
 49
0.0
140
0.0
141
0.0
142
1.0
143
1.0
 70
1024
 72
1
 73
0
 74
0
  7

 75
0
147
1.0
148
0.0
149
0.0
100
AcDbLayout
  1
Model
 70
0
 71
0
 10
0.0
 20
0.0
 11
210.0
 21
297.0
 12
0.0
 22
0.0
 32
0.0
 14
0.0
 24
0.0
 34
0.0
 15
0.0
 25
0.0
 35
0.0
146
0.0
 13
0.0
 23
0.0
 33
0.0
 16
1.0
 26
0.0
 36
0.0
 17
0.0
 27
1.0
 37
0.0
 76
0
330
213
345
0
346
0
  0
LAYOUT
  5
36D
102
{ACAD_REACTORS
330
1A
102
}
100
AcDbPlotSettings
  1

  2
none_device
  4

  6

 40
0.0
 41
0.0
 42
0.0
 43
0.0
 44
210.0
 45
297.0
 46
0.0
 47
0.0
 48
0.0
 49
0.0
140
0.0
141
0.0
142
1.0
143
1.0
 70
0
 72
1
 73
0
 74
0
  7

 75
0
147
1.0
148
0.0
149
0.0
100
AcDbLayout
  1
Layout1
 70
0
 71
1
 10
0.0
 20
0.0
 11
210.0
 21
297.0
 12
0.0
 22
0.0
 32
0.0
 14
0.0
 24
0.0
 34
0.0
 15
0.0
 25
0.0
 35
0.0
146
0.0
 13
0.0
 23
0.0
 33
0.0
 16
1.0
 26
0.0
 36
0.0
 17
0.0
 27
1.0
 37
0.0
 76
0
330
214
345
0
346
0
  0
ENDSEC
  0
EOF
