999
DXF file: C:\Vinayak\New 2D genarating\updateCreo8 with 3dPdf\CAD\NSYS3D4420T_3D-CAD\drw0001_5.dxf
999
Pro/ENGINEER 2021284 by Parametric Technology Corporation
  0
SECTION
  2
HEADER
  9
$ACADVER
  1
AC1024
  9
$DWGCODEPAGE
  3
ANSI_1252
  9
$EXTMAX
 10
340.0625627175
 20
480.9456244148
 30
0.0
  9
$EXTMIN
 10
0.0
 20
0.0
 30
0.0
  9
$LIMMIN
 10
0.0
 20
0.0
  9
$LIMMAX
 10
340.0625627175
 20
480.9456244148
  9
$VIEWCTR
 10
170.0312813588
 20
240.4728122074
  9
$VIEWSIZE
 40
480.9456244148
  9
$CLAYER
  8
0
  9
$LTSCALE
 40
31.3505295915
  9
$CELTYPE
  6
BYLAYER
  9
$DIMSCALE
 40
1.0
  9
$DIMASZ
 40
4.0483638419
  9
$DIMEXO
 40
1.0
  9
$DIMDLI
 40
21.6603658996
  9
$DIMEXE
 40
1.0
  9
$DIMCEN
 40
5.1300866604
  9
$DIMLFAC
 40
1.0
  9
$DIMBLK
  1
_FILLED
  9
$DIMALT
 70
0
  9
$DIMALTF
 40
0.0393700787
  9
$DIMTXT
 40
5.6677093786
  9
$DIMTOL
 70
1
  9
$DIMLIM
 70
0
  9
$DIMTFAC
 40
1.0
  9
$DIMTP
 40
0.01
  9
$DIMTM
 40
0.01
  9
$DIMGAP
 40
0.625
  9
$DIMDSEP
 70
46
  9
$AUNITS
 70
0
  9
$PDMODE
 70
3
  9
$PDSIZE
 40
0.3125
  9
$HANDSEED
  5
3AA
  9
$TILEMODE
 70
1
  9
$MEASUREMENT
 70
1
  9
$INSUNITS
 70
4
  0
ENDSEC
  0
SECTION
  2
CLASSES
  0
CLASS
  1
ACDBDICTIONARYWDFLT
  2
AcDbDictionaryWithDefault
  3
AutoCAD 2000
 90
0
 91
1
280
0
281
0
  0
CLASS
  1
ACDBPLACEHOLDER
  2
AcDbPlaceHolder
  3
AutoCAD 2000
 90
0
 91
1
280
0
281
0
  0
CLASS
  1
LAYOUT
  2
AcDbLayout
  3
AutoCAD 2000
 90
0
 91
0
280
0
281
0
  0
ENDSEC
  0
SECTION
  2
TABLES
  0
TABLE
  2
VPORT
  5
8
100
AcDbSymbolTable
 70
2
  0
VPORT
  5
1F4
100
AcDbSymbolTableRecord
100
AcDbViewportTableRecord
  2
*ACTIVE
 70
0
 10
0.0
 20
0.0
 11
1.0
 21
1.0
 12
170.0312813588
 22
240.4728122074
 13
0.0
 23
0.0
 14
1.0
 24
1.0
 15
0.0
 25
0.0
 16
0.0
 26
0.0
 36
1.0
 17
0.0
 27
0.0
 37
0.0
 40
480.9456244148
 41
0.7070707071
 42
50.0
 43
0.0
 44
0.0
 50
0.0
 51
0.0
 71
0
 72
100
 73
1
 74
1
 75
0
 76
0
 77
0
 78
0
  0
ENDTAB
  0
TABLE
  2
LTYPE
  5
5
100
AcDbSymbolTable
 70
6
  0
LTYPE
  5
14
100
AcDbSymbolTableRecord
100
AcDbLinetypeTableRecord
  2
BYBLOCK
 70
0
  3

 72
65
 73
0
 40
0.0
  0
LTYPE
  5
15
100
AcDbSymbolTableRecord
100
AcDbLinetypeTableRecord
  2
BYLAYER
 70
0
  3

 72
65
 73
0
 40
0.0
  0
LTYPE
  5
16
100
AcDbSymbolTableRecord
100
AcDbLinetypeTableRecord
  2
CONTINUOUS
 70
64
  3
Solid line
 72
65
 73
0
 40
0.0
  0
LTYPE
  5
1F5
100
AcDbSymbolTableRecord
100
AcDbLinetypeTableRecord
  2
CENTER
 70
64
  3
____ _ ____ _ ____ _ ____ _ ____ _ ____ _ ____
 72
65
 73
4
 40
0.6
 49
0.375
 74
0
 49
-0.075
 74
0
 49
0.075
 74
0
 49
-0.075
 74
0
  0
LTYPE
  5
1F6
100
AcDbSymbolTableRecord
100
AcDbLinetypeTableRecord
  2
HIDDEN
 70
64
  3
- - - - - - - - - - - - - - - - - - - -
 72
65
 73
2
 40
0.2
 49
0.1
 74
0
 49
-0.1
 74
0
  0
LTYPE
  5
1F7
100
AcDbSymbolTableRecord
100
AcDbLinetypeTableRecord
  2
PHANTOM
 70
64
  3
_____ _ _ _____ _ _ _____ _ _ _____
 72
65
 73
6
 40
0.8
 49
0.45
 74
0
 49
-0.05
 74
0
 49
0.1
 74
0
 49
-0.05
 74
0
 49
0.1
 74
0
 49
-0.05
 74
0
  0
LTYPE
  5
1F8
100
AcDbSymbolTableRecord
100
AcDbLinetypeTableRecord
  2
DOT
 70
64
  3
. . . . . . . . . . . . . . . . . . . .
 72
65
 73
2
 40
0.2
 49
0.1
 74
0
 49
-0.1
 74
0
  0
LTYPE
  5
1F9
100
AcDbSymbolTableRecord
100
AcDbLinetypeTableRecord
  2
DASHED
 70
64
  3
- - - - - - - - - - - - - - - - - - - -
 72
65
 73
2
 40
0.2
 49
0.1
 74
0
 49
-0.1
 74
0
  0
ENDTAB
  0
TABLE
  2
LAYER
  5
2
100
AcDbSymbolTable
 70
36
  0
LAYER
  5
10
100
AcDbSymbolTableRecord
100
AcDbLayerTableRecord
  2
0
 70
0
 62
7
  6
CONTINUOUS
370
-3
390
F
  0
LAYER
  5
1FA
100
AcDbSymbolTableRecord
100
AcDbLayerTableRecord
  2
DEFAULT_1
 70
0
 62
7
  6
CENTER
370
-3
390
F
  0
LAYER
  5
1FB
100
AcDbSymbolTableRecord
100
AcDbLayerTableRecord
  2
DEFAULT_2
 70
0
 62
8
  6
HIDDEN
370
-3
390
F
  0
LAYER
  5
1FC
100
AcDbSymbolTableRecord
100
AcDbLayerTableRecord
  2
DEFAULT_3
 70
0
 62
7
  6
PHANTOM
370
-3
390
F
  0
LAYER
  5
1FD
100
AcDbSymbolTableRecord
100
AcDbLayerTableRecord
  2
00_COMPONENTS
 70
0
 62
7
  6
CONTINUOUS
370
-3
390
F
  0
LAYER
  5
1FE
100
AcDbSymbolTableRecord
100
AcDbLayerTableRecord
  2
00_COMPONENTS_1
 70
0
 62
7
  6
CONTINUOUS
370
-3
390
F
  0
LAYER
  5
1FF
100
AcDbSymbolTableRecord
100
AcDbLayerTableRecord
  2
00_COMPONENTS_10
 70
0
 62
7
  6
CONTINUOUS
370
-3
390
F
  0
LAYER
  5
200
100
AcDbSymbolTableRecord
100
AcDbLayerTableRecord
  2
00_COMPONENTS_12
 70
0
 62
7
  6
CONTINUOUS
370
-3
390
F
  0
LAYER
  5
201
100
AcDbSymbolTableRecord
100
AcDbLayerTableRecord
  2
00_COMPONENTS_13
 70
0
 62
7
  6
CONTINUOUS
370
-3
390
F
  0
LAYER
  5
202
100
AcDbSymbolTableRecord
100
AcDbLayerTableRecord
  2
00_COMPONENTS_15
 70
0
 62
7
  6
CONTINUOUS
370
-3
390
F
  0
LAYER
  5
203
100
AcDbSymbolTableRecord
100
AcDbLayerTableRecord
  2
00_COMPONENTS_18
 70
0
 62
7
  6
CONTINUOUS
370
-3
390
F
  0
LAYER
  5
204
100
AcDbSymbolTableRecord
100
AcDbLayerTableRecord
  2
00_COMPONENTS_2
 70
0
 62
7
  6
CONTINUOUS
370
-3
390
F
  0
LAYER
  5
205
100
AcDbSymbolTableRecord
100
AcDbLayerTableRecord
  2
00_COMPONENTS_20
 70
0
 62
7
  6
CONTINUOUS
370
-3
390
F
  0
LAYER
  5
206
100
AcDbSymbolTableRecord
100
AcDbLayerTableRecord
  2
00_COMPONENTS_21
 70
0
 62
7
  6
CONTINUOUS
370
-3
390
F
  0
LAYER
  5
207
100
AcDbSymbolTableRecord
100
AcDbLayerTableRecord
  2
00_COMPONENTS_24
 70
0
 62
7
  6
CONTINUOUS
370
-3
390
F
  0
LAYER
  5
208
100
AcDbSymbolTableRecord
100
AcDbLayerTableRecord
  2
00_COMPONENTS_25
 70
0
 62
7
  6
CONTINUOUS
370
-3
390
F
  0
LAYER
  5
209
100
AcDbSymbolTableRecord
100
AcDbLayerTableRecord
  2
00_COMPONENTS_29
 70
0
 62
7
  6
CONTINUOUS
370
-3
390
F
  0
LAYER
  5
20A
100
AcDbSymbolTableRecord
100
AcDbLayerTableRecord
  2
00_COMPONENTS_3
 70
0
 62
7
  6
CONTINUOUS
370
-3
390
F
  0
LAYER
  5
20B
100
AcDbSymbolTableRecord
100
AcDbLayerTableRecord
  2
00_COMPONENTS_30
 70
0
 62
7
  6
CONTINUOUS
370
-3
390
F
  0
LAYER
  5
20C
100
AcDbSymbolTableRecord
100
AcDbLayerTableRecord
  2
00_COMPONENTS_4
 70
0
 62
7
  6
CONTINUOUS
370
-3
390
F
  0
LAYER
  5
20D
100
AcDbSymbolTableRecord
100
AcDbLayerTableRecord
  2
00_COMPONENTS_5
 70
0
 62
7
  6
CONTINUOUS
370
-3
390
F
  0
LAYER
  5
20E
100
AcDbSymbolTableRecord
100
AcDbLayerTableRecord
  2
00_COMPONENTS_6
 70
0
 62
7
  6
CONTINUOUS
370
-3
390
F
  0
LAYER
  5
20F
100
AcDbSymbolTableRecord
100
AcDbLayerTableRecord
  2
00_COMPONENTS_7
 70
0
 62
7
  6
CONTINUOUS
370
-3
390
F
  0
LAYER
  5
210
100
AcDbSymbolTableRecord
100
AcDbLayerTableRecord
  2
00_COMPONENTS_8
 70
0
 62
7
  6
CONTINUOUS
370
-3
390
F
  0
LAYER
  5
211
100
AcDbSymbolTableRecord
100
AcDbLayerTableRecord
  2
00_COMPONENTS_9
 70
0
 62
7
  6
CONTINUOUS
370
-3
390
F
  0
LAYER
  5
212
100
AcDbSymbolTableRecord
100
AcDbLayerTableRecord
  2
01_1_DEFAULT_DATUMS
 70
0
 62
7
  6
CONTINUOUS
370
-3
390
F
  0
LAYER
  5
213
100
AcDbSymbolTableRecord
100
AcDbLayerTableRecord
  2
01_PLANES
 70
0
 62
7
  6
CONTINUOUS
370
-3
390
F
  0
LAYER
  5
214
100
AcDbSymbolTableRecord
100
AcDbLayerTableRecord
  2
02_COORD_SYS
 70
0
 62
7
  6
CONTINUOUS
370
-3
390
F
  0
LAYER
  5
215
100
AcDbSymbolTableRecord
100
AcDbLayerTableRecord
  2
03_AXES
 70
0
 62
7
  6
CONTINUOUS
370
-3
390
F
  0
LAYER
  5
216
100
AcDbSymbolTableRecord
100
AcDbLayerTableRecord
  2
04_POINTS
 70
0
 62
7
  6
CONTINUOUS
370
-3
390
F
  0
LAYER
  5
217
100
AcDbSymbolTableRecord
100
AcDbLayerTableRecord
  2
05_CURVES
 70
0
 62
7
  6
CONTINUOUS
370
-3
390
F
  0
LAYER
  5
218
100
AcDbSymbolTableRecord
100
AcDbLayerTableRecord
  2
06_SURFS
 70
0
 62
7
  6
CONTINUOUS
370
-3
390
F
  0
LAYER
  5
219
100
AcDbSymbolTableRecord
100
AcDbLayerTableRecord
  2
07_COSMETICS
 70
0
 62
7
  6
CONTINUOUS
370
-3
390
F
  0
LAYER
  5
21A
100
AcDbSymbolTableRecord
100
AcDbLayerTableRecord
  2
10_NOTES
 70
0
 62
7
  6
CONTINUOUS
370
-3
390
F
  0
LAYER
  5
21B
100
AcDbSymbolTableRecord
100
AcDbLayerTableRecord
  2
11_NOTES_PUB
 70
0
 62
7
  6
CONTINUOUS
370
-3
390
F
  0
LAYER
  5
21C
100
AcDbSymbolTableRecord
100
AcDbLayerTableRecord
  2
13_REF_GTOL
 70
0
 62
7
  6
CONTINUOUS
370
-3
390
F
  0
LAYER
  5
21D
100
AcDbSymbolTableRecord
100
AcDbLayerTableRecord
  2
16_MISC
 70
0
 62
7
  6
CONTINUOUS
370
-3
390
F
  0
LAYER
  5
21E
100
AcDbSymbolTableRecord
100
AcDbLayerTableRecord
  2
17_NO_PRINT
 70
0
 62
7
  6
CONTINUOUS
370
-3
390
F
  0
LAYER
  5
21F
100
AcDbSymbolTableRecord
100
AcDbLayerTableRecord
  2
18_DATUM_CAMS_JOINTS
 70
0
 62
7
  6
CONTINUOUS
370
-3
390
F
  0
LAYER
  5
220
100
AcDbSymbolTableRecord
100
AcDbLayerTableRecord
  2
19_DATUM_FUNCTIONAL
 70
0
 62
7
  6
CONTINUOUS
370
-3
390
F
  0
LAYER
  5
221
100
AcDbSymbolTableRecord
100
AcDbLayerTableRecord
  2
20_DATUM_KINEMATIC_SCHEME
 70
0
 62
7
  6
CONTINUOUS
370
-3
390
F
  0
ENDTAB
  0
TABLE
  2
STYLE
  5
3
100
AcDbSymbolTable
 70
1
  0
STYLE
  5
11
100
AcDbSymbolTableRecord
100
AcDbTextStyleTableRecord
  2
STANDARD
 70
0
 40
0.0
 41
0.8
 50
0.0
 71
0
 42
0.2
  3
txt
  4

  0
STYLE
  5
222
100
AcDbSymbolTableRecord
100
AcDbTextStyleTableRecord
  2
TEXTSTYLE_1
 70
0
 40
0.0
 41
0.8
 50
0.0
 71
0
 42
0.2
  3
gdt
  4

  0
ENDTAB
  0
TABLE
  2
VIEW
  5
6
100
AcDbSymbolTable
 70
0
  0
ENDTAB
  0
TABLE
  2
UCS
  5
7
100
AcDbSymbolTable
 70
0
  0
ENDTAB
  0
TABLE
  2
APPID
  5
9
100
AcDbSymbolTable
 70
1
  0
APPID
  5
223
100
AcDbSymbolTableRecord
100
AcDbRegAppTableRecord
  2
ACAD
 70
0
  0
ENDTAB
  0
TABLE
  2
BLOCK_RECORD
  5
1
100
AcDbSymbolTable
 70
0
  0
BLOCK_RECORD
  5
224
100
AcDbSymbolTableRecord
100
AcDbBlockTableRecord
  2
*Model_Space
  0
BLOCK_RECORD
  5
225
100
AcDbSymbolTableRecord
100
AcDbBlockTableRecord
  2
*Paper_Space
  0
BLOCK_RECORD
  5
226
100
AcDbSymbolTableRecord
100
AcDbBlockTableRecord
  2
_FILLED
  0
ENDTAB
  0
TABLE
  2
DIMSTYLE
  5
A
100
AcDbSymbolTable
 70
1
100
AcDbDimStyleTable
 71
0
  0
DIMSTYLE
105
227
100
AcDbSymbolTableRecord
100
AcDbDimStyleTableRecord
  2
STANDARD
 70
0
  3

  4

 40
1.0
 41
4.0483638419
 42
1.0
 43
0.38
 44
1.0
 45
0.0
 46
0.0
 47
0.01
 48
0.01
140
5.6677093786
141
0.09
142
0.0
143
25.4
144
1.0
145
0.0
146
1.0
147
0.625
 71
1
 72
0
 73
0
 74
0
 75
0
 76
0
 77
1
 78
8
 79
2
170
0
171
1
172
0
173
0
174
0
175
0
176
0
177
0
178
0
270
2
179
2
271
2
272
2
273
2
274
2
275
0
280
0
281
0
282
0
283
1
284
8
285
0
286
0
287
3
288
0
340
11
278
46
341
226
342
226
343
226
344
226
  0
ENDTAB
  0
ENDSEC
  0
SECTION
  2
BLOCKS
  0
BLOCK
  5
20
100
AcDbEntity
  8
0
100
AcDbBlockBegin
  2
*Model_Space
 70
0
 10
0.0
 20
0.0
 30
0.0
  3
*Model_Space
  1

  0
ENDBLK
  5
21
100
AcDbEntity
  8
0
100
AcDbBlockEnd
  0
BLOCK
  5
1C
100
AcDbEntity
  8
0
100
AcDbBlockBegin
  2
*Paper_Space
 70
0
 10
0.0
 20
0.0
 30
0.0
  3
*Paper_Space
  1

  0
ENDBLK
  5
1D
100
AcDbEntity
  8
0
100
AcDbBlockEnd
  0
BLOCK
  5
228
100
AcDbEntity
  8
0
100
AcDbBlockBegin
  2
_FILLED
 70
64
 10
0.0
 20
0.0
  3
_FILLED
  1

  0
SOLID
  5
229
100
AcDbEntity
  8
0
  6
BYBLOCK
 62
0
100
AcDbTrace
 10
0.0
 20
0.0
 11
-1.0
 21
0.25
 12
-1.0
 22
-0.25
 13
-1.0
 23
-0.25
  0
ENDBLK
  5
22A
100
AcDbEntity
  8
0
  6
BYBLOCK
 62
0
100
AcDbBlockEnd
  0
ENDSEC
  0
SECTION
  2
ENTITIES
  0
LINE
  5
22B
100
AcDbEntity
  8
00_COMPONENTS_1
100
AcDbLine
 62
7
  6
CONTINUOUS
 10
90.9243773662
 20
39.1737851298
 11
90.9278879673
 21
39.1730911132
  0
LINE
  5
22C
100
AcDbEntity
  8
00_COMPONENTS_1
100
AcDbLine
 62
7
  6
CONTINUOUS
 10
90.9246040324
 20
39.1730141452
 11
90.92811983
 21
39.1723040493
  0
LINE
  5
22D
100
AcDbEntity
  8
00_COMPONENTS_1
100
AcDbLine
 62
7
  6
CONTINUOUS
 10
209.5670951127
 20
39.1811085777
 11
209.5613020653
 21
39.1798906888
  0
LINE
  5
22E
100
AcDbEntity
  8
00_COMPONENTS_1
100
AcDbLine
 62
7
  6
CONTINUOUS
 10
209.5661084131
 20
39.1777150025
 11
209.5603202461
 21
39.1765252433
  0
LINE
  5
22F
100
AcDbEntity
  8
00_COMPONENTS_1
100
AcDbLine
 62
7
  6
CONTINUOUS
 10
209.5670913321
 20
39.1730172499
 11
209.5628479396
 21
39.1721604943
  0
LINE
  5
230
100
AcDbEntity
  8
00_COMPONENTS_1
100
AcDbLine
 62
7
  6
CONTINUOUS
 10
209.567317974
 20
39.1737881586
 11
209.5630807636
 21
39.1729504974
  0
LINE
  5
231
100
AcDbEntity
  8
00_COMPONENTS_4
100
AcDbLine
 62
7
  6
CONTINUOUS
 10
272.8841440982
 20
46.1889600437
 11
271.2458400096
 21
45.9762330136
  0
LINE
  5
232
100
AcDbEntity
  8
00_COMPONENTS_1
100
AcDbLine
 62
7
  6
CONTINUOUS
 10
209.4558603735
 20
39.1517539185
 11
209.4367217359
 21
39.15003461
  0
LINE
  5
233
100
AcDbEntity
  8
00_COMPONENTS_1
100
AcDbLine
 62
7
  6
CONTINUOUS
 10
150.9558603735
 20
39.1517539185
 11
150.9367217359
 21
39.15003461
  0
LINE
  5
234
100
AcDbEntity
  8
00_COMPONENTS_1
100
AcDbLine
 62
7
  6
CONTINUOUS
 10
210.8079464479
 20
39.3518916063
 11
210.742601879
 21
39.3518916063
  0
LINE
  5
235
100
AcDbEntity
  8
00_COMPONENTS_1
100
AcDbLine
 62
7
  6
CONTINUOUS
 10
209.2608400097
 20
39.3518916063
 11
208.2308400097
 21
39.3518916063
  0
LINE
  5
236
100
AcDbEntity
  8
00_COMPONENTS_1
100
AcDbLine
 62
7
  6
CONTINUOUS
 10
206.7490781404
 20
39.3518916063
 11
206.6837335721
 21
39.3518916063
  0
LINE
  5
237
100
AcDbEntity
  8
00_COMPONENTS_1
100
AcDbLine
 62
7
  6
CONTINUOUS
 10
152.3079464479
 20
39.3518916063
 11
152.242601879
 21
39.3518916063
  0
LINE
  5
238
100
AcDbEntity
  8
00_COMPONENTS_1
100
AcDbLine
 62
7
  6
CONTINUOUS
 10
150.7608400097
 20
39.3518916063
 11
149.7308400097
 21
39.3518916063
  0
LINE
  5
239
100
AcDbEntity
  8
00_COMPONENTS_1
100
AcDbLine
 62
7
  6
CONTINUOUS
 10
148.2490781404
 20
39.3518916063
 11
148.1837335721
 21
39.3518916063
  0
LINE
  5
23A
100
AcDbEntity
  8
00_COMPONENTS_1
100
AcDbLine
 62
7
  6
CONTINUOUS
 10
93.8079464479
 20
39.3518916063
 11
93.742601879
 21
39.3518916063
  0
LINE
  5
23B
100
AcDbEntity
  8
00_COMPONENTS_1
100
AcDbLine
 62
7
  6
CONTINUOUS
 10
92.2608400097
 20
39.3518916063
 11
91.2308400097
 21
39.3518916063
  0
LINE
  5
23C
100
AcDbEntity
  8
00_COMPONENTS_1
100
AcDbLine
 62
7
  6
CONTINUOUS
 10
89.7490781404
 20
39.3518916063
 11
89.6837335721
 21
39.3518916063
  0
LINE
  5
23D
100
AcDbEntity
  8
00_COMPONENTS_1
100
AcDbLine
 62
7
  6
CONTINUOUS
 10
86.9958400097
 20
40.6762330136
 11
96.4958400097
 21
40.6762330136
  0
LINE
  5
23E
100
AcDbEntity
  8
00_COMPONENTS_1
100
AcDbLine
 62
7
  6
CONTINUOUS
 10
145.4958400097
 20
40.6762330136
 11
154.9958400097
 21
40.6762330136
  0
LINE
  5
23F
100
AcDbEntity
  8
00_COMPONENTS_1
100
AcDbLine
 62
7
  6
CONTINUOUS
 10
203.9958400097
 20
40.6762330136
 11
213.4958400097
 21
40.6762330136
  0
LINE
  5
240
100
AcDbEntity
  8
00_COMPONENTS_1
100
AcDbLine
 62
7
  6
CONTINUOUS
 10
213.4958400097
 20
41.0762330136
 11
213.324752725
 21
41.0762330136
  0
LINE
  5
241
100
AcDbEntity
  8
00_COMPONENTS_1
100
AcDbLine
 62
7
  6
CONTINUOUS
 10
212.8769450269
 20
41.0762330136
 11
211.0902954554
 21
41.0762330136
  0
LINE
  5
242
100
AcDbEntity
  8
00_COMPONENTS_1
100
AcDbLine
 62
7
  6
CONTINUOUS
 10
210.0091920373
 20
41.0762330136
 11
207.482487982
 21
41.0762330136
  0
LINE
  5
243
100
AcDbEntity
  8
00_COMPONENTS_1
100
AcDbLine
 62
7
  6
CONTINUOUS
 10
206.401384564
 20
41.0762330136
 11
204.6147349925
 21
41.0762330136
  0
LINE
  5
244
100
AcDbEntity
  8
00_COMPONENTS_1
100
AcDbLine
 62
7
  6
CONTINUOUS
 10
204.1669272944
 20
41.0762330136
 11
203.9958400097
 21
41.0762330136
  0
LINE
  5
245
100
AcDbEntity
  8
00_COMPONENTS_1
100
AcDbLine
 62
7
  6
CONTINUOUS
 10
154.9958400097
 20
41.0762330136
 11
154.824752725
 21
41.0762330136
  0
LINE
  5
246
100
AcDbEntity
  8
00_COMPONENTS_1
100
AcDbLine
 62
7
  6
CONTINUOUS
 10
154.3769450269
 20
41.0762330136
 11
152.5902954554
 21
41.0762330136
  0
LINE
  5
247
100
AcDbEntity
  8
00_COMPONENTS_1
100
AcDbLine
 62
7
  6
CONTINUOUS
 10
151.5091920373
 20
41.0762330136
 11
148.982487982
 21
41.0762330136
  0
LINE
  5
248
100
AcDbEntity
  8
00_COMPONENTS_1
100
AcDbLine
 62
7
  6
CONTINUOUS
 10
147.901384564
 20
41.0762330136
 11
146.1147349925
 21
41.0762330136
  0
LINE
  5
249
100
AcDbEntity
  8
00_COMPONENTS_1
100
AcDbLine
 62
7
  6
CONTINUOUS
 10
145.6669272944
 20
41.0762330136
 11
145.4958400097
 21
41.0762330136
  0
LINE
  5
24A
100
AcDbEntity
  8
00_COMPONENTS_1
100
AcDbLine
 62
7
  6
CONTINUOUS
 10
96.4958400097
 20
41.0762330136
 11
96.324752725
 21
41.0762330136
  0
LINE
  5
24B
100
AcDbEntity
  8
00_COMPONENTS_1
100
AcDbLine
 62
7
  6
CONTINUOUS
 10
95.8769450269
 20
41.0762330136
 11
94.0902954554
 21
41.0762330136
  0
LINE
  5
24C
100
AcDbEntity
  8
00_COMPONENTS_1
100
AcDbLine
 62
7
  6
CONTINUOUS
 10
93.0091920373
 20
41.0762330136
 11
90.482487982
 21
41.0762330136
  0
LINE
  5
24D
100
AcDbEntity
  8
00_COMPONENTS_1
100
AcDbLine
 62
7
  6
CONTINUOUS
 10
89.401384564
 20
41.0762330136
 11
87.6147349925
 21
41.0762330136
  0
LINE
  5
24E
100
AcDbEntity
  8
00_COMPONENTS_1
100
AcDbLine
 62
7
  6
CONTINUOUS
 10
87.1669272944
 20
41.0762330136
 11
86.9958400097
 21
41.0762330136
  0
LINE
  5
24F
100
AcDbEntity
  8
00_COMPONENTS_2
100
AcDbLine
 62
7
  6
CONTINUOUS
 10
85.2458400097
 20
41.4762330136
 11
215.2458400097
 21
41.4762330136
  0
LINE
  5
250
100
AcDbEntity
  8
00_COMPONENTS_30
100
AcDbLine
 62
7
  6
CONTINUOUS
 10
72.4458400097
 20
42.9762330136
 11
244.0458400097
 21
42.9762330136
  0
LINE
  5
251
100
AcDbEntity
  8
00_COMPONENTS_30
100
AcDbLine
 62
7
  6
CONTINUOUS
 10
72.4458400097
 20
43.9762330136
 11
244.0458400097
 21
43.9762330136
  0
LINE
  5
252
100
AcDbEntity
  8
00_COMPONENTS_4
100
AcDbLine
 62
7
  6
CONTINUOUS
 10
254.3458400097
 20
44.9762330136
 11
273.2458400097
 21
44.9762330136
  0
LINE
  5
253
100
AcDbEntity
  8
00_COMPONENTS_4
100
AcDbLine
 62
7
  6
CONTINUOUS
 10
254.3458400097
 20
45.9762330136
 11
271.2458400097
 21
45.9762330136
  0
LINE
  5
254
100
AcDbEntity
  8
00_COMPONENTS_1
100
AcDbLine
 62
7
  6
CONTINUOUS
 10
91.0932479342
 20
39.146736871
 11
91.0845712653
 21
39.1474675764
  0
LINE
  5
255
100
AcDbEntity
  8
00_COMPONENTS_1
100
AcDbLine
 62
7
  6
CONTINUOUS
 10
149.5932479342
 20
39.146736871
 11
149.5845712653
 21
39.1474675764
  0
LINE
  5
256
100
AcDbEntity
  8
00_COMPONENTS_1
100
AcDbLine
 62
7
  6
CONTINUOUS
 10
208.0932479342
 20
39.146736871
 11
208.0845712653
 21
39.1474675764
  0
LINE
  5
257
100
AcDbEntity
  8
00_COMPONENTS_1
100
AcDbLine
 62
7
  6
CONTINUOUS
 10
149.4243773662
 20
39.1737851298
 11
149.4278879673
 21
39.1730911132
  0
LINE
  5
258
100
AcDbEntity
  8
00_COMPONENTS_1
100
AcDbLine
 62
7
  6
CONTINUOUS
 10
149.4246040324
 20
39.1730141452
 11
149.42811983
 21
39.1723040493
  0
LINE
  5
259
100
AcDbEntity
  8
00_COMPONENTS_1
100
AcDbLine
 62
7
  6
CONTINUOUS
 10
151.0670951127
 20
39.1811085777
 11
151.0613020653
 21
39.1798906888
  0
LINE
  5
25A
100
AcDbEntity
  8
00_COMPONENTS_1
100
AcDbLine
 62
7
  6
CONTINUOUS
 10
92.5670951127
 20
39.1811085777
 11
92.5613020653
 21
39.1798906888
  0
LINE
  5
25B
100
AcDbEntity
  8
00_COMPONENTS_1
100
AcDbLine
 62
7
  6
CONTINUOUS
 10
151.0661084131
 20
39.1777150025
 11
151.0603202461
 21
39.1765252433
  0
LINE
  5
25C
100
AcDbEntity
  8
00_COMPONENTS_1
100
AcDbLine
 62
7
  6
CONTINUOUS
 10
92.5661084131
 20
39.1777150025
 11
92.5603202461
 21
39.1765252433
  0
LINE
  5
25D
100
AcDbEntity
  8
00_COMPONENTS_1
100
AcDbLine
 62
7
  6
CONTINUOUS
 10
151.0670913321
 20
39.1730172499
 11
151.0628479396
 21
39.1721604943
  0
LINE
  5
25E
100
AcDbEntity
  8
00_COMPONENTS_1
100
AcDbLine
 62
7
  6
CONTINUOUS
 10
92.5670913321
 20
39.1730172499
 11
92.5628479396
 21
39.1721604943
  0
LINE
  5
25F
100
AcDbEntity
  8
00_COMPONENTS_1
100
AcDbLine
 62
7
  6
CONTINUOUS
 10
151.067317974
 20
39.1737881586
 11
151.0630807636
 21
39.1729504974
  0
LINE
  5
260
100
AcDbEntity
  8
00_COMPONENTS_1
100
AcDbLine
 62
7
  6
CONTINUOUS
 10
92.567317974
 20
39.1737881586
 11
92.5630807636
 21
39.1729504974
  0
LINE
  5
261
100
AcDbEntity
  8
00_COMPONENTS_1
100
AcDbLine
 62
7
  6
CONTINUOUS
 10
92.4558603735
 20
39.1517539185
 11
92.4367217359
 21
39.15003461
  0
LINE
  5
262
100
AcDbEntity
  8
00_COMPONENTS_1
100
AcDbLine
 62
7
  6
CONTINUOUS
 10
207.9243773662
 20
39.1737851298
 11
207.9278879673
 21
39.1730911132
  0
LINE
  5
263
100
AcDbEntity
  8
00_COMPONENTS_1
100
AcDbLine
 62
7
  6
CONTINUOUS
 10
207.9246040324
 20
39.1730141452
 11
207.92811983
 21
39.1723040493
  0
LINE
  5
264
100
AcDbEntity
  8
00_COMPONENTS_30
100
AcDbLine
 62
7
  6
CONTINUOUS
 10
249.6274580005
 20
62.5132933723
 11
253.2458400097
 21
61.8099511588
  0
LINE
  5
265
100
AcDbEntity
  8
00_COMPONENTS_30
100
AcDbLine
 62
7
  6
CONTINUOUS
 10
253.2458400097
 20
62.7915783421
 11
249.6274580005
 21
63.4949205558
  0
LINE
  5
266
100
AcDbEntity
  8
00_COMPONENTS_30
100
AcDbLine
 62
7
  6
CONTINUOUS
 10
70.2458400097
 20
45.1762330136
 11
70.2458400097
 21
440.7762330136
  0
LINE
  5
267
100
AcDbEntity
  8
00_COMPONENTS_4
100
AcDbLine
 62
7
  6
CONTINUOUS
 10
273.2458310118
 20
440.37664642
 11
272.4505808616
 21
439.8198023819
  0
LINE
  5
268
100
AcDbEntity
  8
00_COMPONENTS_30
100
AcDbLine
 62
7
  6
CONTINUOUS
 10
72.4458400097
 20
442.9762330136
 11
72.4458400097
 21
42.9762330136
  0
LINE
  5
269
100
AcDbEntity
  8
00_COMPONENTS_2
100
AcDbLine
 62
7
  6
CONTINUOUS
 10
85.2458400097
 20
41.4762330136
 11
85.2458400097
 21
42.9762330136
  0
LINE
  5
26A
100
AcDbEntity
  8
00_COMPONENTS_4
100
AcDbLine
 62
7
  6
CONTINUOUS
 10
273.2458364959
 20
45.5758129198
 11
272.4505766311
 21
46.132663096
  0
LINE
  5
26B
100
AcDbEntity
  8
00_COMPONENTS_1
100
AcDbLine
 62
7
  6
CONTINUOUS
 10
92.5681194082
 20
39.1474631089
 11
92.567317974
 21
39.1737881586
  0
LINE
  5
26C
100
AcDbEntity
  8
00_COMPONENTS_1
100
AcDbLine
 62
7
  6
CONTINUOUS
 10
86.9958400097
 20
41.0762330136
 11
86.9958400097
 21
40.6762330136
  0
LINE
  5
26D
100
AcDbEntity
  8
00_COMPONENTS_1
100
AcDbLine
 62
7
  6
CONTINUOUS
 10
91.2308400097
 20
39.3518916063
 11
91.2308400097
 21
39.1521321241
  0
LINE
  5
26E
100
AcDbEntity
  8
00_COMPONENTS_1
100
AcDbLine
 62
7
  6
CONTINUOUS
 10
92.2608400097
 20
39.1521321241
 11
92.2608400097
 21
39.3518916063
  0
LINE
  5
26F
100
AcDbEntity
  8
00_COMPONENTS_1
100
AcDbLine
 62
7
  6
CONTINUOUS
 10
96.4958400097
 20
41.0762330136
 11
96.4958400097
 21
40.6762330136
  0
LINE
  5
270
100
AcDbEntity
  8
00_COMPONENTS_1
100
AcDbLine
 62
7
  6
CONTINUOUS
 10
90.9236697815
 20
39.1517539185
 11
90.9235423067
 21
39.146736871
  0
LINE
  5
271
100
AcDbEntity
  8
00_COMPONENTS_1
100
AcDbLine
 62
7
  6
CONTINUOUS
 10
90.9236697815
 20
39.1517539185
 11
90.9243407156
 21
39.1737923753
  0
LINE
  5
272
100
AcDbEntity
  8
00_COMPONENTS_2
100
AcDbLine
 62
7
  6
CONTINUOUS
 10
110.2458400097
 20
42.9762330136
 11
110.2458400097
 21
41.4762330136
  0
LINE
  5
273
100
AcDbEntity
  8
00_COMPONENTS_25
100
AcDbLine
 62
7
  6
CONTINUOUS
 10
274.0844552935
 20
213.2055181046
 11
274.8269015858
 21
213.3766630382
  0
LINE
  5
274
100
AcDbEntity
  8
00_COMPONENTS_1
100
AcDbLine
 62
7
  6
CONTINUOUS
 10
151.0681194082
 20
39.1474631089
 11
151.067317974
 21
39.1737881586
  0
LINE
  5
275
100
AcDbEntity
  8
00_COMPONENTS_1
100
AcDbLine
 62
7
  6
CONTINUOUS
 10
145.4958400097
 20
41.0762330136
 11
145.4958400097
 21
40.6762330136
  0
LINE
  5
276
100
AcDbEntity
  8
00_COMPONENTS_25
100
AcDbLine
 62
7
  6
CONTINUOUS
 10
274.0844542153
 20
213.205518067
 11
273.2458400097
 21
213.1762330136
  0
LINE
  5
277
100
AcDbEntity
  8
00_COMPONENTS_1
100
AcDbLine
 62
7
  6
CONTINUOUS
 10
149.7308400097
 20
39.3518916063
 11
149.7308400097
 21
39.1521321241
  0
LINE
  5
278
100
AcDbEntity
  8
00_COMPONENTS_1
100
AcDbLine
 62
7
  6
CONTINUOUS
 10
150.7608400097
 20
39.1521321241
 11
150.7608400097
 21
39.3518916063
  0
LINE
  5
279
100
AcDbEntity
  8
00_COMPONENTS_1
100
AcDbLine
 62
7
  6
CONTINUOUS
 10
154.9958400097
 20
41.0762330136
 11
154.9958400097
 21
40.6762330136
  0
LINE
  5
27A
100
AcDbEntity
  8
00_COMPONENTS_1
100
AcDbLine
 62
7
  6
CONTINUOUS
 10
149.4236697815
 20
39.1517539185
 11
149.4235423067
 21
39.146736871
  0
LINE
  5
27B
100
AcDbEntity
  8
00_COMPONENTS_1
100
AcDbLine
 62
7
  6
CONTINUOUS
 10
149.4236697815
 20
39.1517539185
 11
149.4243407156
 21
39.1737923753
  0
LINE
  5
27C
100
AcDbEntity
  8
00_COMPONENTS_25
100
AcDbLine
 62
7
  6
CONTINUOUS
 10
279.2261104348
 20
219.9621815449
 11
279.2356067118
 21
219.9621846218
  0
LINE
  5
27D
100
AcDbEntity
  8
00_COMPONENTS_2
100
AcDbLine
 62
7
  6
CONTINUOUS
 10
190.2458400097
 20
41.4762330136
 11
190.2458400097
 21
42.9762330136
  0
LINE
  5
27E
100
AcDbEntity
  8
00_COMPONENTS_25
100
AcDbLine
 62
7
  6
CONTINUOUS
 10
279.2356067118
 20
254.9616969696
 11
279.2261128849
 21
254.9616969696
  0
LINE
  5
27F
100
AcDbEntity
  8
00_COMPONENTS_25
100
AcDbLine
 62
7
  6
CONTINUOUS
 10
279.2356067118
 20
256.3902880321
 11
279.2261115663
 21
256.3902880321
  0
LINE
  5
280
100
AcDbEntity
  8
00_COMPONENTS_1
100
AcDbLine
 62
7
  6
CONTINUOUS
 10
209.5681194082
 20
39.1474631089
 11
209.567317974
 21
39.1737881586
  0
LINE
  5
281
100
AcDbEntity
  8
00_COMPONENTS_1
100
AcDbLine
 62
7
  6
CONTINUOUS
 10
203.9958400097
 20
41.0762330136
 11
203.9958400097
 21
40.6762330136
  0
LINE
  5
282
100
AcDbEntity
  8
00_COMPONENTS_25
100
AcDbLine
 62
7
  6
CONTINUOUS
 10
274.0844542153
 20
263.1469479602
 11
273.2458400097
 21
263.1762330136
  0
LINE
  5
283
100
AcDbEntity
  8
00_COMPONENTS_1
100
AcDbLine
 62
7
  6
CONTINUOUS
 10
208.2308400097
 20
39.3518916063
 11
208.2308400097
 21
39.1521321241
  0
LINE
  5
284
100
AcDbEntity
  8
00_COMPONENTS_1
100
AcDbLine
 62
7
  6
CONTINUOUS
 10
209.2608400097
 20
39.1521321241
 11
209.2608400097
 21
39.3518916063
  0
LINE
  5
285
100
AcDbEntity
  8
00_COMPONENTS_1
100
AcDbLine
 62
7
  6
CONTINUOUS
 10
213.4958400097
 20
41.0762330136
 11
213.4958400097
 21
40.6762330136
  0
LINE
  5
286
100
AcDbEntity
  8
00_COMPONENTS_2
100
AcDbLine
 62
7
  6
CONTINUOUS
 10
215.2458400097
 20
42.9762330136
 11
215.2458400097
 21
41.4762330136
  0
LINE
  5
287
100
AcDbEntity
  8
00_COMPONENTS_1
100
AcDbLine
 62
7
  6
CONTINUOUS
 10
207.9236697815
 20
39.1517539185
 11
207.9235423067
 21
39.146736871
  0
LINE
  5
288
100
AcDbEntity
  8
00_COMPONENTS_1
100
AcDbLine
 62
7
  6
CONTINUOUS
 10
207.9236697815
 20
39.1517539185
 11
207.9243407156
 21
39.1737923753
  0
LINE
  5
289
100
AcDbEntity
  8
00_COMPONENTS_25
100
AcDbLine
 62
7
  6
CONTINUOUS
 10
274.0844552935
 20
263.1469479226
 11
274.8269015858
 21
262.975802989
  0
LINE
  5
28A
100
AcDbEntity
  8
00_COMPONENTS_30
100
AcDbLine
 62
7
  6
CONTINUOUS
 10
244.0458400096
 20
42.9762330136
 11
244.0458400097
 21
442.9762330136
  0
LINE
  5
28B
100
AcDbEntity
  8
00_COMPONENTS_30
100
AcDbLine
 62
7
  6
CONTINUOUS
 10
247.2458400097
 20
439.7762320112
 11
247.2458400097
 21
46.1762330136
  0
LINE
  5
28C
100
AcDbEntity
  8
00_COMPONENTS_30
100
AcDbLine
 62
7
  6
CONTINUOUS
 10
249.6274580005
 20
422.4575454714
 11
249.6274580005
 21
63.4949205558
  0
LINE
  5
28D
100
AcDbEntity
  8
00_COMPONENTS_1
100
AcDbLine
 62
7
  6
CONTINUOUS
 10
92.4558603735
 20
39.1517539185
 11
92.4622208826
 21
39.1590605685
  0
LINE
  5
28E
100
AcDbEntity
  8
00_COMPONENTS_4
100
AcDbLine
 62
7
  6
CONTINUOUS
 10
253.2458400097
 20
439.0844797297
 11
253.2458400097
 21
46.8679862975
  0
LINE
  5
28F
100
AcDbEntity
  8
00_COMPONENTS_4
100
AcDbLine
 62
7
  6
CONTINUOUS
 10
254.3458400097
 20
440.9762330136
 11
254.3458400097
 21
44.9762330136
  0
LINE
  5
290
100
AcDbEntity
  8
00_COMPONENTS_4
100
AcDbLine
 62
7
  6
CONTINUOUS
 10
265.2026305265
 20
440.9762330136
 11
265.2026305265
 21
439.9762330136
  0
LINE
  5
291
100
AcDbEntity
  8
00_COMPONENTS_4
100
AcDbLine
 62
7
  6
CONTINUOUS
 10
265.2026305265
 20
44.9762330136
 11
265.2026305265
 21
45.9762330136
  0
LINE
  5
292
100
AcDbEntity
  8
00_COMPONENTS_4
100
AcDbLine
 62
7
  6
CONTINUOUS
 10
266.0217825707
 20
440.9762330136
 11
266.0217825707
 21
439.9762330136
  0
LINE
  5
293
100
AcDbEntity
  8
00_COMPONENTS_4
100
AcDbLine
 62
7
  6
CONTINUOUS
 10
266.0217825707
 20
44.9762330136
 11
266.0217825707
 21
45.9762330136
  0
LINE
  5
294
100
AcDbEntity
  8
00_COMPONENTS_4
100
AcDbLine
 62
7
  6
CONTINUOUS
 10
266.2437646276
 20
45.9762330136
 11
266.2437646276
 21
439.9762330136
  0
LWPOLYLINE
  5
295
100
AcDbEntity
  8
00_COMPONENTS_25
100
AcDbPolyline
 62
7
  6
CONTINUOUS
 90
3
 70
0
 10
278.9046860233
 20
255.1371972864
 10
278.8598099385
 20
255.6079894261
 10
278.8458403196
 20
255.9277999319
  0
LWPOLYLINE
  5
296
100
AcDbEntity
  8
00_COMPONENTS_25
100
AcDbPolyline
 62
7
  6
CONTINUOUS
 90
3
 70
0
 10
279.235400062
 20
254.9707863231
 10
279.1488388624
 20
255.963185275
 10
279.0372609735
 20
256.7226426004
  0
LWPOLYLINE
  5
297
100
AcDbEntity
  8
00_COMPONENTS_25
100
AcDbPolyline
 62
7
  6
CONTINUOUS
 90
4
 70
0
 10
279.2353364092
 20
256.4005571746
 10
279.2026197944
 20
256.8232783979
 10
279.0518120024
 20
257.7771982801
 10
278.9679432291
 20
258.138121423
  0
LWPOLYLINE
  5
298
100
AcDbEntity
  8
00_COMPONENTS_25
100
AcDbPolyline
 62
7
  6
CONTINUOUS
 90
4
 70
0
 10
279.0497820714
 20
252.9175955222
 10
279.0067981031
 20
253.9229437902
 10
278.9725874054
 20
254.411596832
 10
278.9046833218
 20
255.1372837717
  0
LINE
  5
299
100
AcDbEntity
  8
00_COMPONENTS_25
100
AcDbLine
 62
7
  6
CONTINUOUS
 10
279.0396809429
 20
252.9174099063
 11
279.0395065589
 21
252.9239785199
  0
LINE
  5
29A
100
AcDbEntity
  8
00_COMPONENTS_25
100
AcDbLine
 62
7
  6
CONTINUOUS
 10
279.0396395529
 20
252.9173912393
 11
279.0395065589
 21
252.9239785199
  0
LINE
  5
29B
100
AcDbEntity
  8
00_COMPONENTS_25
100
AcDbLine
 62
7
  6
CONTINUOUS
 10
278.8458403079
 20
220.4245329473
 11
278.8458400099
 21
220.4258292454
  0
LINE
  5
29C
100
AcDbEntity
  8
00_COMPONENTS_4
100
AcDbLine
 62
7
  6
CONTINUOUS
 10
271.2458400096
 20
44.9762330136
 11
271.2458400096
 21
45.9762330136
  0
LINE
  5
29D
100
AcDbEntity
  8
00_COMPONENTS_4
100
AcDbLine
 62
7
  6
CONTINUOUS
 10
271.2458400096
 20
439.9762330136
 11
271.2458400096
 21
440.9762330136
  0
LINE
  5
29E
100
AcDbEntity
  8
00_COMPONENTS_4
100
AcDbLine
 62
7
  6
CONTINUOUS
 10
273.2458400097
 20
440.9762330136
 11
273.2458400097
 21
439.4481972419
  0
LINE
  5
29F
100
AcDbEntity
  8
00_COMPONENTS_4
100
AcDbLine
 62
7
  6
CONTINUOUS
 10
273.2458404733
 20
439.3698708778
 11
273.2458400097
 21
44.9762330136
  0
LINE
  5
2A0
100
AcDbEntity
  8
00_COMPONENTS_25
100
AcDbLine
 62
7
  6
CONTINUOUS
 10
274.0844552935
 20
213.2055181046
 11
274.0844552935
 21
216.0743806643
  0
LINE
  5
2A1
100
AcDbEntity
  8
00_COMPONENTS_25
100
AcDbLine
 62
7
  6
CONTINUOUS
 10
274.0844552935
 20
260.2780868688
 11
274.0844552935
 21
263.1469479226
  0
LINE
  5
2A2
100
AcDbEntity
  8
00_COMPONENTS_25
100
AcDbLine
 62
7
  6
CONTINUOUS
 10
274.8269072017
 20
262.9758004932
 11
274.8269072017
 21
260.126564192
  0
LINE
  5
2A3
100
AcDbEntity
  8
00_COMPONENTS_25
100
AcDbLine
 62
7
  6
CONTINUOUS
 10
274.8269072017
 20
216.2258974567
 11
274.8269072017
 21
213.376665534
  0
LINE
  5
2A4
100
AcDbEntity
  8
00_COMPONENTS_25
100
AcDbLine
 62
7
  6
CONTINUOUS
 10
275.3854381745
 20
222.9458118234
 11
275.3854381745
 21
253.4066532027
  0
LINE
  5
2A5
100
AcDbEntity
  8
00_COMPONENTS_25
100
AcDbLine
 62
7
  6
CONTINUOUS
 10
279.2089819276
 20
237.8040370838
 11
279.2090077876
 21
238.533348803
  0
LINE
  5
2A6
100
AcDbEntity
  8
00_COMPONENTS_25
100
AcDbLine
 62
7
  6
CONTINUOUS
 10
279.2109591598
 20
237.804029441
 11
279.2109648394
 21
238.5333560626
  0
LINE
  5
2A7
100
AcDbEntity
  8
00_COMPONENTS_25
100
AcDbLine
 62
7
  6
CONTINUOUS
 10
279.2261115666
 20
256.3902564947
 11
279.2261115666
 21
255.0772762194
  0
LINE
  5
2A8
100
AcDbEntity
  8
00_COMPONENTS_25
100
AcDbLine
 62
7
  6
CONTINUOUS
 10
279.226112885
 20
254.9616757864
 11
279.226112885
 21
246.5372009003
  0
LINE
  5
2A9
100
AcDbEntity
  8
00_COMPONENTS_25
100
AcDbLine
 62
7
  6
CONTINUOUS
 10
279.2261086698
 20
221.2319459243
 11
279.2261084719
 21
219.9621887581
  0
LINE
  5
2AA
100
AcDbEntity
  8
00_COMPONENTS_25
100
AcDbLine
 62
7
  6
CONTINUOUS
 10
279.2261186295
 20
239.4152468661
 11
279.2261256574
 21
221.3912775186
  0
LINE
  5
2AB
100
AcDbEntity
  8
00_COMPONENTS_25
100
AcDbLine
 62
7
  6
CONTINUOUS
 10
279.2356067118
 20
256.3902880321
 11
279.2356067118
 21
254.9707863231
  0
LINE
  5
2AC
100
AcDbEntity
  8
00_COMPONENTS_25
100
AcDbLine
 62
7
  6
CONTINUOUS
 10
279.2356067118
 20
254.9616969696
 11
279.2356067118
 21
246.6640937758
  0
LINE
  5
2AD
100
AcDbEntity
  8
00_COMPONENTS_25
100
AcDbLine
 62
7
  6
CONTINUOUS
 10
279.2356067118
 20
239.2883722513
 11
279.2356067118
 21
219.9621815449
  0
LINE
  5
2AE
100
AcDbEntity
  8
00_COMPONENTS_25
100
AcDbLine
 62
7
  6
CONTINUOUS
 10
278.8458400098
 20
255.92661458
 11
278.8458402772
 21
255.9278411408
  0
LINE
  5
2AF
100
AcDbEntity
  8
00_COMPONENTS_25
100
AcDbLine
 62
7
  6
CONTINUOUS
 10
278.8458400097
 20
218.425785544
 11
278.8458402708
 21
218.4263156834
  0
LWPOLYLINE
  5
2B0
100
AcDbEntity
  8
00_COMPONENTS_25
100
AcDbPolyline
 62
7
  6
CONTINUOUS
 90
3
 70
0
 10
279.0497720358
 20
223.4348788314
 10
279.2130334482
 20
238.169698662
 10
279.0497721476
 20
252.9175872425
  0
LINE
  5
2B1
100
AcDbEntity
  8
00_COMPONENTS_25
100
AcDbLine
 62
7
  6
CONTINUOUS
 10
279.039506532
 20
223.4284858299
 11
279.0396400351
 21
223.4350838406
  0
LINE
  5
2B2
100
AcDbEntity
  8
00_COMPONENTS_25
100
AcDbLine
 62
7
  6
CONTINUOUS
 10
279.039506532
 20
223.4284858299
 11
279.0396811193
 21
223.4350652535
  0
LWPOLYLINE
  5
2B3
100
AcDbEntity
  8
00_COMPONENTS_25
100
AcDbPolyline
 62
7
  6
CONTINUOUS
 90
3
 70
0
 10
278.8458376274
 20
220.4245947886
 10
278.8595669312
 20
220.7411889663
 10
278.9719621547
 20
221.9329725196
  0
LWPOLYLINE
  5
2B4
100
AcDbEntity
  8
00_COMPONENTS_25
100
AcDbPolyline
 62
7
  6
CONTINUOUS
 90
9
 70
0
 10
278.8458521021
 20
218.4263634368
 10
278.8482672719
 20
218.4773428622
 10
278.8710402262
 20
218.6621080825
 10
278.9227882745
 20
218.9730730198
 10
278.9598470976
 20
219.1823138741
 10
279.0491396821
 20
219.70201769
 10
279.1431782848
 20
220.3443575959
 10
279.2175983807
 20
221.0843341154
 10
279.2344694498
 20
221.3769644833
  0
LWPOLYLINE
  5
2B5
100
AcDbEntity
  8
00_COMPONENTS_25
100
AcDbPolyline
 62
7
  6
CONTINUOUS
 90
3
 70
0
 10
278.9719621547
 20
221.9329725196
 10
279.0062911338
 20
222.4212412748
 10
279.0497820968
 20
223.4348698854
  0
LINE
  5
2B6
100
AcDbEntity
  8
00_COMPONENTS_25
100
AcDbLine
 62
7
  6
CONTINUOUS
 10
278.9046743086
 20
221.2151575543
 11
278.9046844604
 21
221.2152492088
  0
LINE
  5
2B7
100
AcDbEntity
  8
00_COMPONENTS_25
100
AcDbLine
 62
7
  6
CONTINUOUS
 10
279.2346717445
 20
221.3688996364
 11
279.2334645018
 21
221.3595335606
  0
LINE
  5
2B8
100
AcDbEntity
  8
00_COMPONENTS_30
100
AcDbLine
 62
7
  6
CONTINUOUS
 10
249.8182669958
 20
63.4949205557
 11
249.6274580004
 21
62.5132933722
  0
LWPOLYLINE
  5
2B9
100
AcDbEntity
  8
00_COMPONENTS_25
100
AcDbPolyline
 62
7
  6
CONTINUOUS
 90
5
 70
0
 10
278.8529753298
 20
217.7970449601
 10
278.9675632306
 20
218.2128583185
 10
279.051333819
 20
218.5730127837
 10
279.2019892779
 20
219.5230353194
 10
279.2353192138
 20
219.9519497712
  0
LINE
  5
2BA
100
AcDbEntity
  8
00_COMPONENTS_25
100
AcDbLine
 62
7
  6
CONTINUOUS
 10
278.8406108357
 20
217.7564830896
 11
278.8531541078
 21
217.8008692997
  0
LINE
  5
2BB
100
AcDbEntity
  8
00_COMPONENTS_25
100
AcDbLine
 62
7
  6
CONTINUOUS
 10
278.8348165868
 20
217.7373912699
 11
278.8464666833
 21
217.7758493003
  0
LINE
  5
2BC
100
AcDbEntity
  8
00_COMPONENTS_25
100
AcDbLine
 62
7
  6
CONTINUOUS
 10
278.8452110506
 20
258.5807907192
 11
278.8347590379
 21
258.615204606
  0
LINE
  5
2BD
100
AcDbEntity
  8
00_COMPONENTS_25
100
AcDbLine
 62
7
  6
CONTINUOUS
 10
278.8531551357
 20
258.5515189325
 11
278.8388167374
 21
258.6018924954
  0
LINE
  5
2BE
100
AcDbEntity
  8
00_COMPONENTS_25
100
AcDbLine
 62
7
  6
CONTINUOUS
 10
278.9679432291
 20
258.138121423
 11
278.852607364
 21
258.5566005075
  0
LWPOLYLINE
  5
2BF
100
AcDbEntity
  8
00_COMPONENTS_25
100
AcDbPolyline
 62
7
  6
CONTINUOUS
 90
4
 70
0
 10
279.0372609735
 20
256.7226426004
 10
278.8852407884
 20
257.5996928787
 10
278.8549555136
 20
257.8086456462
 10
278.8458496055
 20
257.9263506492
  0
LINE
  5
2C0
100
AcDbEntity
  8
00_COMPONENTS_25
100
AcDbLine
 62
7
  6
CONTINUOUS
 10
279.2353226904
 20
254.971422111
 11
279.2353991929
 21
254.9708054541
  0
LINE
  5
2C1
100
AcDbEntity
  8
00_COMPONENTS_25
100
AcDbLine
 62
7
  6
CONTINUOUS
 10
278.9046833218
 20
255.1372837717
 11
278.904692752
 21
255.1371980687
  0
LINE
  5
2C2
100
AcDbEntity
  8
00_COMPONENTS_1
100
AcDbLine
 62
7
  6
CONTINUOUS
 10
150.9558603735
 20
39.1517539185
 11
150.9622208826
 21
39.1590605685
  0
LINE
  5
2C3
100
AcDbEntity
  8
00_COMPONENTS_30
100
AcDbLine
 62
7
  6
CONTINUOUS
 10
249.6274580004
 20
423.4391726549
 11
249.8182669957
 21
422.4575454714
  0
LINE
  5
2C4
100
AcDbEntity
  8
00_COMPONENTS_1
100
AcDbLine
 62
7
  6
CONTINUOUS
 10
209.4558603735
 20
39.1517539185
 11
209.4622208826
 21
39.1590605685
  0
LINE
  5
2C5
100
AcDbEntity
  8
00_COMPONENTS_30
100
AcDbLine
 62
7
  6
CONTINUOUS
 10
249.6274580005
 20
422.4575454714
 11
253.2458400097
 21
423.1608876849
  0
LINE
  5
2C6
100
AcDbEntity
  8
00_COMPONENTS_30
100
AcDbLine
 62
7
  6
CONTINUOUS
 10
253.2458400097
 20
424.1425148685
 11
249.6274580004
 21
423.4391726549
  0
LINE
  5
2C7
100
AcDbEntity
  8
00_COMPONENTS_30
100
AcDbLine
 62
7
  6
CONTINUOUS
 10
249.6274580004
 20
63.4949205558
 11
249.245836417
 21
63.1742124302
  0
LINE
  5
2C8
100
AcDbEntity
  8
00_COMPONENTS_4
100
AcDbLine
 62
7
  6
CONTINUOUS
 10
271.2458400096
 20
439.9762330136
 11
254.3458400097
 21
439.9762330136
  0
LINE
  5
2C9
100
AcDbEntity
  8
00_COMPONENTS_30
100
AcDbLine
 62
7
  6
CONTINUOUS
 10
249.2458364019
 20
422.7782535788
 11
249.6274580004
 21
422.4575454714
  0
LINE
  5
2CA
100
AcDbEntity
  8
00_COMPONENTS_4
100
AcDbLine
 62
7
  6
CONTINUOUS
 10
254.3458400097
 20
440.9762330136
 11
273.2458400097
 21
440.9762330136
  0
LINE
  5
2CB
100
AcDbEntity
  8
00_COMPONENTS_30
100
AcDbLine
 62
7
  6
CONTINUOUS
 10
72.4458400097
 20
441.9762330136
 11
244.0458377195
 21
441.9762350184
  0
LINE
  5
2CC
100
AcDbEntity
  8
00_COMPONENTS_30
100
AcDbLine
 62
7
  6
CONTINUOUS
 10
72.4458400097
 20
442.9762330136
 11
244.0458400097
 21
442.9762330136
  0
LINE
  5
2CD
100
AcDbEntity
  8
00_COMPONENTS_4
100
AcDbLine
 62
7
  6
CONTINUOUS
 10
271.2458400099
 20
439.9762330136
 11
272.8841440982
 21
439.7635059835
  0
ARC
  5
2CE
100
AcDbEntity
  8
00_COMPONENTS_25
100
AcDbCircle
 62
7
  6
CONTINUOUS
 10
-71.8027473407
 20
232.717468892
 40
350.9652014446
100
AcDbArc
 50
358.4844520931
 51
358.6648659418
  0
ARC
  5
2CF
100
AcDbEntity
  8
00_COMPONENTS_1
100
AcDbCircle
 62
7
  6
CONTINUOUS
 10
66.2361947339
 20
53.9268640506
 40
29.6973446514
100
AcDbArc
 50
334.3597060007
 51
335.212713093
  0
ARC
  5
2D0
100
AcDbEntity
  8
00_COMPONENTS_1
100
AcDbCircle
 62
7
  6
CONTINUOUS
 10
70.5236414266
 20
37.6560641524
 40
26.0268114847
100
AcDbArc
 50
7.5510463596
 51
8.4402651142
  0
ARC
  5
2D1
100
AcDbEntity
  8
00_COMPONENTS_1
100
AcDbCircle
 62
7
  6
CONTINUOUS
 10
78.3794190061
 20
45.3750566669
 40
18.0178622698
100
AcDbArc
 50
346.1968543073
 51
347.50311219
  0
ARC
  5
2D2
100
AcDbEntity
  8
00_COMPONENTS_1
100
AcDbCircle
 62
7
  6
CONTINUOUS
 10
91.7458400097
 20
46.9270142636
 40
7.85078125
100
AcDbArc
 50
285.2281089119
 51
307.2313840145
  0
ARC
  5
2D3
100
AcDbEntity
  8
00_COMPONENTS_1
100
AcDbCircle
 62
7
  6
CONTINUOUS
 10
91.7458400097
 20
46.9270142636
 40
7.85078125
100
AcDbArc
 50
232.7686159854
 51
254.7718910933
  0
ARC
  5
2D4
100
AcDbEntity
  8
00_COMPONENTS_1
100
AcDbCircle
 62
7
  6
CONTINUOUS
 10
91.7458400097
 20
46.9270142636
 40
7.8338714079
100
AcDbArc
 50
255.2330357366
 51
262.964275686
  0
ARC
  5
2D5
100
AcDbEntity
  8
00_COMPONENTS_1
100
AcDbCircle
 62
7
  6
CONTINUOUS
 10
91.7458400097
 20
46.9270142636
 40
7.8338714079
100
AcDbArc
 50
277.035724314
 51
284.7669642634
  0
ARC
  5
2D6
100
AcDbEntity
  8
00_COMPONENTS_1
100
AcDbCircle
 62
7
  6
CONTINUOUS
 10
91.7462317354
 20
46.9523897358
 40
7.8329180061
100
AcDbArc
 50
264.7963677527
 51
265.154349564
  0
ARC
  5
2D7
100
AcDbEntity
  8
00_COMPONENTS_1
100
AcDbCircle
 62
7
  6
CONTINUOUS
 10
91.745451181
 20
46.952356725
 40
7.8328848687
100
AcDbArc
 50
274.8456094151
 51
275.0630744472
  0
ARC
  5
2D8
100
AcDbEntity
  8
00_COMPONENTS_1
100
AcDbCircle
 62
7
  6
CONTINUOUS
 10
92.0677690295
 20
44.7885555827
 40
5.7307182662
100
AcDbArc
 50
254.1311990279
 51
258.4934340556
  0
ARC
  5
2D9
100
AcDbEntity
  8
00_COMPONENTS_1
100
AcDbCircle
 62
7
  6
CONTINUOUS
 10
91.5043747864
 20
44.3265725596
 40
5.2571863362
100
AcDbArc
 50
279.8869228933
 51
281.5871094962
  0
ARC
  5
2DA
100
AcDbEntity
  8
00_COMPONENTS_1
100
AcDbCircle
 62
7
  6
CONTINUOUS
 10
91.9633170573
 20
44.3051069792
 40
5.2361530933
100
AcDbArc
 50
258.597397625
 51
259.7971693229
  0
ARC
  5
2DB
100
AcDbEntity
  8
00_COMPONENTS_1
100
AcDbCircle
 62
7
  6
CONTINUOUS
 10
91.5284682057
 20
44.3045446361
 40
5.2355810005
100
AcDbArc
 50
280.2027872341
 51
281.3947387574
  0
ARC
  5
2DC
100
AcDbEntity
  8
00_COMPONENTS_1
100
AcDbCircle
 62
7
  6
CONTINUOUS
 10
91.0079764876
 20
43.0785300222
 40
3.9327177122
100
AcDbArc
 50
271.2424173978
 51
273.2486398697
  0
ARC
  5
2DD
100
AcDbEntity
  8
00_COMPONENTS_1
100
AcDbCircle
 62
7
  6
CONTINUOUS
 10
92.4837035317
 20
43.0785300221
 40
3.9327177121
100
AcDbArc
 50
266.7513601303
 51
268.7575826022
  0
ARC
  5
2DE
100
AcDbEntity
  8
00_COMPONENTS_1
100
AcDbCircle
 62
7
  6
CONTINUOUS
 10
91.0082365464
 20
43.0500948604
 40
3.9042767202
100
AcDbArc
 50
266.7410506153
 51
268.7570032812
  0
ARC
  5
2DF
100
AcDbEntity
  8
00_COMPONENTS_1
100
AcDbCircle
 62
7
  6
CONTINUOUS
 10
92.4834434729
 20
43.0500948605
 40
3.9042767203
100
AcDbArc
 50
271.2429967188
 51
273.2589493847
  0
ARC
  5
2E0
100
AcDbEntity
  8
00_COMPONENTS_1
100
AcDbCircle
 62
7
  6
CONTINUOUS
 10
91.9529692735
 20
42.1298364065
 40
3.0451535551
100
AcDbArc
 50
281.6544973822
 51
284.195477626
  0
ARC
  5
2E1
100
AcDbEntity
  8
00_COMPONENTS_30
100
AcDbCircle
 62
7
  6
CONTINUOUS
 10
72.4458400097
 20
45.1762330136
 40
2.2
100
AcDbArc
 50
180.0
 51
270.0000000001
  0
ARC
  5
2E2
100
AcDbEntity
  8
00_COMPONENTS_25
100
AcDbCircle
 62
7
  6
CONTINUOUS
 10
-71.1764455754
 20
243.6470916868
 40
350.3387989838
100
AcDbArc
 50
1.3348548419
 51
1.5162811361
  0
ARC
  5
2E3
100
AcDbEntity
  8
00_COMPONENTS_30
100
AcDbCircle
 62
7
  6
CONTINUOUS
 10
72.4458400097
 20
440.7762330136
 40
2.2
100
AcDbArc
 50
89.9999999999
 51
180.0
  0
ARC
  5
2E4
100
AcDbEntity
  8
00_COMPONENTS_1
100
AcDbCircle
 62
7
  6
CONTINUOUS
 10
183.236194732
 20
53.9268640514
 40
29.6973446535
100
AcDbArc
 50
334.3597060007
 51
335.212713093
  0
ARC
  5
2E5
100
AcDbEntity
  8
00_COMPONENTS_1
100
AcDbCircle
 62
7
  6
CONTINUOUS
 10
124.7361947339
 20
53.9268640506
 40
29.6973446514
100
AcDbArc
 50
334.3597060007
 51
335.212713093
  0
ARC
  5
2E6
100
AcDbEntity
  8
00_COMPONENTS_1
100
AcDbCircle
 62
7
  6
CONTINUOUS
 10
117.2542996518
 20
53.9267398642
 40
29.6962179958
100
AcDbArc
 50
204.788026825
 51
205.6410715998
  0
ARC
  5
2E7
100
AcDbEntity
  8
00_COMPONENTS_1
100
AcDbCircle
 62
7
  6
CONTINUOUS
 10
175.7542996518
 20
53.9267398642
 40
29.6962179958
100
AcDbArc
 50
204.788026825
 51
205.6410715998
  0
ARC
  5
2E8
100
AcDbEntity
  8
00_COMPONENTS_1
100
AcDbCircle
 62
7
  6
CONTINUOUS
 10
171.5246770372
 20
37.6482296581
 40
26.0839870742
100
AcDbArc
 50
171.5609731933
 51
172.4482421858
  0
ARC
  5
2E9
100
AcDbEntity
  8
00_COMPONENTS_1
100
AcDbCircle
 62
7
  6
CONTINUOUS
 10
113.0246770344
 20
37.6482296585
 40
26.0839870713
100
AcDbArc
 50
171.5609731933
 51
172.4482421859
  0
ARC
  5
2EA
100
AcDbEntity
  8
00_COMPONENTS_1
100
AcDbCircle
 62
7
  6
CONTINUOUS
 10
187.523641428
 20
37.6560641526
 40
26.0268114832
100
AcDbArc
 50
7.5510463596
 51
8.4402651142
  0
ARC
  5
2EB
100
AcDbEntity
  8
00_COMPONENTS_1
100
AcDbCircle
 62
7
  6
CONTINUOUS
 10
129.023641428
 20
37.6560641526
 40
26.0268114832
100
AcDbArc
 50
7.5510463596
 51
8.4402651142
  0
ARC
  5
2EC
100
AcDbEntity
  8
00_COMPONENTS_1
100
AcDbCircle
 62
7
  6
CONTINUOUS
 10
136.8794190061
 20
45.3750566669
 40
18.0178622699
100
AcDbArc
 50
346.1968543073
 51
347.50311219
  0
ARC
  5
2ED
100
AcDbEntity
  8
00_COMPONENTS_1
100
AcDbCircle
 62
7
  6
CONTINUOUS
 10
105.1115793919
 20
45.3750398077
 40
18.0171940841
100
AcDbArc
 50
192.4973038478
 51
193.8036125279
  0
ARC
  5
2EE
100
AcDbEntity
  8
00_COMPONENTS_1
100
AcDbCircle
 62
7
  6
CONTINUOUS
 10
163.6115793919
 20
45.3750398077
 40
18.0171940841
100
AcDbArc
 50
192.4973038478
 51
193.8036125279
  0
ARC
  5
2EF
100
AcDbEntity
  8
00_COMPONENTS_1
100
AcDbCircle
 62
7
  6
CONTINUOUS
 10
150.2458400097
 20
46.9270142636
 40
7.85078125
100
AcDbArc
 50
285.2281089119
 51
307.2313840145
  0
ARC
  5
2F0
100
AcDbEntity
  8
00_COMPONENTS_1
100
AcDbCircle
 62
7
  6
CONTINUOUS
 10
150.2458400097
 20
46.9270142636
 40
7.85078125
100
AcDbArc
 50
232.7686159854
 51
254.7718910933
  0
ARC
  5
2F1
100
AcDbEntity
  8
00_COMPONENTS_1
100
AcDbCircle
 62
7
  6
CONTINUOUS
 10
150.2458400097
 20
46.9270142636
 40
7.8338714079
100
AcDbArc
 50
255.2330357366
 51
262.964275686
  0
ARC
  5
2F2
100
AcDbEntity
  8
00_COMPONENTS_1
100
AcDbCircle
 62
7
  6
CONTINUOUS
 10
150.2458400097
 20
46.9270142636
 40
7.8338714079
100
AcDbArc
 50
277.035724314
 51
284.7669642634
  0
ARC
  5
2F3
100
AcDbEntity
  8
00_COMPONENTS_1
100
AcDbCircle
 62
7
  6
CONTINUOUS
 10
150.2462317353
 20
46.9523897349
 40
7.8329180053
100
AcDbArc
 50
264.7963677526
 51
265.154349564
  0
ARC
  5
2F4
100
AcDbEntity
  8
00_COMPONENTS_1
100
AcDbCircle
 62
7
  6
CONTINUOUS
 10
150.245451181
 20
46.952356725
 40
7.8328848687
100
AcDbArc
 50
274.8456094151
 51
275.0630744472
  0
ARC
  5
2F5
100
AcDbEntity
  8
00_COMPONENTS_1
100
AcDbCircle
 62
7
  6
CONTINUOUS
 10
150.5677690295
 20
44.7885555827
 40
5.7307182662
100
AcDbArc
 50
254.1311990279
 51
258.4934340556
  0
ARC
  5
2F6
100
AcDbEntity
  8
00_COMPONENTS_1
100
AcDbCircle
 62
7
  6
CONTINUOUS
 10
150.0043747864
 20
44.3265725595
 40
5.2571863361
100
AcDbArc
 50
279.8869228933
 51
281.5871094962
  0
ARC
  5
2F7
100
AcDbEntity
  8
00_COMPONENTS_1
100
AcDbCircle
 62
7
  6
CONTINUOUS
 10
150.4633170573
 20
44.3051069791
 40
5.2361530932
100
AcDbArc
 50
258.597397625
 51
259.7971693229
  0
ARC
  5
2F8
100
AcDbEntity
  8
00_COMPONENTS_1
100
AcDbCircle
 62
7
  6
CONTINUOUS
 10
150.0284682057
 20
44.3045446361
 40
5.2355810005
100
AcDbArc
 50
280.2027872341
 51
281.3947387574
  0
ARC
  5
2F9
100
AcDbEntity
  8
00_COMPONENTS_1
100
AcDbCircle
 62
7
  6
CONTINUOUS
 10
149.5079764876
 20
43.0785300222
 40
3.9327177122
100
AcDbArc
 50
271.2424173978
 51
273.2486398697
  0
ARC
  5
2FA
100
AcDbEntity
  8
00_COMPONENTS_1
100
AcDbCircle
 62
7
  6
CONTINUOUS
 10
150.9837035317
 20
43.0785300221
 40
3.9327177121
100
AcDbArc
 50
266.7513601303
 51
268.7575826022
  0
ARC
  5
2FB
100
AcDbEntity
  8
00_COMPONENTS_1
100
AcDbCircle
 62
7
  6
CONTINUOUS
 10
149.5082365464
 20
43.0500948604
 40
3.9042767202
100
AcDbArc
 50
266.7410506153
 51
268.7570032812
  0
ARC
  5
2FC
100
AcDbEntity
  8
00_COMPONENTS_1
100
AcDbCircle
 62
7
  6
CONTINUOUS
 10
150.9834434729
 20
43.0500948605
 40
3.9042767203
100
AcDbArc
 50
271.2429967188
 51
273.2589493847
  0
ARC
  5
2FD
100
AcDbEntity
  8
00_COMPONENTS_1
100
AcDbCircle
 62
7
  6
CONTINUOUS
 10
150.4529692734
 20
42.1298364066
 40
3.0451535552
100
AcDbArc
 50
281.6544973823
 51
284.195477626
  0
ARC
  5
2FE
100
AcDbEntity
  8
00_COMPONENTS_1
100
AcDbCircle
 62
7
  6
CONTINUOUS
 10
234.2542996518
 20
53.9267398642
 40
29.6962179958
100
AcDbArc
 50
204.788026825
 51
205.6410715998
  0
ARC
  5
2FF
100
AcDbEntity
  8
00_COMPONENTS_1
100
AcDbCircle
 62
7
  6
CONTINUOUS
 10
230.0246770365
 20
37.6482296582
 40
26.0839870734
100
AcDbArc
 50
171.5609731933
 51
172.4482421858
  0
ARC
  5
300
100
AcDbEntity
  8
00_COMPONENTS_1
100
AcDbCircle
 62
7
  6
CONTINUOUS
 10
195.3794190065
 20
45.3750566668
 40
18.0178622694
100
AcDbArc
 50
346.1968543073
 51
347.50311219
  0
ARC
  5
301
100
AcDbEntity
  8
00_COMPONENTS_1
100
AcDbCircle
 62
7
  6
CONTINUOUS
 10
222.1115793929
 20
45.375039808
 40
18.017194085
100
AcDbArc
 50
192.4973038478
 51
193.8036125279
  0
ARC
  5
302
100
AcDbEntity
  8
00_COMPONENTS_1
100
AcDbCircle
 62
7
  6
CONTINUOUS
 10
208.7458400097
 20
46.9270142636
 40
7.85078125
100
AcDbArc
 50
285.2281089119
 51
307.2313840145
  0
ARC
  5
303
100
AcDbEntity
  8
00_COMPONENTS_1
100
AcDbCircle
 62
7
  6
CONTINUOUS
 10
208.7458400097
 20
46.9270142636
 40
7.85078125
100
AcDbArc
 50
232.7686159854
 51
254.7718910933
  0
ARC
  5
304
100
AcDbEntity
  8
00_COMPONENTS_1
100
AcDbCircle
 62
7
  6
CONTINUOUS
 10
208.7458400097
 20
46.9270142636
 40
7.8338714079
100
AcDbArc
 50
255.2330357366
 51
262.964275686
  0
ARC
  5
305
100
AcDbEntity
  8
00_COMPONENTS_1
100
AcDbCircle
 62
7
  6
CONTINUOUS
 10
208.7458400097
 20
46.9270142636
 40
7.8338714079
100
AcDbArc
 50
277.035724314
 51
284.7669642634
  0
ARC
  5
306
100
AcDbEntity
  8
00_COMPONENTS_1
100
AcDbCircle
 62
7
  6
CONTINUOUS
 10
208.7462317354
 20
46.9523897357
 40
7.8329180061
100
AcDbArc
 50
264.7963677527
 51
265.154349564
  0
ARC
  5
307
100
AcDbEntity
  8
00_COMPONENTS_1
100
AcDbCircle
 62
7
  6
CONTINUOUS
 10
208.7454511806
 20
46.9523567287
 40
7.8328848725
100
AcDbArc
 50
274.8456094152
 51
275.0630744471
  0
ARC
  5
308
100
AcDbEntity
  8
00_COMPONENTS_1
100
AcDbCircle
 62
7
  6
CONTINUOUS
 10
209.0677690295
 20
44.7885555826
 40
5.7307182662
100
AcDbArc
 50
254.1311990279
 51
258.4934340556
  0
ARC
  5
309
100
AcDbEntity
  8
00_COMPONENTS_1
100
AcDbCircle
 62
7
  6
CONTINUOUS
 10
208.5043747864
 20
44.3265725596
 40
5.2571863362
100
AcDbArc
 50
279.8869228933
 51
281.5871094962
  0
ARC
  5
30A
100
AcDbEntity
  8
00_COMPONENTS_1
100
AcDbCircle
 62
7
  6
CONTINUOUS
 10
208.9633170573
 20
44.3051069791
 40
5.2361530932
100
AcDbArc
 50
258.5973976249
 51
259.797169323
  0
ARC
  5
30B
100
AcDbEntity
  8
00_COMPONENTS_1
100
AcDbCircle
 62
7
  6
CONTINUOUS
 10
208.5284682057
 20
44.3045446361
 40
5.2355810004
100
AcDbArc
 50
280.2027872341
 51
281.3947387574
  0
ARC
  5
30C
100
AcDbEntity
  8
00_COMPONENTS_4
100
AcDbCircle
 62
7
  6
CONTINUOUS
 10
256.1635756662
 20
50.2481555601
 40
4.6266583115
100
AcDbArc
 50
239.0518020164
 51
240.1421727086
  0
ARC
  5
30D
100
AcDbEntity
  8
00_COMPONENTS_1
100
AcDbCircle
 62
7
  6
CONTINUOUS
 10
208.0079764876
 20
43.0785300221
 40
3.9327177121
100
AcDbArc
 50
271.2424173978
 51
273.2486398697
  0
ARC
  5
30E
100
AcDbEntity
  8
00_COMPONENTS_1
100
AcDbCircle
 62
7
  6
CONTINUOUS
 10
209.4837035317
 20
43.0785300221
 40
3.9327177121
100
AcDbArc
 50
266.7513601303
 51
268.7575826022
  0
ARC
  5
30F
100
AcDbEntity
  8
00_COMPONENTS_1
100
AcDbCircle
 62
7
  6
CONTINUOUS
 10
208.0082365464
 20
43.0500948604
 40
3.9042767202
100
AcDbArc
 50
266.7410506153
 51
268.7570032812
  0
ARC
  5
310
100
AcDbEntity
  8
00_COMPONENTS_1
100
AcDbCircle
 62
7
  6
CONTINUOUS
 10
209.4834434729
 20
43.0500948605
 40
3.9042767203
100
AcDbArc
 50
271.2429967188
 51
273.2589493847
  0
ARC
  5
311
100
AcDbEntity
  8
00_COMPONENTS_30
100
AcDbCircle
 62
7
  6
CONTINUOUS
 10
244.0458400097
 20
46.1762330136
 40
3.2
100
AcDbArc
 50
270.0
 51
360.0
  0
ARC
  5
312
100
AcDbEntity
  8
00_COMPONENTS_1
100
AcDbCircle
 62
7
  6
CONTINUOUS
 10
208.9529692734
 20
42.1298364065
 40
3.0451535551
100
AcDbArc
 50
281.6544973822
 51
284.195477626
  0
ARC
  5
313
100
AcDbEntity
  8
00_COMPONENTS_30
100
AcDbCircle
 62
7
  6
CONTINUOUS
 10
244.0458400097
 20
46.1762330136
 40
2.2
100
AcDbArc
 50
270.0000000001
 51
319.0582692071
  0
ARC
  5
314
100
AcDbEntity
  8
00_COMPONENTS_30
100
AcDbCircle
 62
7
  6
CONTINUOUS
 10
249.2458400097
 20
60.5500390054
 40
2.0
100
AcDbArc
 50
79.0
 51
180.0
  0
ARC
  5
315
100
AcDbEntity
  8
00_COMPONENTS_4
100
AcDbCircle
 62
7
  6
CONTINUOUS
 10
254.3458400097
 20
46.0762330136
 40
1.1
100
AcDbArc
 50
152.4175617663
 51
270.0
  0
ARC
  5
316
100
AcDbEntity
  8
00_COMPONENTS_25
100
AcDbCircle
 62
7
  6
CONTINUOUS
 10
260.0638321963
 20
222.8346383349
 40
19.2409833952
100
AcDbArc
 50
351.2127760531
 51
351.6400944142
  0
ARC
  5
317
100
AcDbEntity
  8
00_COMPONENTS_25
100
AcDbCircle
 62
7
  6
CONTINUOUS
 10
269.1328390462
 20
220.700716937
 40
10.1444218914
100
AcDbArc
 50
343.7761599417
 51
345.424587726
  0
ARC
  5
318
100
AcDbEntity
  8
00_COMPONENTS_25
100
AcDbCircle
 62
7
  6
CONTINUOUS
 10
269.5168341365
 20
220.6008221214
 40
9.7476458823
100
AcDbArc
 50
345.4248581354
 51
348.6209315527
  0
ARC
  5
319
100
AcDbEntity
  8
00_COMPONENTS_25
100
AcDbCircle
 62
7
  6
CONTINUOUS
 10
269.7493606081
 20
220.5175988109
 40
9.5012909292
100
AcDbArc
 50
343.2278760501
 51
343.7977216298
  0
ARC
  5
31A
100
AcDbEntity
  8
00_COMPONENTS_25
100
AcDbCircle
 62
7
  6
CONTINUOUS
 10
270.0085771842
 20
220.4996647231
 40
9.245610846
100
AcDbArc
 50
348.6342457569
 51
351.4997091529
  0
ARC
  5
31B
100
AcDbEntity
  8
00_COMPONENTS_25
100
AcDbCircle
 62
7
  6
CONTINUOUS
 10
271.8050066763
 20
220.1762330136
 40
7.4408333333
100
AcDbArc
 50
293.9615779879
 51
340.8667596862
  0
ARC
  5
31C
100
AcDbEntity
  8
00_COMPONENTS_25
100
AcDbCircle
 62
7
  6
CONTINUOUS
 10
281.7438422651
 20
220.3689333954
 40
2.9090597235
100
AcDbArc
 50
179.0915693292
 51
179.8067202622
  0
ARC
  5
31D
100
AcDbEntity
  8
00_COMPONENTS_25
100
AcDbCircle
 62
7
  6
CONTINUOUS
 10
279.9129839364
 20
218.3407729024
 40
1.0787006369
100
AcDbArc
 50
175.9253760196
 51
176.8308505018
  0
ARC
  5
31E
100
AcDbEntity
  8
00_COMPONENTS_25
100
AcDbCircle
 62
7
  6
CONTINUOUS
 10
279.0356067118
 20
221.3907690576
 40
0.2
100
AcDbArc
 50
355.9929755443
 51
0.1788296323
  0
ARC
  5
31F
100
AcDbEntity
  8
00_COMPONENTS_25
100
AcDbCircle
 62
7
  6
CONTINUOUS
 10
279.0356067118
 20
219.9621779951
 40
0.2
100
AcDbArc
 50
357.0682251473
 51
360.0
  0
ARC
  5
320
100
AcDbEntity
  8
00_COMPONENTS_25
100
AcDbCircle
 62
7
  6
CONTINUOUS
 10
259.487580499
 20
253.4309915839
 40
19.8237510772
100
AcDbArc
 50
8.1863131564
 51
9.1505761091
  0
ARC
  5
321
100
AcDbEntity
  8
00_COMPONENTS_25
100
AcDbCircle
 62
7
  6
CONTINUOUS
 10
263.0500127479
 20
253.948289096
 40
16.2239604546
100
AcDbArc
 50
6.7989438808
 51
8.1694931143
  0
ARC
  5
322
100
AcDbEntity
  8
00_COMPONENTS_25
100
AcDbCircle
 62
7
  6
CONTINUOUS
 10
269.2192762546
 20
255.6757341579
 40
10.054732077
100
AcDbArc
 50
14.7171074594
 51
16.3741632032
  0
ARC
  5
323
100
AcDbEntity
  8
00_COMPONENTS_25
100
AcDbCircle
 62
7
  6
CONTINUOUS
 10
269.5852589747
 20
255.7676803676
 40
9.6773987504
100
AcDbArc
 50
11.324000296
 51
14.7410685325
  0
ARC
  5
324
100
AcDbEntity
  8
00_COMPONENTS_25
100
AcDbCircle
 62
7
  6
CONTINUOUS
 10
269.6527761975
 20
255.8071462758
 40
9.6017686927
100
AcDbArc
 50
16.3676492829
 51
16.790201487
  0
ARC
  5
325
100
AcDbEntity
  8
00_COMPONENTS_25
100
AcDbCircle
 62
7
  6
CONTINUOUS
 10
270.0926208521
 20
255.86741097
 40
9.1603313363
100
AcDbArc
 50
8.4296436363
 51
11.3354772053
  0
ARC
  5
326
100
AcDbEntity
  8
00_COMPONENTS_25
100
AcDbCircle
 62
7
  6
CONTINUOUS
 10
270.7803547483
 20
255.9600648697
 40
8.4664496681
100
AcDbArc
 50
2.9841439082
 51
8.4916689195
  0
ARC
  5
327
100
AcDbEntity
  8
00_COMPONENTS_25
100
AcDbCircle
 62
7
  6
CONTINUOUS
 10
271.8050066763
 20
256.1762330136
 40
7.4408333333
100
AcDbArc
 50
19.1334460692
 51
66.0384220121
  0
ARC
  5
328
100
AcDbEntity
  8
00_COMPONENTS_25
100
AcDbCircle
 62
7
  6
CONTINUOUS
 10
272.2180617145
 20
254.6046915841
 40
7.026837336
100
AcDbArc
 50
2.9918339818
 51
3.5956312547
  0
ARC
  5
329
100
AcDbEntity
  8
00_COMPONENTS_4
100
AcDbCircle
 62
7
  6
CONTINUOUS
 10
256.2368317117
 20
435.5794829217
 40
4.771393932
100
AcDbArc
 50
119.8381333351
 51
120.689487894
  0
ARC
  5
32A
100
AcDbEntity
  8
00_COMPONENTS_30
100
AcDbCircle
 62
7
  6
CONTINUOUS
 10
244.0458400097
 20
439.7762330136
 40
3.2
100
AcDbArc
 50
7.0291867989
 51
90.0000188798
  0
ARC
  5
32B
100
AcDbEntity
  8
00_COMPONENTS_30
100
AcDbCircle
 62
7
  6
CONTINUOUS
 10
244.0458400097
 20
439.7762330136
 40
2.2
100
AcDbArc
 50
40.953573688
 51
90.0
  0
ARC
  5
32C
100
AcDbEntity
  8
00_COMPONENTS_30
100
AcDbCircle
 62
7
  6
CONTINUOUS
 10
249.2458400097
 20
425.4024270218
 40
2.0
100
AcDbArc
 50
180.0
 51
281.0000000013
  0
ARC
  5
32D
100
AcDbEntity
  8
00_COMPONENTS_4
100
AcDbCircle
 62
7
  6
CONTINUOUS
 10
254.3458400097
 20
439.8762330136
 40
1.1
100
AcDbArc
 50
90.0
 51
207.6444091527
  0
ARC
  5
32E
100
AcDbEntity
  8
00_COMPONENTS_25
100
AcDbCircle
 62
7
  6
CONTINUOUS
 10
278.3767796187
 20
239.2878990514
 40
0.8588295049
100
AcDbArc
 50
0.0315802026
 51
8.5241047206
  0
ARC
  5
32F
100
AcDbEntity
  8
00_COMPONENTS_25
100
AcDbCircle
 62
7
  6
CONTINUOUS
 10
278.3767912205
 20
246.6645649861
 40
0.8588178697
100
AcDbArc
 50
351.4716869662
 51
359.9685527421
  0
ARC
  5
330
100
AcDbEntity
  8
00_COMPONENTS_25
100
AcDbCircle
 62
7
  6
CONTINUOUS
 10
279.0356067118
 20
256.3902880321
 40
0.2
100
AcDbArc
 50
0.0
 51
2.9438011919
  0
ARC
  5
331
100
AcDbEntity
  8
00_COMPONENTS_25
100
AcDbCircle
 62
7
  6
CONTINUOUS
 10
279.0356067118
 20
254.9616969696
 40
0.2
100
AcDbArc
 50
0.0
 51
2.6051944181
  0
SPLINE
  5
332
100
AcDbEntity
  8
00_COMPONENTS_1
100
AcDbSpline
 62
7
  6
CONTINUOUS
 70
0
 71
3
 72
9
 73
5
 74
0
 42
0.0000001
 43
0.0000001
 44
0.0000000001
 40
0.0
 40
0.0
 40
0.0
 40
0.0
 40
0.255106682
 40
1.0
 40
1.0
 40
1.0
 40
1.0
 10
93.1356044906
 20
39.3262330136
 30
0.0
 10
93.0878442724
 20
39.3112378148
 30
0.0
 10
92.8999407213
 20
39.254681327
 30
0.0
 10
92.7092672857
 20
39.2072235052
 30
0.0
 10
92.5661084131
 20
39.1777150025
 30
0.0
  0
LINE
  5
333
100
AcDbEntity
  8
00_COMPONENTS_1
100
AcDbLine
 62
7
  6
CONTINUOUS
 10
92.4070560542
 20
39.1474631089
 11
92.4026898705
 21
39.1470994421
  0
LINE
  5
334
100
AcDbEntity
  8
00_COMPONENTS_1
100
AcDbLine
 62
7
  6
CONTINUOUS
 10
92.4026898705
 20
39.1470994421
 11
92.3984320851
 21
39.146736871
  0
LINE
  5
335
100
AcDbEntity
  8
00_COMPONENTS_1
100
AcDbLine
 62
7
  6
CONTINUOUS
 10
89.5742941361
 20
41.4762330136
 11
89.4013875406
 21
41.0762330136
  0
LINE
  5
336
100
AcDbEntity
  8
00_COMPONENTS_1
100
AcDbLine
 62
7
  6
CONTINUOUS
 10
94.0902965196
 20
41.0762330136
 11
93.9173840225
 21
41.4762330136
  0
SPLINE
  5
337
100
AcDbEntity
  8
00_COMPONENTS_1
100
AcDbSpline
 62
7
  6
CONTINUOUS
 70
0
 71
3
 72
9
 73
5
 74
0
 42
0.0000001
 43
0.0000001
 44
0.0000000001
 40
0.0
 40
0.0
 40
0.0
 40
0.0
 40
0.2542764768
 40
1.0
 40
1.0
 40
1.0
 40
1.0
 10
90.9236697815
 20
39.1517539185
 30
0.0
 10
90.887119039
 20
39.1596023093
 30
0.0
 10
90.7439507999
 20
39.1930682245
 30
0.0
 10
90.6032265715
 20
39.2371638211
 30
0.0
 10
90.5007872999
 20
39.2762330136
 30
0.0
  0
SPLINE
  5
338
100
AcDbEntity
  8
00_COMPONENTS_1
100
AcDbSpline
 62
7
  6
CONTINUOUS
 70
0
 71
3
 72
9
 73
5
 74
0
 42
0.0000001
 43
0.0000001
 44
0.0000000001
 40
0.0
 40
0.0
 40
0.0
 40
0.0
 40
0.2462187459
 40
1.0
 40
1.0
 40
1.0
 40
1.0
 10
93.1356044906
 20
39.3262330136
 30
0.0
 10
93.1009608818
 20
39.3110655941
 30
0.0
 10
92.9589431302
 20
39.252496131
 30
0.0
 10
92.8119756885
 20
39.2060686627
 30
0.0
 10
92.6997349184
 20
39.1776675011
 30
0.0
  0
SPLINE
  5
339
100
AcDbEntity
  8
00_COMPONENTS_1
100
AcDbSpline
 62
7
  6
CONTINUOUS
 70
0
 71
3
 72
9
 73
5
 74
0
 42
0.0000001
 43
0.0000001
 44
0.0000000001
 40
0.0
 40
0.0
 40
0.0
 40
0.0
 40
0.255106682
 40
1.0
 40
1.0
 40
1.0
 40
1.0
 10
210.1356044906
 20
39.3262330136
 30
0.0
 10
210.0878442724
 20
39.3112378148
 30
0.0
 10
209.8999407213
 20
39.254681327
 30
0.0
 10
209.7092672857
 20
39.2072235052
 30
0.0
 10
209.5661084131
 20
39.1777150025
 30
0.0
  0
LINE
  5
33A
100
AcDbEntity
  8
00_COMPONENTS_1
100
AcDbLine
 62
7
  6
CONTINUOUS
 10
209.4070560542
 20
39.1474631089
 11
209.4026898705
 21
39.1470994421
  0
LINE
  5
33B
100
AcDbEntity
  8
00_COMPONENTS_1
100
AcDbLine
 62
7
  6
CONTINUOUS
 10
209.4026898705
 20
39.1470994421
 11
209.3984320851
 21
39.146736871
  0
LINE
  5
33C
100
AcDbEntity
  8
00_COMPONENTS_1
100
AcDbLine
 62
7
  6
CONTINUOUS
 10
206.5742941361
 20
41.4762330136
 11
206.4013875406
 21
41.0762330136
  0
LINE
  5
33D
100
AcDbEntity
  8
00_COMPONENTS_1
100
AcDbLine
 62
7
  6
CONTINUOUS
 10
211.0902965196
 20
41.0762330136
 11
210.9173840225
 21
41.4762330136
  0
SPLINE
  5
33E
100
AcDbEntity
  8
00_COMPONENTS_1
100
AcDbSpline
 62
7
  6
CONTINUOUS
 70
0
 71
3
 72
9
 73
5
 74
0
 42
0.0000001
 43
0.0000001
 44
0.0000000001
 40
0.0
 40
0.0
 40
0.0
 40
0.0
 40
0.2542764768
 40
1.0
 40
1.0
 40
1.0
 40
1.0
 10
207.9236697815
 20
39.1517539185
 30
0.0
 10
207.887119039
 20
39.1596023093
 30
0.0
 10
207.7439507999
 20
39.1930682245
 30
0.0
 10
207.6032265715
 20
39.2371638211
 30
0.0
 10
207.5007872999
 20
39.2762330136
 30
0.0
  0
SPLINE
  5
33F
100
AcDbEntity
  8
00_COMPONENTS_1
100
AcDbSpline
 62
7
  6
CONTINUOUS
 70
0
 71
3
 72
9
 73
5
 74
0
 42
0.0000001
 43
0.0000001
 44
0.0000000001
 40
0.0
 40
0.0
 40
0.0
 40
0.0
 40
0.2462187459
 40
1.0
 40
1.0
 40
1.0
 40
1.0
 10
210.1356044906
 20
39.3262330136
 30
0.0
 10
210.1009608818
 20
39.3110655941
 30
0.0
 10
209.9589431302
 20
39.252496131
 30
0.0
 10
209.8119756885
 20
39.2060686627
 30
0.0
 10
209.6997349184
 20
39.1776675011
 30
0.0
  0
SPLINE
  5
340
100
AcDbEntity
  8
00_COMPONENTS_1
100
AcDbSpline
 62
7
  6
CONTINUOUS
 70
0
 71
3
 72
9
 73
5
 74
0
 42
0.0000001
 43
0.0000001
 44
0.0000000001
 40
0.0
 40
0.0
 40
0.0
 40
0.0
 40
0.255106682
 40
1.0
 40
1.0
 40
1.0
 40
1.0
 10
151.6356044906
 20
39.3262330136
 30
0.0
 10
151.5878442724
 20
39.3112378148
 30
0.0
 10
151.3999407213
 20
39.254681327
 30
0.0
 10
151.2092672857
 20
39.2072235052
 30
0.0
 10
151.0661084131
 20
39.1777150025
 30
0.0
  0
LINE
  5
341
100
AcDbEntity
  8
00_COMPONENTS_1
100
AcDbLine
 62
7
  6
CONTINUOUS
 10
150.9070560542
 20
39.1474631089
 11
150.9026898705
 21
39.1470994421
  0
LINE
  5
342
100
AcDbEntity
  8
00_COMPONENTS_1
100
AcDbLine
 62
7
  6
CONTINUOUS
 10
150.9026898705
 20
39.1470994421
 11
150.8984320851
 21
39.146736871
  0
LINE
  5
343
100
AcDbEntity
  8
00_COMPONENTS_1
100
AcDbLine
 62
7
  6
CONTINUOUS
 10
148.0742941361
 20
41.4762330136
 11
147.9013875406
 21
41.0762330136
  0
LINE
  5
344
100
AcDbEntity
  8
00_COMPONENTS_1
100
AcDbLine
 62
7
  6
CONTINUOUS
 10
152.5902965196
 20
41.0762330136
 11
152.4173840225
 21
41.4762330136
  0
SPLINE
  5
345
100
AcDbEntity
  8
00_COMPONENTS_1
100
AcDbSpline
 62
7
  6
CONTINUOUS
 70
0
 71
3
 72
9
 73
5
 74
0
 42
0.0000001
 43
0.0000001
 44
0.0000000001
 40
0.0
 40
0.0
 40
0.0
 40
0.0
 40
0.2542764768
 40
1.0
 40
1.0
 40
1.0
 40
1.0
 10
149.4236697815
 20
39.1517539185
 30
0.0
 10
149.387119039
 20
39.1596023093
 30
0.0
 10
149.2439507999
 20
39.1930682245
 30
0.0
 10
149.1032265715
 20
39.2371638211
 30
0.0
 10
149.0007872999
 20
39.2762330136
 30
0.0
  0
SPLINE
  5
346
100
AcDbEntity
  8
00_COMPONENTS_1
100
AcDbSpline
 62
7
  6
CONTINUOUS
 70
0
 71
3
 72
9
 73
5
 74
0
 42
0.0000001
 43
0.0000001
 44
0.0000000001
 40
0.0
 40
0.0
 40
0.0
 40
0.0
 40
0.2462187459
 40
1.0
 40
1.0
 40
1.0
 40
1.0
 10
151.6356044906
 20
39.3262330136
 30
0.0
 10
151.6009608818
 20
39.3110655941
 30
0.0
 10
151.4589431302
 20
39.252496131
 30
0.0
 10
151.3119756885
 20
39.2060686627
 30
0.0
 10
151.1997349184
 20
39.1776675011
 30
0.0
  0
LINE
  5
347
100
AcDbEntity
  8
00_COMPONENTS_25
100
AcDbLine
 62
7
  6
CONTINUOUS
 10
279.2261084719
 20
219.9621887581
 11
279.2255900915
 21
219.9526396952
  0
SPLINE
  5
348
100
AcDbEntity
  8
00_COMPONENTS_25
100
AcDbSpline
 62
7
  6
CONTINUOUS
 70
0
 71
3
 72
24
 73
20
 74
0
 42
0.0000001
 43
0.0000001
 44
0.0000000001
 40
0.0
 40
0.0
 40
0.0
 40
0.0
 40
0.2274612205
 40
0.438955907
 40
0.5355395922
 40
0.6242485271
 40
0.7040227037
 40
0.7738543576
 40
0.8325303456
 40
0.879152077
 40
0.9138754356
 40
0.9373268848
 40
0.9450569246
 40
0.9504737033
 40
0.9546223033
 40
0.9594148374
 40
0.9661343278
 40
0.9751246219
 40
1.0
 40
1.0
 40
1.0
 40
1.0
 10
279.2255900915
 20
219.9526396952
 30
0.0
 10
279.2183273025
 20
219.8203897861
 30
0.0
 10
279.1974475341
 20
219.565483262
 30
0.0
 10
279.1535441339
 20
219.2565343499
 30
0.0
 10
279.1100234237
 20
219.0295872027
 30
0.0
 10
279.0759558528
 20
218.8790160737
 30
0.0
 10
279.0408438463
 20
218.7447391434
 30
0.0
 10
279.0061035461
 20
218.6285013454
 30
0.0
 10
278.9728247223
 20
218.5320942609
 30
0.0
 10
278.9419630208
 20
218.4564938424
 30
0.0
 10
278.9146450011
 20
218.4020168516
 30
0.0
 10
278.8940138843
 20
218.3692088227
 30
0.0
 10
278.8790629369
 20
218.3540516055
 30
0.0
 10
278.8701450038
 20
218.3486040085
 30
0.0
 10
278.8610814522
 20
218.3495631311
 30
0.0
 10
278.8549612055
 20
218.3570991615
 30
0.0
 10
278.850856223
 20
218.3682880049
 30
0.0
 10
278.8464006078
 20
218.3916134654
 30
0.0
 10
278.8458409911
 20
218.4114028244
 30
0.0
 10
278.8458403303
 20
218.4258875948
 30
0.0
  0
SPLINE
  5
349
100
AcDbEntity
  8
00_COMPONENTS_25
100
AcDbSpline
 62
7
  6
CONTINUOUS
 70
0
 71
3
 72
13
 73
9
 74
0
 42
0.0000001
 43
0.0000001
 44
0.0000000001
 40
0.0
 40
0.0
 40
0.0
 40
0.0
 40
0.0794924539
 40
0.1720201701
 40
0.4015339105
 40
0.5373677548
 40
0.6840281927
 40
1.0
 40
1.0
 40
1.0
 40
1.0
 10
274.8269538156
 20
216.2259195236
 30
0.0
 10
274.8184633643
 20
216.2772437459
 30
0.0
 10
274.775301178
 20
216.3840961018
 30
0.0
 10
274.6154467144
 20
216.5944182714
 30
0.0
 10
274.37438279
 20
216.7800196196
 30
0.0
 10
274.084216387
 20
216.9470924163
 30
0.0
 10
273.7302831006
 20
217.1159801727
 30
0.0
 10
273.4437492996
 20
217.2164796403
 30
0.0
 10
273.2458389254
 20
217.276389943
 30
0.0
  0
SPLINE
  5
34A
100
AcDbEntity
  8
00_COMPONENTS_25
100
AcDbSpline
 62
7
  6
CONTINUOUS
 70
0
 71
3
 72
23
 73
19
 74
0
 42
0.0000001
 43
0.0000001
 44
0.0000000001
 40
0.0
 40
0.0
 40
0.0
 40
0.0
 40
0.055809333
 40
0.1039195473
 40
0.1434478015
 40
0.1734929255
 40
0.1849411026
 40
0.1943105466
 40
0.2023667875
 40
0.2104723088
 40
0.2201711819
 40
0.2325890237
 40
0.2680292934
 40
0.3191814507
 40
0.3854874536
 40
0.55845623
 40
0.7694300511
 40
1.0
 40
1.0
 40
1.0
 40
1.0
 10
278.8458526097
 20
255.9277122885
 30
0.0
 10
278.8458690671
 20
255.9592381032
 30
0.0
 10
278.8469097648
 20
256.0179416138
 30
0.0
 10
278.8525595031
 20
256.0988666517
 30
0.0
 10
278.8625521119
 20
256.1645962932
 30
0.0
 10
278.8752418181
 20
256.2090053851
 30
0.0
 10
278.8893171535
 20
256.2342257486
 30
0.0
 10
278.9005421329
 20
256.2463920266
 30
0.0
 10
278.9140392798
 20
256.2527754958
 30
0.0
 10
278.9291692982
 20
256.2518306511
 30
0.0
 10
278.9446163971
 20
256.2438481374
 30
0.0
 10
278.9688319535
 20
256.2218442365
 30
0.0
 10
278.99939934
 20
256.1742262193
 30
0.0
 10
279.0355715508
 20
256.0958094608
 30
0.0
 10
279.0901297501
 20
255.9408059961
 30
0.0
 10
279.1480941551
 20
255.6925879216
 30
0.0
 10
279.1993503812
 20
255.349024138
 30
0.0
 10
279.2189112948
 20
255.1001609078
 30
0.0
 10
279.2256840616
 20
254.9700917627
 30
0.0
  0
LINE
  5
34B
100
AcDbEntity
  8
00_COMPONENTS_25
100
AcDbLine
 62
7
  6
CONTINUOUS
 10
279.2256840616
 20
254.9700917627
 11
279.226117119
 21
254.9616783658
  0
SPLINE
  5
34C
100
AcDbEntity
  8
00_COMPONENTS_25
100
AcDbSpline
 62
7
  6
CONTINUOUS
 70
0
 71
3
 72
13
 73
9
 74
0
 42
0.0000001
 43
0.0000001
 44
0.0000000001
 40
0.0
 40
0.0
 40
0.0
 40
0.0
 40
0.309304586
 40
0.6049378199
 40
0.7338520164
 40
0.8442574766
 40
0.9331252227
 40
1.0
 40
1.0
 40
1.0
 40
1.0
 10
275.3854380908
 20
222.9458104189
 30
0.0
 10
275.7675430596
 20
222.9481696013
 30
0.0
 10
276.5148238212
 20
222.971570786
 30
0.0
 10
277.4188600774
 20
223.0500380318
 30
0.0
 10
278.0725458446
 20
223.1484779004
 30
0.0
 10
278.4701484172
 20
223.2294574113
 30
0.0
 10
278.7868620439
 20
223.3184946253
 30
0.0
 10
278.9665037167
 20
223.3898493186
 30
0.0
 10
279.0395308837
 20
223.4284825166
 30
0.0
  0
SPLINE
  5
34D
100
AcDbEntity
  8
00_COMPONENTS_25
100
AcDbSpline
 62
7
  6
CONTINUOUS
 70
0
 71
3
 72
9
 73
5
 74
0
 42
0.0000001
 43
0.0000001
 44
0.0000000001
 40
0.0
 40
0.0
 40
0.0
 40
0.0
 40
0.4055315946
 40
1.0
 40
1.0
 40
1.0
 40
1.0
 10
279.2350238221
 20
221.3768006325
 30
0.0
 10
279.2350732119
 20
221.3783288983
 30
0.0
 10
279.2351957366
 20
221.3820008742
 30
0.0
 10
279.2342259133
 20
221.3861630548
 30
0.0
 10
279.2325515498
 20
221.3876532291
 30
0.0
  0
LINE
  5
34E
100
AcDbEntity
  8
00_COMPONENTS_25
100
AcDbLine
 62
7
  6
CONTINUOUS
 10
279.2325515498
 20
221.3876532291
 11
279.2289336057
 21
221.3907690576
  0
SPLINE
  5
34F
100
AcDbEntity
  8
00_COMPONENTS_25
100
AcDbSpline
 62
7
  6
CONTINUOUS
 70
0
 71
3
 72
9
 73
5
 74
0
 42
0.0000001
 43
0.0000001
 44
0.0000000001
 40
0.0
 40
0.0
 40
0.0
 40
0.0
 40
0.2492552694
 40
1.0
 40
1.0
 40
1.0
 40
1.0
 10
274.826900326
 20
216.2259208423
 30
0.0
 10
274.7681527097
 20
216.2028079414
 30
0.0
 10
274.5283265015
 20
216.120918935
 30
0.0
 10
274.2745109934
 20
216.0802849711
 30
0.0
 10
274.0844552842
 20
216.0744040978
 30
0.0
  0
SPLINE
  5
350
100
AcDbEntity
  8
00_COMPONENTS_25
100
AcDbSpline
 62
7
  6
CONTINUOUS
 70
0
 71
3
 72
24
 73
20
 74
0
 42
0.0000001
 43
0.0000001
 44
0.0000000001
 40
0.0
 40
0.0
 40
0.0
 40
0.0
 40
0.0248512273
 40
0.0337381536
 40
0.0403620375
 40
0.0451319531
 40
0.0492657524
 40
0.0545594298
 40
0.0620658344
 40
0.085161607
 40
0.1199430148
 40
0.1665556054
 40
0.2248567214
 40
0.2942171753
 40
0.373826875
 40
0.4625940715
 40
0.5592516988
 40
0.7712501084
 40
1.0
 40
1.0
 40
1.0
 40
1.0
 10
278.8460611488
 20
257.9263626174
 30
0.0
 10
278.8460755043
 20
257.9408307829
 30
0.0
 10
278.8466223832
 20
257.9605419214
 30
0.0
 10
278.8509849043
 20
257.9837395245
 30
0.0
 10
278.8550467499
 20
257.9948235577
 30
0.0
 10
278.8610418704
 20
258.0022822766
 30
0.0
 10
278.869917544
 20
258.0035935626
 30
0.0
 10
278.8788856952
 20
257.9986401724
 30
0.0
 10
278.8939349226
 20
257.9841326838
 30
0.0
 10
278.9145260113
 20
257.9516026058
 30
0.0
 10
278.9414594983
 20
257.8971645469
 30
0.0
 10
278.972058012
 20
257.8216796061
 30
0.0
 10
279.0053772403
 20
257.7258397779
 30
0.0
 10
279.0402411094
 20
257.6102721926
 30
0.0
 10
279.0753399421
 20
257.4763623513
 30
0.0
 10
279.1094120288
 20
257.3258392881
 30
0.0
 10
279.1529691868
 20
257.0985609236
 30
0.0
 10
279.1969050645
 20
256.7885885059
 30
0.0
 10
279.2184268855
 20
256.53272569
 30
0.0
 10
279.2256105693
 20
256.3997433432
 30
0.0
  0
LINE
  5
351
100
AcDbEntity
  8
00_COMPONENTS_25
100
AcDbLine
 62
7
  6
CONTINUOUS
 10
279.2256105693
 20
256.3997433432
 11
279.2261160651
 21
256.3902591457
  0
SPLINE
  5
352
100
AcDbEntity
  8
00_COMPONENTS_25
100
AcDbSpline
 62
7
  6
CONTINUOUS
 70
0
 71
3
 72
9
 73
5
 74
0
 42
0.0000001
 43
0.0000001
 44
0.0000000001
 40
0.0
 40
0.0
 40
0.0
 40
0.0
 40
0.2397363996
 40
1.0
 40
1.0
 40
1.0
 40
1.0
 10
279.1526260402
 20
219.1330300111
 30
0.0
 10
279.1623278795
 20
219.1980728228
 30
0.0
 10
279.1998206802
 20
219.4698123846
 30
0.0
 10
279.2246076852
 20
219.7433525631
 30
0.0
 10
279.2353228222
 20
219.9516259927
 30
0.0
  0
SPLINE
  5
353
100
AcDbEntity
  8
00_COMPONENTS_25
100
AcDbSpline
 62
7
  6
CONTINUOUS
 70
0
 71
3
 72
23
 73
19
 74
0
 42
0.0000001
 43
0.0000001
 44
0.0000000001
 40
0.0
 40
0.0
 40
0.0
 40
0.0
 40
0.2303266132
 40
0.4409688515
 40
0.6137892343
 40
0.6802568112
 40
0.731400299
 40
0.7670772402
 40
0.7797426684
 40
0.7896696726
 40
0.7979104084
 40
0.8060307953
 40
0.8154405672
 40
0.8268998966
 40
0.8568301813
 40
0.8961936168
 40
0.9442308618
 40
1.0
 40
1.0
 40
1.0
 40
1.0
 10
279.2341279797
 20
221.3590660242
 30
0.0
 10
279.2266699876
 20
221.2258674903
 30
0.0
 10
279.2055238921
 20
220.971119914
 30
0.0
 10
279.1512919206
 20
220.6194837248
 30
0.0
 10
279.0894441316
 20
220.3657270815
 30
0.0
 10
279.0322478583
 20
220.207245438
 30
0.0
 10
278.9941390085
 20
220.127032454
 30
0.0
 10
278.961898252
 20
220.0784863898
 30
0.0
 10
278.9365869423
 20
220.0558617936
 30
0.0
 10
278.9204669741
 20
220.0474876649
 30
0.0
 10
278.9047164169
 20
220.0463223401
 30
0.0
 10
278.8906775703
 20
220.0527893089
 30
0.0
 10
278.8790054942
 20
220.0652060236
 30
0.0
 10
278.8643641321
 20
220.0909103079
 30
0.0
 10
278.851222176
 20
220.1362692318
 30
0.0
 10
278.841089045
 20
220.2034795871
 30
0.0
 10
278.8355446753
 20
220.2863146507
 30
0.0
 10
278.8346948216
 20
220.3464449072
 30
0.0
 10
278.8347990936
 20
220.3787467052
 30
0.0
  0
SPLINE
  5
354
100
AcDbEntity
  8
00_COMPONENTS_25
100
AcDbSpline
 62
7
  6
CONTINUOUS
 70
0
 71
3
 72
9
 73
5
 74
0
 42
0.0000001
 43
0.0000001
 44
0.0000000001
 40
0.0
 40
0.0
 40
0.0
 40
0.0
 40
0.2350953926
 40
1.0
 40
1.0
 40
1.0
 40
1.0
 10
278.8351481801
 20
220.415054914
 30
0.0
 10
278.8353955304
 20
220.430798484
 30
0.0
 10
278.8369561903
 20
220.4977572266
 30
0.0
 10
278.8403098351
 20
220.5646658773
 30
0.0
 10
278.8435331151
 20
220.615793858
 30
0.0
  0
SPLINE
  5
355
100
AcDbEntity
  8
00_COMPONENTS_25
100
AcDbSpline
 62
7
  6
CONTINUOUS
 70
0
 71
3
 72
9
 73
5
 74
0
 42
0.0000001
 43
0.0000001
 44
0.0000000001
 40
0.0
 40
0.0
 40
0.0
 40
0.0
 40
0.2383443423
 40
1.0
 40
1.0
 40
1.0
 40
1.0
 10
278.8435331151
 20
220.615793858
 30
0.0
 10
278.8447810709
 20
220.6355890548
 30
0.0
 10
278.8504455368
 20
220.718615194
 30
0.0
 10
278.8576474649
 20
220.8015298892
 30
0.0
 10
278.8635767914
 20
220.864635264
 30
0.0
  0
SPLINE
  5
356
100
AcDbEntity
  8
00_COMPONENTS_25
100
AcDbSpline
 62
7
  6
CONTINUOUS
 70
0
 71
3
 72
9
 73
5
 74
0
 42
0.0000001
 43
0.0000001
 44
0.0000000001
 40
0.0
 40
0.0
 40
0.0
 40
0.0
 40
0.2422337279
 40
1.0
 40
1.0
 40
1.0
 40
1.0
 10
278.8635767914
 20
220.864635264
 30
0.0
 10
278.8660196015
 20
220.8906339085
 30
0.0
 10
278.8764306495
 20
220.997932108
 30
0.0
 10
278.8878016888
 20
221.1051340025
 30
0.0
 10
278.8964942701
 20
221.1863585161
 30
0.0
  0
SPLINE
  5
357
100
AcDbEntity
  8
00_COMPONENTS_25
100
AcDbSpline
 62
7
  6
CONTINUOUS
 70
0
 71
3
 72
9
 73
5
 74
0
 42
0.0000001
 43
0.0000001
 44
0.0000000001
 40
0.0
 40
0.0
 40
0.0
 40
0.0
 40
0.255074433
 40
1.0
 40
1.0
 40
1.0
 40
1.0
 10
279.2310668142
 20
255.0453756178
 30
0.0
 10
279.2290512189
 20
255.0774342724
 30
0.0
 10
279.2202696075
 20
255.2030592249
 30
0.0
 10
279.207849635
 20
255.3284433676
 30
0.0
 10
279.1961377964
 20
255.4215191396
 30
0.0
  0
SPLINE
  5
358
100
AcDbEntity
  8
00_COMPONENTS_25
100
AcDbSpline
 62
7
  6
CONTINUOUS
 70
0
 71
3
 72
21
 73
17
 74
0
 42
0.0000001
 43
0.0000001
 44
0.0000000001
 40
0.0
 40
0.0
 40
0.0
 40
0.0
 40
0.2410403498
 40
0.3487006141
 40
0.4448585934
 40
0.5273566114
 40
0.5947276646
 40
0.6462879319
 40
0.682603957
 40
0.7063285721
 40
0.7156464492
 40
0.724995786
 40
0.7480920427
 40
0.7804118414
 40
0.8735231594
 40
1.0
 40
1.0
 40
1.0
 40
1.0
 10
279.1961377964
 20
255.4215191396
 30
0.0
 10
279.1827120867
 20
255.5282153066
 30
0.0
 10
279.158712148
 20
255.6821081395
 30
0.0
 10
279.1160156859
 20
255.8759855837
 30
0.0
 10
279.0827221205
 20
255.9993602743
 30
0.0
 10
279.0480808607
 20
256.1036117906
 30
0.0
 10
279.01365026
 20
256.1866683849
 30
0.0
 10
278.9803705875
 20
256.2478063248
 30
0.0
 10
278.9500856612
 20
256.2872297595
 30
0.0
 10
278.9229454074
 20
256.3055883635
 30
0.0
 10
278.9034331158
 20
256.3055849587
 30
0.0
 10
278.8861508629
 20
256.2973543031
 30
0.0
 10
278.8689768193
 20
256.2725298618
 30
0.0
 10
278.847819288
 20
256.2097635328
 30
0.0
 10
278.8355222683
 20
256.0969400328
 30
0.0
 10
278.8342695863
 20
255.9991709152
 30
0.0
 10
278.835095018
 20
255.9427506829
 30
0.0
  0
SPLINE
  5
359
100
AcDbEntity
  8
00_COMPONENTS_25
100
AcDbSpline
 62
7
  6
CONTINUOUS
 70
0
 71
3
 72
9
 73
5
 74
0
 42
0.0000001
 43
0.0000001
 44
0.0000000001
 40
0.0
 40
0.0
 40
0.0
 40
0.0
 40
0.4549021244
 40
1.0
 40
1.0
 40
1.0
 40
1.0
 10
278.835095018
 20
255.9427506829
 30
0.0
 10
278.8368237027
 20
255.8245909583
 30
0.0
 10
278.8539640612
 20
255.565132385
 30
0.0
 10
278.8807494514
 20
255.3067654609
 30
0.0
 10
278.8965051403
 20
255.1660417277
 30
0.0
  0
SPLINE
  5
35A
100
AcDbEntity
  8
00_COMPONENTS_25
100
AcDbSpline
 62
7
  6
CONTINUOUS
 70
0
 71
3
 72
10
 73
6
 74
0
 42
0.0000001
 43
0.0000001
 44
0.0000000001
 40
0.0
 40
0.0
 40
0.0
 40
0.0
 40
0.5878716633
 40
0.8242891996
 40
1.0
 40
1.0
 40
1.0
 40
1.0
 10
279.2353237414
 20
256.4008247894
 30
0.0
 10
279.2193181481
 20
256.6976777572
 30
0.0
 10
279.1713568975
 20
257.1137182001
 30
0.0
 10
279.0568191157
 20
257.6065243101
 30
0.0
 10
278.9940673939
 20
257.8057006448
 30
0.0
 10
278.9616903646
 20
257.8884481534
 30
0.0
  0
SPLINE
  5
35B
100
AcDbEntity
  8
00_COMPONENTS_25
100
AcDbSpline
 62
7
  6
CONTINUOUS
 70
0
 71
3
 72
9
 73
5
 74
0
 42
0.0000001
 43
0.0000001
 44
0.0000000001
 40
0.0
 40
0.0
 40
0.0
 40
0.0
 40
0.586098859
 40
1.0
 40
1.0
 40
1.0
 40
1.0
 10
278.9616903646
 20
257.8884481534
 30
0.0
 10
278.9504581311
 20
257.9171549052
 30
0.0
 10
278.9300108746
 20
257.9656154505
 30
0.0
 10
278.9056487818
 20
258.0124415342
 30
0.0
 10
278.8936934583
 20
258.0306340738
 30
0.0
  0
SPLINE
  5
35C
100
AcDbEntity
  8
00_COMPONENTS_25
100
AcDbSpline
 62
7
  6
CONTINUOUS
 70
0
 71
3
 72
13
 73
9
 74
0
 42
0.0000001
 43
0.0000001
 44
0.0000000001
 40
0.0
 40
0.0
 40
0.0
 40
0.0
 40
0.3596677218
 40
0.5583731891
 40
0.6321229197
 40
0.7214286587
 40
0.8421754982
 40
1.0
 40
1.0
 40
1.0
 40
1.0
 10
278.8936934583
 20
258.0306340738
 30
0.0
 10
278.8875417205
 20
258.039995237
 30
0.0
 10
278.8779689315
 20
258.0535145584
 30
0.0
 10
278.8601392224
 20
258.0672363268
 30
0.0
 10
278.8486540513
 20
258.0633696557
 30
0.0
 10
278.8433763333
 20
258.055856959
 30
0.0
 10
278.8394996934
 20
258.0450695425
 30
0.0
 10
278.8378971572
 20
258.0364969188
 30
0.0
 10
278.8371977807
 20
258.0316316062
 30
0.0
  0
SPLINE
  5
35D
100
AcDbEntity
  8
00_COMPONENTS_25
100
AcDbSpline
 62
7
  6
CONTINUOUS
 70
0
 71
3
 72
9
 73
5
 74
0
 42
0.0000001
 43
0.0000001
 44
0.0000000001
 40
0.0
 40
0.0
 40
0.0
 40
0.0
 40
0.1945675046
 40
1.0
 40
1.0
 40
1.0
 40
1.0
 10
278.8371977807
 20
258.0316316062
 30
0.0
 10
278.8363553409
 20
258.0257710528
 30
0.0
 10
278.8336620896
 20
257.9954222017
 30
0.0
 10
278.835018421
 20
257.9648918062
 30
0.0
 10
278.8366169738
 20
257.9404342506
 30
0.0
  0
SPLINE
  5
35E
100
AcDbEntity
  8
00_COMPONENTS_25
100
AcDbSpline
 62
7
  6
CONTINUOUS
 70
0
 71
3
 72
9
 73
5
 74
0
 42
0.0000001
 43
0.0000001
 44
0.0000000001
 40
0.0
 40
0.0
 40
0.0
 40
0.0
 40
0.2303016383
 40
1.0
 40
1.0
 40
1.0
 40
1.0
 10
278.8366169738
 20
257.9404342506
 30
0.0
 10
278.8369832107
 20
257.9348308959
 30
0.0
 10
278.8387587166
 20
257.9105124883
 30
0.0
 10
278.8411751144
 20
257.8862441042
 30
0.0
 10
278.843253413
 20
257.8675924296
 30
0.0
  0
SPLINE
  5
35F
100
AcDbEntity
  8
00_COMPONENTS_25
100
AcDbSpline
 62
7
  6
CONTINUOUS
 70
0
 71
3
 72
9
 73
5
 74
0
 42
0.0000001
 43
0.0000001
 44
0.0000000001
 40
0.0
 40
0.0
 40
0.0
 40
0.0
 40
0.3036615998
 40
1.0
 40
1.0
 40
1.0
 40
1.0
 10
279.2261119084
 20
254.9616781619
 30
0.0
 10
279.2270277243
 20
254.9621938262
 30
0.0
 10
279.2299679455
 20
254.963986599
 30
0.0
 10
279.2327837652
 20
254.9662173437
 30
0.0
 10
279.2341163356
 20
254.96822556
 30
0.0
  0
SPLINE
  5
360
100
AcDbEntity
  8
00_COMPONENTS_25
100
AcDbSpline
 62
7
  6
CONTINUOUS
 70
0
 71
3
 72
9
 73
5
 74
0
 42
0.0000001
 43
0.0000001
 44
0.0000000001
 40
0.0
 40
0.0
 40
0.0
 40
0.0
 40
0.5268994655
 40
1.0
 40
1.0
 40
1.0
 40
1.0
 10
279.2341163356
 20
254.96822556
 30
0.0
 10
279.2344507697
 20
254.9687295604
 30
0.0
 10
279.2350013166
 20
254.969748662
 30
0.0
 10
279.2352770901
 20
254.9708809227
 30
0.0
 10
279.2353226904
 20
254.971422111
 30
0.0
  0
SPLINE
  5
361
100
AcDbEntity
  8
00_COMPONENTS_25
100
AcDbSpline
 62
7
  6
CONTINUOUS
 70
0
 71
3
 72
9
 73
5
 74
0
 42
0.0000001
 43
0.0000001
 44
0.0000000001
 40
0.0
 40
0.0
 40
0.0
 40
0.0
 40
0.3046438746
 40
1.0
 40
1.0
 40
1.0
 40
1.0
 10
279.226102828
 20
256.3902874062
 30
0.0
 10
279.2270587382
 20
256.3908435959
 30
0.0
 10
279.230110312
 20
256.392769503
 30
0.0
 10
279.2330215497
 20
256.3952001587
 30
0.0
 10
279.2343037837
 20
256.3973745938
 30
0.0
  0
SPLINE
  5
362
100
AcDbEntity
  8
00_COMPONENTS_25
100
AcDbSpline
 62
7
  6
CONTINUOUS
 70
0
 71
3
 72
9
 73
5
 74
0
 42
0.0000001
 43
0.0000001
 44
0.0000000001
 40
0.0
 40
0.0
 40
0.0
 40
0.0
 40
0.5236607667
 40
1.0
 40
1.0
 40
1.0
 40
1.0
 10
279.2343037837
 20
256.3973745938
 30
0.0
 10
279.2346257759
 20
256.3979206337
 30
0.0
 10
279.2351407421
 20
256.3990307514
 30
0.0
 10
279.235328864
 20
256.4002481542
 30
0.0
 10
279.23532317
 20
256.4008247493
 30
0.0
  0
LINE
  5
363
100
AcDbEntity
  8
00_COMPONENTS_25
100
AcDbLine
 62
7
  6
CONTINUOUS
 10
278.8662004166
 20
258.5102519923
 11
278.865416306
 21
258.5129223674
  0
SPLINE
  5
364
100
AcDbEntity
  8
00_COMPONENTS_25
100
AcDbSpline
 62
7
  6
CONTINUOUS
 70
0
 71
3
 72
8
 73
4
 74
0
 42
0.0000001
 43
0.0000001
 44
0.0000000001
 40
0.0
 40
0.0
 40
0.0
 40
0.0
 40
1.0
 40
1.0
 40
1.0
 40
1.0
 10
278.8964936511
 20
221.1863594899
 30
0.0
 10
278.9007226896
 20
221.1953983212
 30
0.0
 10
278.9035708147
 20
221.2052397562
 30
0.0
 10
278.9046744561
 20
221.2151577809
 30
0.0
  0
SPLINE
  5
365
100
AcDbEntity
  8
00_COMPONENTS_25
100
AcDbSpline
 62
7
  6
CONTINUOUS
 70
0
 71
3
 72
9
 73
5
 74
0
 42
0.0000001
 43
0.0000001
 44
0.0000000001
 40
0.0
 40
0.0
 40
0.0
 40
0.0
 40
0.6930684815
 40
1.0
 40
1.0
 40
1.0
 40
1.0
 10
279.2353072648
 20
219.9516464581
 30
0.0
 10
279.2353271205
 20
219.953544692
 30
0.0
 10
279.233798572
 20
219.9562100714
 30
0.0
 10
279.2318409576
 20
219.9580736859
 30
0.0
 10
279.2312052757
 20
219.9586238475
 30
0.0
  0
SPLINE
  5
366
100
AcDbEntity
  8
00_COMPONENTS_25
100
AcDbSpline
 62
7
  6
CONTINUOUS
 70
0
 71
3
 72
8
 73
4
 74
0
 42
0.0000001
 43
0.0000001
 44
0.0000000001
 40
0.0
 40
0.0
 40
0.0
 40
0.0
 40
1.0
 40
1.0
 40
1.0
 40
1.0
 10
279.2312052757
 20
219.9586238475
 30
0.0
 10
279.2296388884
 20
219.9599795037
 30
0.0
 10
279.2278960572
 20
219.9611336467
 30
0.0
 10
279.2261060105
 20
219.9621762901
 30
0.0
  0
SPLINE
  5
367
100
AcDbEntity
  8
00_COMPONENTS_25
100
AcDbSpline
 62
7
  6
CONTINUOUS
 70
0
 71
3
 72
11
 73
7
 74
0
 42
0.0000001
 43
0.0000001
 44
0.0000000001
 40
0.0
 40
0.0
 40
0.0
 40
0.0
 40
0.3080107342
 40
0.5891209194
 40
0.8250141945
 40
1.0
 40
1.0
 40
1.0
 40
1.0
 10
279.2353228222
 20
219.9516259927
 30
0.0
 10
279.2268710353
 20
219.795510472
 30
0.0
 10
279.2008827777
 20
219.4973385804
 30
0.0
 10
279.1355240743
 20
219.083310463
 30
0.0
 10
279.0554662925
 20
218.7410635666
 30
0.0
 10
278.9924328024
 20
218.5418204873
 30
0.0
 10
278.9598340307
 20
218.4591972724
 30
0.0
  0
SPLINE
  5
368
100
AcDbEntity
  8
00_COMPONENTS_25
100
AcDbSpline
 62
7
  6
CONTINUOUS
 70
0
 71
3
 72
9
 73
5
 74
0
 42
0.0000001
 43
0.0000001
 44
0.0000000001
 40
0.0
 40
0.0
 40
0.0
 40
0.0
 40
0.3084746283
 40
1.0
 40
1.0
 40
1.0
 40
1.0
 10
278.9598340307
 20
218.4591972724
 30
0.0
 10
278.9543653831
 20
218.4453367119
 30
0.0
 10
278.9359621816
 20
218.4007157907
 30
0.0
 10
278.9154276161
 20
218.3566986353
 30
0.0
 10
278.897740033
 20
218.3283629301
 30
0.0
  0
SPLINE
  5
369
100
AcDbEntity
  8
00_COMPONENTS_25
100
AcDbSpline
 62
7
  6
CONTINUOUS
 70
0
 71
3
 72
14
 73
10
 74
0
 42
0.0000001
 43
0.0000001
 44
0.0000000001
 40
0.0
 40
0.0
 40
0.0
 40
0.0
 40
0.1781596374
 40
0.3074626139
 40
0.3941233019
 40
0.4568393809
 40
0.5330385564
 40
0.6460476025
 40
1.0
 40
1.0
 40
1.0
 40
1.0
 10
278.897740033
 20
218.3283629301
 30
0.0
 10
278.893184775
 20
218.3210653559
 30
0.0
 10
278.88485277
 20
218.3086495831
 30
0.0
 10
278.8721472878
 20
218.2946548451
 30
0.0
 10
278.8606948963
 20
218.2864501253
 30
0.0
 10
278.8486586397
 20
218.2878967572
 30
0.0
 10
278.8417140875
 20
218.2990718038
 30
0.0
 10
278.8351813002
 20
218.3242129345
 30
0.0
 10
278.8346779338
 20
218.3471948965
 30
0.0
 10
278.8347614319
 20
218.3642856332
 30
0.0
  0
LINE
  5
36A
100
AcDbEntity
  8
00_COMPONENTS_25
100
AcDbLine
 62
7
  6
CONTINUOUS
 10
279.2261377427
 20
221.3912666862
 11
279.2254251134
 21
221.3774908875
  0
SPLINE
  5
36B
100
AcDbEntity
  8
00_COMPONENTS_25
100
AcDbSpline
 62
7
  6
CONTINUOUS
 70
0
 71
3
 72
23
 73
19
 74
0
 42
0.0000001
 43
0.0000001
 44
0.0000000001
 40
0.0
 40
0.0
 40
0.0
 40
0.0
 40
0.2306920246
 40
0.4416655903
 40
0.6144770899
 40
0.680678868
 40
0.7317186181
 40
0.7670481052
 40
0.7794248773
 40
0.7890985009
 40
0.7972015557
 40
0.8052789167
 40
0.8146839168
 40
0.826173605
 40
0.8563050508
 40
0.8959172065
 40
0.9441094992
 40
1.0
 40
1.0
 40
1.0
 40
1.0
 10
279.2254251134
 20
221.3774908875
 30
0.0
 10
279.2185855305
 20
221.2477377241
 30
0.0
 10
279.1989117317
 20
220.9995459977
 30
0.0
 10
279.1475485104
 20
220.6570450882
 30
0.0
 10
279.0895793003
 20
220.4097433539
 30
0.0
 10
279.0350777777
 20
220.2554510775
 30
0.0
 10
278.998984822
 20
220.1774800634
 30
0.0
 10
278.9684823296
 20
220.1301862712
 30
0.0
 10
278.9443260106
 20
220.1084051062
 30
0.0
 10
278.9289094342
 20
220.1005500283
 30
0.0
 10
278.9138197411
 20
220.0997256387
 30
0.0
 10
278.9003802558
 20
220.1061908559
 30
0.0
 10
278.8891981541
 20
220.1184009697
 30
0.0
 10
278.8751703098
 20
220.1436552683
 30
0.0
 10
278.8625159998
 20
220.1880544888
 30
0.0
 10
278.852548698
 20
220.2537359522
 30
0.0
 10
278.8469108106
 20
220.3345629931
 30
0.0
 10
278.8458700674
 20
220.3931868859
 30
0.0
 10
278.8458523658
 20
220.4246662414
 30
0.0
  0
SPLINE
  5
36C
100
AcDbEntity
  8
00_COMPONENTS_25
100
AcDbSpline
 62
7
  6
CONTINUOUS
 70
0
 71
3
 72
9
 73
5
 74
0
 42
0.0000001
 43
0.0000001
 44
0.0000000001
 40
0.0
 40
0.0
 40
0.0
 40
0.0
 40
0.4996001326
 40
1.0
 40
1.0
 40
1.0
 40
1.0
 10
279.0671703421
 20
224.5398475839
 30
0.0
 10
279.1187916322
 20
226.748342451
 30
0.0
 10
279.1928187975
 20
231.1696144097
 30
0.0
 10
279.2099684361
 20
235.5913953679
 30
0.0
 10
279.2109591598
 20
237.804029441
 30
0.0
  0
SPLINE
  5
36D
100
AcDbEntity
  8
00_COMPONENTS_25
100
AcDbSpline
 62
7
  6
CONTINUOUS
 70
0
 71
3
 72
9
 73
5
 74
0
 42
0.0000001
 43
0.0000001
 44
0.0000000001
 40
0.0
 40
0.0
 40
0.0
 40
0.0
 40
0.5003992451
 40
1.0
 40
1.0
 40
1.0
 40
1.0
 10
279.2109648394
 20
238.5333560626
 30
0.0
 10
279.2100081027
 20
240.7478007468
 30
0.0
 10
279.1929303892
 20
245.1732057021
 30
0.0
 10
279.1189322319
 20
249.5981029256
 30
0.0
 10
279.0672794853
 20
251.8084107583
 30
0.0
  0
SPLINE
  5
36E
100
AcDbEntity
  8
00_COMPONENTS_25
100
AcDbSpline
 62
7
  6
CONTINUOUS
 70
0
 71
3
 72
9
 73
5
 74
0
 42
0.0000001
 43
0.0000001
 44
0.0000000001
 40
0.0
 40
0.0
 40
0.0
 40
0.0
 40
0.3794537217
 40
1.0
 40
1.0
 40
1.0
 40
1.0
 10
279.0395066109
 20
252.9239779284
 30
0.0
 10
279.0409848207
 20
252.9235445051
 30
0.0
 10
279.0445114592
 20
252.9223267656
 30
0.0
 10
279.0495383027
 20
252.9201096464
 30
0.0
 10
279.0496448722
 20
252.9175927137
 30
0.0
  0
SPLINE
  5
36F
100
AcDbEntity
  8
00_COMPONENTS_25
100
AcDbSpline
 62
7
  6
CONTINUOUS
 70
0
 71
3
 72
11
 73
7
 74
0
 42
0.0000001
 43
0.0000001
 44
0.0000000001
 40
0.0
 40
0.0
 40
0.0
 40
0.0
 40
0.2326896531
 40
0.4776530732
 40
0.7341269862
 40
1.0
 40
1.0
 40
1.0
 40
1.0
 10
273.2458390041
 20
257.8545532965
 30
0.0
 10
273.5996566461
 20
257.6675469354
 30
0.0
 10
274.2484189311
 20
257.1279775049
 30
0.0
 10
274.9167180406
 20
256.0380516602
 30
0.0
 10
275.3058562845
 20
254.765153403
 30
0.0
 10
275.3854387009
 20
253.8639219347
 30
0.0
 10
275.3854392924
 20
253.4066527709
 30
0.0
  0
SPLINE
  5
370
100
AcDbEntity
  8
00_COMPONENTS_25
100
AcDbSpline
 62
7
  6
CONTINUOUS
 70
0
 71
3
 72
11
 73
7
 74
0
 42
0.0000001
 43
0.0000001
 44
0.0000000001
 40
0.0
 40
0.0
 40
0.0
 40
0.0
 40
0.2658730083
 40
0.522346922
 40
0.767310344
 40
1.0
 40
1.0
 40
1.0
 40
1.0
 10
275.3854392975
 20
222.9458122551
 30
0.0
 10
275.3854386427
 20
222.4885431882
 30
0.0
 10
275.3058561321
 20
221.5873119118
 30
0.0
 10
274.9167178337
 20
220.314413944
 30
0.0
 10
274.2484187597
 20
219.2244883564
 30
0.0
 10
273.5996565766
 20
218.6849190529
 30
0.0
 10
273.245838997
 20
218.4979127266
 30
0.0
  0
SPLINE
  5
371
100
AcDbEntity
  8
00_COMPONENTS_25
100
AcDbSpline
 62
7
  6
CONTINUOUS
 70
0
 71
3
 72
13
 73
9
 74
0
 42
0.0000001
 43
0.0000001
 44
0.0000000001
 40
0.0
 40
0.0
 40
0.0
 40
0.0
 40
0.0668743996
 40
0.1557416953
 40
0.2661467392
 40
0.3950606663
 40
0.6906941303
 40
1.0
 40
1.0
 40
1.0
 40
1.0
 10
279.0395309044
 20
252.9239815246
 30
0.0
 10
278.9665041536
 20
252.9626145162
 30
0.0
 10
278.7868634877
 20
253.0339689557
 30
0.0
 10
278.4701513976
 20
253.1230059963
 30
0.0
 10
278.0725502525
 20
253.203985531
 30
0.0
 10
277.4188650867
 20
253.3024257476
 30
0.0
 10
276.5148273046
 20
253.3808935494
 30
0.0
 10
275.7675446556
 20
253.4042949998
 30
0.0
 10
275.3854380907
 20
253.4066542599
 30
0.0
  0
SPLINE
  5
372
100
AcDbEntity
  8
00_COMPONENTS_25
100
AcDbSpline
 62
7
  6
CONTINUOUS
 70
0
 71
3
 72
11
 73
7
 74
0
 42
0.0000001
 43
0.0000001
 44
0.0000000001
 40
0.0
 40
0.0
 40
0.0
 40
0.0
 40
0.2505273133
 40
0.5008522504
 40
0.7507520552
 40
1.0
 40
1.0
 40
1.0
 40
1.0
 10
274.8269072017
 20
260.1265695007
 30
0.0
 10
275.3237618548
 20
259.8886212365
 30
0.0
 10
276.2640140323
 20
259.2932108218
 30
0.0
 10
277.4366886297
 20
258.1138173022
 30
0.0
 10
278.3373138825
 20
256.7205048603
 30
0.0
 10
278.7438099479
 20
255.6924222091
 30
0.0
 10
278.8965051403
 20
255.1660417277
 30
0.0
  0
SPLINE
  5
373
100
AcDbEntity
  8
00_COMPONENTS_25
100
AcDbSpline
 62
7
  6
CONTINUOUS
 70
0
 71
3
 72
9
 73
5
 74
0
 42
0.0000001
 43
0.0000001
 44
0.0000000001
 40
0.0
 40
0.0
 40
0.0
 40
0.0
 40
0.5284610632
 40
1.0
 40
1.0
 40
1.0
 40
1.0
 10
279.0395329302
 20
252.9239808522
 30
0.0
 10
279.0299370713
 20
253.3153551764
 30
0.0
 10
278.9956689819
 20
254.05559854
 30
0.0
 10
278.9350453989
 20
254.794114343
 30
0.0
 10
278.8990790848
 20
255.1415810362
 30
0.0
  0
LINE
  5
374
100
AcDbEntity
  8
00_COMPONENTS_25
100
AcDbLine
 62
7
  6
CONTINUOUS
 10
278.8990790848
 20
255.1415810362
 11
278.896533798
 21
255.1660493569
  0
SPLINE
  5
375
100
AcDbEntity
  8
00_COMPONENTS_25
100
AcDbSpline
 62
7
  6
CONTINUOUS
 70
0
 71
3
 72
8
 73
4
 74
0
 42
0.0000001
 43
0.0000001
 44
0.0000000001
 40
0.0
 40
0.0
 40
0.0
 40
0.0
 40
1.0
 40
1.0
 40
1.0
 40
1.0
 10
278.896533798
 20
255.1660493569
 30
0.0
 10
278.9007500261
 20
255.1570190962
 30
0.0
 10
278.9035887592
 20
255.1471891096
 30
0.0
 10
278.9046834891
 20
255.1372833661
 30
0.0
  0
SPLINE
  5
376
100
AcDbEntity
  8
00_COMPONENTS_25
100
AcDbSpline
 62
7
  6
CONTINUOUS
 70
0
 71
3
 72
14
 73
10
 74
0
 42
0.0000001
 43
0.0000001
 44
0.0000000001
 40
0.0
 40
0.0
 40
0.0
 40
0.0
 40
0.0794074448
 40
0.1716361146
 40
0.2791905256
 40
0.4016878768
 40
0.5374109817
 40
0.6840467272
 40
1.0
 40
1.0
 40
1.0
 40
1.0
 10
274.8269486895
 20
260.1265314883
 30
0.0
 10
274.8153078605
 20
260.0758653958
 30
0.0
 10
274.7741143311
 20
259.9695792229
 30
0.0
 10
274.6652421132
 20
259.820815984
 30
0.0
 10
274.5096167242
 20
259.6770859509
 30
0.0
 10
274.3141989217
 20
259.5379277798
 30
0.0
 10
274.084399681
 20
259.4052288227
 30
0.0
 10
273.7306580364
 20
259.2360736689
 30
0.0
 10
273.4431871545
 20
259.1380742129
 30
0.0
 10
273.2458412878
 20
259.0761037723
 30
0.0
  0
SPLINE
  5
377
100
AcDbEntity
  8
00_COMPONENTS_25
100
AcDbSpline
 62
7
  6
CONTINUOUS
 70
0
 71
3
 72
9
 73
5
 74
0
 42
0.0000001
 43
0.0000001
 44
0.0000000001
 40
0.0
 40
0.0
 40
0.0
 40
0.0
 40
0.7507446361
 40
1.0
 40
1.0
 40
1.0
 40
1.0
 10
274.0844552845
 20
260.2780587608
 30
0.0
 10
274.2745110736
 20
260.2721772474
 30
0.0
 10
274.5283266018
 20
260.2315424039
 30
0.0
 10
274.7681527176
 20
260.1496526227
 30
0.0
 10
274.8269003273
 20
260.1265395274
 30
0.0
  0
LINE
  5
378
100
AcDbEntity
  8
00_COMPONENTS_25
100
AcDbLine
 62
7
  6
CONTINUOUS
 10
278.8965249795
 20
221.1863580432
 11
278.899070771
 21
221.210855597
  0
SPLINE
  5
379
100
AcDbEntity
  8
00_COMPONENTS_25
100
AcDbSpline
 62
7
  6
CONTINUOUS
 70
0
 71
3
 72
9
 73
5
 74
0
 42
0.0000001
 43
0.0000001
 44
0.0000000001
 40
0.0
 40
0.0
 40
0.0
 40
0.0
 40
0.4715500334
 40
1.0
 40
1.0
 40
1.0
 40
1.0
 10
278.899070771
 20
221.210855597
 30
0.0
 10
278.9350048588
 20
221.5583387927
 30
0.0
 10
278.9957440757
 20
222.2968551155
 30
0.0
 10
279.0299201056
 20
223.0371142014
 30
0.0
 10
279.0395328128
 20
223.4284853572
 30
0.0
  0
SPLINE
  5
37A
100
AcDbEntity
  8
00_COMPONENTS_25
100
AcDbSpline
 62
7
  6
CONTINUOUS
 70
0
 71
3
 72
13
 73
9
 74
0
 42
0.0000001
 43
0.0000001
 44
0.0000000001
 40
0.0
 40
0.0
 40
0.0
 40
0.0
 40
0.0789456253
 40
0.164891108
 40
0.2644154661
 40
0.3805797594
 40
0.6625863556
 40
1.0
 40
1.0
 40
1.0
 40
1.0
 10
274.0844367079
 20
260.2780871803
 30
0.0
 10
274.0844265389
 20
260.2513829432
 30
0.0
 10
274.0736918438
 20
260.1951341715
 30
0.0
 10
274.0263600135
 20
260.1174783432
 30
0.0
 10
273.950279807
 20
260.0480247829
 30
0.0
 10
273.8051840305
 20
259.9611238329
 30
0.0
 10
273.5661115105
 20
259.8837405429
 30
0.0
 10
273.3591516536
 20
259.8497369579
 30
0.0
 10
273.2458396468
 20
259.8360642293
 30
0.0
  0
LINE
  5
37B
100
AcDbEntity
  8
00_COMPONENTS_25
100
AcDbLine
 62
7
  6
CONTINUOUS
 10
279.2289336057
 20
221.3907690576
 11
279.2345001697
 21
221.3907901304
  0
LINE
  5
37C
100
AcDbEntity
  8
00_COMPONENTS_25
100
AcDbLine
 62
7
  6
CONTINUOUS
 10
279.2345001697
 20
221.3907901304
 11
279.2356069807
 21
221.3909836809
  0
SPLINE
  5
37D
100
AcDbEntity
  8
00_COMPONENTS_25
100
AcDbSpline
 62
7
  6
CONTINUOUS
 70
0
 71
3
 72
9
 73
5
 74
0
 42
0.0000001
 43
0.0000001
 44
0.0000000001
 40
0.0
 40
0.0
 40
0.0
 40
0.0
 40
0.3795372546
 40
1.0
 40
1.0
 40
1.0
 40
1.0
 10
279.0395327829
 20
223.4284841183
 30
0.0
 10
279.0410098729
 20
223.4289177899
 30
0.0
 10
279.0445323953
 20
223.4301346973
 30
0.0
 10
279.0495553922
 20
223.4323585407
 30
0.0
 10
279.0496550795
 20
223.4348732176
 30
0.0
  0
SPLINE
  5
37E
100
AcDbEntity
  8
00_COMPONENTS_25
100
AcDbSpline
 62
7
  6
CONTINUOUS
 70
0
 71
3
 72
13
 73
9
 74
0
 42
0.0000001
 43
0.0000001
 44
0.0000000001
 40
0.0
 40
0.0
 40
0.0
 40
0.0
 40
0.3374133886
 40
0.6194199523
 40
0.735584321
 40
0.8351088091
 40
0.9210543834
 40
1.0
 40
1.0
 40
1.0
 40
1.0
 10
273.2458396473
 20
216.5164018005
 30
0.0
 10
273.3591514022
 20
216.5027290996
 30
0.0
 10
273.566110865
 20
216.4687256066
 30
0.0
 10
273.8051829923
 20
216.3913425996
 30
0.0
 10
273.9502787454
 20
216.3044419936
 30
0.0
 10
274.0263591169
 20
216.2349887101
 30
0.0
 10
274.0736913015
 20
216.1573331855
 30
0.0
 10
274.0844263462
 20
216.101084548
 30
0.0
 10
274.0844367059
 20
216.074380353
 30
0.0
  0
SPLINE
  5
37F
100
AcDbEntity
  8
00_COMPONENTS_25
100
AcDbSpline
 62
7
  6
CONTINUOUS
 70
0
 71
3
 72
11
 73
7
 74
0
 42
0.0000001
 43
0.0000001
 44
0.0000000001
 40
0.0
 40
0.0
 40
0.0
 40
0.0
 40
0.2492477781
 40
0.4991482156
 40
0.7494729969
 40
1.0
 40
1.0
 40
1.0
 40
1.0
 10
278.8964942701
 20
221.1863585161
 30
0.0
 10
278.7437982105
 20
220.6599840777
 30
0.0
 10
278.3372844968
 20
219.6319186748
 30
0.0
 10
277.4366669353
 20
218.2386203305
 30
0.0
 10
276.2639950097
 20
217.0592461741
 30
0.0
 10
275.3237565683
 20
216.4638366859
 30
0.0
 10
274.8269072017
 20
216.2258910524
 30
0.0
  0
SPLINE
  5
380
100
AcDbEntity
  8
00_COMPONENTS_25
100
AcDbSpline
 62
7
  6
CONTINUOUS
 70
0
 71
3
 72
9
 73
5
 74
0
 42
0.0000001
 43
0.0000001
 44
0.0000000001
 40
0.0
 40
0.0
 40
0.0
 40
0.0
 40
0.4568792402
 40
1.0
 40
1.0
 40
1.0
 40
1.0
 10
279.2289336057
 20
221.3907690576
 30
0.0
 10
279.2284905619
 20
221.3909072697
 30
0.0
 10
279.2276149258
 20
221.3915584573
 30
0.0
 10
279.2264718391
 20
221.3910976998
 30
0.0
 10
279.2260759411
 20
221.3907134539
 30
0.0
  0
SPLINE
  5
381
100
AcDbEntity
  8
00_COMPONENTS_25
100
AcDbSpline
 62
7
  6
CONTINUOUS
 70
0
 71
3
 72
9
 73
5
 74
0
 42
0.0000001
 43
0.0000001
 44
0.0000000001
 40
0.0
 40
0.0
 40
0.0
 40
0.0
 40
0.2333235431
 40
1.0
 40
1.0
 40
1.0
 40
1.0
 10
278.8347614319
 20
218.3642856332
 30
0.0
 10
278.8347751652
 20
218.3670966231
 30
0.0
 10
278.8349293613
 20
218.379143758
 30
0.0
 10
278.8354250033
 20
218.3911849272
 30
0.0
 10
278.8359329821
 20
218.4004076737
 30
0.0
  0
SPLINE
  5
382
100
AcDbEntity
  8
00_COMPONENTS_25
100
AcDbSpline
 62
7
  6
CONTINUOUS
 70
0
 71
3
 72
9
 73
5
 74
0
 42
0.0000001
 43
0.0000001
 44
0.0000000001
 40
0.0
 40
0.0
 40
0.0
 40
0.0
 40
0.4250100374
 40
1.0
 40
1.0
 40
1.0
 40
1.0
 10
278.8370098761
 20
218.417420705
 30
0.0
 10
278.841421425
 20
218.4796027134
 30
0.0
 10
278.8609045223
 20
218.6251555872
 30
0.0
 10
278.8851058693
 20
218.7697793758
 30
0.0
 10
278.8995352107
 20
218.8528724251
 30
0.0
  0
SPLINE
  5
383
100
AcDbEntity
  8
00_COMPONENTS_25
100
AcDbSpline
 62
7
  6
CONTINUOUS
 70
0
 71
3
 72
9
 73
5
 74
0
 42
0.0000001
 43
0.0000001
 44
0.0000000001
 40
0.0
 40
0.0
 40
0.0
 40
0.0
 40
0.4570393621
 40
1.0
 40
1.0
 40
1.0
 40
1.0
 10
278.8995352107
 20
218.8528724251
 30
0.0
 10
278.9271059194
 20
219.0116415737
 30
0.0
 10
278.9908748213
 20
219.3584127698
 30
0.0
 10
279.0497392158
 20
219.7060860004
 30
0.0
 10
279.0789739774
 20
219.8952804022
 30
0.0
  0
SPLINE
  5
384
100
AcDbEntity
  8
00_COMPONENTS_25
100
AcDbSpline
 62
7
  6
CONTINUOUS
 70
0
 71
3
 72
9
 73
5
 74
0
 42
0.0000001
 43
0.0000001
 44
0.0000000001
 40
0.0
 40
0.0
 40
0.0
 40
0.0
 40
0.2379130481
 40
1.0
 40
1.0
 40
1.0
 40
1.0
 10
279.1003669946
 20
220.0371778996
 30
0.0
 10
279.1156194067
 20
220.1410101326
 30
0.0
 10
279.1759652625
 20
220.5779510636
 30
0.0
 10
279.2179016442
 20
221.0177105733
 30
0.0
 10
279.2339469892
 20
221.3534937811
 30
0.0
  0
LINE
  5
385
100
AcDbEntity
  8
00_COMPONENTS_25
100
AcDbLine
 62
7
  6
CONTINUOUS
 10
279.2339469892
 20
221.3534937811
 11
279.2346717445
 21
221.3688996364
  0
SPLINE
  5
386
100
AcDbEntity
  8
00_COMPONENTS_25
100
AcDbSpline
 62
7
  6
CONTINUOUS
 70
0
 71
3
 72
10
 73
6
 74
0
 42
0.0000001
 43
0.0000001
 44
0.0000000001
 40
0.0
 40
0.0
 40
0.0
 40
0.0
 40
0.1796190938
 40
0.4128361517
 40
1.0
 40
1.0
 40
1.0
 40
1.0
 10
278.843253413
 20
257.8675924296
 30
0.0
 10
278.8518870775
 20
257.7901096738
 30
0.0
 10
278.8792915451
 20
257.6129276682
 30
0.0
 10
278.9550762351
 20
257.1856023027
 30
0.0
 10
279.0185633931
 20
256.8351724574
 30
0.0
 10
279.05905081
 20
256.583555087
 30
0.0
  0
SPLINE
  5
387
100
AcDbEntity
  8
00_COMPONENTS_25
100
AcDbSpline
 62
7
  6
CONTINUOUS
 70
0
 71
3
 72
9
 73
5
 74
0
 42
0.0000001
 43
0.0000001
 44
0.0000000001
 40
0.0
 40
0.0
 40
0.0
 40
0.0
 40
0.2436321358
 40
1.0
 40
1.0
 40
1.0
 40
1.0
 10
279.1598812905
 20
255.8689734465
 30
0.0
 10
279.1685031587
 20
255.7963292353
 30
0.0
 10
279.201666092
 20
255.4979049755
 30
0.0
 10
279.2249372753
 20
255.1983205788
 30
0.0
 10
279.2353213569
 20
254.9714477119
 30
0.0
  0
SPLINE
  5
388
100
AcDbEntity
  8
00_COMPONENTS_4
100
AcDbSpline
 62
7
  6
CONTINUOUS
 70
0
 71
3
 72
9
 73
5
 74
0
 42
0.0000001
 43
0.0000001
 44
0.0000000001
 40
0.0
 40
0.0
 40
0.0
 40
0.0
 40
0.7288525099
 40
1.0
 40
1.0
 40
1.0
 40
1.0
 10
253.2458448211
 20
46.8679871636
 30
0.0
 10
253.2459002055
 20
46.8192717688
 30
0.0
 10
253.2644186355
 20
46.7519200625
 30
0.0
 10
253.2972828997
 20
46.6938301296
 30
0.0
 10
253.3069757707
 20
46.6785169021
 30
0.0
  0
SPLINE
  5
389
100
AcDbEntity
  8
00_COMPONENTS_4
100
AcDbSpline
 62
7
  6
CONTINUOUS
 70
0
 71
3
 72
8
 73
4
 74
0
 42
0.0000001
 43
0.0000001
 44
0.0000000001
 40
0.0
 40
0.0
 40
0.0
 40
0.0
 40
1.0
 40
1.0
 40
1.0
 40
1.0
 10
253.3069757707
 20
46.6785169021
 30
0.0
 10
253.3288232771
 20
46.6440012425
 30
0.0
 10
253.3547116314
 20
46.6119388031
 30
0.0
 10
253.3825706345
 20
46.5820637259
 30
0.0
  0
SPLINE
  5
38A
100
AcDbEntity
  8
00_COMPONENTS_4
100
AcDbSpline
 62
7
  6
CONTINUOUS
 70
0
 71
3
 72
9
 73
5
 74
0
 42
0.0000001
 43
0.0000001
 44
0.0000000001
 40
0.0
 40
0.0
 40
0.0
 40
0.0
 40
0.2166440401
 40
1.0
 40
1.0
 40
1.0
 40
1.0
 10
253.3825706345
 20
46.5820637259
 30
0.0
 10
253.4073667889
 20
46.5554731467
 30
0.0
 10
253.5298101144
 20
46.4401913949
 30
0.0
 10
253.6715354765
 20
46.3478370568
 30
0.0
 10
253.7842570101
 20
46.280182543
 30
0.0
  0
SPLINE
  5
38B
100
AcDbEntity
  8
00_COMPONENTS_4
100
AcDbSpline
 62
7
  6
CONTINUOUS
 70
0
 71
3
 72
9
 73
5
 74
0
 42
0.0000001
 43
0.0000001
 44
0.0000000001
 40
0.0
 40
0.0
 40
0.0
 40
0.0
 40
0.2422387764
 40
1.0
 40
1.0
 40
1.0
 40
1.0
 10
253.860196032
 20
46.235624016
 30
0.0
 10
253.8921682954
 20
46.2172529346
 30
0.0
 10
254.0249509121
 20
46.1427961246
 30
0.0
 10
254.1599282025
 20
46.0723553081
 30
0.0
 10
254.2623747056
 20
46.0193448867
 30
0.0
  0
LINE
  5
38C
100
AcDbEntity
  8
00_COMPONENTS_4
100
AcDbLine
 62
7
  6
CONTINUOUS
 10
254.2623747056
 20
46.0193448867
 11
254.3458400097
 21
45.9762330136
  0
SPLINE
  5
38D
100
AcDbEntity
  8
00_COMPONENTS_4
100
AcDbSpline
 62
7
  6
CONTINUOUS
 70
0
 71
3
 72
8
 73
4
 74
0
 42
0.0000001
 43
0.0000001
 44
0.0000000001
 40
0.0
 40
0.0
 40
0.0
 40
0.0
 40
1.0
 40
1.0
 40
1.0
 40
1.0
 10
272.8841440982
 20
439.7635059835
 30
0.0
 10
273.0026178005
 20
439.6304025562
 30
0.0
 10
273.1212100761
 20
439.4972278742
 30
0.0
 10
273.2458404733
 20
439.3698708778
 30
0.0
  0
SPLINE
  5
38E
100
AcDbEntity
  8
00_COMPONENTS_4
100
AcDbSpline
 62
7
  6
CONTINUOUS
 70
0
 71
3
 72
8
 73
4
 74
0
 42
0.0000001
 43
0.0000001
 44
0.0000000001
 40
0.0
 40
0.0
 40
0.0
 40
0.0
 40
1.0
 40
1.0
 40
1.0
 40
1.0
 10
272.8841440982
 20
46.1889600437
 30
0.0
 10
273.0026178005
 20
46.3220634709
 30
0.0
 10
273.1212100761
 20
46.4552381529
 30
0.0
 10
273.2458404733
 20
46.5825951494
 30
0.0
  0
LINE
  5
38F
100
AcDbEntity
  8
00_COMPONENTS_4
100
AcDbLine
 62
7
  6
CONTINUOUS
 10
254.3458400097
 20
439.9762330136
 11
254.2657942859
 21
439.934891614
  0
SPLINE
  5
390
100
AcDbEntity
  8
00_COMPONENTS_4
100
AcDbSpline
 62
7
  6
CONTINUOUS
 70
0
 71
3
 72
9
 73
5
 74
0
 42
0.0000001
 43
0.0000001
 44
0.0000000001
 40
0.0
 40
0.0
 40
0.0
 40
0.0
 40
0.7577378011
 40
1.0
 40
1.0
 40
1.0
 40
1.0
 10
254.2657942859
 20
439.934891614
 30
0.0
 10
254.1631600454
 20
439.8817987279
 30
0.0
 10
254.0279172715
 20
439.8112738245
 30
0.0
 10
253.8948602125
 20
439.7367447453
 30
0.0
 10
253.8628180087
 20
439.7183546269
 30
0.0
  0
SPLINE
  5
391
100
AcDbEntity
  8
00_COMPONENTS_4
100
AcDbSpline
 62
7
  6
CONTINUOUS
 70
0
 71
3
 72
9
 73
5
 74
0
 42
0.0000001
 43
0.0000001
 44
0.0000000001
 40
0.0
 40
0.0
 40
0.0
 40
0.0
 40
0.2817001028
 40
1.0
 40
1.0
 40
1.0
 40
1.0
 10
253.8015830969
 20
439.682623699
 30
0.0
 10
253.760325675
 20
439.6581225911
 30
0.0
 10
253.6157163218
 20
439.5686251159
 30
0.0
 10
253.4757758157
 20
439.467695104
 30
0.0
 10
253.391100244
 20
439.3793749812
 30
0.0
  0
SPLINE
  5
392
100
AcDbEntity
  8
00_COMPONENTS_4
100
AcDbSpline
 62
7
  6
CONTINUOUS
 70
0
 71
3
 72
8
 73
4
 74
0
 42
0.0000001
 43
0.0000001
 44
0.0000000001
 40
0.0
 40
0.0
 40
0.0
 40
0.0
 40
1.0
 40
1.0
 40
1.0
 40
1.0
 10
253.391100244
 20
439.3793749812
 30
0.0
 10
253.3633699179
 20
439.3504511044
 30
0.0
 10
253.3374333939
 20
439.3195109483
 30
0.0
 10
253.3150857972
 20
439.2862521666
 30
0.0
  0
SPLINE
  5
393
100
AcDbEntity
  8
00_COMPONENTS_4
100
AcDbSpline
 62
7
  6
CONTINUOUS
 70
0
 71
3
 72
9
 73
5
 74
0
 42
0.0000001
 43
0.0000001
 44
0.0000000001
 40
0.0
 40
0.0
 40
0.0
 40
0.0
 40
0.2734334236
 40
1.0
 40
1.0
 40
1.0
 40
1.0
 10
253.3150857972
 20
439.2862521666
 30
0.0
 10
253.3041570223
 20
439.2699874317
 30
0.0
 10
253.2672765258
 20
439.2087026905
 30
0.0
 10
253.2459093055
 20
439.1365477021
 30
0.0
 10
253.2458452145
 20
439.0844788946
 30
0.0
  0
LINE
  5
394
100
AcDbEntity
  8
00_COMPONENTS_30
100
AcDbLine
 62
7
  6
CONTINUOUS
 10
249.2458251274
 20
63.1742261271
 11
249.1212407694
 21
63.0701053669
  0
SPLINE
  5
395
100
AcDbEntity
  8
00_COMPONENTS_30
100
AcDbSpline
 62
7
  6
CONTINUOUS
 70
0
 71
3
 72
9
 73
5
 74
0
 42
0.0000001
 43
0.0000001
 44
0.0000000001
 40
0.0
 40
0.0
 40
0.0
 40
0.0
 40
0.259688722
 40
1.0
 40
1.0
 40
1.0
 40
1.0
 10
249.1212407694
 20
63.0701053669
 30
0.0
 10
249.0266989218
 20
62.9909873741
 30
0.0
 10
248.6635325356
 20
62.6854784278
 30
0.0
 10
248.3073435508
 20
62.3699908071
 30
0.0
 10
248.0631985967
 20
62.1171989672
 30
0.0
  0
SPLINE
  5
396
100
AcDbEntity
  8
00_COMPONENTS_30
100
AcDbSpline
 62
7
  6
CONTINUOUS
 70
0
 71
3
 72
9
 73
5
 74
0
 42
0.0000001
 43
0.0000001
 44
0.0000000001
 40
0.0
 40
0.0
 40
0.0
 40
0.0
 40
0.5485371308
 40
1.0
 40
1.0
 40
1.0
 40
1.0
 10
248.0631985967
 20
62.1171989672
 30
0.0
 10
247.8344888
 20
61.880388952
 30
0.0
 10
247.4397794277
 20
61.4201722901
 30
0.0
 10
247.2458400097
 20
60.8209988371
 30
0.0
 10
247.2458400097
 20
60.5500390054
 30
0.0
  0
SPLINE
  5
397
100
AcDbEntity
  8
00_COMPONENTS_30
100
AcDbSpline
 62
7
  6
CONTINUOUS
 70
0
 71
3
 72
10
 73
6
 74
0
 42
0.0000001
 43
0.0000001
 44
0.0000000001
 40
0.0
 40
0.0
 40
0.0
 40
0.0
 40
0.3727564209
 40
0.6532177519
 40
1.0
 40
1.0
 40
1.0
 40
1.0
 10
70.2458400097
 20
440.7762330136
 30
0.0
 10
70.2458400097
 20
440.9000126215
 30
0.0
 10
70.4071592108
 20
441.0939595024
 30
0.0
 10
70.679214448
 20
441.2697963078
 30
0.0
 10
70.8666244342
 20
441.3661060966
 30
0.0
 10
70.9709292152
 20
441.414902267
 30
0.0
  0
SPLINE
  5
398
100
AcDbEntity
  8
00_COMPONENTS_30
100
AcDbSpline
 62
7
  6
CONTINUOUS
 70
0
 71
3
 72
9
 73
5
 74
0
 42
0.0000001
 43
0.0000001
 44
0.0000000001
 40
0.0
 40
0.0
 40
0.0
 40
0.0
 40
0.2306009713
 40
1.0
 40
1.0
 40
1.0
 40
1.0
 10
70.9709292152
 20
441.414902267
 30
0.0
 10
71.0236907157
 20
441.4395853079
 30
0.0
 10
71.2543005983
 20
441.5427606316
 30
0.0
 10
71.4899891069
 20
441.6341345685
 30
0.0
 10
71.6722068147
 20
441.701725828
 30
0.0
  0
SPLINE
  5
399
100
AcDbEntity
  8
00_COMPONENTS_30
100
AcDbSpline
 62
7
  6
CONTINUOUS
 70
0
 71
3
 72
9
 73
5
 74
0
 42
0.0000001
 43
0.0000001
 44
0.0000000001
 40
0.0
 40
0.0
 40
0.0
 40
0.0
 40
0.2442275519
 40
1.0
 40
1.0
 40
1.0
 40
1.0
 10
71.6722068147
 20
441.701725828
 30
0.0
 10
71.7348640649
 20
441.72496771
 30
0.0
 10
71.9919538828
 20
441.8186877124
 30
0.0
 10
72.2504781157
 20
441.9083941539
 30
0.0
 10
72.4458400097
 20
441.9762330136
 30
0.0
  0
SPLINE
  5
39A
100
AcDbEntity
  8
00_COMPONENTS_30
100
AcDbSpline
 62
7
  6
CONTINUOUS
 70
0
 71
3
 72
9
 73
5
 74
0
 42
0.0000001
 43
0.0000001
 44
0.0000000001
 40
0.0
 40
0.0
 40
0.0
 40
0.0
 40
0.7557724328
 40
1.0
 40
1.0
 40
1.0
 40
1.0
 10
72.4458400097
 20
43.9762330136
 30
0.0
 10
72.2504785849
 20
44.0440717103
 30
0.0
 10
71.9919549677
 20
44.133777938
 30
0.0
 10
71.7348657554
 20
44.2274976985
 30
0.0
 10
71.6722086482
 20
44.2507395203
 30
0.0
  0
SPLINE
  5
39B
100
AcDbEntity
  8
00_COMPONENTS_30
100
AcDbSpline
 62
7
  6
CONTINUOUS
 70
0
 71
3
 72
9
 73
5
 74
0
 42
0.0000001
 43
0.0000001
 44
0.0000000001
 40
0.0
 40
0.0
 40
0.0
 40
0.0
 40
0.2806488381
 40
1.0
 40
1.0
 40
1.0
 40
1.0
 10
71.6722086482
 20
44.2507395203
 30
0.0
 10
71.5798215446
 20
44.2850092894
 30
0.0
 10
71.2520479875
 20
44.4102246099
 30
0.0
 10
70.9271506495
 20
44.5477718086
 30
0.0
 10
70.7074122814
 20
44.6722986411
 30
0.0
  0
SPLINE
  5
39C
100
AcDbEntity
  8
00_COMPONENTS_30
100
AcDbSpline
 62
7
  6
CONTINUOUS
 70
0
 71
3
 72
9
 73
5
 74
0
 42
0.0000001
 43
0.0000001
 44
0.0000000001
 40
0.0
 40
0.0
 40
0.0
 40
0.0
 40
0.604618345
 40
1.0
 40
1.0
 40
1.0
 40
1.0
 10
70.7074122814
 20
44.6722986411
 30
0.0
 10
70.5839671837
 20
44.7422555956
 30
0.0
 10
70.3833083663
 20
44.8623379504
 30
0.0
 10
70.2458400097
 20
45.0834462864
 30
0.0
 10
70.2458400097
 20
45.1762330136
 30
0.0
  0
SPLINE
  5
39D
100
AcDbEntity
  8
00_COMPONENTS_30
100
AcDbSpline
 62
7
  6
CONTINUOUS
 70
0
 71
3
 72
9
 73
5
 74
0
 42
0.0000001
 43
0.0000001
 44
0.0000000001
 40
0.0
 40
0.0
 40
0.0
 40
0.0
 40
0.4514435048
 40
1.0
 40
1.0
 40
1.0
 40
1.0
 10
247.2458400097
 20
425.4024270218
 30
0.0
 10
247.2458400097
 20
425.1313730636
 30
0.0
 10
247.4399278711
 20
424.5319739581
 30
0.0
 10
247.8348587221
 20
424.0716405371
 30
0.0
 10
248.0636927556
 20
423.8347557136
 30
0.0
  0
SPLINE
  5
39E
100
AcDbEntity
  8
00_COMPONENTS_30
100
AcDbSpline
 62
7
  6
CONTINUOUS
 70
0
 71
3
 72
9
 73
5
 74
0
 42
0.0000001
 43
0.0000001
 44
0.0000000001
 40
0.0
 40
0.0
 40
0.0
 40
0.0
 40
0.2378150364
 40
1.0
 40
1.0
 40
1.0
 40
1.0
 10
248.0636927556
 20
423.8347557136
 30
0.0
 10
248.1421001332
 20
423.7535898245
 30
0.0
 10
248.4809622027
 20
423.4211011421
 30
0.0
 10
248.8438363184
 20
423.1145086001
 30
0.0
 10
249.1212094708
 20
422.8823868056
 30
0.0
  0
LINE
  5
39F
100
AcDbEntity
  8
00_COMPONENTS_30
100
AcDbLine
 62
7
  6
CONTINUOUS
 10
249.1212094708
 20
422.8823868056
 11
249.2458251152
 21
422.7782398836
  0
SPLINE
  5
3A0
100
AcDbEntity
  8
00_COMPONENTS_30
100
AcDbSpline
 62
7
  6
CONTINUOUS
 70
0
 71
3
 72
9
 73
5
 74
0
 42
0.0000001
 43
0.0000001
 44
0.0000000001
 40
0.0
 40
0.0
 40
0.0
 40
0.0
 40
0.2301664531
 40
1.0
 40
1.0
 40
1.0
 40
1.0
 10
247.2458400097
 20
46.1762335148
 30
0.0
 10
247.2458400432
 20
46.1352422072
 30
0.0
 10
247.2273881559
 20
45.9567977644
 30
0.0
 10
247.1355775646
 20
45.7931901809
 30
0.0
 10
247.0510785591
 20
45.6852220471
 30
0.0
  0
SPLINE
  5
3A1
100
AcDbEntity
  8
00_COMPONENTS_30
100
AcDbSpline
 62
7
  6
CONTINUOUS
 70
0
 71
3
 72
9
 73
5
 74
0
 42
0.0000001
 43
0.0000001
 44
0.0000000001
 40
0.0
 40
0.0
 40
0.0
 40
0.0
 40
0.2127838247
 40
1.0
 40
1.0
 40
1.0
 40
1.0
 10
247.0510785591
 20
45.6852220471
 30
0.0
 10
247.0089872903
 20
45.6314401627
 30
0.0
 10
246.7913712824
 20
45.3941792105
 30
0.0
 10
246.5237611793
 20
45.2094355649
 30
0.0
 10
246.3089285876
 20
45.0764477107
 30
0.0
  0
SPLINE
  5
3A2
100
AcDbEntity
  8
00_COMPONENTS_30
100
AcDbSpline
 62
7
  6
CONTINUOUS
 70
0
 71
3
 72
9
 73
5
 74
0
 42
0.0000001
 43
0.0000001
 44
0.0000000001
 40
0.0
 40
0.0
 40
0.0
 40
0.0
 40
0.2372096667
 40
1.0
 40
1.0
 40
1.0
 40
1.0
 10
246.3089285876
 20
45.0764477107
 30
0.0
 10
246.2667948638
 20
45.0503656649
 30
0.0
 10
246.0877798067
 20
44.9426606349
 30
0.0
 10
245.9041347824
 20
44.8428014888
 30
0.0
 10
245.7626851744
 20
44.7694285419
 30
0.0
  0
SPLINE
  5
3A3
100
AcDbEntity
  8
00_COMPONENTS_30
100
AcDbSpline
 62
7
  6
CONTINUOUS
 70
0
 71
3
 72
9
 73
5
 74
0
 42
0.0000001
 43
0.0000001
 44
0.0000000001
 40
0.0
 40
0.0
 40
0.0
 40
0.0
 40
0.2352263414
 40
1.0
 40
1.0
 40
1.0
 40
1.0
 10
245.7626851744
 20
44.7694285419
 30
0.0
 10
245.6310350584
 20
44.7011388018
 30
0.0
 10
245.0658810222
 20
44.4213555906
 30
0.0
 10
244.4875663652
 20
44.1695660793
 30
0.0
 10
244.0458400097
 20
43.9762330136
 30
0.0
  0
SPLINE
  5
3A4
100
AcDbEntity
  8
00_COMPONENTS_30
100
AcDbSpline
 62
7
  6
CONTINUOUS
 70
0
 71
3
 72
9
 73
5
 74
0
 42
0.0000001
 43
0.0000001
 44
0.0000000001
 40
0.0
 40
0.0
 40
0.0
 40
0.0
 40
0.2607456432
 40
1.0
 40
1.0
 40
1.0
 40
1.0
 10
244.0458392732
 20
441.9762333358
 30
0.0
 10
244.1963855075
 20
441.9103428486
 30
0.0
 10
244.7735708172
 20
441.657448704
 30
0.0
 10
245.3485478182
 20
441.3978056199
 30
0.0
 10
245.7621484169
 20
441.1833076191
 30
0.0
  0
SPLINE
  5
3A5
100
AcDbEntity
  8
00_COMPONENTS_30
100
AcDbSpline
 62
7
  6
CONTINUOUS
 70
0
 71
3
 72
9
 73
5
 74
0
 42
0.0000001
 43
0.0000001
 44
0.0000000001
 40
0.0
 40
0.0
 40
0.0
 40
0.0
 40
0.2622662817
 40
1.0
 40
1.0
 40
1.0
 40
1.0
 10
245.7621484169
 20
441.1833076191
 30
0.0
 10
245.8107670229
 20
441.158093454
 30
0.0
 10
245.9954561493
 20
441.0606546187
 30
0.0
 10
246.1772419259
 20
440.9575253969
 30
0.0
 10
246.3082376744
 20
440.8764459695
 30
0.0
  0
SPLINE
  5
3A6
100
AcDbEntity
  8
00_COMPONENTS_30
100
AcDbSpline
 62
7
  6
CONTINUOUS
 70
0
 71
3
 72
9
 73
5
 74
0
 42
0.0000001
 43
0.0000001
 44
0.0000000001
 40
0.0
 40
0.0
 40
0.0
 40
0.0
 40
0.2883056361
 40
1.0
 40
1.0
 40
1.0
 40
1.0
 10
246.3082376744
 20
440.8764459695
 30
0.0
 10
246.3869176043
 20
440.8277472617
 30
0.0
 10
246.6547873779
 20
440.6524408657
 30
0.0
 10
246.9101725875
 20
440.4470959996
 30
0.0
 10
247.0510937044
 20
440.2673293553
 30
0.0
  0
SPLINE
  5
3A7
100
AcDbEntity
  8
00_COMPONENTS_30
100
AcDbSpline
 62
7
  6
CONTINUOUS
 70
0
 71
3
 72
9
 73
5
 74
0
 42
0.0000001
 43
0.0000001
 44
0.0000000001
 40
0.0
 40
0.0
 40
0.0
 40
0.0
 40
0.2794230424
 40
1.0
 40
1.0
 40
1.0
 40
1.0
 10
247.0510937044
 20
440.2673293553
 30
0.0
 10
247.0817517997
 20
440.2282202208
 30
0.0
 10
247.1838070123
 20
440.0832440171
 30
0.0
 10
247.2458401171
 20
439.9043822361
 30
0.0
 10
247.2458400097
 20
439.7762325124
 30
0.0
  0
ENDSEC
  0
SECTION
  2
OBJECTS
  0
DICTIONARY
  5
C
100
AcDbDictionary
280
0
281
1
  3
ACAD_GROUP
350
D
  3
ACAD_MLINESTYLE
350
17
  3
ACAD_LAYOUT
350
1A
  3
ACAD_PLOTSETTINGS
350
19
  3
ACAD_PLOTSTYLENAME
350
E
  0
DICTIONARY
  5
D
102
{ACAD_REACTORS
330
C
102
}
100
AcDbDictionary
280
0
281
1
  0
ACDBDICTIONARYWDFLT
  5
E
102
{ACAD_REACTORS
330
C
102
}
100
AcDbDictionary
281
1
  3
Normal
350
F
100
AcDbDictionaryWithDefault
340
F
  0
DICTIONARY
  5
17
102
{ACAD_REACTORS
330
C
102
}
100
AcDbDictionary
280
0
281
1
  3
Standard
350
18
  0
DICTIONARY
  5
19
102
{ACAD_REACTORS
330
C
102
}
100
AcDbDictionary
281
1
  0
DICTIONARY
  5
1A
102
{ACAD_REACTORS
330
C
102
}
100
AcDbDictionary
281
1
  3
Model
350
3A8
  3
Layout1
350
3A9
  0
ACDBPLACEHOLDER
  5
F
102
{ACAD_REACTORS
330
E
102
}
  0
MLINESTYLE
  5
18
102
{ACAD_REACTORS
330
17
102
}
100
AcDbMlineStyle
  2
STANDARD
 70
0
  3

 62
256
 51
90.0
 52
90.0
 71
2
 49
0.5
 62
256
  6
BYLAYER
 49
-0.5
 62
256
  6
BYLAYER
  0
LAYOUT
  5
3A8
102
{ACAD_REACTORS
330
1A
102
}
100
AcDbPlotSettings
  1

  2
none_device
  4

  6

 40
0.0
 41
0.0
 42
0.0
 43
0.0
 44
210.0
 45
297.0
 46
0.0
 47
0.0
 48
0.0
 49
0.0
140
0.0
141
0.0
142
1.0
143
1.0
 70
1024
 72
1
 73
0
 74
0
  7

 75
0
147
1.0
148
0.0
149
0.0
100
AcDbLayout
  1
Model
 70
0
 71
0
 10
0.0
 20
0.0
 11
210.0
 21
297.0
 12
0.0
 22
0.0
 32
0.0
 14
0.0
 24
0.0
 34
0.0
 15
0.0
 25
0.0
 35
0.0
146
0.0
 13
0.0
 23
0.0
 33
0.0
 16
1.0
 26
0.0
 36
0.0
 17
0.0
 27
1.0
 37
0.0
 76
0
330
224
345
0
346
0
  0
LAYOUT
  5
3A9
102
{ACAD_REACTORS
330
1A
102
}
100
AcDbPlotSettings
  1

  2
none_device
  4

  6

 40
0.0
 41
0.0
 42
0.0
 43
0.0
 44
210.0
 45
297.0
 46
0.0
 47
0.0
 48
0.0
 49
0.0
140
0.0
141
0.0
142
1.0
143
1.0
 70
0
 72
1
 73
0
 74
0
  7

 75
0
147
1.0
148
0.0
149
0.0
100
AcDbLayout
  1
Layout1
 70
0
 71
1
 10
0.0
 20
0.0
 11
210.0
 21
297.0
 12
0.0
 22
0.0
 32
0.0
 14
0.0
 24
0.0
 34
0.0
 15
0.0
 25
0.0
 35
0.0
146
0.0
 13
0.0
 23
0.0
 33
0.0
 16
1.0
 26
0.0
 36
0.0
 17
0.0
 27
1.0
 37
0.0
 76
0
330
225
345
0
346
0
  0
ENDSEC
  0
EOF
