999
DXF file: Y:\001_SCHNEIDER_PARIS\maxime fuentes - génération CAD 2D\TRAVAIL\ZB5AZ1025_CAD_2023\zb5az1025_2d-views_4.dxf
999
Pro/ENGINEER 2018260 by Parametric Technology Corporation
  0
SECTION
  2
HEADER
  9
$ACADVER
  1
AC1027
  9
$DWGCODEPAGE
  3
ANSI_1252
  9
$EXTMAX
 10
558.8
 20
431.8
 30
0.0
  9
$EXTMIN
 10
0.0
 20
0.0
 30
0.0
  9
$LIMMIN
 10
0.0
 20
0.0
  9
$LIMMAX
 10
558.8
 20
431.8
  9
$VIEWCTR
 10
279.4
 20
215.9
  9
$VIEWSIZE
 40
431.8
  9
$CLAYER
  8
0
  9
$LTSCALE
 40
30.734
  9
$CELTYPE
  6
BYLAYER
  9
$DIMSCALE
 40
1.0
  9
$DIMASZ
 40
3.5
  9
$DIMEXO
 40
1.0
  9
$DIMDLI
 40
21.2344
  9
$DIMEXE
 40
3.0
  9
$DIMCEN
 40
5.0292
  9
$DIMLFAC
 40
1.0
  9
$DIMBLK
  1
_FILLED
  9
$DIMALT
 70
0
  9
$DIMALTF
 40
0.0393700787
  9
$DIMTXT
 40
4.0
  9
$DIMTOL
 70
1
  9
$DIMLIM
 70
0
  9
$DIMTFAC
 40
1.0
  9
$DIMTP
 40
0.0001
  9
$DIMTM
 40
0.0001
  9
$DIMGAP
 40
0.625
  9
$DIMDSEP
 70
46
  9
$AUNITS
 70
0
  9
$PDMODE
 70
0
  9
$PDSIZE
 40
0.01
  9
$HANDSEED
  5
332
  9
$TILEMODE
 70
1
  9
$MEASUREMENT
 70
1
  9
$INSUNITS
 70
4
  0
ENDSEC
  0
SECTION
  2
CLASSES
  0
CLASS
  1
ACDBDICTIONARYWDFLT
  2
AcDbDictionaryWithDefault
  3
AutoCAD 2000
 90
0
 91
1
280
0
281
0
  0
CLASS
  1
ACDBPLACEHOLDER
  2
AcDbPlaceHolder
  3
AutoCAD 2000
 90
0
 91
1
280
0
281
0
  0
CLASS
  1
LAYOUT
  2
AcDbLayout
  3
AutoCAD 2000
 90
0
 91
0
280
0
281
0
  0
ENDSEC
  0
SECTION
  2
TABLES
  0
TABLE
  2
VPORT
  5
8
100
AcDbSymbolTable
 70
2
  0
VPORT
  5
1F4
100
AcDbSymbolTableRecord
100
AcDbViewportTableRecord
  2
*ACTIVE
 70
0
 10
0.0
 20
0.0
 11
1.0
 21
1.0
 12
279.4
 22
215.9
 13
0.0
 23
0.0
 14
1.0
 24
1.0
 15
0.0
 25
0.0
 16
0.0
 26
0.0
 36
1.0
 17
0.0
 27
0.0
 37
0.0
 40
431.8
 41
1.2941176471
 42
50.0
 43
0.0
 44
0.0
 50
0.0
 51
0.0
 71
0
 72
100
 73
1
 74
1
 75
0
 76
0
 77
0
 78
0
  0
ENDTAB
  0
TABLE
  2
LTYPE
  5
5
100
AcDbSymbolTable
 70
6
  0
LTYPE
  5
14
100
AcDbSymbolTableRecord
100
AcDbLinetypeTableRecord
  2
BYBLOCK
 70
0
  3

 72
65
 73
0
 40
0.0
  0
LTYPE
  5
15
100
AcDbSymbolTableRecord
100
AcDbLinetypeTableRecord
  2
BYLAYER
 70
0
  3

 72
65
 73
0
 40
0.0
  0
LTYPE
  5
16
100
AcDbSymbolTableRecord
100
AcDbLinetypeTableRecord
  2
CONTINUOUS
 70
64
  3
Solid line
 72
65
 73
0
 40
0.0
  0
LTYPE
  5
1F5
100
AcDbSymbolTableRecord
100
AcDbLinetypeTableRecord
  2
CENTER
 70
64
  3
____ _ ____ _ ____ _ ____ _ ____ _ ____ _ ____
 72
65
 73
4
 40
0.6
 49
0.375
 74
0
 49
-0.075
 74
0
 49
0.075
 74
0
 49
-0.075
 74
0
  0
LTYPE
  5
1F6
100
AcDbSymbolTableRecord
100
AcDbLinetypeTableRecord
  2
HIDDEN
 70
64
  3
- - - - - - - - - - - - - - - - - - - -
 72
65
 73
2
 40
0.2
 49
0.1
 74
0
 49
-0.1
 74
0
  0
LTYPE
  5
1F7
100
AcDbSymbolTableRecord
100
AcDbLinetypeTableRecord
  2
PHANTOM
 70
64
  3
_____ _ _ _____ _ _ _____ _ _ _____
 72
65
 73
6
 40
0.8
 49
0.45
 74
0
 49
-0.05
 74
0
 49
0.1
 74
0
 49
-0.05
 74
0
 49
0.1
 74
0
 49
-0.05
 74
0
  0
LTYPE
  5
1F8
100
AcDbSymbolTableRecord
100
AcDbLinetypeTableRecord
  2
DOT
 70
64
  3
. . . . . . . . . . . . . . . . . . . .
 72
65
 73
2
 40
0.2
 49
0.1
 74
0
 49
-0.1
 74
0
  0
LTYPE
  5
1F9
100
AcDbSymbolTableRecord
100
AcDbLinetypeTableRecord
  2
DASHED
 70
64
  3
- - - - - - - - - - - - - - - - - - - -
 72
65
 73
2
 40
0.2
 49
0.1
 74
0
 49
-0.1
 74
0
  0
ENDTAB
  0
TABLE
  2
LAYER
  5
2
100
AcDbSymbolTable
 70
36
  0
LAYER
  5
10
100
AcDbSymbolTableRecord
100
AcDbLayerTableRecord
  2
0
 70
0
 62
7
  6
CONTINUOUS
370
-3
390
F
  0
LAYER
  5
1FA
100
AcDbSymbolTableRecord
100
AcDbLayerTableRecord
  2
DEFAULT_1
 70
0
 62
7
  6
CENTER
370
-3
390
F
  0
LAYER
  5
1FB
100
AcDbSymbolTableRecord
100
AcDbLayerTableRecord
  2
DEFAULT_2
 70
0
 62
8
  6
HIDDEN
370
-3
390
F
  0
LAYER
  5
1FC
100
AcDbSymbolTableRecord
100
AcDbLayerTableRecord
  2
DEFAULT_3
 70
0
 62
7
  6
PHANTOM
370
-3
390
F
  0
LAYER
  5
1FD
100
AcDbSymbolTableRecord
100
AcDbLayerTableRecord
  2
01_ALL_DTM_PLN
 70
0
 62
7
  6
CONTINUOUS
370
-3
390
F
  0
LAYER
  5
1FE
100
AcDbSymbolTableRecord
100
AcDbLayerTableRecord
  2
01__ASM_ALL_DTM_PLN
 70
0
 62
7
  6
CONTINUOUS
370
-3
390
F
  0
LAYER
  5
1FF
100
AcDbSymbolTableRecord
100
AcDbLayerTableRecord
  2
01__ASM_DEF_DTM_PLN
 70
0
 62
7
  6
CONTINUOUS
370
-3
390
F
  0
LAYER
  5
200
100
AcDbSymbolTableRecord
100
AcDbLayerTableRecord
  2
01___PRT_ALL_DTM_PLN
 70
0
 62
7
  6
CONTINUOUS
370
-3
390
F
  0
LAYER
  5
201
100
AcDbSymbolTableRecord
100
AcDbLayerTableRecord
  2
01___PRT_DEF_DTM_PLN
 70
0
 62
7
  6
CONTINUOUS
370
-3
390
F
  0
LAYER
  5
202
100
AcDbSymbolTableRecord
100
AcDbLayerTableRecord
  2
02_ALL_AXES
 70
0
 62
7
  6
CONTINUOUS
370
-3
390
F
  0
LAYER
  5
203
100
AcDbSymbolTableRecord
100
AcDbLayerTableRecord
  2
02__ASM_ALL_AXES
 70
0
 62
7
  6
CONTINUOUS
370
-3
390
F
  0
LAYER
  5
204
100
AcDbSymbolTableRecord
100
AcDbLayerTableRecord
  2
02___PRT_ALL_AXES
 70
0
 62
7
  6
CONTINUOUS
370
-3
390
F
  0
LAYER
  5
205
100
AcDbSymbolTableRecord
100
AcDbLayerTableRecord
  2
03_ALL_CURVES
 70
0
 62
7
  6
CONTINUOUS
370
-3
390
F
  0
LAYER
  5
206
100
AcDbSymbolTableRecord
100
AcDbLayerTableRecord
  2
03__ASM_ALL_CURVES
 70
0
 62
7
  6
CONTINUOUS
370
-3
390
F
  0
LAYER
  5
207
100
AcDbSymbolTableRecord
100
AcDbLayerTableRecord
  2
03___PRT_ALL_CURVES
 70
0
 62
7
  6
CONTINUOUS
370
-3
390
F
  0
LAYER
  5
208
100
AcDbSymbolTableRecord
100
AcDbLayerTableRecord
  2
04_ALL_DTM_PNT
 70
0
 62
7
  6
CONTINUOUS
370
-3
390
F
  0
LAYER
  5
209
100
AcDbSymbolTableRecord
100
AcDbLayerTableRecord
  2
04__ASM_ALL_DTM_PNT
 70
0
 62
7
  6
CONTINUOUS
370
-3
390
F
  0
LAYER
  5
20A
100
AcDbSymbolTableRecord
100
AcDbLayerTableRecord
  2
04___PRT_ALL_DTM_PNT
 70
0
 62
7
  6
CONTINUOUS
370
-3
390
F
  0
LAYER
  5
20B
100
AcDbSymbolTableRecord
100
AcDbLayerTableRecord
  2
05_ALL_DTM_CSYS
 70
0
 62
7
  6
CONTINUOUS
370
-3
390
F
  0
LAYER
  5
20C
100
AcDbSymbolTableRecord
100
AcDbLayerTableRecord
  2
05__ASM_ALL_DTM_CSYS
 70
0
 62
7
  6
CONTINUOUS
370
-3
390
F
  0
LAYER
  5
20D
100
AcDbSymbolTableRecord
100
AcDbLayerTableRecord
  2
05__ASM_DEF_DTM_CSYS
 70
0
 62
7
  6
CONTINUOUS
370
-3
390
F
  0
LAYER
  5
20E
100
AcDbSymbolTableRecord
100
AcDbLayerTableRecord
  2
05___PRT_ALL_DTM_CSYS
 70
0
 62
7
  6
CONTINUOUS
370
-3
390
F
  0
LAYER
  5
20F
100
AcDbSymbolTableRecord
100
AcDbLayerTableRecord
  2
05___PRT_DEF_DTM_CSYS
 70
0
 62
7
  6
CONTINUOUS
370
-3
390
F
  0
LAYER
  5
210
100
AcDbSymbolTableRecord
100
AcDbLayerTableRecord
  2
06_ALL_SURFS
 70
0
 62
7
  6
CONTINUOUS
370
-3
390
F
  0
LAYER
  5
211
100
AcDbSymbolTableRecord
100
AcDbLayerTableRecord
  2
06__ASM_ALL_SURFS
 70
0
 62
7
  6
CONTINUOUS
370
-3
390
F
  0
LAYER
  5
212
100
AcDbSymbolTableRecord
100
AcDbLayerTableRecord
  2
06___PRT_ALL_SURFS
 70
0
 62
7
  6
CONTINUOUS
370
-3
390
F
  0
LAYER
  5
213
100
AcDbSymbolTableRecord
100
AcDbLayerTableRecord
  2
07__ASM_ALL_SKELETONS
 70
0
 62
7
  6
CONTINUOUS
370
-3
390
F
  0
LAYER
  5
214
100
AcDbSymbolTableRecord
100
AcDbLayerTableRecord
  2
CLOSED_SHELL
 70
0
 62
7
  6
CONTINUOUS
370
-3
390
F
  0
LAYER
  5
215
100
AcDbSymbolTableRecord
100
AcDbLayerTableRecord
  2
Colour
 70
0
 62
7
  6
CONTINUOUS
370
-3
390
F
  0
LAYER
  5
216
100
AcDbSymbolTableRecord
100
AcDbLayerTableRecord
  2
ORIENTED_CLOSED_SHE
 70
0
 62
7
  6
CONTINUOUS
370
-3
390
F
  0
LAYER
  5
217
100
AcDbSymbolTableRecord
100
AcDbLayerTableRecord
  2
white
 70
0
 62
7
  6
CONTINUOUS
370
-3
390
F
  0
ENDTAB
  0
TABLE
  2
STYLE
  5
3
100
AcDbSymbolTable
 70
1
  0
STYLE
  5
11
100
AcDbSymbolTableRecord
100
AcDbTextStyleTableRecord
  2
STANDARD
 70
0
 40
0.0
 41
0.6
 50
0.0
 71
0
 42
0.2
  3
txt
  4

  0
STYLE
  5
218
100
AcDbSymbolTableRecord
100
AcDbTextStyleTableRecord
  2
TEXTSTYLE_1
 70
0
 40
0.0
 41
0.8
 50
0.0
 71
0
 42
0.2
  3
gdt
  4

  0
ENDTAB
  0
TABLE
  2
VIEW
  5
6
100
AcDbSymbolTable
 70
0
  0
ENDTAB
  0
TABLE
  2
UCS
  5
7
100
AcDbSymbolTable
 70
0
  0
ENDTAB
  0
TABLE
  2
APPID
  5
9
100
AcDbSymbolTable
 70
1
  0
APPID
  5
219
100
AcDbSymbolTableRecord
100
AcDbRegAppTableRecord
  2
ACAD
 70
0
  0
ENDTAB
  0
TABLE
  2
BLOCK_RECORD
  5
1
100
AcDbSymbolTable
 70
0
  0
BLOCK_RECORD
  5
21A
100
AcDbSymbolTableRecord
100
AcDbBlockTableRecord
  2
*Model_Space
  0
BLOCK_RECORD
  5
21B
100
AcDbSymbolTableRecord
100
AcDbBlockTableRecord
  2
*Paper_Space
  0
BLOCK_RECORD
  5
21C
100
AcDbSymbolTableRecord
100
AcDbBlockTableRecord
  2
_FILLED
  0
ENDTAB
  0
TABLE
  2
DIMSTYLE
  5
A
100
AcDbSymbolTable
 70
1
100
AcDbDimStyleTable
 71
0
  0
DIMSTYLE
105
21D
100
AcDbSymbolTableRecord
100
AcDbDimStyleTableRecord
  2
STANDARD
 70
0
  3

  4

 40
1.0
 41
3.5
 42
1.0
 43
0.38
 44
3.0
 45
0.0
 46
0.0
 47
0.0001
 48
0.0001
140
4.0
141
0.09
142
0.0
143
25.4
144
1.0
145
0.0
146
1.0
147
0.625
 71
1.0
 72
0.0
 73
0
 74
0
 75
0
 76
0
 77
1
 78
8
 79
2
170
0
171
3
172
0
173
0
174
0
175
0
176
0
177
0
178
0
270
2
179
4
271
4
272
4
273
2
274
2
275
0
280
0
281
0
282
0
283
1
284
8
285
0
286
0
287
3
288
0
340
11
278
46
341
21C
342
21C
343
21C
344
21C
  0
ENDTAB
  0
ENDSEC
  0
SECTION
  2
BLOCKS
  0
BLOCK
  5
20
100
AcDbEntity
  8
0
100
AcDbBlockBegin
  2
*Model_Space
 70
0
 10
0.0
 20
0.0
 30
0.0
  3
*Model_Space
  1

  0
ENDBLK
  5
21
100
AcDbEntity
  8
0
100
AcDbBlockEnd
  0
BLOCK
  5
1C
100
AcDbEntity
  8
0
100
AcDbBlockBegin
  2
*Paper_Space
 70
0
 10
0.0
 20
0.0
 30
0.0
  3
*Paper_Space
  1

  0
ENDBLK
  5
1D
100
AcDbEntity
  8
0
100
AcDbBlockEnd
  0
BLOCK
  5
21E
100
AcDbEntity
  8
0
100
AcDbBlockBegin
  2
_FILLED
 70
64
 10
0.0
 20
0.0
  3
_FILLED
  1

  0
SOLID
  5
21F
100
AcDbEntity
  8
0
  6
BYBLOCK
 62
0
100
AcDbTrace
 10
0.0
 20
0.0
 11
-1.0
 21
0.2857142857
 12
-1.0
 22
-0.2857142857
 13
-1.0
 23
-0.2857142857
  0
ENDBLK
  5
220
100
AcDbEntity
  8
0
  6
BYBLOCK
 62
0
100
AcDbBlockEnd
  0
ENDSEC
  0
SECTION
  2
ENTITIES
  0
LINE
  5
221
100
AcDbEntity
  8
0
100
AcDbLine
 62
7
  6
CONTINUOUS
 10
110.6167509362
 20
247.4751209687
 11
108.2311102909
 21
246.0977707
  0
LINE
  5
222
100
AcDbEntity
  8
0
100
AcDbLine
 62
7
  6
CONTINUOUS
 10
127.2811102946
 20
203.5762329443
 11
135.7811102946
 21
203.5762329443
  0
LINE
  5
223
100
AcDbEntity
  8
0
100
AcDbLine
 62
9
  6
CONTINUOUS
 10
135.7811102946
 20
204.7343713887
 11
127.2811102946
 21
204.7343713887
  0
LINE
  5
224
100
AcDbEntity
  8
0
100
AcDbLine
 62
7
  6
CONTINUOUS
 10
135.7811102946
 20
205.3099702703
 11
136.4311102946
 21
205.3099702703
  0
LINE
  5
225
100
AcDbEntity
  8
0
100
AcDbLine
 62
7
  6
CONTINUOUS
 10
127.2811102946
 20
205.3099860022
 11
126.6311102946
 21
205.3099860022
  0
LINE
  5
226
100
AcDbEntity
  8
0
100
AcDbLine
 62
9
  6
CONTINUOUS
 10
136.4311102946
 20
205.3582161737
 11
135.7811102946
 21
205.3582161737
  0
LINE
  5
227
100
AcDbEntity
  8
0
100
AcDbLine
 62
9
  6
CONTINUOUS
 10
127.2811102946
 20
205.3582161736
 11
126.6311102946
 21
205.3582161736
  0
LINE
  5
228
100
AcDbEntity
  8
0
100
AcDbLine
 62
9
  6
CONTINUOUS
 10
126.6311102946
 20
207.136720919
 11
127.2811102946
 21
207.1367209189
  0
LINE
  5
229
100
AcDbEntity
  8
0
100
AcDbLine
 62
9
  6
CONTINUOUS
 10
135.7811102946
 20
207.1367209187
 11
136.4311102946
 21
207.1367209187
  0
LINE
  5
22A
100
AcDbEntity
  8
0
100
AcDbLine
 62
7
  6
CONTINUOUS
 10
107.6311102946
 20
207.8090955673
 11
116.5471359764
 21
207.8090955673
  0
LINE
  5
22B
100
AcDbEntity
  8
0
100
AcDbLine
 62
7
  6
CONTINUOUS
 10
126.5150846125
 20
207.8090955674
 11
126.6311102946
 21
207.8090955674
  0
LINE
  5
22C
100
AcDbEntity
  8
0
100
AcDbLine
 62
9
  6
CONTINUOUS
 10
136.4311102946
 20
208.1620911303
 11
135.7811102946
 21
208.1620911303
  0
LINE
  5
22D
100
AcDbEntity
  8
0
100
AcDbLine
 62
9
  6
CONTINUOUS
 10
127.2811102946
 20
208.1620911302
 11
126.6311102946
 21
208.1620911299
  0
LINE
  5
22E
100
AcDbEntity
  8
0
100
AcDbLine
 62
7
  6
CONTINUOUS
 10
107.6311102946
 20
208.9552209419
 11
118.4049477697
 21
208.9552209419
  0
LINE
  5
22F
100
AcDbEntity
  8
0
100
AcDbLine
 62
7
  6
CONTINUOUS
 10
124.6572728183
 20
208.9552209419
 11
126.6311102946
 21
208.9552209419
  0
LINE
  5
230
100
AcDbEntity
  8
0
100
AcDbLine
 62
7
  6
CONTINUOUS
 10
127.2811102946
 20
209.05479912
 11
126.6311102946
 21
209.05479912
  0
LINE
  5
231
100
AcDbEntity
  8
0
100
AcDbLine
 62
7
  6
CONTINUOUS
 10
135.7811102946
 20
209.05479912
 11
136.4311102946
 21
209.05479912
  0
LINE
  5
232
100
AcDbEntity
  8
0
100
AcDbLine
 62
7
  6
CONTINUOUS
 10
118.1788651806
 20
208.4913053646
 11
117.8440433607
 21
208.681963431
  0
LINE
  5
233
100
AcDbEntity
  8
0
100
AcDbLine
 62
7
  6
CONTINUOUS
 10
106.6311102946
 20
212.3566142679
 11
106.6311102946
 21
238.8090955675
  0
LINE
  5
234
100
AcDbEntity
  8
0
100
AcDbLine
 62
9
  6
CONTINUOUS
 10
134.5311102946
 20
210.5615500222
 11
134.8109403794
 21
210.5617299045
  0
LINE
  5
235
100
AcDbEntity
  8
0
100
AcDbLine
 62
9
  6
CONTINUOUS
 10
127.2811102946
 20
210.5615500227
 11
128.2311102938
 21
210.5615500227
  0
LINE
  5
236
100
AcDbEntity
  8
0
100
AcDbLine
 62
9
  6
CONTINUOUS
 10
134.8311102953
 20
210.5615500227
 11
135.7811102946
 21
210.5615500227
  0
LINE
  5
237
100
AcDbEntity
  8
0
100
AcDbLine
 62
7
  6
CONTINUOUS
 10
135.7811102946
 20
210.8615500222
 11
134.5311102946
 21
210.8615500222
  0
LINE
  5
238
100
AcDbEntity
  8
0
100
AcDbLine
 62
7
  6
CONTINUOUS
 10
128.5311102946
 20
210.8615500222
 11
127.2811102946
 21
210.8615500222
  0
LINE
  5
239
100
AcDbEntity
  8
0
100
AcDbLine
 62
9
  6
CONTINUOUS
 10
126.6311102946
 20
210.9331942935
 11
127.6311102946
 21
210.9331942935
  0
LINE
  5
23A
100
AcDbEntity
  8
0
100
AcDbLine
 62
9
  6
CONTINUOUS
 10
134.7311102953
 20
210.9331942936
 11
136.4311102946
 21
210.9331942936
  0
LINE
  5
23B
100
AcDbEntity
  8
0
100
AcDbLine
 62
9
  6
CONTINUOUS
 10
134.7311102946
 20
210.9587353841
 11
134.5311102946
 21
210.9587353841
  0
LINE
  5
23C
100
AcDbEntity
  8
0
100
AcDbLine
 62
9
  6
CONTINUOUS
 10
128.5311102946
 20
210.9587353839
 11
127.6311102946
 21
210.9587353839
  0
LINE
  5
23D
100
AcDbEntity
  8
0
100
AcDbLine
 62
9
  6
CONTINUOUS
 10
136.4311102946
 20
211.8728869151
 11
134.7311102953
 21
211.8728869151
  0
LINE
  5
23E
100
AcDbEntity
  8
0
100
AcDbLine
 62
9
  6
CONTINUOUS
 10
127.6311102946
 20
211.8728869144
 11
126.6311102946
 21
211.8728869144
  0
LINE
  5
23F
100
AcDbEntity
  8
0
100
AcDbLine
 62
9
  6
CONTINUOUS
 10
128.2513052133
 20
210.5617307841
 11
128.5311102946
 21
210.5615500222
  0
LINE
  5
240
100
AcDbEntity
  8
0
100
AcDbLine
 62
7
  6
CONTINUOUS
 10
107.2811102946
 20
234.2426178764
 11
107.2811102946
 21
236.8090955677
  0
LINE
  5
241
100
AcDbEntity
  8
0
100
AcDbLine
 62
7
  6
CONTINUOUS
 10
107.4311102946
 20
229.8090955675
 11
107.4311102946
 21
223.8090955675
  0
LINE
  5
242
100
AcDbEntity
  8
0
100
AcDbLine
 62
7
  6
CONTINUOUS
 10
107.4811102946
 20
221.4090955675
 11
107.4811102946
 21
212.9162116442
  0
LINE
  5
243
100
AcDbEntity
  8
0
100
AcDbLine
 62
7
  6
CONTINUOUS
 10
107.6311102946
 20
207.8090955675
 11
107.6311102946
 21
212.3566142679
  0
LINE
  5
244
100
AcDbEntity
  8
0
100
AcDbLine
 62
7
  6
CONTINUOUS
 10
107.7311102946
 20
238.8090955675
 11
107.7311102946
 21
245.2317452975
  0
LINE
  5
245
100
AcDbEntity
  8
0
100
AcDbLine
 62
7
  6
CONTINUOUS
 10
108.6311102946
 20
214.2090955675
 11
108.6311102946
 21
217.9090955675
  0
LINE
  5
246
100
AcDbEntity
  8
0
100
AcDbLine
 62
7
  6
CONTINUOUS
 10
126.6311102946
 20
212.3566142679
 11
106.6311102946
 21
212.3566142674
  0
LINE
  5
247
100
AcDbEntity
  8
0
100
AcDbLine
 62
7
  6
CONTINUOUS
 10
107.4811102946
 20
212.9162116447
 11
115.5811102946
 21
212.9162116447
  0
LINE
  5
248
100
AcDbEntity
  8
0
100
AcDbLine
 62
7
  6
CONTINUOUS
 10
117.4811102946
 20
212.9162116447
 11
125.5811102946
 21
212.9162116447
  0
LINE
  5
249
100
AcDbEntity
  8
0
100
AcDbLine
 62
7
  6
CONTINUOUS
 10
127.6311102946
 20
213.3075556108
 11
128.5311102946
 21
213.3075556108
  0
LINE
  5
24A
100
AcDbEntity
  8
0
100
AcDbLine
 62
7
  6
CONTINUOUS
 10
134.5311102946
 20
213.3075556108
 11
134.7129406013
 21
213.3075556108
  0
LINE
  5
24B
100
AcDbEntity
  8
0
100
AcDbLine
 62
7
  6
CONTINUOUS
 10
109.4811102946
 20
234.2426178757
 11
109.4811102946
 21
236.8090955675
  0
LINE
  5
24C
100
AcDbEntity
  8
0
100
AcDbLine
 62
7
  6
CONTINUOUS
 10
109.5311102946
 20
223.8090955675
 11
109.5311102946
 21
229.8090955675
  0
LINE
  5
24D
100
AcDbEntity
  8
0
100
AcDbLine
 62
7
  6
CONTINUOUS
 10
125.5811102946
 20
214.2090955675
 11
117.4811102946
 21
214.2090955675
  0
LINE
  5
24E
100
AcDbEntity
  8
0
100
AcDbLine
 62
7
  6
CONTINUOUS
 10
107.4811102946
 20
214.2090955675
 11
115.5811102946
 21
214.2090955675
  0
LINE
  5
24F
100
AcDbEntity
  8
0
100
AcDbLine
 62
7
  6
CONTINUOUS
 10
128.5311102946
 20
214.9649944242
 11
127.6311102946
 21
214.9649944242
  0
LINE
  5
250
100
AcDbEntity
  8
0
100
AcDbLine
 62
7
  6
CONTINUOUS
 10
134.5311102946
 20
214.9649944242
 11
134.7311102953
 21
214.9649944242
  0
LINE
  5
251
100
AcDbEntity
  8
0
100
AcDbLine
 62
9
  6
CONTINUOUS
 10
128.5311102946
 20
215.6899944242
 11
134.5311102946
 21
215.6899944242
  0
LINE
  5
252
100
AcDbEntity
  8
0
100
AcDbLine
 62
7
  6
CONTINUOUS
 10
111.4287546645
 20
227.1201532471
 11
111.4397303359
 21
225.2784639706
  0
LINE
  5
253
100
AcDbEntity
  8
0
100
AcDbLine
 62
7
  6
CONTINUOUS
 10
128.5311102946
 20
216.4149944242
 11
127.6311102946
 21
216.4149944242
  0
LINE
  5
254
100
AcDbEntity
  8
0
100
AcDbLine
 62
7
  6
CONTINUOUS
 10
134.5311102946
 20
216.4149944242
 11
134.7311102953
 21
216.4149944242
  0
LINE
  5
255
100
AcDbEntity
  8
0
100
AcDbLine
 62
7
  6
CONTINUOUS
 10
118.6311102942
 20
216.9676295466
 11
119.8809421569
 21
216.9676295466
  0
LINE
  5
256
100
AcDbEntity
  8
0
100
AcDbLine
 62
7
  6
CONTINUOUS
 10
123.1812784319
 20
216.9676295466
 11
124.4311102949
 21
216.9676295466
  0
LINE
  5
257
100
AcDbEntity
  8
0
100
AcDbLine
 62
9
  6
CONTINUOUS
 10
134.7311102953
 20
217.046601733
 11
134.5311102946
 21
217.046601733
  0
LINE
  5
258
100
AcDbEntity
  8
0
100
AcDbLine
 62
9
  6
CONTINUOUS
 10
128.5311102946
 20
217.046601733
 11
127.6311102946
 21
217.046601733
  0
LINE
  5
259
100
AcDbEntity
  8
0
100
AcDbLine
 62
7
  6
CONTINUOUS
 10
112.948513773
 20
223.8090955675
 11
112.9018226621
 21
231.643743209
  0
LINE
  5
25A
100
AcDbEntity
  8
0
100
AcDbLine
 62
7
  6
CONTINUOUS
 10
113.5311102946
 20
236.8090955675
 11
113.5311102946
 21
234.2426178764
  0
LINE
  5
25B
100
AcDbEntity
  8
0
100
AcDbLine
 62
7
  6
CONTINUOUS
 10
114.4311102946
 20
214.2090955675
 11
114.4311102946
 21
217.9090955675
  0
LINE
  5
25C
100
AcDbEntity
  8
0
100
AcDbLine
 62
7
  6
CONTINUOUS
 10
126.6311102946
 20
217.6516581517
 11
125.5811102938
 21
217.6516581517
  0
LINE
  5
25D
100
AcDbEntity
  8
0
100
AcDbLine
 62
7
  6
CONTINUOUS
 10
117.4811102942
 20
217.6516581517
 11
115.5811102938
 21
217.6516581517
  0
LINE
  5
25E
100
AcDbEntity
  8
0
100
AcDbLine
 62
7
  6
CONTINUOUS
 10
124.4311102953
 20
217.6590955675
 11
123.1811102953
 21
217.6590955675
  0
LINE
  5
25F
100
AcDbEntity
  8
0
100
AcDbLine
 62
7
  6
CONTINUOUS
 10
119.8811102946
 20
217.6590955675
 11
118.6311102946
 21
217.6590955675
  0
LINE
  5
260
100
AcDbEntity
  8
0
100
AcDbLine
 62
7
  6
CONTINUOUS
 10
128.5311102946
 20
217.6899944242
 11
134.5311102946
 21
217.6899944242
  0
LINE
  5
261
100
AcDbEntity
  8
0
100
AcDbLine
 62
7
  6
CONTINUOUS
 10
108.6311102946
 20
217.9090955675
 11
114.4311102946
 21
217.9090955675
  0
LINE
  5
262
100
AcDbEntity
  8
0
100
AcDbLine
 62
7
  6
CONTINUOUS
 10
118.6311102946
 20
217.9590955675
 11
119.8811102946
 21
217.9590955675
  0
LINE
  5
263
100
AcDbEntity
  8
0
100
AcDbLine
 62
7
  6
CONTINUOUS
 10
123.1811102946
 20
217.9590955675
 11
124.4311102946
 21
217.9590955675
  0
LINE
  5
264
100
AcDbEntity
  8
0
100
AcDbLine
 62
7
  6
CONTINUOUS
 10
127.6311102946
 20
218.1392312136
 11
134.4311102911
 21
218.1392312136
  0
LINE
  5
265
100
AcDbEntity
  8
0
100
AcDbLine
 62
7
  6
CONTINUOUS
 10
134.4311102946
 20
218.2187172268
 11
127.6311102946
 21
218.2187172268
  0
LINE
  5
266
100
AcDbEntity
  8
0
100
AcDbLine
 62
7
  6
CONTINUOUS
 10
115.5811102946
 20
218.5090955675
 11
117.4811102946
 21
218.5090955675
  0
LINE
  5
267
100
AcDbEntity
  8
0
100
AcDbLine
 62
7
  6
CONTINUOUS
 10
125.5811102946
 20
218.5090955675
 11
126.6311102946
 21
218.5090955675
  0
LINE
  5
268
100
AcDbEntity
  8
0
100
AcDbLine
 62
7
  6
CONTINUOUS
 10
134.4311102946
 20
218.5687148949
 11
127.6311102946
 21
218.5687148949
  0
LINE
  5
269
100
AcDbEntity
  8
0
100
AcDbLine
 62
7
  6
CONTINUOUS
 10
107.4811102942
 20
218.9536492065
 11
106.6311102946
 21
218.9536492065
  0
LINE
  5
26A
100
AcDbEntity
  8
0
100
AcDbLine
 62
7
  6
CONTINUOUS
 10
115.3311102946
 20
245.7823006478
 11
115.3311102946
 21
238.8090955675
  0
LINE
  5
26B
100
AcDbEntity
  8
0
100
AcDbLine
 62
7
  6
CONTINUOUS
 10
115.5811102938
 20
212.9162116446
 11
115.5811102946
 21
218.5090955675
  0
LINE
  5
26C
100
AcDbEntity
  8
0
100
AcDbLine
 62
7
  6
CONTINUOUS
 10
115.7311102946
 20
236.8090955677
 11
115.7311102946
 21
234.2426178764
  0
LINE
  5
26D
100
AcDbEntity
  8
0
100
AcDbLine
 62
7
  6
CONTINUOUS
 10
124.6094405293
 20
208.9723376129
 11
124.8833554085
 21
208.4913053646
  0
LINE
  5
26E
100
AcDbEntity
  8
0
100
AcDbLine
 62
7
  6
CONTINUOUS
 10
117.4811102946
 20
218.5090955675
 11
117.4811102946
 21
212.9162116442
  0
LINE
  5
26F
100
AcDbEntity
  8
0
100
AcDbLine
 62
7
  6
CONTINUOUS
 10
117.5311102946
 20
236.8090955675
 11
117.5311102946
 21
233.524530413
  0
LINE
  5
270
100
AcDbEntity
  8
0
100
AcDbLine
 62
7
  6
CONTINUOUS
 10
117.7311102946
 20
238.8090955675
 11
117.7311102946
 21
245.807703719
  0
LINE
  5
271
100
AcDbEntity
  8
0
100
AcDbLine
 62
7
  6
CONTINUOUS
 10
106.6311102946
 20
221.4090955672
 11
107.4811102946
 21
221.4090955672
  0
LINE
  5
272
100
AcDbEntity
  8
0
100
AcDbLine
 62
7
  6
CONTINUOUS
 10
124.2452190954
 20
216.5287036243
 11
124.4311102936
 21
216.3428124262
  0
LINE
  5
273
100
AcDbEntity
  8
0
100
AcDbLine
 62
7
  6
CONTINUOUS
 10
118.6311102946
 20
246.7848314988
 11
118.6311102946
 21
244.7083022375
  0
LINE
  5
274
100
AcDbEntity
  8
0
100
AcDbLine
 62
7
  6
CONTINUOUS
 10
118.6311102946
 20
217.9590955673
 11
118.6311102946
 21
214.2090955675
  0
LINE
  5
275
100
AcDbEntity
  8
0
100
AcDbLine
 62
9
  6
CONTINUOUS
 10
118.9311102946
 20
246.3090955668
 11
118.9311102946
 21
247.2090955677
  0
LINE
  5
276
100
AcDbEntity
  8
0
100
AcDbLine
 62
7
  6
CONTINUOUS
 10
119.0311102946
 20
238.730702691
 11
119.0311102946
 21
241.7090955675
  0
LINE
  5
277
100
AcDbEntity
  8
0
100
AcDbLine
 62
7
  6
CONTINUOUS
 10
119.8811315066
 20
216.2941368932
 11
119.8809421572
 21
218.2260755045
  0
LINE
  5
278
100
AcDbEntity
  8
0
100
AcDbLine
 62
7
  6
CONTINUOUS
 10
107.4311102946
 20
223.8090955675
 11
113.6690176978
 21
223.8090955675
  0
LINE
  5
279
100
AcDbEntity
  8
0
100
AcDbLine
 62
7
  6
CONTINUOUS
 10
135.4311102946
 20
224.3590955675
 11
127.6311102946
 21
224.3590955675
  0
LINE
  5
27A
100
AcDbEntity
  8
0
100
AcDbLine
 62
7
  6
CONTINUOUS
 10
109.531110295
 20
224.5090955676
 11
107.4311102946
 21
224.5090955676
  0
LINE
  5
27B
100
AcDbEntity
  8
0
100
AcDbLine
 62
7
  6
CONTINUOUS
 10
127.7811102946
 20
224.5090955675
 11
135.4311102946
 21
224.5090955676
  0
LINE
  5
27C
100
AcDbEntity
  8
0
100
AcDbLine
 62
7
  6
CONTINUOUS
 10
123.1810890825
 20
216.2941368934
 11
123.1812784322
 21
218.2260755045
  0
LINE
  5
27D
100
AcDbEntity
  8
0
100
AcDbLine
 62
7
  6
CONTINUOUS
 10
109.5311102946
 20
228.1090955679
 11
107.4311102946
 21
228.1090955679
  0
LINE
  5
27E
100
AcDbEntity
  8
0
100
AcDbLine
 62
7
  6
CONTINUOUS
 10
135.2811102946
 20
228.1090955679
 11
135.4311102946
 21
228.1090955679
  0
LINE
  5
27F
100
AcDbEntity
  8
0
100
AcDbLine
 62
7
  6
CONTINUOUS
 10
127.7811102946
 20
228.5090955675
 11
135.2811102946
 21
228.5090955675
  0
LINE
  5
280
100
AcDbEntity
  8
0
100
AcDbLine
 62
7
  6
CONTINUOUS
 10
124.0311102946
 20
238.7307026909
 11
124.0311102946
 21
241.7090955675
  0
LINE
  5
281
100
AcDbEntity
  8
0
100
AcDbLine
 62
9
  6
CONTINUOUS
 10
124.1311102938
 20
247.2090955676
 11
124.1311102938
 21
246.3090955668
  0
LINE
  5
282
100
AcDbEntity
  8
0
100
AcDbLine
 62
7
  6
CONTINUOUS
 10
124.4311102946
 20
214.2090955675
 11
124.4311102946
 21
217.9590955673
  0
LINE
  5
283
100
AcDbEntity
  8
0
100
AcDbLine
 62
7
  6
CONTINUOUS
 10
124.4311102946
 20
244.7083022375
 11
124.4311102939
 21
246.7848314982
  0
LINE
  5
284
100
AcDbEntity
  8
0
100
AcDbLine
 62
7
  6
CONTINUOUS
 10
125.3311102946
 20
245.807703719
 11
125.3311102946
 21
238.8090955675
  0
LINE
  5
285
100
AcDbEntity
  8
0
100
AcDbLine
 62
7
  6
CONTINUOUS
 10
127.6311102946
 20
228.6590955675
 11
135.4311102946
 21
228.6590955675
  0
LINE
  5
286
100
AcDbEntity
  8
0
100
AcDbLine
 62
7
  6
CONTINUOUS
 10
112.0036499824
 20
229.8090955675
 11
107.431110295
 21
229.8090955675
  0
LINE
  5
287
100
AcDbEntity
  8
0
100
AcDbLine
 62
7
  6
CONTINUOUS
 10
125.5311102946
 20
233.5245304125
 11
125.5311102946
 21
236.8090955675
  0
LINE
  5
288
100
AcDbEntity
  8
0
100
AcDbLine
 62
7
  6
CONTINUOUS
 10
125.5811102938
 20
212.9162116446
 11
125.5811102946
 21
218.5090955675
  0
LINE
  5
289
100
AcDbEntity
  8
0
100
AcDbLine
 62
7
  6
CONTINUOUS
 10
126.6311102946
 20
205.3100448832
 11
126.6311102946
 21
247.5029340983
  0
LINE
  5
28A
100
AcDbEntity
  8
0
100
AcDbLine
 62
7
  6
CONTINUOUS
 10
118.8170014921
 20
216.5287036225
 11
118.6311102942
 21
216.3428124243
  0
LINE
  5
28B
100
AcDbEntity
  8
0
100
AcDbLine
 62
7
  6
CONTINUOUS
 10
127.2811102946
 20
203.5762329443
 11
127.2811102946
 21
210.8615247428
  0
LINE
  5
28C
100
AcDbEntity
  8
0
100
AcDbLine
 62
7
  6
CONTINUOUS
 10
127.2811102946
 20
242.156641113
 11
127.2811102946
 21
249.4419399417
  0
LINE
  5
28D
100
AcDbEntity
  8
0
100
AcDbLine
 62
7
  6
CONTINUOUS
 10
127.6311102946
 20
242.1566411128
 11
127.6311102946
 21
234.4494762401
  0
LINE
  5
28E
100
AcDbEntity
  8
0
100
AcDbLine
 62
7
  6
CONTINUOUS
 10
127.6311102946
 20
228.6590955675
 11
127.6311102946
 21
224.3590955675
  0
LINE
  5
28F
100
AcDbEntity
  8
0
100
AcDbLine
 62
7
  6
CONTINUOUS
 10
127.6311102946
 20
218.5687148956
 11
127.6311102946
 21
210.8615500222
  0
LINE
  5
290
100
AcDbEntity
  8
0
100
AcDbLine
 62
7
  6
CONTINUOUS
 10
127.7811102946
 20
228.5090955675
 11
127.7811102946
 21
224.5090955675
  0
LINE
  5
291
100
AcDbEntity
  8
0
100
AcDbLine
 62
7
  6
CONTINUOUS
 10
128.5311102946
 20
210.5615500222
 11
128.5311102946
 21
217.6899342958
  0
LINE
  5
292
100
AcDbEntity
  8
0
100
AcDbLine
 62
7
  6
CONTINUOUS
 10
128.5311102946
 20
235.3281967108
 11
128.5311102946
 21
242.4566411128
  0
LINE
  5
293
100
AcDbEntity
  8
0
100
AcDbLine
 62
7
  6
CONTINUOUS
 10
118.1788651806
 20
208.4913053646
 11
118.45278006
 21
208.9723376134
  0
LINE
  5
294
100
AcDbEntity
  8
0
100
AcDbLine
 62
7
  6
CONTINUOUS
 10
113.5729383939
 20
232.6090955675
 11
116.2045260232
 21
232.6090955675
  0
LINE
  5
295
100
AcDbEntity
  8
0
100
AcDbLine
 62
7
  6
CONTINUOUS
 10
129.4811102942
 20
228.5090955675
 11
129.4811102942
 21
224.5090955675
  0
LINE
  5
296
100
AcDbEntity
  8
0
100
AcDbLine
 62
7
  6
CONTINUOUS
 10
129.9811102947
 20
224.5090955675
 11
129.9811102947
 21
228.5090955675
  0
LINE
  5
297
100
AcDbEntity
  8
0
100
AcDbLine
 62
7
  6
CONTINUOUS
 10
130.1426107182
 20
228.6590955675
 11
130.1417167831
 21
228.5090955675
  0
LINE
  5
298
100
AcDbEntity
  8
0
100
AcDbLine
 62
7
  6
CONTINUOUS
 10
130.1178785133
 20
224.5090955675
 11
130.1169845782
 21
224.3590955675
  0
LINE
  5
299
100
AcDbEntity
  8
0
100
AcDbLine
 62
7
  6
CONTINUOUS
 10
107.2811102946
 20
234.2426178764
 11
109.4811102946
 21
234.2426178764
  0
LINE
  5
29A
100
AcDbEntity
  8
0
100
AcDbLine
 62
7
  6
CONTINUOUS
 10
113.5311102946
 20
234.2426178764
 11
115.7311102946
 21
234.2426178764
  0
LINE
  5
29B
100
AcDbEntity
  8
0
100
AcDbLine
 62
7
  6
CONTINUOUS
 10
134.4311102921
 20
234.4494762401
 11
127.6311102946
 21
234.4494762401
  0
LINE
  5
29C
100
AcDbEntity
  8
0
100
AcDbLine
 62
7
  6
CONTINUOUS
 10
134.4311102946
 20
234.7994739081
 11
127.6311102946
 21
234.7994739081
  0
LINE
  5
29D
100
AcDbEntity
  8
0
100
AcDbLine
 62
7
  6
CONTINUOUS
 10
134.4311102892
 20
234.8789599213
 11
127.6311102946
 21
234.8789599213
  0
LINE
  5
29E
100
AcDbEntity
  8
0
100
AcDbLine
 62
7
  6
CONTINUOUS
 10
107.2811102946
 20
235.2818483602
 11
109.481110295
 21
235.2818483602
  0
LINE
  5
29F
100
AcDbEntity
  8
0
100
AcDbLine
 62
7
  6
CONTINUOUS
 10
113.5311102938
 20
235.2818483602
 11
115.7311102946
 21
235.2818483602
  0
LINE
  5
2A0
100
AcDbEntity
  8
0
100
AcDbLine
 62
7
  6
CONTINUOUS
 10
134.5311102946
 20
235.3281967108
 11
128.5311102946
 21
235.3281967108
  0
LINE
  5
2A1
100
AcDbEntity
  8
0
100
AcDbLine
 62
9
  6
CONTINUOUS
 10
127.6311102946
 20
235.9715894023
 11
128.5311102946
 21
235.9715894023
  0
LINE
  5
2A2
100
AcDbEntity
  8
0
100
AcDbLine
 62
9
  6
CONTINUOUS
 10
134.5311102946
 20
235.9715894023
 11
134.7311102953
 21
235.9715894023
  0
LINE
  5
2A3
100
AcDbEntity
  8
0
100
AcDbLine
 62
7
  6
CONTINUOUS
 10
125.5311102946
 20
236.081848361
 11
124.272606754
 21
236.081848361
  0
LINE
  5
2A4
100
AcDbEntity
  8
0
100
AcDbLine
 62
7
  6
CONTINUOUS
 10
118.7896138352
 20
236.081848361
 11
117.5311102946
 21
236.081848361
  0
LINE
  5
2A5
100
AcDbEntity
  8
0
100
AcDbLine
 62
7
  6
CONTINUOUS
 10
107.2811102946
 20
236.081848361
 11
109.4811102946
 21
236.081848361
  0
LINE
  5
2A6
100
AcDbEntity
  8
0
100
AcDbLine
 62
7
  6
CONTINUOUS
 10
113.5311102953
 20
236.081848361
 11
115.7311102946
 21
236.081848361
  0
LINE
  5
2A7
100
AcDbEntity
  8
0
100
AcDbLine
 62
7
  6
CONTINUOUS
 10
128.5311102946
 20
236.6031967108
 11
127.6311102946
 21
236.6031967108
  0
LINE
  5
2A8
100
AcDbEntity
  8
0
100
AcDbLine
 62
7
  6
CONTINUOUS
 10
134.5311102946
 20
236.6031967108
 11
134.7311102953
 21
236.6031967108
  0
LINE
  5
2A9
100
AcDbEntity
  8
0
100
AcDbLine
 62
7
  6
CONTINUOUS
 10
125.5311102953
 20
236.8090955677
 11
117.5311102946
 21
236.8090955677
  0
LINE
  5
2AA
100
AcDbEntity
  8
0
100
AcDbLine
 62
7
  6
CONTINUOUS
 10
107.2811102946
 20
236.8090955677
 11
109.4811102946
 21
236.8090955677
  0
LINE
  5
2AB
100
AcDbEntity
  8
0
100
AcDbLine
 62
7
  6
CONTINUOUS
 10
113.5311102946
 20
236.8090955677
 11
115.7311102946
 21
236.8090955677
  0
LINE
  5
2AC
100
AcDbEntity
  8
0
100
AcDbLine
 62
9
  6
CONTINUOUS
 10
134.5311102946
 20
237.3281967108
 11
128.5311102946
 21
237.3281967108
  0
LINE
  5
2AD
100
AcDbEntity
  8
0
100
AcDbLine
 62
7
  6
CONTINUOUS
 10
133.0811102953
 20
224.5090955675
 11
133.0811102953
 21
228.5090955675
  0
LINE
  5
2AE
100
AcDbEntity
  8
0
100
AcDbLine
 62
7
  6
CONTINUOUS
 10
133.5311102946
 20
228.6590955675
 11
133.5311102946
 21
228.5090955675
  0
LINE
  5
2AF
100
AcDbEntity
  8
0
100
AcDbLine
 62
7
  6
CONTINUOUS
 10
133.5311102946
 20
224.5090955675
 11
133.5311102946
 21
224.3590955675
  0
LINE
  5
2B0
100
AcDbEntity
  8
0
100
AcDbLine
 62
7
  6
CONTINUOUS
 10
133.5811102953
 20
228.5090955675
 11
133.5811102953
 21
224.5090955675
  0
LINE
  5
2B1
100
AcDbEntity
  8
0
100
AcDbLine
 62
9
  6
CONTINUOUS
 10
134.4311102946
 20
234.8789599213
 11
134.4311102946
 21
234.4494762401
  0
LINE
  5
2B2
100
AcDbEntity
  8
0
100
AcDbLine
 62
9
  6
CONTINUOUS
 10
134.4311102946
 20
218.5687148949
 11
134.4311102946
 21
218.1392312136
  0
LINE
  5
2B3
100
AcDbEntity
  8
0
100
AcDbLine
 62
7
  6
CONTINUOUS
 10
134.5311102946
 20
242.4566411128
 11
134.5311102946
 21
235.3282568391
  0
LINE
  5
2B4
100
AcDbEntity
  8
0
100
AcDbLine
 62
7
  6
CONTINUOUS
 10
134.5311102946
 20
210.5615500222
 11
134.5311102946
 21
217.6899343621
  0
LINE
  5
2B5
100
AcDbEntity
  8
0
100
AcDbLine
 62
7
  6
CONTINUOUS
 10
128.5311102946
 20
238.0531967108
 11
127.6311102946
 21
238.0531967108
  0
LINE
  5
2B6
100
AcDbEntity
  8
0
100
AcDbLine
 62
7
  6
CONTINUOUS
 10
134.5311102946
 20
238.0531967108
 11
134.7311102953
 21
238.0531967108
  0
LINE
  5
2B7
100
AcDbEntity
  8
0
100
AcDbLine
 62
7
  6
CONTINUOUS
 10
119.0311102946
 20
238.730702691
 11
124.0311102946
 21
238.730702691
  0
LINE
  5
2B8
100
AcDbEntity
  8
0
100
AcDbLine
 62
7
  6
CONTINUOUS
 10
126.6311102946
 20
238.8090955675
 11
125.3311102946
 21
238.8090955675
  0
LINE
  5
2B9
100
AcDbEntity
  8
0
100
AcDbLine
 62
7
  6
CONTINUOUS
 10
117.7311102946
 20
238.8090955675
 11
115.3311102946
 21
238.8090955675
  0
LINE
  5
2BA
100
AcDbEntity
  8
0
100
AcDbLine
 62
7
  6
CONTINUOUS
 10
107.7311102946
 20
238.8090955675
 11
106.6311102946
 21
238.8090955675
  0
LINE
  5
2BB
100
AcDbEntity
  8
0
100
AcDbLine
 62
7
  6
CONTINUOUS
 10
134.7311102946
 20
210.8615500222
 11
134.7311102953
 21
218.2494615636
  0
LINE
  5
2BC
100
AcDbEntity
  8
0
100
AcDbLine
 62
7
  6
CONTINUOUS
 10
134.7311102953
 20
234.7687295715
 11
134.7311102946
 21
242.1566411128
  0
LINE
  5
2BD
100
AcDbEntity
  8
0
100
AcDbLine
 62
7
  6
CONTINUOUS
 10
135.2811102946
 20
228.5090955675
 11
135.2811102946
 21
224.5090955675
  0
LINE
  5
2BE
100
AcDbEntity
  8
0
100
AcDbLine
 62
7
  6
CONTINUOUS
 10
135.4311102946
 20
228.6590955675
 11
135.4311102946
 21
224.3590955675
  0
LINE
  5
2BF
100
AcDbEntity
  8
0
100
AcDbLine
 62
7
  6
CONTINUOUS
 10
135.7811102946
 20
249.4419399417
 11
135.7811102946
 21
242.1566663922
  0
LINE
  5
2C0
100
AcDbEntity
  8
0
100
AcDbLine
 62
7
  6
CONTINUOUS
 10
135.7811102946
 20
203.5762329443
 11
135.7811102946
 21
210.8615244837
  0
LINE
  5
2C1
100
AcDbEntity
  8
0
100
AcDbLine
 62
7
  6
CONTINUOUS
 10
134.7129406013
 20
239.7106355242
 11
134.5311102946
 21
239.7106355242
  0
LINE
  5
2C2
100
AcDbEntity
  8
0
100
AcDbLine
 62
7
  6
CONTINUOUS
 10
128.5311102946
 20
239.7106355242
 11
127.6311102946
 21
239.7106355242
  0
LINE
  5
2C3
100
AcDbEntity
  8
0
100
AcDbLine
 62
7
  6
CONTINUOUS
 10
119.0311102946
 20
240.3090955673
 11
124.0311102946
 21
240.3090955673
  0
LINE
  5
2C4
100
AcDbEntity
  8
0
100
AcDbLine
 62
9
  6
CONTINUOUS
 10
126.6311102946
 20
241.1453042206
 11
127.6311102946
 21
241.1453042206
  0
LINE
  5
2C5
100
AcDbEntity
  8
0
100
AcDbLine
 62
9
  6
CONTINUOUS
 10
134.7311102953
 20
241.1453042201
 11
136.4311102946
 21
241.1453042201
  0
LINE
  5
2C6
100
AcDbEntity
  8
0
100
AcDbLine
 62
7
  6
CONTINUOUS
 10
136.4311102946
 20
247.5029498482
 11
136.4311102946
 21
205.3100292668
  0
LINE
  5
2C7
100
AcDbEntity
  8
0
100
AcDbLine
 62
9
  6
CONTINUOUS
 10
128.5311102946
 20
242.4566411128
 11
128.2512802097
 21
242.4564612305
  0
LINE
  5
2C8
100
AcDbEntity
  8
0
100
AcDbLine
 62
7
  6
CONTINUOUS
 10
125.3311102946
 20
241.7090955675
 11
117.7311102949
 21
241.7090955675
  0
LINE
  5
2C9
100
AcDbEntity
  8
0
100
AcDbLine
 62
7
  6
CONTINUOUS
 10
126.6311102946
 20
241.8090955681
 11
125.3311102953
 21
241.8090955681
  0
LINE
  5
2CA
100
AcDbEntity
  8
0
100
AcDbLine
 62
7
  6
CONTINUOUS
 10
117.7311102938
 20
241.8090955668
 11
115.3311102953
 21
241.8090955668
  0
LINE
  5
2CB
100
AcDbEntity
  8
0
100
AcDbLine
 62
9
  6
CONTINUOUS
 10
127.6311102946
 20
242.0594557518
 11
128.5311102946
 21
242.0594557518
  0
LINE
  5
2CC
100
AcDbEntity
  8
0
100
AcDbLine
 62
9
  6
CONTINUOUS
 10
134.5311102946
 20
242.0594557517
 11
134.7311102946
 21
242.0594557517
  0
LINE
  5
2CD
100
AcDbEntity
  8
0
100
AcDbLine
 62
9
  6
CONTINUOUS
 10
136.4311102946
 20
242.0849968414
 11
134.7311102953
 21
242.0849968414
  0
LINE
  5
2CE
100
AcDbEntity
  8
0
100
AcDbLine
 62
9
  6
CONTINUOUS
 10
127.6311102946
 20
242.0849968414
 11
126.6311102946
 21
242.0849968414
  0
LINE
  5
2CF
100
AcDbEntity
  8
0
100
AcDbLine
 62
7
  6
CONTINUOUS
 10
127.2811102946
 20
242.1566411128
 11
128.5311102946
 21
242.1566411128
  0
LINE
  5
2D0
100
AcDbEntity
  8
0
100
AcDbLine
 62
7
  6
CONTINUOUS
 10
134.5311102946
 20
242.1566411128
 11
135.7811102946
 21
242.1566411128
  0
LINE
  5
2D1
100
AcDbEntity
  8
0
100
AcDbLine
 62
9
  6
CONTINUOUS
 10
135.7811102946
 20
242.4566411123
 11
134.8311102953
 21
242.4566411123
  0
LINE
  5
2D2
100
AcDbEntity
  8
0
100
AcDbLine
 62
9
  6
CONTINUOUS
 10
128.2311102938
 20
242.4566411123
 11
127.2811102946
 21
242.4566411123
  0
LINE
  5
2D3
100
AcDbEntity
  8
0
100
AcDbLine
 62
9
  6
CONTINUOUS
 10
134.8109153759
 20
242.4564603509
 11
134.5311102946
 21
242.4566411128
  0
LINE
  5
2D4
100
AcDbEntity
  8
0
100
AcDbLine
 62
7
  6
CONTINUOUS
 10
124.8833554085
 20
208.4913053646
 11
125.2181763451
 21
208.681962928
  0
LINE
  5
2D5
100
AcDbEntity
  8
0
100
AcDbLine
 62
7
  6
CONTINUOUS
 10
126.6311102946
 20
243.9633920149
 11
127.2811102946
 21
243.9633920149
  0
LINE
  5
2D6
100
AcDbEntity
  8
0
100
AcDbLine
 62
7
  6
CONTINUOUS
 10
135.7811102946
 20
243.9633920149
 11
136.4311102946
 21
243.9633920149
  0
LINE
  5
2D7
100
AcDbEntity
  8
0
100
AcDbLine
 62
7
  6
CONTINUOUS
 10
107.7311102946
 20
244.1079848676
 11
115.3311102942
 21
244.1079848676
  0
LINE
  5
2D8
100
AcDbEntity
  8
0
100
AcDbLine
 62
7
  6
CONTINUOUS
 10
115.3311102943
 20
244.1090955682
 11
117.7311102946
 21
244.1090955682
  0
LINE
  5
2D9
100
AcDbEntity
  8
0
100
AcDbLine
 62
7
  6
CONTINUOUS
 10
125.3311102943
 20
244.1090955682
 11
126.6311102946
 21
244.1090955682
  0
LINE
  5
2DA
100
AcDbEntity
  8
0
100
AcDbLine
 62
7
  6
CONTINUOUS
 10
125.3311102946
 20
244.2090955676
 11
117.7311102949
 21
244.2090955676
  0
LINE
  5
2DB
100
AcDbEntity
  8
0
100
AcDbLine
 62
7
  6
CONTINUOUS
 10
124.4311102938
 20
244.7083022373
 11
118.6311102949
 21
244.7083022373
  0
LINE
  5
2DC
100
AcDbEntity
  8
0
100
AcDbLine
 62
9
  6
CONTINUOUS
 10
126.6311102946
 20
244.8561000049
 11
127.2811102946
 21
244.8561000046
  0
LINE
  5
2DD
100
AcDbEntity
  8
0
100
AcDbLine
 62
9
  6
CONTINUOUS
 10
135.7811102946
 20
244.856100004
 11
136.4311102946
 21
244.856100004
  0
LINE
  5
2DE
100
AcDbEntity
  8
0
100
AcDbLine
 62
7
  6
CONTINUOUS
 10
121.5311102945
 20
245.7931478242
 11
118.6311102946
 21
245.1717192528
  0
LINE
  5
2DF
100
AcDbEntity
  8
0
100
AcDbLine
 62
9
  6
CONTINUOUS
 10
107.7743105472
 20
245.5224930271
 11
115.3311102942
 21
245.5224930271
  0
LINE
  5
2E0
100
AcDbEntity
  8
0
100
AcDbLine
 62
9
  6
CONTINUOUS
 10
117.7311102946
 20
245.5315291843
 11
118.6311102949
 21
245.5315291843
  0
LINE
  5
2E1
100
AcDbEntity
  8
0
100
AcDbLine
 62
9
  6
CONTINUOUS
 10
124.4311102938
 20
245.5315291843
 11
125.3311102942
 21
245.5315291843
  0
LINE
  5
2E2
100
AcDbEntity
  8
0
100
AcDbLine
 62
9
  6
CONTINUOUS
 10
115.3311102943
 20
245.7823006478
 11
107.8963116326
 21
245.7823006478
  0
LINE
  5
2E3
100
AcDbEntity
  8
0
100
AcDbLine
 62
9
  6
CONTINUOUS
 10
125.3311102943
 20
245.807703719
 11
124.4311102939
 21
245.807703719
  0
LINE
  5
2E4
100
AcDbEntity
  8
0
100
AcDbLine
 62
9
  6
CONTINUOUS
 10
118.631110295
 20
245.807703719
 11
117.7311102946
 21
245.807703719
  0
LINE
  5
2E5
100
AcDbEntity
  8
0
100
AcDbLine
 62
9
  6
CONTINUOUS
 10
136.4311102946
 20
245.8814702159
 11
135.7811102946
 21
245.8814702159
  0
LINE
  5
2E6
100
AcDbEntity
  8
0
100
AcDbLine
 62
9
  6
CONTINUOUS
 10
127.2811102946
 20
245.881470216
 11
126.6311102946
 21
245.8814702158
  0
LINE
  5
2E7
100
AcDbEntity
  8
0
100
AcDbLine
 62
7
  6
CONTINUOUS
 10
118.9311102946
 20
246.3090955668
 11
120.3556954738
 21
246.3090955675
  0
LINE
  5
2E8
100
AcDbEntity
  8
0
100
AcDbLine
 62
7
  6
CONTINUOUS
 10
122.7065251137
 20
246.3090955675
 11
124.1311102938
 21
246.3090955668
  0
LINE
  5
2E9
100
AcDbEntity
  8
0
100
AcDbLine
 62
7
  6
CONTINUOUS
 10
124.4311102946
 20
245.1717192528
 11
121.5311102945
 21
245.7931478242
  0
LINE
  5
2EA
100
AcDbEntity
  8
0
100
AcDbLine
 62
7
  6
CONTINUOUS
 10
123.237902467
 20
247.2090840833
 11
124.1311102953
 21
247.2090955678
  0
LINE
  5
2EB
100
AcDbEntity
  8
0
100
AcDbLine
 62
7
  6
CONTINUOUS
 10
118.9311102939
 20
247.2090955679
 11
119.8243255805
 21
247.2090847356
  0
LINE
  5
2EC
100
AcDbEntity
  8
0
100
AcDbLine
 62
9
  6
CONTINUOUS
 10
126.6311102946
 20
247.4547628752
 11
127.2811102946
 21
247.4547628752
  0
LINE
  5
2ED
100
AcDbEntity
  8
0
100
AcDbLine
 62
9
  6
CONTINUOUS
 10
135.7811102946
 20
247.4547628754
 11
136.4311102946
 21
247.4547628754
  0
LINE
  5
2EE
100
AcDbEntity
  8
0
100
AcDbLine
 62
7
  6
CONTINUOUS
 10
127.2811102946
 20
247.5029930467
 11
126.6311102946
 21
247.5029930467
  0
LINE
  5
2EF
100
AcDbEntity
  8
0
100
AcDbLine
 62
7
  6
CONTINUOUS
 10
135.7811102946
 20
247.5030087787
 11
136.4311102946
 21
247.5030087787
  0
LINE
  5
2F0
100
AcDbEntity
  8
0
100
AcDbLine
 62
7
  6
CONTINUOUS
 10
127.2811102946
 20
247.6090955682
 11
126.044700882
 21
247.6090955682
  0
LINE
  5
2F1
100
AcDbEntity
  8
0
100
AcDbLine
 62
7
  6
CONTINUOUS
 10
117.0175197062
 20
247.6090955682
 11
111.1167509401
 21
247.6090955682
  0
LINE
  5
2F2
100
AcDbEntity
  8
0
100
AcDbLine
 62
9
  6
CONTINUOUS
 10
127.2811102946
 20
248.2838197463
 11
135.7811102946
 21
248.2838197463
  0
LINE
  5
2F3
100
AcDbEntity
  8
0
100
AcDbLine
 62
7
  6
CONTINUOUS
 10
135.7811102946
 20
249.4419581906
 11
127.2811102946
 21
249.4419581906
  0
ARC
  5
2F4
100
AcDbEntity
  8
0
100
AcDbCircle
 62
7
  6
CONTINUOUS
 10
121.5311102946
 20
201.8090955675
 40
7.8
100
AcDbArc
 50
50.2848627645
 51
129.7151372328
  0
ARC
  5
2F5
100
AcDbEntity
  8
0
100
AcDbCircle
 62
7
  6
CONTINUOUS
 10
121.5311102946
 20
218.8090955675
 40
1.85
100
AcDbArc
 50
309.7753754303
 51
332.7540555641
  0
ARC
  5
2F6
100
AcDbEntity
  8
0
100
AcDbCircle
 62
7
  6
CONTINUOUS
 10
121.5311102946
 20
218.8090955675
 40
1.85
100
AcDbArc
 50
207.2449881557
 51
230.2246245697
  0
ARC
  5
2F7
100
AcDbEntity
  8
0
100
AcDbCircle
 62
7
  6
CONTINUOUS
 10
121.5311102946
 20
218.8090955675
 40
1.85
100
AcDbArc
 50
333.1119523806
 51
342.4016743264
  0
ARC
  5
2F8
100
AcDbEntity
  8
0
100
AcDbCircle
 62
7
  6
CONTINUOUS
 10
121.5311102946
 20
218.8090955675
 40
1.85
100
AcDbArc
 50
197.5982888107
 51
206.8880476194
  0
ARC
  5
2F9
100
AcDbEntity
  8
0
100
AcDbCircle
 62
7
  6
CONTINUOUS
 10
121.5311102946
 20
226.3090955675
 40
10.15
100
AcDbArc
 50
12.5285076676
 51
13.3878259368
  0
ARC
  5
2FA
100
AcDbEntity
  8
0
100
AcDbCircle
 62
7
  6
CONTINUOUS
 10
121.5311102946
 20
226.3090955675
 40
10.15
100
AcDbArc
 50
66.7908511438
 51
113.2091488561
  0
ARC
  5
2FB
100
AcDbEntity
  8
0
100
AcDbCircle
 62
7
  6
CONTINUOUS
 10
121.5311102946
 20
226.3090978023
 40
10.1499998469
100
AcDbArc
 50
348.9161856648
 51
349.7809046062
  0
ARC
  5
2FC
100
AcDbEntity
  8
0
100
AcDbCircle
 62
7
  6
CONTINUOUS
 10
121.5311102946
 20
226.3090978023
 40
10.1499998469
100
AcDbArc
 50
279.3547844529
 51
286.6015498567
  0
ARC
  5
2FD
100
AcDbEntity
  8
0
100
AcDbCircle
 62
7
  6
CONTINUOUS
 10
121.5311102946
 20
226.3090978023
 40
10.1499998469
100
AcDbArc
 50
141.6334857441
 51
194.2590062669
  0
ARC
  5
2FE
100
AcDbEntity
  8
0
100
AcDbCircle
 62
7
  6
CONTINUOUS
 10
121.5311102946
 20
226.3090978023
 40
10.1499998469
100
AcDbArc
 50
253.3984501433
 51
260.6434272758
  0
ARC
  5
2FF
100
AcDbEntity
  8
0
100
AcDbCircle
 62
7
  6
CONTINUOUS
 10
121.5311102946
 20
226.3090955675
 40
9.0
100
AcDbArc
 50
262.4431291443
 51
277.5568708557
  0
ARC
  5
300
100
AcDbEntity
  8
0
100
AcDbCircle
 62
7
  6
CONTINUOUS
 10
121.5311102946
 20
226.3090955675
 40
8.25
100
AcDbArc
 50
51.7935793525
 51
60.9974539733
  0
ARC
  5
301
100
AcDbEntity
  8
0
100
AcDbCircle
 62
7
  6
CONTINUOUS
 10
121.5311102946
 20
226.3090955675
 40
8.25
100
AcDbArc
 50
119.0025460267
 51
130.2141710174
  0
ARC
  5
302
100
AcDbEntity
  8
0
100
AcDbCircle
 62
7
  6
CONTINUOUS
 10
121.5311102946
 20
226.309313387
 40
8.2499569422
100
AcDbArc
 50
281.5382118674
 51
308.1904209495
  0
ARC
  5
303
100
AcDbEntity
  8
0
100
AcDbCircle
 62
7
  6
CONTINUOUS
 10
121.5311102946
 20
226.309313387
 40
8.2499569422
100
AcDbArc
 50
197.6397013943
 51
258.4617881326
  0
ARC
  5
304
100
AcDbEntity
  8
0
100
AcDbCircle
 62
7
  6
CONTINUOUS
 10
121.5311102946
 20
243.3090955675
 40
5.75
100
AcDbArc
 50
54.3645573913
 51
125.6354444168
  0
ARC
  5
305
100
AcDbEntity
  8
0
100
AcDbCircle
 62
7
  6
CONTINUOUS
 10
117.0175197061
 20
249.6090955675
 40
2.0
100
AcDbArc
 50
270.0000000023
 51
305.5734192111
  0
ARC
  5
306
100
AcDbEntity
  8
0
100
AcDbCircle
 62
7
  6
CONTINUOUS
 10
108.7311102946
 20
245.2317452983
 40
1.0
100
AcDbArc
 50
120.0000002384
 51
180.0000000458
  0
ARC
  5
307
100
AcDbEntity
  8
0
100
AcDbCircle
 62
7
  6
CONTINUOUS
 10
111.1167509407
 20
246.6090955675
 40
1.0
100
AcDbArc
 50
90.0000000344
 51
120.0000002943
  0
ARC
  5
308
100
AcDbEntity
  8
0
100
AcDbCircle
 62
7
  6
CONTINUOUS
 10
118.9311102946
 20
246.0090955675
 40
0.3
100
AcDbArc
 50
90.0
 51
179.9999999236
  0
ARC
  5
309
100
AcDbEntity
  8
0
100
AcDbCircle
 62
7
  6
CONTINUOUS
 10
134.265001687
 20
213.5402166419
 40
0.4440556658
100
AcDbArc
 50
328.2337187382
 51
331.893931814
  0
ARC
  5
30A
100
AcDbEntity
  8
0
100
AcDbCircle
 62
7
  6
CONTINUOUS
 10
135.5853873457
 20
206.2645700175
 40
0.2457229488
100
AcDbArc
 50
358.6415140981
 51
359.9998918011
  0
ARC
  5
30B
100
AcDbEntity
  8
0
100
AcDbCircle
 62
7
  6
CONTINUOUS
 10
126.044700883
 20
249.6090955675
 40
2.0
100
AcDbArc
 50
234.4265755904
 51
269.9999999704
  0
ARC
  5
30C
100
AcDbEntity
  8
0
100
AcDbCircle
 62
7
  6
CONTINUOUS
 10
133.3673324445
 20
239.4793709403
 40
1.3653368153
100
AcDbArc
 50
9.7519361659
 51
11.2525950885
  0
ARC
  5
30D
100
AcDbEntity
  8
0
100
AcDbCircle
 62
7
  6
CONTINUOUS
 10
134.2687968715
 20
239.4803209361
 40
0.4397319491
100
AcDbArc
 50
28.0736694506
 51
31.757262742
  0
ARC
  5
30E
100
AcDbEntity
  8
0
100
AcDbCircle
 62
7
  6
CONTINUOUS
 10
135.4749086064
 20
246.7100763997
 40
0.3653688655
100
AcDbArc
 50
29.8512862791
 51
32.1301577017
  0
ARC
  5
30F
100
AcDbEntity
  8
0
100
AcDbCircle
 62
7
  6
CONTINUOUS
 10
124.1311102946
 20
246.0090955675
 40
0.3
100
AcDbArc
 50
0.0000000191
 51
90.0
  0
ARC
  5
310
100
AcDbEntity
  8
0
100
AcDbCircle
 62
7
  6
CONTINUOUS
 10
135.5824882785
 20
246.7534340465
 40
0.2486220872
100
AcDbArc
 50
0.0432180318
 51
9.5478050253
  0
SPLINE
  5
311
100
AcDbEntity
  8
0
100
AcDbSpline
 62
7
  6
CONTINUOUS
 70
0
 71
3
 72
9
 73
5
 74
0
 42
0.0000001
 43
0.0000001
 44
0.0000000001
 40
0.0
 40
0.0
 40
0.0
 40
0.0
 40
0.4808489298
 40
1.0
 40
1.0
 40
1.0
 40
1.0
 10
135.8311102949
 20
246.7536215814
 30
0.0
 10
135.8311102949
 20
246.7280619171
 30
0.0
 10
135.8224768687
 20
246.6746472307
 30
0.0
 10
135.7989901485
 20
246.6262195173
 30
0.0
 10
135.7843183444
 20
246.6028473817
 30
0.0
  0
SPLINE
  5
312
100
AcDbEntity
  8
0
100
AcDbSpline
 62
7
  6
CONTINUOUS
 70
0
 71
3
 72
9
 73
5
 74
0
 42
0.0000001
 43
0.0000001
 44
0.0000000001
 40
0.0
 40
0.0
 40
0.0
 40
0.0
 40
0.5191510701
 40
1.0
 40
1.0
 40
1.0
 40
1.0
 10
135.7843183443
 20
206.4153437527
 30
0.0
 10
135.7989901483
 20
206.3919716171
 30
0.0
 10
135.8224768683
 20
206.3435439039
 30
0.0
 10
135.8311102944
 20
206.2901292177
 30
0.0
 10
135.8311102944
 20
206.2645695535
 30
0.0
  0
SPLINE
  5
313
100
AcDbEntity
  8
0
100
AcDbSpline
 62
7
  6
CONTINUOUS
 70
0
 71
3
 72
9
 73
5
 74
0
 42
0.0000001
 43
0.0000001
 44
0.0000000001
 40
0.0
 40
0.0
 40
0.0
 40
0.0
 40
0.2495820641
 40
1.0
 40
1.0
 40
1.0
 40
1.0
 10
134.6566929659
 20
213.3310196622
 30
0.0
 10
134.6713245509
 20
213.3583767162
 30
0.0
 10
134.7188925182
 20
213.4739791593
 30
0.0
 10
134.7311102946
 20
213.6007088066
 30
0.0
 10
134.7311102946
 20
213.6939887612
 30
0.0
  0
SPLINE
  5
314
100
AcDbEntity
  8
0
100
AcDbSpline
 62
7
  6
CONTINUOUS
 70
0
 71
3
 72
13
 73
9
 74
0
 42
0.0000001
 43
0.0000001
 44
0.0000000001
 40
0.0
 40
0.0
 40
0.0
 40
0.0
 40
0.2343206373
 40
0.4728743369
 40
0.5962119032
 40
0.724136978
 40
0.8586648495
 40
1.0
 40
1.0
 40
1.0
 40
1.0
 10
134.7311102946
 20
217.7902728249
 30
0.0
 10
134.7311102946
 20
217.835173713
 30
0.0
 10
134.7211961339
 20
217.9260483435
 30
0.0
 10
134.6820213903
 20
218.0349800607
 30
0.0
 10
134.6306552062
 20
218.1140114257
 30
0.0
 10
134.5788858466
 20
218.1677120001
 30
0.0
 10
134.5114042004
 20
218.2076820463
 30
0.0
 10
134.4581931578
 20
218.218717227
 30
0.0
 10
134.4311102946
 20
218.218717227
 30
0.0
  0
SPLINE
  5
315
100
AcDbEntity
  8
0
100
AcDbSpline
 62
7
  6
CONTINUOUS
 70
0
 71
3
 72
9
 73
5
 74
0
 42
0.0000001
 43
0.0000001
 44
0.0000000001
 40
0.0
 40
0.0
 40
0.0
 40
0.0
 40
0.2495993686
 40
1.0
 40
1.0
 40
1.0
 40
1.0
 10
134.6567913792
 20
239.6872616258
 30
0.0
 10
134.6714105783
 20
239.6598905798
 30
0.0
 10
134.7188065424
 20
239.5441999744
 30
0.0
 10
134.7311102946
 20
239.4174926749
 30
0.0
 10
134.7311102946
 20
239.3242017915
 30
0.0
  0
SPLINE
  5
316
100
AcDbEntity
  8
0
100
AcDbSpline
 62
7
  6
CONTINUOUS
 70
0
 71
3
 72
13
 73
9
 74
0
 42
0.0000001
 43
0.0000001
 44
0.0000000001
 40
0.0
 40
0.0
 40
0.0
 40
0.0
 40
0.2343545927
 40
0.4728598992
 40
0.5961214238
 40
0.723971704
 40
0.858696479
 40
1.0
 40
1.0
 40
1.0
 40
1.0
 10
134.7311102946
 20
235.22791831
 30
0.0
 10
134.7311102946
 20
235.1830104613
 30
0.0
 10
134.721217376
 20
235.0921263289
 30
0.0
 10
134.6819871568
 20
234.9832508537
 30
0.0
 10
134.6306780563
 20
234.9041985382
 30
0.0
 10
134.5787707174
 20
234.8506753694
 30
0.0
 10
134.5115223927
 20
234.8102311476
 30
0.0
 10
134.4581873707
 20
234.7994739079
 30
0.0
 10
134.4311102946
 20
234.7994739079
 30
0.0
  0
LINE
  5
317
100
AcDbEntity
  8
0
100
AcDbLine
 62
9
  6
CONTINUOUS
 10
128.2512802097
 20
242.4564612305
 11
128.2311102938
 21
242.4566411123
  0
LINE
  5
318
100
AcDbEntity
  8
0
100
AcDbLine
 62
9
  6
CONTINUOUS
 10
134.8109153759
 20
242.4564603509
 11
134.8245419745
 21
242.4566028877
  0
LINE
  5
319
100
AcDbEntity
  8
0
100
AcDbLine
 62
9
  6
CONTINUOUS
 10
134.8245419745
 20
242.4566028877
 11
134.8311089784
 21
242.4566031861
  0
SPLINE
  5
31A
100
AcDbEntity
  8
0
100
AcDbSpline
 62
7
  6
CONTINUOUS
 70
0
 71
3
 72
9
 73
5
 74
0
 42
0.0000001
 43
0.0000001
 44
0.0000000001
 40
0.0
 40
0.0
 40
0.0
 40
0.0
 40
0.230792007
 40
1.0
 40
1.0
 40
1.0
 40
1.0
 10
134.6648839309
 20
234.9571594575
 30
0.0
 10
134.650387472
 20
234.9445804734
 30
0.0
 10
134.5812728322
 20
234.8974093265
 30
0.0
 10
134.4950793482
 20
234.8789599213
 30
0.0
 10
134.4311102892
 20
234.8789599213
 30
0.0
  0
LINE
  5
31B
100
AcDbEntity
  8
0
100
AcDbLine
 62
9
  6
CONTINUOUS
 10
134.8109403794
 20
210.5617299045
 11
134.8311102953
 21
210.5615500227
  0
SPLINE
  5
31C
100
AcDbEntity
  8
0
100
AcDbSpline
 62
7
  6
CONTINUOUS
 70
0
 71
3
 72
8
 73
4
 74
0
 42
0.0000001
 43
0.0000001
 44
0.0000000001
 40
0.0
 40
0.0
 40
0.0
 40
0.0
 40
1.0
 40
1.0
 40
1.0
 40
1.0
 10
135.831041229
 20
206.2587444595
 30
0.0
 10
135.8306300534
 20
206.2414051095
 30
0.0
 10
135.8283306654
 20
206.2240261579
 30
0.0
 10
135.8243603736
 20
206.2071424702
 30
0.0
  0
SPLINE
  5
31D
100
AcDbEntity
  8
0
100
AcDbSpline
 62
7
  6
CONTINUOUS
 70
0
 71
3
 72
9
 73
5
 74
0
 42
0.0000001
 43
0.0000001
 44
0.0000000001
 40
0.0
 40
0.0
 40
0.0
 40
0.0
 40
0.2410740534
 40
1.0
 40
1.0
 40
1.0
 40
1.0
 10
135.8243603736
 20
206.2071424702
 30
0.0
 10
135.8227144165
 20
206.2001430282
 30
0.0
 10
135.8147053934
 20
206.1713889568
 30
0.0
 10
135.8020957459
 20
206.1440017678
 30
0.0
 10
135.7907246361
 20
206.1244291611
 30
0.0
  0
SPLINE
  5
31E
100
AcDbEntity
  8
0
100
AcDbSpline
 62
7
  6
CONTINUOUS
 70
0
 71
3
 72
10
 73
6
 74
0
 42
0.0000001
 43
0.0000001
 44
0.0000000001
 40
0.0
 40
0.0
 40
0.0
 40
0.0
 40
0.4996637952
 40
0.7499410802
 40
1.0
 40
1.0
 40
1.0
 40
1.0
 10
134.70642263
 20
239.7457955908
 30
0.0
 10
134.6936461683
 20
239.8098776815
 30
0.0
 10
134.6665324668
 20
239.9055423496
 30
0.0
 10
134.6026883745
 20
240.0200546396
 30
0.0
 10
134.559122287
 20
240.070507368
 30
0.0
 10
134.5331733468
 20
240.0904079065
 30
0.0
  0
SPLINE
  5
31F
100
AcDbEntity
  8
0
100
AcDbSpline
 62
7
  6
CONTINUOUS
 70
0
 71
3
 72
12
 73
8
 74
0
 42
0.0000001
 43
0.0000001
 44
0.0000000001
 40
0.0
 40
0.0
 40
0.0
 40
0.0
 40
0.3745206679
 40
0.6738133379
 40
0.7889534431
 40
0.8800537404
 40
1.0
 40
1.0
 40
1.0
 40
1.0
 10
134.5315905627
 20
240.1237655476
 30
0.0
 10
134.5589633637
 20
240.1213168168
 30
0.0
 10
134.6080833407
 20
240.1149419682
 30
0.0
 10
134.6645416135
 20
240.1016215594
 30
0.0
 10
134.6991091636
 20
240.0872535253
 30
0.0
 10
134.7193967565
 20
240.0755749173
 30
0.0
 10
134.7311102946
 20
240.0617030925
 30
0.0
 10
134.7311102946
 20
240.0529015045
 30
0.0
  0
LINE
  5
320
100
AcDbEntity
  8
0
100
AcDbLine
 62
9
  6
CONTINUOUS
 10
128.2513052133
 20
210.5617307841
 11
128.2376786147
 21
210.5615882473
  0
SPLINE
  5
321
100
AcDbEntity
  8
0
100
AcDbSpline
 62
7
  6
CONTINUOUS
 70
0
 71
3
 72
11
 73
7
 74
0
 42
0.0000001
 43
0.0000001
 44
0.0000000001
 40
0.0
 40
0.0
 40
0.0
 40
0.0
 40
0.2498115206
 40
0.4997357463
 40
0.7498318912
 40
1.0
 40
1.0
 40
1.0
 40
1.0
 10
134.4311102921
 20
234.4494762401
 30
0.0
 10
134.4713690599
 20
234.4494762401
 30
0.0
 10
134.5530189359
 20
234.4669877057
 30
0.0
 10
134.6524907059
 20
234.5412702258
 30
0.0
 10
134.7165494958
 20
234.6470173262
 30
0.0
 10
134.7311102953
 20
234.7284133373
 30
0.0
 10
134.7311102953
 20
234.7687295715
 30
0.0
  0
LINE
  5
322
100
AcDbEntity
  8
0
100
AcDbLine
 62
9
  6
CONTINUOUS
 10
128.2376786147
 20
210.5615882473
 11
128.2311116107
 21
210.5615879488
  0
SPLINE
  5
323
100
AcDbEntity
  8
0
100
AcDbSpline
 62
7
  6
CONTINUOUS
 70
0
 71
3
 72
9
 73
5
 74
0
 42
0.0000001
 43
0.0000001
 44
0.0000000001
 40
0.0
 40
0.0
 40
0.0
 40
0.0
 40
0.261994812
 40
1.0
 40
1.0
 40
1.0
 40
1.0
 10
135.7918004248
 20
246.8919389393
 30
0.0
 10
135.7963182009
 20
246.8840630068
 30
0.0
 10
135.8124078798
 20
246.8533713475
 30
0.0
 10
135.8234357954
 20
246.8198970723
 30
0.0
 10
135.8276663406
 20
246.7946731067
 30
0.0
  0
SPLINE
  5
324
100
AcDbEntity
  8
0
100
AcDbSpline
 62
7
  6
CONTINUOUS
 70
0
 71
3
 72
12
 73
8
 74
0
 42
0.0000001
 43
0.0000001
 44
0.0000000001
 40
0.0
 40
0.0
 40
0.0
 40
0.0
 40
0.3744914222
 40
0.6737834862
 40
0.78887243
 40
0.8799351816
 40
1.0
 40
1.0
 40
1.0
 40
1.0
 10
134.5315905627
 20
212.8942698248
 30
0.0
 10
134.558968378
 20
212.896705234
 30
0.0
 10
134.6080884547
 20
212.903181169
 30
0.0
 10
134.6645310445
 20
212.9165662565
 30
0.0
 10
134.6991079988
 20
212.9309075944
 30
0.0
 10
134.7194134319
 20
212.9425810549
 30
0.0
 10
134.7311102946
 20
212.9564774338
 30
0.0
 10
134.7311102946
 20
212.9652896314
 30
0.0
  0
SPLINE
  5
325
100
AcDbEntity
  8
0
100
AcDbSpline
 62
7
  6
CONTINUOUS
 70
0
 71
3
 72
9
 73
5
 74
0
 42
0.0000001
 43
0.0000001
 44
0.0000000001
 40
0.0
 40
0.0
 40
0.0
 40
0.0
 40
0.2678886071
 40
1.0
 40
1.0
 40
1.0
 40
1.0
 10
134.4311102911
 20
218.1392312136
 30
0.0
 10
134.4533538253
 20
218.1392312136
 30
0.0
 10
134.5359656282
 20
218.1329218225
 30
0.0
 10
134.6188667538
 20
218.100925102
 30
0.0
 10
134.6647986802
 20
218.061105637
 30
0.0
  0
SPLINE
  5
326
100
AcDbEntity
  8
0
100
AcDbSpline
 62
7
  6
CONTINUOUS
 70
0
 71
3
 72
11
 73
7
 74
0
 42
0.0000001
 43
0.0000001
 44
0.0000000001
 40
0.0
 40
0.0
 40
0.0
 40
0.0
 40
0.2502661435
 40
0.5003421183
 40
0.7503197501
 40
1.0
 40
1.0
 40
1.0
 40
1.0
 10
134.7311102953
 20
218.2494615636
 30
0.0
 10
134.7311102953
 20
218.289792564
 30
0.0
 10
134.7165655247
 20
218.3712054521
 30
0.0
 10
134.6524490597
 20
218.4769479925
 30
0.0
 10
134.552970967
 20
218.551172932
 30
0.0
 10
134.4713468706
 20
218.5687148956
 30
0.0
 10
134.4311102883
 20
218.5687148956
 30
0.0
  0
SPLINE
  5
327
100
AcDbEntity
  8
0
100
AcDbSpline
 62
7
  6
CONTINUOUS
 70
0
 71
3
 72
9
 73
5
 74
0
 42
0.0000001
 43
0.0000001
 44
0.0000000001
 40
0.0
 40
0.0
 40
0.0
 40
0.0
 40
0.500073931
 40
1.0
 40
1.0
 40
1.0
 40
1.0
 10
120.3556954742
 20
246.3090955675
 30
0.0
 10
120.5317423654
 20
246.4152125547
 30
0.0
 10
120.91240392
 20
246.5841561
 30
0.0
 10
121.3256149427
 20
246.6420350533
 30
0.0
 10
121.5311102946
 20
246.6420350533
 30
0.0
  0
SPLINE
  5
328
100
AcDbEntity
  8
0
100
AcDbSpline
 62
7
  6
CONTINUOUS
 70
0
 71
3
 72
9
 73
5
 74
0
 42
0.0000001
 43
0.0000001
 44
0.0000000001
 40
0.0
 40
0.0
 40
0.0
 40
0.0
 40
0.49992853
 40
1.0
 40
1.0
 40
1.0
 40
1.0
 10
121.5311102946
 20
246.6420350533
 30
0.0
 10
121.7365885903
 20
246.6420350533
 30
0.0
 10
122.1496016394
 20
246.5833929237
 30
0.0
 10
122.5304945684
 20
246.4152027024
 30
0.0
 10
122.7065251149
 20
246.3090955675
 30
0.0
  0
SPLINE
  5
329
100
AcDbEntity
  8
0
100
AcDbSpline
 62
7
  6
CONTINUOUS
 70
0
 71
3
 72
11
 73
7
 74
0
 42
0.0000001
 43
0.0000001
 44
0.0000000001
 40
0.0
 40
0.0
 40
0.0
 40
0.0
 40
0.249958558
 40
0.4999387136
 40
0.7499635704
 40
1.0
 40
1.0
 40
1.0
 40
1.0
 10
121.5311102954
 20
247.9699420225
 30
0.0
 10
121.3713186151
 20
247.9699420225
 30
0.0
 10
121.0506630109
 20
247.9346910243
 30
0.0
 10
120.5930409901
 20
247.7806432987
 30
0.0
 10
120.1765819585
 20
247.5368975786
 30
0.0
 10
119.9346918547
 20
247.3247073041
 30
0.0
 10
119.8243255805
 20
247.2090847356
 30
0.0
  0
SPLINE
  5
32A
100
AcDbEntity
  8
0
100
AcDbSpline
 62
7
  6
CONTINUOUS
 70
0
 71
3
 72
13
 73
9
 74
0
 42
0.0000001
 43
0.0000001
 44
0.0000000001
 40
0.0
 40
0.0
 40
0.0
 40
0.0
 40
0.2497464527
 40
0.4992615968
 40
0.6243627152
 40
0.7497563022
 40
0.8748311664
 40
1.0
 40
1.0
 40
1.0
 40
1.0
 10
124.4311102939
 20
246.7848314982
 30
0.0
 10
124.4311102939
 20
246.8324058852
 30
0.0
 10
124.4199376017
 20
246.9278155982
 30
0.0
 10
124.3760881223
 20
247.0404353589
 30
0.0
 10
124.3198220867
 20
247.1178771225
 30
0.0
 10
124.2670880387
 20
247.1670909395
 30
0.0
 10
124.2030302652
 20
247.2012431651
 30
0.0
 10
124.1549537993
 20
247.2090955679
 30
0.0
 10
124.1311102953
 20
247.2090955678
 30
0.0
  0
SPLINE
  5
32B
100
AcDbEntity
  8
0
100
AcDbSpline
 62
7
  6
CONTINUOUS
 70
0
 71
3
 72
9
 73
5
 74
0
 42
0.0000001
 43
0.0000001
 44
0.0000000001
 40
0.0
 40
0.0
 40
0.0
 40
0.0
 40
0.2485190982
 40
1.0
 40
1.0
 40
1.0
 40
1.0
 10
119.5201520439
 20
246.3090965177
 30
0.0
 10
119.5415481165
 20
246.3848543612
 30
0.0
 10
119.6309639422
 20
246.6887240748
 30
0.0
 10
119.7353765313
 20
246.9883378135
 30
0.0
 10
119.8244359131
 20
247.2090901509
 30
0.0
  0
SPLINE
  5
32C
100
AcDbEntity
  8
0
100
AcDbSpline
 62
7
  6
CONTINUOUS
 70
0
 71
3
 72
12
 73
8
 74
0
 42
0.0000001
 43
0.0000001
 44
0.0000000001
 40
0.0
 40
0.0
 40
0.0
 40
0.0
 40
0.1253044498
 40
0.2506465558
 40
0.5000569785
 40
0.7499245616
 40
1.0
 40
1.0
 40
1.0
 40
1.0
 10
118.9311102939
 20
247.2090955679
 30
0.0
 10
118.9072755127
 20
247.2090955679
 30
0.0
 10
118.8592431027
 20
247.2008630282
 30
0.0
 10
118.7741123412
 20
247.1557577863
 30
0.0
 10
118.6946539703
 20
247.0622331456
 30
0.0
 10
118.6423474028
 20
246.9279532667
 30
0.0
 10
118.631110295
 20
246.8323995883
 30
0.0
 10
118.631110295
 20
246.7848314982
 30
0.0
  0
SPLINE
  5
32D
100
AcDbEntity
  8
0
100
AcDbSpline
 62
7
  6
CONTINUOUS
 70
0
 71
3
 72
9
 73
5
 74
0
 42
0.0000001
 43
0.0000001
 44
0.0000000001
 40
0.0
 40
0.0
 40
0.0
 40
0.0
 40
0.248524786
 40
1.0
 40
1.0
 40
1.0
 40
1.0
 10
123.5420687754
 20
246.3090965625
 30
0.0
 10
123.5206728485
 20
246.3848539682
 30
0.0
 10
123.4312049841
 20
246.6886981037
 30
0.0
 10
123.3269154219
 20
246.9883438795
 30
0.0
 10
123.2378632986
 20
247.2090898251
 30
0.0
  0
SPLINE
  5
32E
100
AcDbEntity
  8
0
100
AcDbSpline
 62
7
  6
CONTINUOUS
 70
0
 71
3
 72
11
 73
7
 74
0
 42
0.0000001
 43
0.0000001
 44
0.0000000001
 40
0.0
 40
0.0
 40
0.0
 40
0.0
 40
0.2500370321
 40
0.5000623288
 40
0.7500422719
 40
1.0
 40
1.0
 40
1.0
 40
1.0
 10
123.237902467
 20
247.2090840833
 30
0.0
 10
123.1275390578
 20
247.3247097264
 30
0.0
 10
122.8857300053
 20
247.5369955112
 30
0.0
 10
122.4691829547
 20
247.780634599
 30
0.0
 10
122.0115361144
 20
247.9345273942
 30
0.0
 10
121.6909013059
 20
247.9699420224
 30
0.0
 10
121.5311102954
 20
247.9699420225
 30
0.0
  0
ELLIPSE
  5
32F
100
AcDbEntity
  8
0
100
AcDbEllipse
 62
7
  6
CONTINUOUS
 10
134.4311102946
 20
213.5252896311
 30
0.0
 11
0.0
 21
0.635295207
 31
0.0
 40
0.4722214125
 41
-2.7946873408
 42
-1.9206165119
  0
ENDSEC
  0
SECTION
  2
OBJECTS
  0
DICTIONARY
  5
C
100
AcDbDictionary
280
0
281
1
  3
ACAD_GROUP
350
D
  3
ACAD_MLINESTYLE
350
17
  3
ACAD_LAYOUT
350
1A
  3
ACAD_PLOTSETTINGS
350
19
  3
ACAD_PLOTSTYLENAME
350
E
  0
DICTIONARY
  5
D
102
{ACAD_REACTORS
330
C
102
}
100
AcDbDictionary
280
0
281
1
  0
ACDBDICTIONARYWDFLT
  5
E
102
{ACAD_REACTORS
330
C
102
}
100
AcDbDictionary
281
1
  3
Normal
350
F
100
AcDbDictionaryWithDefault
340
F
  0
DICTIONARY
  5
17
102
{ACAD_REACTORS
330
C
102
}
100
AcDbDictionary
280
0
281
1
  3
Standard
350
18
  0
DICTIONARY
  5
19
102
{ACAD_REACTORS
330
C
102
}
100
AcDbDictionary
281
1
  0
DICTIONARY
  5
1A
102
{ACAD_REACTORS
330
C
102
}
100
AcDbDictionary
281
1
  3
Model
350
330
  3
Layout1
350
331
  0
ACDBPLACEHOLDER
  5
F
102
{ACAD_REACTORS
330
E
102
}
  0
MLINESTYLE
  5
18
102
{ACAD_REACTORS
330
17
102
}
100
AcDbMlineStyle
  2
STANDARD
 70
0
  3

 62
256
 51
90.0
 52
90.0
 71
2
 49
0.5
 62
256
  6
BYLAYER
 49
-0.5
 62
256
  6
BYLAYER
  0
LAYOUT
  5
330
102
{ACAD_REACTORS
330
1A
102
}
100
AcDbPlotSettings
  1

  2
none_device
  4
ANSI_C_(22.00_x_17.00_Inches)
  6

 40
0.0
 41
0.0
 42
0.0
 43
0.0
 44
558.8
 45
431.8
 46
0.0
 47
0.0
 48
0.0
 49
0.0
140
0.0
141
0.0
142
1.0
143
1.0
 70
1024
 72
1
 73
0
 74
0
  7

 75
0
147
1.0
148
0.0
149
0.0
100
AcDbLayout
  1
Model
 70
0
 71
0
 10
0.0
 20
0.0
 11
558.8
 21
431.8
 12
0.0
 22
0.0
 32
0.0
 14
0.0
 24
0.0
 34
0.0
 15
0.0
 25
0.0
 35
0.0
146
0.0
 13
0.0
 23
0.0
 33
0.0
 16
1.0
 26
0.0
 36
0.0
 17
0.0
 27
1.0
 37
0.0
 76
0
330
21A
345
0
346
0
  0
LAYOUT
  5
331
102
{ACAD_REACTORS
330
1A
102
}
100
AcDbPlotSettings
  1

  2
none_device
  4
ANSI_C_(22.00_x_17.00_Inches)
  6

 40
0.0
 41
0.0
 42
0.0
 43
0.0
 44
558.8
 45
431.8
 46
0.0
 47
0.0
 48
0.0
 49
0.0
140
0.0
141
0.0
142
1.0
143
1.0
 70
0
 72
1
 73
0
 74
0
  7

 75
0
147
1.0
148
0.0
149
0.0
100
AcDbLayout
  1
Layout1
 70
0
 71
1
 10
0.0
 20
0.0
 11
558.8
 21
431.8
 12
0.0
 22
0.0
 32
0.0
 14
0.0
 24
0.0
 34
0.0
 15
0.0
 25
0.0
 35
0.0
146
0.0
 13
0.0
 23
0.0
 33
0.0
 16
1.0
 26
0.0
 36
0.0
 17
0.0
 27
1.0
 37
0.0
 76
0
330
21B
345
0
346
0
  0
ENDSEC
  0
EOF
